  0
SECTION
  2
HEADER
  9
$ACADVER
  1
AC1015
  9
$ACADMAINTVER
 70
     6
  9
$DWGCODEPAGE
  3
ANSI_1250
  9
$INSBASE
 10
0.0
 20
0.0
 30
0.0
  9
$EXTMIN
 10
0.0
 20
0.0
 30
0.0
  9
$EXTMAX
 10
20000.0
 20
10000.0
 30
0.0
  9
$LIMMIN
 10
0.0
 20
0.0
  9
$LIMMAX
 10
20000.0
 20
10000.0
  9
$ORTHOMODE
 70
     0
  9
$REGENMODE
 70
     1
  9
$FILLMODE
 70
     1
  9
$QTEXTMODE
 70
     0
  9
$MIRRTEXT
 70
     1
  9
$LTSCALE
 40
1.0
  9
$ATTMODE
 70
     1
  9
$TEXTSIZE
 40
2.0
  9
$TRACEWID
 40
1.0
  9
$TEXTSTYLE
  7
Standard
  9
$CLAYER
  8
0
  9
$CELTYPE
  6
ByLayer
  9
$CECOLOR
 62
   256
  9
$CELTSCALE
 40
1.0
  9
$DISPSILH
 70
     0
  9
$DIMSCALE
 40
1.0
  9
$DIMASZ
 40
2.0
  9
$DIMEXO
 40
1.0
  9
$DIMDLI
 40
3.75
  9
$DIMRND
 40
0.0
  9
$DIMDLE
 40
0.0
  9
$DIMEXE
 40
1.0
  9
$DIMTP
 40
0.0
  9
$DIMTM
 40
0.0
  9
$DIMTXT
 40
2.0
  9
$DIMCEN
 40
2.5
  9
$DIMTSZ
 40
0.0
  9
$DIMTOL
 70
     0
  9
$DIMLIM
 70
     0
  9
$DIMTIH
 70
     1
  9
$DIMTOH
 70
     1
  9
$DIMSE1
 70
     0
  9
$DIMSE2
 70
     0
  9
$DIMTAD
 70
     1
  9
$DIMZIN
 70
     0
  9
$DIMBLK
  1

  9
$DIMASO
 70
     1
  9
$DIMSHO
 70
     1
  9
$DIMPOST
  1

  9
$DIMAPOST
  1

  9
$DIMALT
 70
     0
  9
$DIMALTD
 70
     3
  9
$DIMALTF
 40
0.0393700787
  9
$DIMLFAC
 40
1.0
  9
$DIMTOFL
 70
     1
  9
$DIMTVP
 40
0.0
  9
$DIMTIX
 70
     0
  9
$DIMSOXD
 70
     0
  9
$DIMSAH
 70
     0
  9
$DIMBLK1
  1

  9
$DIMBLK2
  1

  9
$DIMSTYLE
  2
ISO-25
  9
$DIMCLRD
 70
     0
  9
$DIMCLRE
 70
     0
  9
$DIMCLRT
 70
     0
  9
$DIMTFAC
 40
1.0
  9
$DIMGAP
 40
1.524
  9
$DIMJUST
 70
     0
  9
$DIMSD1
 70
     0
  9
$DIMSD2
 70
     0
  9
$DIMTOLJ
 70
     0
  9
$DIMTZIN
 70
     0
  9
$DIMALTZ
 70
     0
  9
$DIMALTTZ
 70
     0
  9
$DIMUPT
 70
     0
  9
$DIMDEC
 70
     2
  9
$DIMTDEC
 70
     0
  9
$DIMALTU
 70
     2
  9
$DIMALTTD
 70
     3
  9
$DIMTXSTY
  7
Standard
  9
$DIMAUNIT
 70
     0
  9
$DIMADEC
 70
     2
  9
$DIMALTRND
 40
0.0
  9
$DIMAZIN
 70
     0
  9
$DIMDSEP
 70
    44
  9
$DIMATFIT
 70
     3
  9
$DIMFRAC
 70
     0
  9
$DIMLDRBLK
  1

  9
$DIMLUNIT
 70
     2
  9
$DIMLWD
 70
    -2
  9
$DIMLWE
 70
    -2
  9
$DIMTMOVE
 70
     0
  9
$LUNITS
 70
     2
  9
$LUPREC
 70
     3
  9
$SKETCHINC
 40
1.0
  9
$FILLETRAD
 40
10.0
  9
$AUNITS
 70
     0
  9
$AUPREC
 70
     2
  9
$MENU
  1
.
  9
$ELEVATION
 40
0.0
  9
$PELEVATION
 40
0.0
  9
$THICKNESS
 40
0.0
  9
$LIMCHECK
 70
     0
  9
$CHAMFERA
 40
0.0
  9
$CHAMFERB
 40
0.0
  9
$CHAMFERC
 40
0.0
  9
$CHAMFERD
 40
0.0
  9
$SKPOLY
 70
     0
  9
$TDCREATE
 40
2459838.551213669
  9
$TDUCREATE
 40
2459838.467880336
  9
$TDUPDATE
 40
2459838.551214063
  9
$TDUUPDATE
 40
2459838.467880729
  9
$TDINDWG
 40
0.0000000116
  9
$TDUSRTIMER
 40
0.0000000116
  9
$USRTIMER
 70
     1
  9
$ANGBASE
 50
0.0
  9
$ANGDIR
 70
     0
  9
$PDMODE
 70
     0
  9
$PDSIZE
 40
-1.0
  9
$PLINEWID
 40
0.0
  9
$SPLFRAME
 70
     0
  9
$SPLINETYPE
 70
     6
  9
$SPLINESEGS
 70
     8
  9
$HANDSEED
  5
51A
  9
$SURFTAB1
 70
     6
  9
$SURFTAB2
 70
     6
  9
$SURFTYPE
 70
     6
  9
$SURFU
 70
     6
  9
$SURFV
 70
     6
  9
$UCSBASE
  2

  9
$UCSNAME
  2

  9
$UCSORG
 10
0.0
 20
0.0
 30
0.0
  9
$UCSXDIR
 10
1.0
 20
0.0
 30
0.0
  9
$UCSYDIR
 10
0.0
 20
1.0
 30
0.0
  9
$UCSORTHOREF
  2

  9
$UCSORTHOVIEW
 70
     0
  9
$UCSORGTOP
 10
0.0
 20
0.0
 30
0.0
  9
$UCSORGBOTTOM
 10
0.0
 20
0.0
 30
0.0
  9
$UCSORGLEFT
 10
0.0
 20
0.0
 30
0.0
  9
$UCSORGRIGHT
 10
0.0
 20
0.0
 30
0.0
  9
$UCSORGFRONT
 10
0.0
 20
0.0
 30
0.0
  9
$UCSORGBACK
 10
0.0
 20
0.0
 30
0.0
  9
$PUCSBASE
  2

  9
$PUCSNAME
  2

  9
$PUCSORG
 10
0.0
 20
0.0
 30
0.0
  9
$PUCSXDIR
 10
1.0
 20
0.0
 30
0.0
  9
$PUCSYDIR
 10
0.0
 20
1.0
 30
0.0
  9
$PUCSORTHOREF
  2

  9
$PUCSORTHOVIEW
 70
     0
  9
$PUCSORGTOP
 10
0.0
 20
0.0
 30
0.0
  9
$PUCSORGBOTTOM
 10
0.0
 20
0.0
 30
0.0
  9
$PUCSORGLEFT
 10
0.0
 20
0.0
 30
0.0
  9
$PUCSORGRIGHT
 10
0.0
 20
0.0
 30
0.0
  9
$PUCSORGFRONT
 10
0.0
 20
0.0
 30
0.0
  9
$PUCSORGBACK
 10
0.0
 20
0.0
 30
0.0
  9
$USERI1
 70
     0
  9
$USERI2
 70
     0
  9
$USERI3
 70
     0
  9
$USERI4
 70
     0
  9
$USERI5
 70
     0
  9
$USERR1
 40
0.0
  9
$USERR2
 40
0.0
  9
$USERR3
 40
0.0
  9
$USERR4
 40
0.0
  9
$USERR5
 40
0.0
  9
$WORLDVIEW
 70
     1
  9
$SHADEDGE
 70
     3
  9
$SHADEDIF
 70
    70
  9
$TILEMODE
 70
     1
  9
$MAXACTVP
 70
    64
  9
$PINSBASE
 10
0.0
 20
0.0
 30
0.0
  9
$PLIMCHECK
 70
     0
  9
$PEXTMIN
 10
1.0000000000E+20
 20
1.0000000000E+20
 30
1.0000000000E+20
  9
$PEXTMAX
 10
-1.0000000000E+20
 20
-1.0000000000E+20
 30
-1.0000000000E+20
  9
$PLIMMIN
 10
0.0
 20
0.0
  9
$PLIMMAX
 10
420.0
 20
297.0
  9
$UNITMODE
 70
     0
  9
$VISRETAIN
 70
     1
  9
$PLINEGEN
 70
     0
  9
$PSLTSCALE
 70
     1
  9
$TREEDEPTH
 70
  3020
  9
$CMLSTYLE
  2
Standard
  9
$CMLJUST
 70
     0
  9
$CMLSCALE
 40
20.0
  9
$PROXYGRAPHICS
 70
     1
  9
$MEASUREMENT
 70
     1
  9
$CELWEIGHT
370
    -1
  9
$ENDCAPS
280
     0
  9
$JOINSTYLE
280
     0
  9
$LWDISPLAY
290
     1
  9
$INSUNITS
 70
     4
  9
$HYPERLINKBASE
  1

  9
$STYLESHEET
  1

  9
$XEDIT
290
     1
  9
$CEPSNTYPE
380
     0
  9
$PSTYLEMODE
290
     1
  9
$FINGERPRINTGUID
  2
{af8896a9-0669-4cf3-86ab-55bd5611a0a1}
  9
$VERSIONGUID
  2
{FAEB1C32-E019-11D5-929B-00C0DF256EC4}
  9
$EXTNAMES
290
     1
  9
$PSVPSCALE
 40
0.0
  9
$OLESTARTUP
290
     0
  0
ENDSEC
  0
SECTION
  2
CLASSES
  0
CLASS
  1
ACDBDICTIONARYWDFLT
  2
AcDbDictionaryWithDefault
  3
ObjectDBX Classes
 90
        0
280
     0
281
     0
  0
CLASS
  1
VISUALSTYLE
  2
AcDbVisualStyle
  3
ObjectDBX Classes
 90
     4095
280
     0
281
     0
  0
CLASS
  1
MATERIAL
  2
AcDbMaterial
  3
ObjectDBX Classes
 90
     1153
280
     0
281
     0
  0
CLASS
  1
SCALE
  2
AcDbScale
  3
ObjectDBX Classes
 90
     1153
280
     0
281
     0
  0
CLASS
  1
TABLESTYLE
  2
AcDbTableStyle
  3
ObjectDBX Classes
 90
     4095
280
     0
281
     0
  0
CLASS
  1
MLEADERSTYLE
  2
AcDbMLeaderStyle
  3
ACDB_MLEADERSTYLE_CLASS
 90
     4095
280
     0
281
     0
  0
CLASS
  1
SUN
  2
AcDbSun
  3
SCENEOE
 90
     1153
280
     0
281
     0
  0
CLASS
  1
ACDBPLACEHOLDER
  2
AcDbPlaceHolder
  3
ObjectDBX Classes
 90
        0
280
     0
281
     0
  0
CLASS
  1
LAYOUT
  2
AcDbLayout
  3
ObjectDBX Classes
 90
        0
280
     0
281
     0
  0
ENDSEC
  0
SECTION
  2
TABLES
  0
TABLE
  2
VPORT
  5
8
330
0
100
AcDbSymbolTable
 70
     1
  0
VPORT
  5
29
330
8
100
AcDbSymbolTableRecord
100
AcDbViewportTableRecord
  2
*Active
 70
     0
 10
0.0
 20
0.0
 11
1.0
 21
1.0
 12
10000.0
 22
5000.0
 13
0.0
 23
0.0
 14
10.0
 24
10.0
 15
10.0
 25
10.0
 16
0.0
 26
0.0
 36
1.0
 17
0.0
 27
0.0
 37
0.0
 40
10000.0
 41
2.0
 42
50.0
 43
0.0
 44
0.0
 50
0.0
 51
0.0
 71
     0
 72
  2000
 73
     1
 74
     3
 75
     0
 76
     0
 77
     0
 78
     0
281
     0
 65
     1
110
0.0
120
0.0
130
0.0
111
1.0
121
0.0
131
0.0
112
0.0
122
1.0
132
0.0
 79
     0
146
0.0
  0
ENDTAB
  0
TABLE
  2
LTYPE
  5
5
330
0
100
AcDbSymbolTable
 70
     6
  0
LTYPE
  5
14
330
5
100
AcDbSymbolTableRecord
100
AcDbLinetypeTableRecord
  2
ByBlock
 70
     0
  3

 72
    65
 73
     0
 40
0.0
  0
LTYPE
  5
15
330
5
100
AcDbSymbolTableRecord
100
AcDbLinetypeTableRecord
  2
ByLayer
 70
     0
  3

 72
    65
 73
     0
 40
0.0
  0
LTYPE
  5
16
330
5
100
AcDbSymbolTableRecord
100
AcDbLinetypeTableRecord
  2
Continuous
 70
     0
  3
Solid line
 72
    65
 73
     0
 40
0.0
  0
LTYPE
  5
6E
330
5
100
AcDbSymbolTableRecord
100
AcDbLinetypeTableRecord
  2
HIDDEN
 70
     0
  3
Hidden __ __ __ __ __ __ __ __ __ __ __ __ __ __
 72
    65
 73
     2
 40
1.905
 49
1.27
 74
     0
 49
-0.635
 74
     0
  0
LTYPE
  5
6F
330
5
100
AcDbSymbolTableRecord
100
AcDbLinetypeTableRecord
  2
PHANTOM
 70
     0
  3
Phantom ______  __  __  ______  __  __  ______
 72
    65
 73
     6
 40
12.7
 49
6.35
 74
     0
 49
-1.27
 74
     0
 49
1.27
 74
     0
 49
-1.27
 74
     0
 49
1.27
 74
     0
 49
-1.27
 74
     0
  0
LTYPE
  5
70
330
5
100
AcDbSymbolTableRecord
100
AcDbLinetypeTableRecord
  2
CENTER
 70
     0
  3
Center ____ _ ____ _ ____ _ ____ _ ____ _ ____
 72
    65
 73
     4
 40
10.16
 49
6.35
 74
     0
 49
-1.27
 74
     0
 49
1.27
 74
     0
 49
-1.27
 74
     0
  0
LTYPE
  5
71
330
5
100
AcDbSymbolTableRecord
100
AcDbLinetypeTableRecord
  2
CENTERX2
 70
     0
  3
Center (2x) ________  __  ________  __  _____
 72
    65
 73
     4
 40
20.32
 49
12.7
 74
     0
 49
-2.54
 74
     0
 49
2.54
 74
     0
 49
-2.54
 74
     0
  0
LTYPE
  5
72
330
5
100
AcDbSymbolTableRecord
100
AcDbLinetypeTableRecord
  2
DOT2
 70
     0
  3
Dot (.5x) ........................................
 72
    65
 73
     2
 40
0.635
 49
0.0
 74
     0
 49
-0.635
 74
     0
  0
ENDTAB
  0
TABLE
  2
LAYER
  5
2
330
0
100
AcDbSymbolTable
 70
    13
  0
LAYER
  5
10
330
2
100
AcDbSymbolTableRecord
100
AcDbLayerTableRecord
  2
0
 70
     0
 62
     7
  6
Continuous
370
    -3
390
F
  0
LAYER
  5
73
330
2
100
AcDbSymbolTableRecord
100
AcDbLayerTableRecord
  2
FORMAT
 70
     0
 62
     7
  6
Continuous
370
    -3
390
F
  0
LAYER
  5
74
330
2
100
AcDbSymbolTableRecord
100
AcDbLayerTableRecord
  2
OSA
 70
     0
 62
     7
  6
CENTER
370
    -3
390
F
  0
LAYER
  5
75
330
2
100
AcDbSymbolTableRecord
100
AcDbLayerTableRecord
  2
0_35
 70
     0
 62
     7
  6
Continuous
370
    35
390
F
  0
LAYER
  5
76
330
2
100
AcDbSymbolTableRecord
100
AcDbLayerTableRecord
  2
0_5
 70
     0
 62
     7
  6
Continuous
370
    50
390
F
  0
LAYER
  5
77
330
2
100
AcDbSymbolTableRecord
100
AcDbLayerTableRecord
  2
0_25
 70
     0
 62
     7
  6
Continuous
370
    25
390
F
  0
LAYER
  5
78
330
2
100
AcDbSymbolTableRecord
100
AcDbLayerTableRecord
  2
0_18
 70
     0
 62
     7
  6
Continuous
370
    -3
390
F
  0
LAYER
  5
79
330
2
100
AcDbSymbolTableRecord
100
AcDbLayerTableRecord
  2
SLD-0
 70
     0
 62
   179
  6
Continuous
370
    -3
390
F
  0
LAYER
  5
7A
330
2
100
AcDbSymbolTableRecord
100
AcDbLayerTableRecord
  2
KOTY
 70
     0
 62
     7
  6
Continuous
370
    -3
390
F
  0
LAYER
  5
7B
330
2
100
AcDbSymbolTableRecord
100
AcDbLayerTableRecord
  2
SILNA
 70
     0
 62
   179
  6
Continuous
370
    -3
390
F
  0
LAYER
  5
7C
330
2
100
AcDbSymbolTableRecord
100
AcDbLayerTableRecord
  2
0_18_1
 70
     0
 62
   179
  6
Continuous
370
    -3
390
F
  0
LAYER
  5
7D
330
2
100
AcDbSymbolTableRecord
100
AcDbLayerTableRecord
  2
0_35_1
 70
     0
 62
   179
  6
Continuous
370
    35
390
F
  0
LAYER
  5
7E
330
2
100
AcDbSymbolTableRecord
100
AcDbLayerTableRecord
  2
0_5_1
 70
     0
 62
   179
  6
Continuous
370
    50
390
F
  0
ENDTAB
  0
TABLE
  2
STYLE
  5
3
330
0
100
AcDbSymbolTable
 70
     1
  0
STYLE
  5
11
330
3
100
AcDbSymbolTableRecord
100
AcDbTextStyleTableRecord
  2
Standard
 70
     0
 40
0.0
 41
1.0
 50
0.0
 71
     0
 42
2.0
  3
txt
  4

  0
ENDTAB
  0
TABLE
  2
VIEW
  5
6
330
0
100
AcDbSymbolTable
 70
     0
  0
ENDTAB
  0
TABLE
  2
UCS
  5
7
330
0
100
AcDbSymbolTable
 70
     0
  0
ENDTAB
  0
TABLE
  2
APPID
  5
9
330
0
100
AcDbSymbolTable
 70
     1
  0
APPID
  5
12
330
9
100
AcDbSymbolTableRecord
100
AcDbRegAppTableRecord
  2
ACAD
 70
     0
  0
ENDTAB
  0
TABLE
  2
DIMSTYLE
  5
A
330
0
100
AcDbSymbolTable
 70
     1
100
AcDbDimStyleTable
  0
DIMSTYLE
105
27
330
A
100
AcDbSymbolTableRecord
100
AcDbDimStyleTableRecord
  2
ISO-25
 70
     0
 41
2.5
 42
0.625
 43
3.75
 44
1.25
 73
     0
 74
     0
 77
     1
 78
     8
140
2.5
141
2.5
143
0.0393700787
147
0.625
171
     3
172
     1
178
     0
271
     2
272
     2
274
     3
278
    44
283
     0
284
     8
340
11
  0
ENDTAB
  0
TABLE
  2
BLOCK_RECORD
  5
1
330
0
100
AcDbSymbolTable
 70
     1
  0
BLOCK_RECORD
  5
1F
330
1
100
AcDbSymbolTableRecord
100
AcDbBlockTableRecord
  2
*Model_Space
340
22
  0
BLOCK_RECORD
  5
1B
330
1
100
AcDbSymbolTableRecord
100
AcDbBlockTableRecord
  2
*Paper_Space
340
1E
  0
BLOCK_RECORD
  5
23
330
1
100
AcDbSymbolTableRecord
100
AcDbBlockTableRecord
  2
*Paper_Space0
340
26
  0
ENDTAB
  0
ENDSEC
  0
SECTION
  2
BLOCKS
  0
BLOCK
  5
20
330
1F
100
AcDbEntity
  8
0
100
AcDbBlockBegin
  2
*Model_Space
 70
     0
 10
0.0
 20
0.0
 30
0.0
  3
*Model_Space
  1

  0
ENDBLK
  5
21
330
1F
100
AcDbEntity
  8
0
100
AcDbBlockEnd
  0
BLOCK
  5
1C
330
1B
100
AcDbEntity
 67
     1
  8
0
100
AcDbBlockBegin
  2
*Paper_Space
 70
     0
 10
0.0
 20
0.0
 30
0.0
  3
*Paper_Space
  1

  0
ENDBLK
  5
1D
330
1B
100
AcDbEntity
 67
     1
  8
0
100
AcDbBlockEnd
  0
BLOCK
  5
24
330
23
100
AcDbEntity
  8
0
100
AcDbBlockBegin
  2
*Paper_Space0
 70
     0
 10
0.0
 20
0.0
 30
0.0
  3
*Paper_Space0
  1

  0
ENDBLK
  5
25
330
23
100
AcDbEntity
  8
0
100
AcDbBlockEnd
  0
ENDSEC
  0
SECTION
  2
ENTITIES
  0
LINE
  5
7F
330
1F
100
AcDbEntity
  8
0
  6
Continuous
 62
     7
370
    25
100
AcDbLine
 10
7037.0489085942
 20
3965.4961597697
 30
0.0
 11
7037.0489085942
 21
3961.4961597697
 31
0.0
  0
LINE
  5
80
330
1F
100
AcDbEntity
  8
0
  6
Continuous
 62
     7
370
    25
100
AcDbLine
 10
7047.0489085942
 20
3961.4961597697
 30
0.0
 11
7047.0489085942
 21
3965.4961597697
 31
0.0
  0
LINE
  5
81
330
1F
100
AcDbEntity
  8
0
  6
Continuous
 62
     7
370
    25
100
AcDbLine
 10
5809.0489085942
 20
3965.4961597697
 30
0.0
 11
5809.0489085942
 21
3961.4961597697
 31
0.0
  0
LINE
  5
82
330
1F
100
AcDbEntity
  8
0
  6
Continuous
 62
     7
370
    25
100
AcDbLine
 10
5819.0489085942
 20
3961.4961597697
 30
0.0
 11
5819.0489085942
 21
3965.4961597697
 31
0.0
  0
LINE
  5
83
330
1F
100
AcDbEntity
  8
0
  6
Continuous
 62
     7
370
    25
100
AcDbLine
 10
8265.0489085942
 20
3965.4961597697
 30
0.0
 11
8265.0489085942
 21
3961.4961597697
 31
0.0
  0
LINE
  5
84
330
1F
100
AcDbEntity
  8
0
  6
Continuous
 62
     7
370
    25
100
AcDbLine
 10
8275.0489085942
 20
3961.4961597697
 30
0.0
 11
8275.0489085942
 21
3965.4961597697
 31
0.0
  0
LINE
  5
85
330
1F
100
AcDbEntity
  8
0
  6
Continuous
 62
     7
370
    25
100
AcDbLine
 10
8292.0489085942
 20
5222.9793860254
 30
0.0
 11
8290.0489085942
 21
5222.9793860254
 31
0.0
  0
LINE
  5
86
330
1F
100
AcDbEntity
  8
0
  6
Continuous
 62
     7
370
    25
100
AcDbLine
 10
5794.0489085942
 20
5222.9793860254
 30
0.0
 11
5792.0489085942
 21
5222.9793860254
 31
0.0
  0
LINE
  5
87
330
1F
100
AcDbEntity
  8
0
  6
Continuous
 62
     7
370
    25
100
AcDbLine
 10
8290.0489085942
 20
5222.9793860254
 30
0.0
 11
5794.0489085942
 21
5222.9793860254
 31
0.0
  0
LINE
  5
88
330
1F
100
AcDbEntity
  8
0
  6
Continuous
 62
     7
370
    25
100
AcDbLine
 10
5928.5489085942
 20
4553.4961597697
 30
0.0
 11
5928.5489085942
 21
4538.252049997
 31
0.0
  0
LINE
  5
89
330
1F
100
AcDbEntity
  8
0
  6
Continuous
 62
     7
370
    25
100
AcDbLine
 10
5928.5489085942
 20
4524.252049997
 30
0.0
 11
5928.5489085942
 21
4521.752049997
 31
0.0
  0
LINE
  5
8A
330
1F
100
AcDbEntity
  8
0
  6
Continuous
 62
     7
370
    25
100
AcDbLine
 10
5960.5489085942
 20
4521.752049997
 30
0.0
 11
5960.5489085942
 21
4524.252049997
 31
0.0
  0
LINE
  5
8B
330
1F
100
AcDbEntity
  8
0
  6
Continuous
 62
     7
370
    25
100
AcDbLine
 10
5960.5489085942
 20
4538.252049997
 30
0.0
 11
5960.5489085942
 21
4553.4961597697
 31
0.0
  0
LINE
  5
8C
330
1F
100
AcDbEntity
  8
0
  6
Continuous
 62
     7
370
    25
100
AcDbLine
 10
5910.5489085942
 20
4461.752049997
 30
0.0
 11
5917.442694314
 21
4394.4463741356
 31
0.0
  0
LINE
  5
8D
330
1F
100
AcDbEntity
  8
0
  6
Continuous
 62
     7
370
    25
100
AcDbLine
 10
5971.6551228743
 20
4394.4463741356
 30
0.0
 11
5978.5489085942
 21
4461.752049997
 31
0.0
  0
LINE
  5
8E
330
1F
100
AcDbEntity
  8
0
  6
Continuous
 62
     7
370
    25
100
AcDbLine
 10
5978.5489085942
 20
4461.752049997
 30
0.0
 11
5971.8583503493
 21
4519.0996920957
 31
0.0
  0
LINE
  5
8F
330
1F
100
AcDbEntity
  8
0
  6
Continuous
 62
     7
370
    25
100
AcDbLine
 10
5917.239466839
 20
4519.0996920957
 30
0.0
 11
5910.5489085942
 21
4461.752049997
 31
0.0
  0
ARC
  5
90
330
1F
100
AcDbEntity
  8
0
  6
Continuous
 62
     7
370
    25
100
AcDbCircle
 10
5920.2192562563
 20
4518.752049997
 30
0.0
 40
3.0
100
AcDbArc
 50
90.0
 51
173.345574954
  0
ARC
  5
91
330
1F
100
AcDbEntity
  8
0
  6
Continuous
 62
     7
370
    25
100
AcDbCircle
 10
5968.8785609321
 20
4518.752049997
 30
0.0
 40
3.0
100
AcDbArc
 50
6.654425046
 51
90.0
  0
ARC
  5
92
330
1F
100
AcDbEntity
  8
0
  6
Continuous
 62
     7
370
    25
100
AcDbCircle
 10
5920.427080728
 20
4394.752049997
 30
0.0
 40
3.000000000000332
100
AcDbArc
 50
185.8481280261
 51
270.0
  0
ARC
  5
93
330
1F
100
AcDbEntity
  8
0
  6
Continuous
 62
     7
370
    25
100
AcDbCircle
 10
5968.6707364604
 20
4394.752049997
 30
0.0
 40
3.0
100
AcDbArc
 50
270.0
 51
354.1518719739
  0
LINE
  5
94
330
1F
100
AcDbEntity
  8
0
  6
Continuous
 62
     7
370
    25
100
AcDbLine
 10
5969.5489085942
 20
4524.252049997
 30
0.0
 11
5967.5489085942
 21
4528.252049997
 31
0.0
  0
LINE
  5
95
330
1F
100
AcDbEntity
  8
0
  6
Continuous
 62
     7
370
    25
100
AcDbLine
 10
5921.5489085942
 20
4528.252049997
 30
0.0
 11
5919.5489085942
 21
4524.252049997
 31
0.0
  0
LINE
  5
96
330
1F
100
AcDbEntity
  8
0
  6
Continuous
 62
     7
370
    25
100
AcDbLine
 10
5921.5489085942
 20
4535.252049997
 30
0.0
 11
5921.5489085942
 21
4528.252049997
 31
0.0
  0
LINE
  5
97
330
1F
100
AcDbEntity
  8
0
  6
Continuous
 62
     7
370
    25
100
AcDbLine
 10
5967.5489085942
 20
4528.252049997
 30
0.0
 11
5967.5489085942
 21
4535.252049997
 31
0.0
  0
ARC
  5
98
330
1F
100
AcDbEntity
  8
0
  6
Continuous
 62
     7
370
    25
100
AcDbCircle
 10
5924.5489085942
 20
4535.252049997
 30
0.0
 40
3.000000000000909
100
AcDbArc
 50
90.0
 51
180.0
  0
ARC
  5
99
330
1F
100
AcDbEntity
  8
0
  6
Continuous
 62
     7
370
    25
100
AcDbCircle
 10
5964.5489085942
 20
4535.252049997
 30
0.0
 40
3.0
100
AcDbArc
 50
0.0
 51
90.0
  0
ARC
  5
9A
330
1F
100
AcDbEntity
  8
0
  6
Continuous
 62
     7
370
    25
100
AcDbCircle
 10
5914.0489085942
 20
5183.961859163
 30
0.0
 40
36.99999999999939
100
AcDbArc
 50
75.2574286589
 51
104.7425713411
  0
LINE
  5
9B
330
1F
100
AcDbEntity
  8
0
  6
Continuous
 62
     7
370
    25
100
AcDbLine
 10
6740.4582510914
 20
5099.5868172724
 30
0.0
 11
6740.5489085941
 21
5099.4961597696
 31
0.0
  0
LINE
  5
9C
330
1F
100
AcDbEntity
  8
0
  6
Continuous
 62
     7
370
    25
100
AcDbLine
 10
6743.5489085941
 20
5099.4961597696
 30
0.0
 11
6743.6395660969
 21
5099.5868172723
 31
0.0
  0
LINE
  5
9D
330
1F
100
AcDbEntity
  8
0
  6
Continuous
 62
     7
370
    25
100
AcDbLine
 10
7340.4582510914
 20
5099.5868172724
 30
0.0
 11
7340.5489085941
 21
5099.4961597696
 31
0.0
  0
LINE
  5
9E
330
1F
100
AcDbEntity
  8
0
  6
Continuous
 62
     7
370
    25
100
AcDbLine
 10
7343.5489085941
 20
5099.4961597696
 30
0.0
 11
7343.6395660969
 21
5099.5868172723
 31
0.0
  0
LINE
  5
9F
330
1F
100
AcDbEntity
  8
0
  6
Continuous
 62
     7
370
    25
100
AcDbLine
 10
7940.4582510914
 20
5099.5868172724
 30
0.0
 11
7940.5489085941
 21
5099.4961597696
 31
0.0
  0
LINE
  5
A0
330
1F
100
AcDbEntity
  8
0
  6
Continuous
 62
     7
370
    25
100
AcDbLine
 10
7943.5489085941
 20
5099.4961597696
 30
0.0
 11
7943.6395660969
 21
5099.5868172723
 31
0.0
  0
LINE
  5
A1
330
1F
100
AcDbEntity
  8
0
  6
Continuous
 62
     7
370
    25
100
AcDbLine
 10
6140.4582510914
 20
5099.5868172724
 30
0.0
 11
6140.5489085941
 21
5099.4961597696
 31
0.0
  0
LINE
  5
A2
330
1F
100
AcDbEntity
  8
0
  6
Continuous
 62
     7
370
    25
100
AcDbLine
 10
6143.5489085941
 20
5099.4961597696
 30
0.0
 11
6143.6395660969
 21
5099.5868172723
 31
0.0
  0
LINE
  5
A3
330
1F
100
AcDbEntity
  8
0
  6
Continuous
 62
     7
370
    25
100
AcDbLine
 10
7332.7989085942
 20
5105.3369804246
 30
0.0
 11
7332.7989085942
 21
5104.7332767832
 31
0.0
  0
LINE
  5
A4
330
1F
100
AcDbEntity
  8
0
  6
Continuous
 62
     7
370
    25
100
AcDbLine
 10
7351.2989085942
 20
5104.7332767832
 30
0.0
 11
7351.2989085942
 21
5105.3369804246
 31
0.0
  0
LINE
  5
A5
330
1F
100
AcDbEntity
  8
0
  6
Continuous
 62
     7
370
    25
100
AcDbLine
 10
7349.5489085942
 20
5105.6992026095
 30
0.0
 11
7349.5489085942
 21
5105.8997584559
 31
0.0
  0
LINE
  5
A6
330
1F
100
AcDbEntity
  8
0
  6
Continuous
 62
     7
370
    25
100
AcDbLine
 10
7334.5489085942
 20
5106.3958869971
 30
0.0
 11
7334.5489085942
 21
5105.6992026095
 31
0.0
  0
LINE
  5
A7
330
1F
100
AcDbEntity
  8
0
  6
Continuous
 62
     7
370
    25
100
AcDbLine
 10
6132.7989085942
 20
5105.3369804246
 30
0.0
 11
6132.7989085942
 21
5104.7332767832
 31
0.0
  0
LINE
  5
A8
330
1F
100
AcDbEntity
  8
0
  6
Continuous
 62
     7
370
    25
100
AcDbLine
 10
6151.2989085942
 20
5104.7332767832
 30
0.0
 11
6151.2989085942
 21
5105.3369804246
 31
0.0
  0
LINE
  5
A9
330
1F
100
AcDbEntity
  8
0
  6
Continuous
 62
     7
370
    25
100
AcDbLine
 10
6149.5489085942
 20
5105.6992026095
 30
0.0
 11
6149.5489085942
 21
5105.8997584559
 31
0.0
  0
LINE
  5
AA
330
1F
100
AcDbEntity
  8
0
  6
Continuous
 62
     7
370
    25
100
AcDbLine
 10
6134.5489085942
 20
5106.3958869971
 30
0.0
 11
6134.5489085942
 21
5105.6992026095
 31
0.0
  0
LINE
  5
AB
330
1F
100
AcDbEntity
  8
0
  6
Continuous
 62
     7
370
    25
100
AcDbLine
 10
7932.7989085942
 20
5105.3369804246
 30
0.0
 11
7932.7989085942
 21
5104.7332767832
 31
0.0
  0
LINE
  5
AC
330
1F
100
AcDbEntity
  8
0
  6
Continuous
 62
     7
370
    25
100
AcDbLine
 10
7951.2989085942
 20
5104.7332767832
 30
0.0
 11
7951.2989085942
 21
5105.3369804246
 31
0.0
  0
LINE
  5
AD
330
1F
100
AcDbEntity
  8
0
  6
Continuous
 62
     7
370
    25
100
AcDbLine
 10
7949.5489085942
 20
5105.6992026095
 30
0.0
 11
7949.5489085942
 21
5105.8997584559
 31
0.0
  0
LINE
  5
AE
330
1F
100
AcDbEntity
  8
0
  6
Continuous
 62
     7
370
    25
100
AcDbLine
 10
7934.5489085942
 20
5106.3958869971
 30
0.0
 11
7934.5489085942
 21
5105.6992026095
 31
0.0
  0
LINE
  5
AF
330
1F
100
AcDbEntity
  8
0
  6
Continuous
 62
     7
370
    25
100
AcDbLine
 10
6732.7989085942
 20
5105.3369804246
 30
0.0
 11
6732.7989085942
 21
5104.7332767832
 31
0.0
  0
LINE
  5
B0
330
1F
100
AcDbEntity
  8
0
  6
Continuous
 62
     7
370
    25
100
AcDbLine
 10
6751.2989085942
 20
5104.7332767832
 30
0.0
 11
6751.2989085942
 21
5105.3369804246
 31
0.0
  0
LINE
  5
B1
330
1F
100
AcDbEntity
  8
0
  6
Continuous
 62
     7
370
    25
100
AcDbLine
 10
6749.5489085942
 20
5105.6992026095
 30
0.0
 11
6749.5489085942
 21
5105.8997584559
 31
0.0
  0
LINE
  5
B2
330
1F
100
AcDbEntity
  8
0
  6
Continuous
 62
     7
370
    25
100
AcDbLine
 10
6734.5489085942
 20
5106.3958869971
 30
0.0
 11
6734.5489085942
 21
5105.6992026095
 31
0.0
  0
LINE
  5
B3
330
1F
100
AcDbEntity
  8
0
  6
Continuous
 62
     7
370
    25
100
AcDbLine
 10
7943.6989085942
 20
5099.5912919828
 30
0.0
 11
7943.6989085942
 21
5099.5937319242
 31
0.0
  0
LINE
  5
B4
330
1F
100
AcDbEntity
  8
0
  6
Continuous
 62
     7
370
    25
100
AcDbLine
 10
7343.6989085942
 20
5099.5912919828
 30
0.0
 11
7343.6989085942
 21
5099.5937319242
 31
0.0
  0
LINE
  5
B5
330
1F
100
AcDbEntity
  8
0
  6
Continuous
 62
     7
370
    25
100
AcDbLine
 10
6743.6989085942
 20
5099.5912919828
 30
0.0
 11
6743.6989085942
 21
5099.5937319242
 31
0.0
  0
LINE
  5
B6
330
1F
100
AcDbEntity
  8
0
  6
Continuous
 62
     7
370
    25
100
AcDbLine
 10
6143.6989085942
 20
5099.5912919828
 30
0.0
 11
6143.6989085942
 21
5099.5937319242
 31
0.0
  0
LINE
  5
B7
330
1F
100
AcDbEntity
  8
0
  6
Continuous
 62
     7
370
    25
100
AcDbLine
 10
7024.0489085942
 20
3971.4961597697
 30
0.0
 11
7060.0489085942
 21
3971.4961597697
 31
0.0
  0
ELLIPSE
  5
B8
330
1F
100
AcDbEntity
  8
0
  6
Continuous
 62
     7
370
    25
100
AcDbEllipse
 10
7056.5489085942
 20
3971.4961597697
 30
0.0
 11
0.0
 21
6.000000000000455
 31
0.0
210
0.0
220
0.0
230
1.0
 40
0.5833333333
 41
3.141592653589793
 42
4.712388980384698
  0
LINE
  5
B9
330
1F
100
AcDbEntity
  8
0
  6
Continuous
 62
     7
370
    25
100
AcDbLine
 10
7056.5489085942
 20
3965.4961597697
 30
0.0
 11
7027.5489085942
 21
3965.4961597697
 31
0.0
  0
ELLIPSE
  5
BA
330
1F
100
AcDbEntity
  8
0
  6
Continuous
 62
     7
370
    25
100
AcDbEllipse
 10
7027.5489085942
 20
3971.4961597697
 30
0.0
 11
0.0
 21
6.000000000000455
 31
0.0
210
0.0
220
0.0
230
1.0
 40
0.5833333333
 41
1.570796326794897
 42
3.141592653589793
  0
LINE
  5
BB
330
1F
100
AcDbEntity
  8
0
  6
Continuous
 62
     7
370
    25
100
AcDbLine
 10
7062.5489085942
 20
3973.4961597697
 30
0.0
 11
7060.0489085942
 21
3973.4961597697
 31
0.0
  0
LINE
  5
BC
330
1F
100
AcDbEntity
  8
0
  6
Continuous
 62
     7
370
    25
100
AcDbLine
 10
7062.5489085942
 20
3971.4961597697
 30
0.0
 11
7062.5489085942
 21
3973.4961597697
 31
0.0
  0
LINE
  5
BD
330
1F
100
AcDbEntity
  8
0
  6
Continuous
 62
     7
370
    25
100
AcDbLine
 10
7060.0489085942
 20
3971.4961597697
 30
0.0
 11
7062.5489085942
 21
3971.4961597697
 31
0.0
  0
LINE
  5
BE
330
1F
100
AcDbEntity
  8
0
  6
Continuous
 62
     7
370
    25
100
AcDbLine
 10
7060.0489085942
 20
3971.4961597697
 30
0.0
 11
7060.0489085942
 21
3973.4961597697
 31
0.0
  0
ARC
  5
BF
330
1F
100
AcDbEntity
  8
0
  6
Continuous
 62
     7
370
    25
100
AcDbCircle
 10
7056.5489085942
 20
3971.4961597697
 30
0.0
 40
6.0
100
AcDbArc
 50
270.0
 51
0.0
  0
LINE
  5
C0
330
1F
100
AcDbEntity
  8
0
  6
Continuous
 62
     7
370
    25
100
AcDbLine
 10
7060.0489085942
 20
3973.4961597697
 30
0.0
 11
7024.0489085942
 21
3973.4961597697
 31
0.0
  0
LINE
  5
C1
330
1F
100
AcDbEntity
  8
0
  6
Continuous
 62
     7
370
    25
100
AcDbLine
 10
7024.0489085942
 20
3971.4961597697
 30
0.0
 11
7024.0489085942
 21
3973.4961597697
 31
0.0
  0
ARC
  5
C2
330
1F
100
AcDbEntity
  8
0
  6
Continuous
 62
     7
370
    25
100
AcDbCircle
 10
7027.5489085942
 20
3971.4961597697
 30
0.0
 40
6.0
100
AcDbArc
 50
180.0
 51
270.0
  0
LINE
  5
C3
330
1F
100
AcDbEntity
  8
0
  6
Continuous
 62
     7
370
    25
100
AcDbLine
 10
7021.5489085942
 20
3971.4961597697
 30
0.0
 11
7024.0489085942
 21
3971.4961597697
 31
0.0
  0
LINE
  5
C4
330
1F
100
AcDbEntity
  8
0
  6
Continuous
 62
     7
370
    25
100
AcDbLine
 10
7021.5489085942
 20
3971.4961597697
 30
0.0
 11
7021.5489085942
 21
3973.4961597697
 31
0.0
  0
LINE
  5
C5
330
1F
100
AcDbEntity
  8
0
  6
Continuous
 62
     7
370
    25
100
AcDbLine
 10
7024.0489085942
 20
3973.4961597697
 30
0.0
 11
7021.5489085942
 21
3973.4961597697
 31
0.0
  0
LINE
  5
C6
330
1F
100
AcDbEntity
  8
0
  6
Continuous
 62
     7
370
    25
100
AcDbLine
 10
7033.3886545563
 20
3953.4961597697
 30
0.0
 11
7033.3886545563
 21
3961.4961597697
 31
0.0
  0
LINE
  5
C7
330
1F
100
AcDbEntity
  8
0
  6
Continuous
 62
     7
370
    25
100
AcDbLine
 10
7024.7284005185
 20
3953.4961597697
 30
0.0
 11
7024.7284005185
 21
3961.4961597697
 31
0.0
  0
LINE
  5
C8
330
1F
100
AcDbEntity
  8
0
  6
Continuous
 62
     7
370
    25
100
AcDbLine
 10
7033.3886545563
 20
3961.4961597697
 30
0.0
 11
7024.7284005185
 21
3961.4961597697
 31
0.0
  0
LINE
  5
C9
330
1F
100
AcDbEntity
  8
0
  6
Continuous
 62
     7
370
    25
100
AcDbLine
 10
7033.3886545563
 20
3953.4961597697
 30
0.0
 11
7024.7284005185
 21
3953.4961597697
 31
0.0
  0
LINE
  5
CA
330
1F
100
AcDbEntity
  8
0
  6
Continuous
 62
     7
370
    25
100
AcDbLine
 10
7050.709162632
 20
3953.4961597697
 30
0.0
 11
7050.709162632
 21
3961.4961597697
 31
0.0
  0
LINE
  5
CB
330
1F
100
AcDbEntity
  8
0
  6
Continuous
 62
     7
370
    25
100
AcDbLine
 10
7050.709162632
 20
3961.4961597697
 30
0.0
 11
7033.3886545563
 21
3961.4961597697
 31
0.0
  0
LINE
  5
CC
330
1F
100
AcDbEntity
  8
0
  6
Continuous
 62
     7
370
    25
100
AcDbLine
 10
7050.709162632
 20
3953.4961597697
 30
0.0
 11
7033.3886545563
 21
3953.4961597697
 31
0.0
  0
LINE
  5
CD
330
1F
100
AcDbEntity
  8
0
  6
Continuous
 62
     7
370
    25
100
AcDbLine
 10
7059.3694166699
 20
3953.4961597697
 30
0.0
 11
7059.3694166699
 21
3961.4961597697
 31
0.0
  0
LINE
  5
CE
330
1F
100
AcDbEntity
  8
0
  6
Continuous
 62
     7
370
    25
100
AcDbLine
 10
7059.3694166699
 20
3961.4961597697
 30
0.0
 11
7050.709162632
 21
3961.4961597697
 31
0.0
  0
LINE
  5
CF
330
1F
100
AcDbEntity
  8
0
  6
Continuous
 62
     7
370
    25
100
AcDbLine
 10
7059.3694166699
 20
3953.4961597697
 30
0.0
 11
7050.709162632
 21
3953.4961597697
 31
0.0
  0
LINE
  5
D0
330
1F
100
AcDbEntity
  8
0
  6
Continuous
 62
     7
370
    25
100
AcDbLine
 10
5796.0489085942
 20
3971.4961597697
 30
0.0
 11
5832.0489085942
 21
3971.4961597697
 31
0.0
  0
ELLIPSE
  5
D1
330
1F
100
AcDbEntity
  8
0
  6
Continuous
 62
     7
370
    25
100
AcDbEllipse
 10
5828.5489085942
 20
3971.4961597697
 30
0.0
 11
0.0
 21
5.999999999999544
 31
0.0
210
0.0
220
0.0
230
1.0
 40
0.5833333333
 41
3.141592653589793
 42
4.712388980384698
  0
LINE
  5
D2
330
1F
100
AcDbEntity
  8
0
  6
Continuous
 62
     7
370
    25
100
AcDbLine
 10
5828.5489085942
 20
3965.4961597697
 30
0.0
 11
5799.5489085942
 21
3965.4961597697
 31
0.0
  0
ELLIPSE
  5
D3
330
1F
100
AcDbEntity
  8
0
  6
Continuous
 62
     7
370
    25
100
AcDbEllipse
 10
5799.5489085942
 20
3971.4961597697
 30
0.0
 11
0.0
 21
5.999999999999544
 31
0.0
210
0.0
220
0.0
230
1.0
 40
0.5833333333
 41
1.570796326794897
 42
3.141592653589793
  0
ARC
  5
D4
330
1F
100
AcDbEntity
  8
0
  6
Continuous
 62
     7
370
    25
100
AcDbCircle
 10
5828.5489085942
 20
3971.4961597697
 30
0.0
 40
6.000000000000909
100
AcDbArc
 50
270.0
 51
0.0
  0
LINE
  5
D5
330
1F
100
AcDbEntity
  8
0
  6
Continuous
 62
     7
370
    25
100
AcDbLine
 10
5832.0489085942
 20
3971.4961597697
 30
0.0
 11
5834.5489085942
 21
3971.4961597697
 31
0.0
  0
LINE
  5
D6
330
1F
100
AcDbEntity
  8
0
  6
Continuous
 62
     7
370
    25
100
AcDbLine
 10
5834.5489085942
 20
3973.4961597697
 30
0.0
 11
5832.0489085942
 21
3973.4961597697
 31
0.0
  0
LINE
  5
D7
330
1F
100
AcDbEntity
  8
0
  6
Continuous
 62
     7
370
    25
100
AcDbLine
 10
5834.5489085942
 20
3971.4961597697
 30
0.0
 11
5834.5489085942
 21
3973.4961597697
 31
0.0
  0
LINE
  5
D8
330
1F
100
AcDbEntity
  8
0
  6
Continuous
 62
     7
370
    25
100
AcDbLine
 10
5832.0489085942
 20
3971.4961597697
 30
0.0
 11
5832.0489085942
 21
3973.4961597697
 31
0.0
  0
LINE
  5
D9
330
1F
100
AcDbEntity
  8
0
  6
Continuous
 62
     7
370
    25
100
AcDbLine
 10
5832.0489085942
 20
3973.4961597697
 30
0.0
 11
5796.0489085942
 21
3973.4961597697
 31
0.0
  0
LINE
  5
DA
330
1F
100
AcDbEntity
  8
0
  6
Continuous
 62
     7
370
    25
100
AcDbLine
 10
5796.0489085942
 20
3971.4961597697
 30
0.0
 11
5796.0489085942
 21
3973.4961597697
 31
0.0
  0
ARC
  5
DB
330
1F
100
AcDbEntity
  8
0
  6
Continuous
 62
     7
370
    25
100
AcDbCircle
 10
5799.5489085942
 20
3971.4961597697
 30
0.0
 40
6.0
100
AcDbArc
 50
180.0
 51
270.0
  0
LINE
  5
DC
330
1F
100
AcDbEntity
  8
0
  6
Continuous
 62
     7
370
    25
100
AcDbLine
 10
5793.5489085942
 20
3971.4961597697
 30
0.0
 11
5796.0489085942
 21
3971.4961597697
 31
0.0
  0
LINE
  5
DD
330
1F
100
AcDbEntity
  8
0
  6
Continuous
 62
     7
370
    25
100
AcDbLine
 10
5793.5489085942
 20
3971.4961597697
 30
0.0
 11
5793.5489085942
 21
3973.4961597697
 31
0.0
  0
LINE
  5
DE
330
1F
100
AcDbEntity
  8
0
  6
Continuous
 62
     7
370
    25
100
AcDbLine
 10
5796.0489085942
 20
3973.4961597697
 30
0.0
 11
5793.5489085942
 21
3973.4961597697
 31
0.0
  0
LINE
  5
DF
330
1F
100
AcDbEntity
  8
0
  6
Continuous
 62
     7
370
    25
100
AcDbLine
 10
5805.3886545563
 20
3953.4961597697
 30
0.0
 11
5805.3886545563
 21
3961.4961597697
 31
0.0
  0
LINE
  5
E0
330
1F
100
AcDbEntity
  8
0
  6
Continuous
 62
     7
370
    25
100
AcDbLine
 10
5796.7284005185
 20
3953.4961597697
 30
0.0
 11
5796.7284005185
 21
3961.4961597697
 31
0.0
  0
LINE
  5
E1
330
1F
100
AcDbEntity
  8
0
  6
Continuous
 62
     7
370
    25
100
AcDbLine
 10
5805.3886545563
 20
3961.4961597697
 30
0.0
 11
5796.7284005185
 21
3961.4961597697
 31
0.0
  0
LINE
  5
E2
330
1F
100
AcDbEntity
  8
0
  6
Continuous
 62
     7
370
    25
100
AcDbLine
 10
5805.3886545563
 20
3953.4961597697
 30
0.0
 11
5796.7284005185
 21
3953.4961597697
 31
0.0
  0
LINE
  5
E3
330
1F
100
AcDbEntity
  8
0
  6
Continuous
 62
     7
370
    25
100
AcDbLine
 10
5822.709162632
 20
3953.4961597697
 30
0.0
 11
5822.709162632
 21
3961.4961597697
 31
0.0
  0
LINE
  5
E4
330
1F
100
AcDbEntity
  8
0
  6
Continuous
 62
     7
370
    25
100
AcDbLine
 10
5822.709162632
 20
3961.4961597697
 30
0.0
 11
5805.3886545563
 21
3961.4961597697
 31
0.0
  0
LINE
  5
E5
330
1F
100
AcDbEntity
  8
0
  6
Continuous
 62
     7
370
    25
100
AcDbLine
 10
5822.709162632
 20
3953.4961597697
 30
0.0
 11
5805.3886545563
 21
3953.4961597697
 31
0.0
  0
LINE
  5
E6
330
1F
100
AcDbEntity
  8
0
  6
Continuous
 62
     7
370
    25
100
AcDbLine
 10
5831.3694166699
 20
3953.4961597697
 30
0.0
 11
5831.3694166699
 21
3961.4961597697
 31
0.0
  0
LINE
  5
E7
330
1F
100
AcDbEntity
  8
0
  6
Continuous
 62
     7
370
    25
100
AcDbLine
 10
5831.3694166699
 20
3961.4961597697
 30
0.0
 11
5822.709162632
 21
3961.4961597697
 31
0.0
  0
LINE
  5
E8
330
1F
100
AcDbEntity
  8
0
  6
Continuous
 62
     7
370
    25
100
AcDbLine
 10
5831.3694166699
 20
3953.4961597697
 30
0.0
 11
5822.709162632
 21
3953.4961597697
 31
0.0
  0
LINE
  5
E9
330
1F
100
AcDbEntity
  8
0
  6
Continuous
 62
     7
370
    25
100
AcDbLine
 10
7062.0489085942
 20
3973.4961597697
 30
0.0
 11
7062.0489085942
 21
4553.4961597697
 31
0.0
  0
LINE
  5
EA
330
1F
100
AcDbEntity
  8
0
  6
Continuous
 62
     7
370
    25
100
AcDbLine
 10
7022.0489085942
 20
3973.4961597697
 30
0.0
 11
7022.0489085942
 21
4553.4961597697
 31
0.0
  0
LINE
  5
EB
330
1F
100
AcDbEntity
  8
0
  6
Continuous
 62
     7
370
    25
100
AcDbLine
 10
5834.0489085942
 20
3973.4961597697
 30
0.0
 11
5834.0489085942
 21
4553.4961597697
 31
0.0
  0
LINE
  5
EC
330
1F
100
AcDbEntity
  8
0
  6
Continuous
 62
     7
370
    25
100
AcDbLine
 10
5794.0489085942
 20
3973.4961597697
 30
0.0
 11
5794.0489085942
 21
4553.4961597697
 31
0.0
  0
LINE
  5
ED
330
1F
100
AcDbEntity
  8
0
  6
Continuous
 62
     7
370
    25
100
AcDbLine
 10
5834.0489085942
 20
4108.4961597697
 30
0.0
 11
7022.0489085942
 21
4108.4961597697
 31
0.0
  0
LINE
  5
EE
330
1F
100
AcDbEntity
  8
0
  6
Continuous
 62
     7
370
    25
100
AcDbLine
 10
7062.0489085942
 20
4108.4961597697
 30
0.0
 11
8250.0489085942
 21
4108.4961597697
 31
0.0
  0
LINE
  5
EF
330
1F
100
AcDbEntity
  8
0
  6
Continuous
 62
     7
370
    25
100
AcDbLine
 10
5834.0489085942
 20
4148.4961597697
 30
0.0
 11
7022.0489085942
 21
4148.4961597697
 31
0.0
  0
LINE
  5
F0
330
1F
100
AcDbEntity
  8
0
  6
Continuous
 62
     7
370
    25
100
AcDbLine
 10
7062.0489085942
 20
4148.4961597697
 30
0.0
 11
8250.0489085942
 21
4148.4961597697
 31
0.0
  0
LINE
  5
F1
330
1F
100
AcDbEntity
  8
0
  6
Continuous
 62
     7
370
    25
100
AcDbLine
 10
8255.5489085942
 20
3965.4961597697
 30
0.0
 11
8284.5489085942
 21
3965.4961597697
 31
0.0
  0
ELLIPSE
  5
F2
330
1F
100
AcDbEntity
  8
0
  6
Continuous
 62
     7
370
    25
100
AcDbEllipse
 10
8255.5489085942
 20
3971.4961597697
 30
0.0
 11
0.0
 21
5.999999999999544
 31
0.0
210
0.0
220
0.0
230
1.0
 40
0.5833333333
 41
1.570796326794897
 42
3.141592653589793
  0
LINE
  5
F3
330
1F
100
AcDbEntity
  8
0
  6
Continuous
 62
     7
370
    25
100
AcDbLine
 10
8288.0489085942
 20
3971.4961597697
 30
0.0
 11
8252.0489085942
 21
3971.4961597697
 31
0.0
  0
ELLIPSE
  5
F4
330
1F
100
AcDbEntity
  8
0
  6
Continuous
 62
     7
370
    25
100
AcDbEllipse
 10
8284.5489085942
 20
3971.4961597697
 30
0.0
 11
0.0
 21
5.999999999999544
 31
0.0
210
0.0
220
0.0
230
1.0
 40
0.5833333333
 41
3.141592653589793
 42
4.712388980384698
  0
LINE
  5
F5
330
1F
100
AcDbEntity
  8
0
  6
Continuous
 62
     7
370
    25
100
AcDbLine
 10
8252.0489085942
 20
3971.4961597697
 30
0.0
 11
8252.0489085942
 21
3973.4961597697
 31
0.0
  0
LINE
  5
F6
330
1F
100
AcDbEntity
  8
0
  6
Continuous
 62
     7
370
    25
100
AcDbLine
 10
8252.0489085942
 20
3973.4961597697
 30
0.0
 11
8288.0489085942
 21
3973.4961597697
 31
0.0
  0
LINE
  5
F7
330
1F
100
AcDbEntity
  8
0
  6
Continuous
 62
     7
370
    25
100
AcDbLine
 10
8288.0489085942
 20
3971.4961597697
 30
0.0
 11
8288.0489085942
 21
3973.4961597697
 31
0.0
  0
LINE
  5
F8
330
1F
100
AcDbEntity
  8
0
  6
Continuous
 62
     7
370
    25
100
AcDbLine
 10
8252.0489085942
 20
3971.4961597697
 30
0.0
 11
8249.5489085942
 21
3971.4961597697
 31
0.0
  0
LINE
  5
F9
330
1F
100
AcDbEntity
  8
0
  6
Continuous
 62
     7
370
    25
100
AcDbLine
 10
8249.5489085942
 20
3971.4961597697
 30
0.0
 11
8249.5489085942
 21
3973.4961597697
 31
0.0
  0
LINE
  5
FA
330
1F
100
AcDbEntity
  8
0
  6
Continuous
 62
     7
370
    25
100
AcDbLine
 10
8249.5489085942
 20
3973.4961597697
 30
0.0
 11
8252.0489085942
 21
3973.4961597697
 31
0.0
  0
ARC
  5
FB
330
1F
100
AcDbEntity
  8
0
  6
Continuous
 62
     7
370
    25
100
AcDbCircle
 10
8255.5489085942
 20
3971.4961597697
 30
0.0
 40
6.0
100
AcDbArc
 50
180.0
 51
270.0
  0
ARC
  5
FC
330
1F
100
AcDbEntity
  8
0
  6
Continuous
 62
     7
370
    25
100
AcDbCircle
 10
8284.5489085942
 20
3971.4961597697
 30
0.0
 40
6.0
100
AcDbArc
 50
270.0
 51
0.0
  0
LINE
  5
FD
330
1F
100
AcDbEntity
  8
0
  6
Continuous
 62
     7
370
    25
100
AcDbLine
 10
8290.5489085942
 20
3971.4961597697
 30
0.0
 11
8288.0489085942
 21
3971.4961597697
 31
0.0
  0
LINE
  5
FE
330
1F
100
AcDbEntity
  8
0
  6
Continuous
 62
     7
370
    25
100
AcDbLine
 10
8290.5489085942
 20
3971.4961597697
 30
0.0
 11
8290.5489085942
 21
3973.4961597697
 31
0.0
  0
LINE
  5
FF
330
1F
100
AcDbEntity
  8
0
  6
Continuous
 62
     7
370
    25
100
AcDbLine
 10
8288.0489085942
 20
3973.4961597697
 30
0.0
 11
8290.5489085942
 21
3973.4961597697
 31
0.0
  0
LINE
  5
100
330
1F
100
AcDbEntity
  8
0
  6
Continuous
 62
     7
370
    25
100
AcDbLine
 10
8278.709162632
 20
3953.4961597697
 30
0.0
 11
8278.709162632
 21
3961.4961597697
 31
0.0
  0
LINE
  5
101
330
1F
100
AcDbEntity
  8
0
  6
Continuous
 62
     7
370
    25
100
AcDbLine
 10
8261.3886545563
 20
3953.4961597697
 30
0.0
 11
8261.3886545563
 21
3961.4961597697
 31
0.0
  0
LINE
  5
102
330
1F
100
AcDbEntity
  8
0
  6
Continuous
 62
     7
370
    25
100
AcDbLine
 10
8261.3886545563
 20
3961.4961597697
 30
0.0
 11
8278.709162632
 21
3961.4961597697
 31
0.0
  0
LINE
  5
103
330
1F
100
AcDbEntity
  8
0
  6
Continuous
 62
     7
370
    25
100
AcDbLine
 10
8261.3886545563
 20
3953.4961597697
 30
0.0
 11
8278.709162632
 21
3953.4961597697
 31
0.0
  0
LINE
  5
104
330
1F
100
AcDbEntity
  8
0
  6
Continuous
 62
     7
370
    25
100
AcDbLine
 10
8287.3694166698
 20
3953.4961597697
 30
0.0
 11
8287.3694166698
 21
3961.4961597697
 31
0.0
  0
LINE
  5
105
330
1F
100
AcDbEntity
  8
0
  6
Continuous
 62
     7
370
    25
100
AcDbLine
 10
8278.709162632
 20
3961.4961597697
 30
0.0
 11
8287.3694166698
 21
3961.4961597697
 31
0.0
  0
LINE
  5
106
330
1F
100
AcDbEntity
  8
0
  6
Continuous
 62
     7
370
    25
100
AcDbLine
 10
8278.709162632
 20
3953.4961597697
 30
0.0
 11
8287.3694166698
 21
3953.4961597697
 31
0.0
  0
LINE
  5
107
330
1F
100
AcDbEntity
  8
0
  6
Continuous
 62
     7
370
    25
100
AcDbLine
 10
8252.7284005185
 20
3953.4961597697
 30
0.0
 11
8252.7284005185
 21
3961.4961597697
 31
0.0
  0
LINE
  5
108
330
1F
100
AcDbEntity
  8
0
  6
Continuous
 62
     7
370
    25
100
AcDbLine
 10
8252.7284005185
 20
3961.4961597697
 30
0.0
 11
8261.3886545563
 21
3961.4961597697
 31
0.0
  0
LINE
  5
109
330
1F
100
AcDbEntity
  8
0
  6
Continuous
 62
     7
370
    25
100
AcDbLine
 10
8252.7284005185
 20
3953.4961597697
 30
0.0
 11
8261.3886545563
 21
3953.4961597697
 31
0.0
  0
LINE
  5
10A
330
1F
100
AcDbEntity
  8
0
  6
Continuous
 62
     7
370
    25
100
AcDbLine
 10
8250.0489085942
 20
3973.4961597697
 30
0.0
 11
8250.0489085942
 21
4553.4961597697
 31
0.0
  0
LINE
  5
10B
330
1F
100
AcDbEntity
  8
0
  6
Continuous
 62
     7
370
    25
100
AcDbLine
 10
8290.0489085942
 20
3973.4961597697
 30
0.0
 11
8290.0489085942
 21
4553.4961597697
 31
0.0
  0
LINE
  5
10C
330
1F
100
AcDbEntity
  8
0
  6
Continuous
 62
     7
370
    25
100
AcDbLine
 10
8245.3989085942
 20
4776.8361597697
 30
0.0
 11
5838.6989085942
 21
4776.8361597697
 31
0.0
  0
LINE
  5
10D
330
1F
100
AcDbEntity
  8
0
  6
Continuous
 62
     7
370
    25
100
AcDbLine
 10
5838.6989085942
 20
4776.8361597697
 30
0.0
 11
5838.6989085942
 21
4778.4861597697
 31
0.0
  0
LINE
  5
10E
330
1F
100
AcDbEntity
  8
0
  6
Continuous
 62
     7
370
    25
100
AcDbLine
 10
8245.3989085942
 20
4778.4861597697
 30
0.0
 11
5838.6989085942
 21
4778.4861597697
 31
0.0
  0
LINE
  5
10F
330
1F
100
AcDbEntity
  8
0
  6
Continuous
 62
     7
370
    25
100
AcDbLine
 10
8245.3989085942
 20
4776.8361597697
 30
0.0
 11
8245.3989085942
 21
4778.4861597697
 31
0.0
  0
LINE
  5
110
330
1F
100
AcDbEntity
  8
0
  6
Continuous
 62
     7
370
    25
100
AcDbLine
 10
5838.6989085942
 20
4555.1461597697
 30
0.0
 11
5837.0489085942
 21
4555.1461597697
 31
0.0
  0
LINE
  5
111
330
1F
100
AcDbEntity
  8
0
  6
Continuous
 62
     7
370
    25
100
AcDbLine
 10
5837.0489085942
 20
4555.1461597697
 30
0.0
 11
5837.0489085942
 21
4776.8361597697
 31
0.0
  0
LINE
  5
112
330
1F
100
AcDbEntity
  8
0
  6
Continuous
 62
     7
370
    25
100
AcDbLine
 10
5838.6989085942
 20
4555.1461597697
 30
0.0
 11
5838.6989085942
 21
4776.8361597697
 31
0.0
  0
LINE
  5
113
330
1F
100
AcDbEntity
  8
0
  6
Continuous
 62
     7
370
    25
100
AcDbLine
 10
5837.0489085942
 20
4776.8361597697
 30
0.0
 11
5838.6989085942
 21
4776.8361597697
 31
0.0
  0
LINE
  5
114
330
1F
100
AcDbEntity
  8
0
  6
Continuous
 62
     7
370
    25
100
AcDbLine
 10
8245.3989085942
 20
4776.8361597697
 30
0.0
 11
8247.0489085942
 21
4776.8361597697
 31
0.0
  0
LINE
  5
115
330
1F
100
AcDbEntity
  8
0
  6
Continuous
 62
     7
370
    25
100
AcDbLine
 10
8247.0489085942
 20
4555.1461597697
 30
0.0
 11
8247.0489085942
 21
4776.8361597697
 31
0.0
  0
LINE
  5
116
330
1F
100
AcDbEntity
  8
0
  6
Continuous
 62
     7
370
    25
100
AcDbLine
 10
8245.3989085942
 20
4555.1461597697
 30
0.0
 11
8245.3989085942
 21
4776.8361597697
 31
0.0
  0
LINE
  5
117
330
1F
100
AcDbEntity
  8
0
  6
Continuous
 62
     7
370
    25
100
AcDbLine
 10
8247.0489085942
 20
4555.1461597697
 30
0.0
 11
8245.3989085942
 21
4555.1461597697
 31
0.0
  0
LINE
  5
118
330
1F
100
AcDbEntity
  8
0
  6
Continuous
 62
     7
370
    25
100
AcDbLine
 10
8245.3989085942
 20
4555.1461597697
 30
0.0
 11
5838.6989085942
 21
4555.1461597697
 31
0.0
  0
LINE
  5
119
330
1F
100
AcDbEntity
  8
0
  6
Continuous
 62
     7
370
    25
100
AcDbLine
 10
8245.3989085942
 20
4553.4961597697
 30
0.0
 11
5838.6989085942
 21
4553.4961597697
 31
0.0
  0
LINE
  5
11A
330
1F
100
AcDbEntity
  8
0
  6
Continuous
 62
     7
370
    25
100
AcDbLine
 10
5838.6989085942
 20
4553.4961597697
 30
0.0
 11
5838.6989085942
 21
4555.1461597697
 31
0.0
  0
LINE
  5
11B
330
1F
100
AcDbEntity
  8
0
  6
Continuous
 62
     7
370
    25
100
AcDbLine
 10
8245.3989085942
 20
4553.4961597697
 30
0.0
 11
8245.3989085942
 21
4555.1461597697
 31
0.0
  0
LINE
  5
11C
330
1F
100
AcDbEntity
  8
0
  6
Continuous
 62
     7
370
    25
100
AcDbLine
 10
8292.0489085942
 20
4553.4961597697
 30
0.0
 11
8292.0489085942
 21
4778.4861597697
 31
0.0
  0
LINE
  5
11D
330
1F
100
AcDbEntity
  8
0
  6
Continuous
 62
     7
370
    25
100
AcDbLine
 10
8288.9489085942
 20
4553.4961597697
 30
0.0
 11
8292.0489085942
 21
4553.4961597697
 31
0.0
  0
LINE
  5
11E
330
1F
100
AcDbEntity
  8
0
  6
Continuous
 62
     7
370
    25
100
AcDbLine
 10
8288.9489085942
 20
4553.4961597697
 30
0.0
 11
8288.9489085942
 21
4778.4861597697
 31
0.0
  0
LINE
  5
11F
330
1F
100
AcDbEntity
  8
0
  6
Continuous
 62
     7
370
    25
100
AcDbLine
 10
8292.0489085942
 20
4778.4861597697
 30
0.0
 11
8288.9489085942
 21
4778.4861597697
 31
0.0
  0
LINE
  5
120
330
1F
100
AcDbEntity
  8
0
  6
Continuous
 62
     7
370
    25
100
AcDbLine
 10
8250.1489085942
 20
4553.4961597697
 30
0.0
 11
8288.9489085942
 21
4553.4961597697
 31
0.0
  0
LINE
  5
121
330
1F
100
AcDbEntity
  8
0
  6
Continuous
 62
     7
370
    25
100
AcDbLine
 10
8250.1489085942
 20
4553.4961597697
 30
0.0
 11
8250.1489085942
 21
4778.4861597697
 31
0.0
  0
LINE
  5
122
330
1F
100
AcDbEntity
  8
0
  6
Continuous
 62
     7
370
    25
100
AcDbLine
 10
8288.9489085942
 20
4778.4861597697
 30
0.0
 11
8250.1489085942
 21
4778.4861597697
 31
0.0
  0
LINE
  5
123
330
1F
100
AcDbEntity
  8
0
  6
Continuous
 62
     7
370
    25
100
AcDbLine
 10
8250.1489085942
 20
4553.4961597697
 30
0.0
 11
8247.0489085942
 21
4553.4961597697
 31
0.0
  0
LINE
  5
124
330
1F
100
AcDbEntity
  8
0
  6
Continuous
 62
     7
370
    25
100
AcDbLine
 10
8247.0489085942
 20
4553.4961597697
 30
0.0
 11
8247.0489085942
 21
4555.1461597697
 31
0.0
  0
LINE
  5
125
330
1F
100
AcDbEntity
  8
0
  6
Continuous
 62
     7
370
    25
100
AcDbLine
 10
8247.0489085942
 20
4776.8361597697
 30
0.0
 11
8247.0489085942
 21
4778.4861597697
 31
0.0
  0
LINE
  5
126
330
1F
100
AcDbEntity
  8
0
  6
Continuous
 62
     7
370
    25
100
AcDbLine
 10
8247.0489085942
 20
4778.4861597697
 30
0.0
 11
8250.1489085942
 21
4778.4861597697
 31
0.0
  0
LINE
  5
127
330
1F
100
AcDbEntity
  8
0
  6
Continuous
 62
     7
370
    25
100
AcDbLine
 10
8292.0489085942
 20
4801.2961597697
 30
0.0
 11
8290.0489085942
 21
4801.2961597697
 31
0.0
  0
LINE
  5
128
330
1F
100
AcDbEntity
  8
0
  6
Continuous
 62
     7
370
    25
100
AcDbLine
 10
8292.0489085942
 20
4778.4961597697
 30
0.0
 11
8290.0489085942
 21
4778.4961597697
 31
0.0
  0
LINE
  5
129
330
1F
100
AcDbEntity
  8
0
  6
Continuous
 62
     7
370
    25
100
AcDbLine
 10
8290.0489085942
 20
4801.2961597697
 30
0.0
 11
8290.0489085942
 21
4778.4961597697
 31
0.0
  0
LINE
  5
12A
330
1F
100
AcDbEntity
  8
0
  6
Continuous
 62
     7
370
    25
100
AcDbLine
 10
8292.0489085942
 20
4801.2961597697
 30
0.0
 11
8292.0489085942
 21
4778.4961597697
 31
0.0
  0
LINE
  5
12B
330
1F
100
AcDbEntity
  8
0
  6
Continuous
 62
     7
370
    25
100
AcDbLine
 10
8292.0489085942
 20
4803.4961597697
 30
0.0
 11
8290.0489085942
 21
4803.4961597697
 31
0.0
  0
LINE
  5
12C
330
1F
100
AcDbEntity
  8
0
  6
Continuous
 62
     7
370
    25
100
AcDbLine
 10
8290.0489085942
 20
4803.4961597697
 30
0.0
 11
8290.0489085942
 21
4801.2961597697
 31
0.0
  0
LINE
  5
12D
330
1F
100
AcDbEntity
  8
0
  6
Continuous
 62
     7
370
    25
100
AcDbLine
 10
8292.0489085942
 20
4803.4961597697
 30
0.0
 11
8292.0489085942
 21
4801.2961597697
 31
0.0
  0
LINE
  5
12E
330
1F
100
AcDbEntity
  8
0
  6
Continuous
 62
     7
370
    25
100
AcDbLine
 10
8290.0489085942
 20
4778.4961597697
 30
0.0
 11
8290.0489085942
 21
4778.4861597697
 31
0.0
  0
LINE
  5
12F
330
1F
100
AcDbEntity
  8
0
  6
Continuous
 62
     7
370
    25
100
AcDbLine
 10
8292.0489085942
 20
4778.4961597697
 30
0.0
 11
8292.0489085942
 21
4778.4861597697
 31
0.0
  0
LINE
  5
130
330
1F
100
AcDbEntity
  8
0
  6
Continuous
 62
     7
370
    25
100
AcDbLine
 10
8292.0489085942
 20
5213.2387315348
 30
0.0
 11
8290.0489085942
 21
5213.2387315348
 31
0.0
  0
LINE
  5
131
330
1F
100
AcDbEntity
  8
0
  6
Continuous
 62
     7
370
    25
100
AcDbLine
 10
8292.0489085942
 20
5211.0868068132
 30
0.0
 11
8290.0489085942
 21
5211.0868068132
 31
0.0
  0
LINE
  5
132
330
1F
100
AcDbEntity
  8
0
  6
Continuous
 62
     7
370
    25
100
AcDbLine
 10
8290.0489085942
 20
5213.2387315348
 30
0.0
 11
8290.0489085942
 21
5211.0868068132
 31
0.0
  0
LINE
  5
133
330
1F
100
AcDbEntity
  8
0
  6
Continuous
 62
     7
370
    25
100
AcDbLine
 10
8292.0489085942
 20
5213.2387315348
 30
0.0
 11
8292.0489085942
 21
5211.0868068132
 31
0.0
  0
LINE
  5
134
330
1F
100
AcDbEntity
  8
0
  6
Continuous
 62
     7
370
    25
100
AcDbLine
 10
8290.0489085942
 20
5211.0868068132
 30
0.0
 11
8290.0489085942
 21
4803.4961597697
 31
0.0
  0
LINE
  5
135
330
1F
100
AcDbEntity
  8
0
  6
Continuous
 62
     7
370
    25
100
AcDbLine
 10
8292.0489085942
 20
5211.0868068132
 30
0.0
 11
8292.0489085942
 21
4803.4961597697
 31
0.0
  0
LINE
  5
136
330
1F
100
AcDbEntity
  8
0
  6
Continuous
 62
     7
370
    25
100
AcDbLine
 10
8292.0489085942
 20
5222.931310747
 30
0.0
 11
8290.0489085942
 21
5222.931310747
 31
0.0
  0
LINE
  5
137
330
1F
100
AcDbEntity
  8
0
  6
Continuous
 62
     7
370
    25
100
AcDbLine
 10
8290.0489085942
 20
5222.931310747
 30
0.0
 11
8290.0489085942
 21
5213.2387315348
 31
0.0
  0
LINE
  5
138
330
1F
100
AcDbEntity
  8
0
  6
Continuous
 62
     7
370
    25
100
AcDbLine
 10
8292.0489085942
 20
5222.931310747
 30
0.0
 11
8292.0489085942
 21
5213.2387315348
 31
0.0
  0
LINE
  5
139
330
1F
100
AcDbEntity
  8
0
  6
Continuous
 62
     7
370
    25
100
AcDbLine
 10
8290.0489085942
 20
5222.9793860254
 30
0.0
 11
8290.0489085942
 21
5222.931310747
 31
0.0
  0
LINE
  5
13A
330
1F
100
AcDbEntity
  8
0
  6
Continuous
 62
     7
370
    25
100
AcDbLine
 10
8292.0489085942
 20
5222.9793860254
 30
0.0
 11
8292.0489085942
 21
5222.931310747
 31
0.0
  0
LINE
  5
13B
330
1F
100
AcDbEntity
  8
0
  6
Continuous
 62
     7
370
    25
100
AcDbLine
 10
5795.1489085942
 20
4553.4961597697
 30
0.0
 11
5795.1489085942
 21
4778.4861597697
 31
0.0
  0
LINE
  5
13C
330
1F
100
AcDbEntity
  8
0
  6
Continuous
 62
     7
370
    25
100
AcDbLine
 10
5795.1489085942
 20
4553.4961597697
 30
0.0
 11
5792.0489085942
 21
4553.4961597697
 31
0.0
  0
LINE
  5
13D
330
1F
100
AcDbEntity
  8
0
  6
Continuous
 62
     7
370
    25
100
AcDbLine
 10
5792.0489085942
 20
4553.4961597697
 30
0.0
 11
5792.0489085942
 21
4778.4861597697
 31
0.0
  0
LINE
  5
13E
330
1F
100
AcDbEntity
  8
0
  6
Continuous
 62
     7
370
    25
100
AcDbLine
 10
5792.0489085942
 20
4778.4861597697
 30
0.0
 11
5795.1489085942
 21
4778.4861597697
 31
0.0
  0
LINE
  5
13F
330
1F
100
AcDbEntity
  8
0
  6
Continuous
 62
     7
370
    25
100
AcDbLine
 10
5833.9489085942
 20
4553.4961597697
 30
0.0
 11
5833.9489085942
 21
4778.4861597697
 31
0.0
  0
LINE
  5
140
330
1F
100
AcDbEntity
  8
0
  6
Continuous
 62
     7
370
    25
100
AcDbLine
 10
5833.9489085942
 20
4553.4961597697
 30
0.0
 11
5795.1489085942
 21
4553.4961597697
 31
0.0
  0
LINE
  5
141
330
1F
100
AcDbEntity
  8
0
  6
Continuous
 62
     7
370
    25
100
AcDbLine
 10
5795.1489085942
 20
4778.4861597697
 30
0.0
 11
5833.9489085942
 21
4778.4861597697
 31
0.0
  0
LINE
  5
142
330
1F
100
AcDbEntity
  8
0
  6
Continuous
 62
     7
370
    25
100
AcDbLine
 10
5833.9489085942
 20
4553.4961597697
 30
0.0
 11
5837.0489085942
 21
4553.4961597697
 31
0.0
  0
LINE
  5
143
330
1F
100
AcDbEntity
  8
0
  6
Continuous
 62
     7
370
    25
100
AcDbLine
 10
5837.0489085942
 20
4778.4861597697
 30
0.0
 11
5833.9489085942
 21
4778.4861597697
 31
0.0
  0
LINE
  5
144
330
1F
100
AcDbEntity
  8
0
  6
Continuous
 62
     7
370
    25
100
AcDbLine
 10
5837.0489085942
 20
4553.4961597697
 30
0.0
 11
5837.0489085942
 21
4555.1461597697
 31
0.0
  0
LINE
  5
145
330
1F
100
AcDbEntity
  8
0
  6
Continuous
 62
     7
370
    25
100
AcDbLine
 10
5837.0489085942
 20
4776.8361597697
 30
0.0
 11
5837.0489085942
 21
4778.4861597697
 31
0.0
  0
LINE
  5
146
330
1F
100
AcDbEntity
  8
0
  6
Continuous
 62
     7
370
    25
100
AcDbLine
 10
5792.0489085942
 20
4801.2961597697
 30
0.0
 11
5792.0489085942
 21
4778.4961597697
 31
0.0
  0
LINE
  5
147
330
1F
100
AcDbEntity
  8
0
  6
Continuous
 62
     7
370
    25
100
AcDbLine
 10
5792.0489085942
 20
4801.2961597697
 30
0.0
 11
5794.0489085942
 21
4801.2961597697
 31
0.0
  0
LINE
  5
148
330
1F
100
AcDbEntity
  8
0
  6
Continuous
 62
     7
370
    25
100
AcDbLine
 10
5794.0489085942
 20
4801.2961597697
 30
0.0
 11
5794.0489085942
 21
4778.4961597697
 31
0.0
  0
LINE
  5
149
330
1F
100
AcDbEntity
  8
0
  6
Continuous
 62
     7
370
    25
100
AcDbLine
 10
5792.0489085942
 20
4778.4961597697
 30
0.0
 11
5794.0489085942
 21
4778.4961597697
 31
0.0
  0
LINE
  5
14A
330
1F
100
AcDbEntity
  8
0
  6
Continuous
 62
     7
370
    25
100
AcDbLine
 10
5792.0489085942
 20
4803.4961597697
 30
0.0
 11
5792.0489085942
 21
4801.2961597697
 31
0.0
  0
LINE
  5
14B
330
1F
100
AcDbEntity
  8
0
  6
Continuous
 62
     7
370
    25
100
AcDbLine
 10
5792.0489085942
 20
4803.4961597697
 30
0.0
 11
5794.0489085942
 21
4803.4961597697
 31
0.0
  0
LINE
  5
14C
330
1F
100
AcDbEntity
  8
0
  6
Continuous
 62
     7
370
    25
100
AcDbLine
 10
5794.0489085942
 20
4803.4961597697
 30
0.0
 11
5794.0489085942
 21
4801.2961597697
 31
0.0
  0
LINE
  5
14D
330
1F
100
AcDbEntity
  8
0
  6
Continuous
 62
     7
370
    25
100
AcDbLine
 10
5792.0489085942
 20
4778.4961597697
 30
0.0
 11
5792.0489085942
 21
4778.4861597697
 31
0.0
  0
LINE
  5
14E
330
1F
100
AcDbEntity
  8
0
  6
Continuous
 62
     7
370
    25
100
AcDbLine
 10
5794.0489085942
 20
4778.4961597697
 30
0.0
 11
5794.0489085942
 21
4778.4861597697
 31
0.0
  0
LINE
  5
14F
330
1F
100
AcDbEntity
  8
0
  6
Continuous
 62
     7
370
    25
100
AcDbLine
 10
5792.0489085942
 20
5211.0868068132
 30
0.0
 11
5794.0489085942
 21
5211.0868068132
 31
0.0
  0
LINE
  5
150
330
1F
100
AcDbEntity
  8
0
  6
Continuous
 62
     7
370
    25
100
AcDbLine
 10
5792.0489085942
 20
5211.0868068132
 30
0.0
 11
5792.0489085942
 21
4803.4961597697
 31
0.0
  0
LINE
  5
151
330
1F
100
AcDbEntity
  8
0
  6
Continuous
 62
     7
370
    25
100
AcDbLine
 10
5794.0489085942
 20
5211.0868068132
 30
0.0
 11
5794.0489085942
 21
4803.4961597697
 31
0.0
  0
LINE
  5
152
330
1F
100
AcDbEntity
  8
0
  6
Continuous
 62
     7
370
    25
100
AcDbLine
 10
5792.0489085942
 20
5213.2387315348
 30
0.0
 11
5794.0489085942
 21
5213.2387315348
 31
0.0
  0
LINE
  5
153
330
1F
100
AcDbEntity
  8
0
  6
Continuous
 62
     7
370
    25
100
AcDbLine
 10
5792.0489085942
 20
5213.2387315348
 30
0.0
 11
5792.0489085942
 21
5211.0868068132
 31
0.0
  0
LINE
  5
154
330
1F
100
AcDbEntity
  8
0
  6
Continuous
 62
     7
370
    25
100
AcDbLine
 10
5794.0489085942
 20
5213.2387315348
 30
0.0
 11
5794.0489085942
 21
5211.0868068132
 31
0.0
  0
LINE
  5
155
330
1F
100
AcDbEntity
  8
0
  6
Continuous
 62
     7
370
    25
100
AcDbLine
 10
5792.0489085942
 20
5222.931310747
 30
0.0
 11
5794.0489085942
 21
5222.931310747
 31
0.0
  0
LINE
  5
156
330
1F
100
AcDbEntity
  8
0
  6
Continuous
 62
     7
370
    25
100
AcDbLine
 10
5792.0489085942
 20
5222.931310747
 30
0.0
 11
5792.0489085942
 21
5213.2387315348
 31
0.0
  0
LINE
  5
157
330
1F
100
AcDbEntity
  8
0
  6
Continuous
 62
     7
370
    25
100
AcDbLine
 10
5794.0489085942
 20
5222.931310747
 30
0.0
 11
5794.0489085942
 21
5213.2387315348
 31
0.0
  0
LINE
  5
158
330
1F
100
AcDbEntity
  8
0
  6
Continuous
 62
     7
370
    25
100
AcDbLine
 10
5792.0489085942
 20
5222.9793860254
 30
0.0
 11
5792.0489085942
 21
5222.931310747
 31
0.0
  0
LINE
  5
159
330
1F
100
AcDbEntity
  8
0
  6
Continuous
 62
     7
370
    25
100
AcDbLine
 10
5794.0489085942
 20
5222.9793860254
 30
0.0
 11
5794.0489085942
 21
5222.931310747
 31
0.0
  0
LINE
  5
15A
330
1F
100
AcDbEntity
  8
0
  6
Continuous
 62
     7
370
    25
100
AcDbLine
 10
5794.0489085942
 20
4801.2961597697
 30
0.0
 11
8290.0489085942
 21
4801.2961597697
 31
0.0
  0
LINE
  5
15B
330
1F
100
AcDbEntity
  8
0
  6
Continuous
 62
     7
370
    25
100
AcDbLine
 10
5794.0489085942
 20
4778.4961597697
 30
0.0
 11
8290.0489085942
 21
4778.4961597697
 31
0.0
  0
LINE
  5
15C
330
1F
100
AcDbEntity
  8
0
  6
Continuous
 62
     7
370
    25
100
AcDbLine
 10
8290.0489085942
 20
4803.4961597697
 30
0.0
 11
5794.0489085942
 21
4803.4961597697
 31
0.0
  0
LINE
  5
15D
330
1F
100
AcDbEntity
  8
0
  6
Continuous
 62
     7
370
    25
100
AcDbLine
 10
5794.0489085942
 20
5211.0868068132
 30
0.0
 11
8290.0489085942
 21
5211.0868068132
 31
0.0
  0
LINE
  5
15E
330
1F
100
AcDbEntity
  8
0
  6
Continuous
 62
     7
370
    25
100
AcDbLine
 10
8290.0489085942
 20
5213.2387315348
 30
0.0
 11
5794.0489085942
 21
5213.2387315348
 31
0.0
  0
LINE
  5
15F
330
1F
100
AcDbEntity
  8
0
  6
Continuous
 62
     7
370
    25
100
AcDbLine
 10
5794.0489085942
 20
5222.931310747
 30
0.0
 11
8290.0489085942
 21
5222.931310747
 31
0.0
  0
ARC
  5
160
330
1F
100
AcDbEntity
  8
0
  6
Continuous
 62
     7
370
    25
100
AcDbCircle
 10
5944.5489085942
 20
4499.752049997
 30
0.0
 40
40.00000000000063
100
AcDbArc
 50
125.0996321954
 51
216.1070114058
  0
ARC
  5
161
330
1F
100
AcDbEntity
  8
0
  6
Continuous
 62
     7
370
    25
100
AcDbCircle
 10
5944.5489085942
 20
4499.752049997
 30
0.0
 40
40.00000000000063
100
AcDbArc
 50
323.8929885942
 51
54.9003678046
  0
LINE
  5
162
330
1F
100
AcDbEntity
  8
0
  6
Continuous
 62
     7
370
    25
100
AcDbLine
 10
5910.5489085942
 20
4461.752049997
 30
0.0
 11
5978.5489085942
 21
4461.752049997
 31
0.0
  0
LINE
  5
163
330
1F
100
AcDbEntity
  8
0
  6
Continuous
 62
     7
370
    25
100
AcDbLine
 10
5920.2192562563
 20
4521.752049997
 30
0.0
 11
5968.8785609321
 21
4521.752049997
 31
0.0
  0
LINE
  5
164
330
1F
100
AcDbEntity
  8
0
  6
Continuous
 62
     7
370
    25
100
AcDbLine
 10
5920.427080728
 20
4391.752049997
 30
0.0
 11
5968.6707364604
 21
4391.752049997
 31
0.0
  0
LINE
  5
165
330
1F
100
AcDbEntity
  8
0
  6
Continuous
 62
     7
370
    25
100
AcDbLine
 10
5921.5489085942
 20
4528.252049997
 30
0.0
 11
5967.5489085942
 21
4528.252049997
 31
0.0
  0
LINE
  5
166
330
1F
100
AcDbEntity
  8
0
  6
Continuous
 62
     7
370
    25
100
AcDbLine
 10
5919.5489085942
 20
4524.252049997
 30
0.0
 11
5969.5489085942
 21
4524.252049997
 31
0.0
  0
LINE
  5
167
330
1F
100
AcDbEntity
  8
0
  6
Continuous
 62
     7
370
    25
100
AcDbLine
 10
5924.5489085942
 20
4538.252049997
 30
0.0
 11
5964.5489085942
 21
4538.252049997
 31
0.0
  0
LINE
  5
168
330
1F
100
AcDbEntity
  8
0
  6
Continuous
 62
     7
370
    25
100
AcDbLine
 10
5961.0489085942
 20
4521.752049997
 30
0.0
 11
5960.5489085942
 21
4522.1183192433
 31
0.0
  0
LINE
  5
169
330
1F
100
AcDbEntity
  8
0
  6
Continuous
 62
     7
370
    25
100
AcDbLine
 10
5928.5489085942
 20
4522.1183192433
 30
0.0
 11
5928.0489085942
 21
4521.752049997
 31
0.0
  0
LWPOLYLINE
  5
16A
330
1F
100
AcDbEntity
  8
0
  6
Continuous
 62
     7
370
    25
100
AcDbPolyline
 90
       14
 70
   128
 43
0.0
 10
5914.0489085942
 20
5215.7020848989
 10
5916.1326867262
 20
5215.739988648
 10
5918.1531503141
 20
5215.8525482091
 10
5920.0489085942
 20
5216.0363435168
 10
5921.7623599104
 20
5216.2857900438
 10
5923.2414419116
 20
5216.5933084835
 10
5924.4412134396
 20
5216.9495550438
 10
5925.3252200436
 20
5217.3437053532
 10
5925.8666016303
 20
5217.763783354
 10
5926.0489085942
 20
5218.1970251887
 10
5925.8666016303
 20
5218.6302670234
 10
5925.3252200436
 20
5219.0503450242
 10
5924.4412134396
 20
5219.4444953336
 10
5923.4645414678
 20
5219.7437799833
  0
LWPOLYLINE
  5
16B
330
1F
100
AcDbEntity
  8
0
  6
Continuous
 62
     7
370
    25
100
AcDbPolyline
 90
       14
 70
   128
 43
0.0
 10
5904.6332757205
 20
5219.7437799833
 10
5903.6566037488
 20
5219.4444953336
 10
5902.7725971447
 20
5219.0503450242
 10
5902.231215558
 20
5218.6302670234
 10
5902.0489085942
 20
5218.1970251887
 10
5902.231215558
 20
5217.763783354
 10
5902.7725971447
 20
5217.3437053532
 10
5903.6566037488
 20
5216.9495550438
 10
5904.8563752767
 20
5216.5933084835
 10
5906.3354572779
 20
5216.2857900438
 10
5908.0489085942
 20
5216.0363435168
 10
5909.9446668743
 20
5215.8525482091
 10
5911.9651304622
 20
5215.739988648
 10
5914.0489085942
 20
5215.7020848989
  0
CIRCLE
  5
16C
330
1F
100
AcDbEntity
  8
0
  6
Continuous
 62
     7
370
    25
100
AcDbCircle
 10
6862.0489085942
 20
5113.4961597697
 30
0.0
 40
12.5
  0
LINE
  5
16D
330
1F
100
AcDbEntity
  8
0
  6
Continuous
 62
     7
370
    25
100
AcDbLine
 10
6861.6589823588
 20
5118.6925535827
 30
0.0
 11
6861.6589823588
 21
5122.2382732272
 31
0.0
  0
LINE
  5
16E
330
1F
100
AcDbEntity
  8
0
  6
Continuous
 62
     7
370
    25
100
AcDbLine
 10
6858.4248965683
 20
5122.2382732272
 30
0.0
 11
6858.4248965683
 21
5114.6998216416
 31
0.0
  0
ARC
  5
16F
330
1F
100
AcDbEntity
  8
0
  6
Continuous
 62
     7
370
    25
100
AcDbCircle
 10
6856.5798463051
 20
5112.9121928395
 30
0.0
 40
2.56901288587183
100
AcDbArc
 50
44.0944057145
 51
105.4941474424
  0
LINE
  5
170
330
1F
100
AcDbEntity
  8
0
  6
Continuous
 62
     7
370
    25
100
AcDbLine
 10
6855.8935603484
 20
5115.3878420055
 30
0.0
 11
6855.8935603484
 21
5109.9667274401
 31
0.0
  0
ARC
  5
171
330
1F
100
AcDbEntity
  8
0
  6
Continuous
 62
     7
370
    25
100
AcDbCircle
 10
6862.2160906762
 20
5109.9667274401
 30
0.0
 40
6.322530327734057
100
AcDbArc
 50
180.0
 51
270.0
  0
LINE
  5
172
330
1F
100
AcDbEntity
  8
0
  6
Continuous
 62
     7
370
    25
100
AcDbLine
 10
6862.2160906762
 20
5103.6441971124
 30
0.0
 11
6864.5833150831
 21
5103.6441971124
 31
0.0
  0
ARC
  5
173
330
1F
100
AcDbEntity
  8
0
  6
Continuous
 62
     7
370
    25
100
AcDbCircle
 10
6864.5833150831
 20
5108.199797663
 30
0.0
 40
4.555600550638701
100
AcDbArc
 50
270.0
 51
0.0
  0
LINE
  5
174
330
1F
100
AcDbEntity
  8
0
  6
Continuous
 62
     7
370
    25
100
AcDbLine
 10
6869.1389156338
 20
5108.199797663
 30
0.0
 11
6869.1389156338
 21
5116.0365681913
 31
0.0
  0
ARC
  5
175
330
1F
100
AcDbEntity
  8
0
  6
Continuous
 62
     7
370
    25
100
AcDbCircle
 10
6867.7853043876
 20
5116.0365681913
 30
0.0
 40
1.353611246209766
100
AcDbArc
 50
0.0
 51
90.0
  0
LINE
  5
176
330
1F
100
AcDbEntity
  8
0
  6
Continuous
 62
     7
370
    25
100
AcDbLine
 10
6867.7853043876
 20
5117.3901794375
 30
0.0
 11
6867.2910789229
 21
5117.3901794375
 31
0.0
  0
ARC
  5
177
330
1F
100
AcDbEntity
  8
0
  6
Continuous
 62
     7
370
    25
100
AcDbCircle
 10
6867.2910789229
 20
5116.0365681913
 30
0.0
 40
1.353611246210064
100
AcDbArc
 50
90.0
 51
118.7365577358
  0
ARC
  5
178
330
1F
100
AcDbEntity
  8
0
  6
Continuous
 62
     7
370
    25
100
AcDbCircle
 10
6865.3078190531
 20
5116.9851481148
 30
0.0
 40
1.353611246208338
100
AcDbArc
 50
10.1404867648
 51
90.0
  0
LINE
  5
179
330
1F
100
AcDbEntity
  8
0
  6
Continuous
 62
     7
370
    25
100
AcDbLine
 10
6865.3078190531
 20
5118.338759361
 30
0.0
 11
6864.7285017711
 21
5118.338759361
 31
0.0
  0
ARC
  5
17A
330
1F
100
AcDbEntity
  8
0
  6
Continuous
 62
     7
370
    25
100
AcDbCircle
 10
6864.7285017711
 20
5116.9851481148
 30
0.0
 40
1.353611246208774
100
AcDbArc
 50
90.0
 51
124.7440022271
  0
ARC
  5
17B
330
1F
100
AcDbEntity
  8
0
  6
Continuous
 62
     7
370
    25
100
AcDbCircle
 10
6862.7452419014
 20
5117.4943023499
 30
0.0
 40
1.353611246207373
100
AcDbArc
 50
26.4592691592
 51
90.0
  0
LINE
  5
17C
330
1F
100
AcDbEntity
  8
0
  6
Continuous
 62
     7
370
    25
100
AcDbLine
 10
6862.7452419014
 20
5118.8479135961
 30
0.0
 11
6862.2886309823
 21
5118.8479135961
 31
0.0
  0
ARC
  5
17D
330
1F
100
AcDbEntity
  8
0
  6
Continuous
 62
     7
370
    25
100
AcDbCircle
 10
6862.2886309823
 20
5117.4943023499
 30
0.0
 40
1.35361124620922
100
AcDbArc
 50
90.0
 51
117.7207121261
  0
ARC
  5
17E
330
1F
100
AcDbEntity
  8
0
  6
Continuous
 62
     7
370
    25
100
AcDbCircle
 10
6860.0419394635
 20
5122.2382732272
 30
0.0
 40
1.617042895244595
100
AcDbArc
 50
0.0
 51
180.0
  0
ARC
  5
17F
330
1F
100
AcDbEntity
  8
0
  6
Continuous
 62
     7
370
    25
100
AcDbCircle
 10
6861.2970010474
 20
5114.5674329531
 30
0.0
 40
0.6676186886570576
100
AcDbArc
 50
180.0
 51
0.0
  0
LINE
  5
180
330
1F
100
AcDbEntity
  8
0
  6
Continuous
 62
     7
370
    25
100
AcDbLine
 10
6861.9646197361
 20
5117.5084644877
 30
0.0
 11
6861.9646197361
 21
5114.5674329531
 31
0.0
  0
ARC
  5
181
330
1F
100
AcDbEntity
  8
0
  6
Continuous
 62
     7
370
    25
100
AcDbCircle
 10
6862.2047298524
 20
5117.5084644877
 30
0.0
 40
0.2401101162877239
100
AcDbArc
 50
90.0
 51
180.0
  0
LINE
  5
182
330
1F
100
AcDbEntity
  8
0
  6
Continuous
 62
     7
370
    25
100
AcDbLine
 10
6862.8291430313
 20
5117.748574604
 30
0.0
 11
6862.2047298524
 21
5117.748574604
 31
0.0
  0
ARC
  5
183
330
1F
100
AcDbEntity
  8
0
  6
Continuous
 62
     7
370
    25
100
AcDbCircle
 10
6862.8291430313
 20
5117.5084644877
 30
0.0
 40
0.2401101162877239
100
AcDbArc
 50
0.0
 51
90.0
  0
LINE
  5
184
330
1F
100
AcDbEntity
  8
0
  6
Continuous
 62
     7
370
    25
100
AcDbLine
 10
6863.0692531476
 20
5114.5674329531
 30
0.0
 11
6863.0692531476
 21
5117.5084644877
 31
0.0
  0
ARC
  5
185
330
1F
100
AcDbEntity
  8
0
  6
Continuous
 62
     7
370
    25
100
AcDbCircle
 10
6863.7368718362
 20
5114.5674329531
 30
0.0
 40
0.6676186886570576
100
AcDbArc
 50
180.0
 51
0.0
  0
LINE
  5
186
330
1F
100
AcDbEntity
  8
0
  6
Continuous
 62
     7
370
    25
100
AcDbLine
 10
6864.4044905249
 20
5116.9993102525
 30
0.0
 11
6864.4044905249
 21
5114.5674329531
 31
0.0
  0
ARC
  5
187
330
1F
100
AcDbEntity
  8
0
  6
Continuous
 62
     7
370
    25
100
AcDbCircle
 10
6864.6446006412
 20
5116.9993102525
 30
0.0
 40
0.2401101162886334
100
AcDbArc
 50
90.0
 51
180.0
  0
LINE
  5
188
330
1F
100
AcDbEntity
  8
0
  6
Continuous
 62
     7
370
    25
100
AcDbLine
 10
6865.3917201831
 20
5117.2394203688
 30
0.0
 11
6864.6446006412
 21
5117.2394203688
 31
0.0
  0
ARC
  5
189
330
1F
100
AcDbEntity
  8
0
  6
Continuous
 62
     7
370
    25
100
AcDbCircle
 10
6865.3917201831
 20
5116.9993102525
 30
0.0
 40
0.2401101162886334
100
AcDbArc
 50
0.0
 51
90.0
  0
LINE
  5
18A
330
1F
100
AcDbEntity
  8
0
  6
Continuous
 62
     7
370
    25
100
AcDbLine
 10
6865.6318302994
 20
5114.5674329531
 30
0.0
 11
6865.6318302994
 21
5116.9993102525
 31
0.0
  0
ARC
  5
18B
330
1F
100
AcDbEntity
  8
0
  6
Continuous
 62
     7
370
    25
100
AcDbCircle
 10
6866.299448988
 20
5114.5674329531
 30
0.0
 40
0.6676186886570576
100
AcDbArc
 50
180.0
 51
0.0
  0
LINE
  5
18C
330
1F
100
AcDbEntity
  8
0
  6
Continuous
 62
     7
370
    25
100
AcDbLine
 10
6866.9670676767
 20
5116.0829599438
 30
0.0
 11
6866.9670676767
 21
5114.5674329531
 31
0.0
  0
ARC
  5
18D
330
1F
100
AcDbEntity
  8
0
  6
Continuous
 62
     7
370
    25
100
AcDbCircle
 10
6867.207177793
 20
5116.0829599438
 30
0.0
 40
0.2401101162886334
100
AcDbArc
 50
90.0
 51
180.0
  0
LINE
  5
18E
330
1F
100
AcDbEntity
  8
0
  6
Continuous
 62
     7
370
    25
100
AcDbLine
 10
6867.8692055175
 20
5116.3230700601
 30
0.0
 11
6867.207177793
 21
5116.3230700601
 31
0.0
  0
ARC
  5
18F
330
1F
100
AcDbEntity
  8
0
  6
Continuous
 62
     7
370
    25
100
AcDbCircle
 10
6867.8692055175
 20
5116.0829599438
 30
0.0
 40
0.2401101162886334
100
AcDbArc
 50
0.0
 51
90.0
  0
LINE
  5
190
330
1F
100
AcDbEntity
  8
0
  6
Continuous
 62
     7
370
    25
100
AcDbLine
 10
6868.1093156338
 20
5108.199797663
 30
0.0
 11
6868.1093156338
 21
5116.0829599438
 31
0.0
  0
ARC
  5
191
330
1F
100
AcDbEntity
  8
0
  6
Continuous
 62
     7
370
    25
100
AcDbCircle
 10
6864.5833150831
 20
5108.199797663
 30
0.0
 40
3.526000550638855
100
AcDbArc
 50
270.0
 51
0.0
  0
LINE
  5
192
330
1F
100
AcDbEntity
  8
0
  6
Continuous
 62
     7
370
    25
100
AcDbLine
 10
6862.2160906762
 20
5104.6737971124
 30
0.0
 11
6864.5833150831
 21
5104.6737971124
 31
0.0
  0
ARC
  5
193
330
1F
100
AcDbEntity
  8
0
  6
Continuous
 62
     7
370
    25
100
AcDbCircle
 10
6862.2160906762
 20
5109.9667274401
 30
0.0
 40
5.292930327734211
100
AcDbArc
 50
180.0
 51
270.0
  0
LINE
  5
194
330
1F
100
AcDbEntity
  8
0
  6
Continuous
 62
     7
370
    25
100
AcDbLine
 10
6856.9231603484
 20
5114.4128352022
 30
0.0
 11
6856.9231603484
 21
5109.9667274401
 31
0.0
  0
ARC
  5
195
330
1F
100
AcDbEntity
  8
0
  6
Continuous
 62
     7
370
    25
100
AcDbCircle
 10
6856.5798463051
 20
5112.9121928395
 30
0.0
 40
1.539412885871721
100
AcDbArc
 50
0.0
 51
77.1137478469
  0
LINE
  5
196
330
1F
100
AcDbEntity
  8
0
  6
Continuous
 62
     7
370
    25
100
AcDbLine
 10
6858.119259191
 20
5110.9577719574
 30
0.0
 11
6858.119259191
 21
5112.9121928395
 31
0.0
  0
ARC
  5
197
330
1F
100
AcDbEntity
  8
0
  6
Continuous
 62
     7
370
    25
100
AcDbCircle
 10
6858.7868778796
 20
5110.9577719574
 30
0.0
 40
0.6676186886561482
100
AcDbArc
 50
180.0
 51
0.0
  0
LINE
  5
198
330
1F
100
AcDbEntity
  8
0
  6
Continuous
 62
     7
370
    25
100
AcDbLine
 10
6859.4544965683
 20
5122.2382732272
 30
0.0
 11
6859.4544965683
 21
5110.9577719574
 31
0.0
  0
ARC
  5
199
330
1F
100
AcDbEntity
  8
0
  6
Continuous
 62
     7
370
    25
100
AcDbCircle
 10
6860.0419394635
 20
5122.2382732272
 30
0.0
 40
0.5874428952456583
100
AcDbArc
 50
0.0
 51
180.0
  0
LINE
  5
19A
330
1F
100
AcDbEntity
  8
0
  6
Continuous
 62
     7
370
    25
100
AcDbLine
 10
6860.6293823588
 20
5114.5674329531
 30
0.0
 11
6860.6293823588
 21
5122.2382732272
 31
0.0
  0
CIRCLE
  5
19B
330
1F
100
AcDbEntity
  8
0
  6
Continuous
 62
     7
370
    25
100
AcDbCircle
 10
6862.0489085942
 20
5113.4961597697
 30
0.0
 40
13.99999999999909
  0
ARC
  5
19C
330
1F
100
AcDbEntity
  8
0
  6
Continuous
 62
     7
370
    25
100
AcDbCircle
 10
6261.2970010474
 20
5114.5674329531
 30
0.0
 40
0.6676186886570576
100
AcDbArc
 50
180.0
 51
0.0
  0
LINE
  5
19D
330
1F
100
AcDbEntity
  8
0
  6
Continuous
 62
     7
370
    25
100
AcDbLine
 10
6261.9646197361
 20
5117.5084644877
 30
0.0
 11
6261.9646197361
 21
5114.5674329531
 31
0.0
  0
ARC
  5
19E
330
1F
100
AcDbEntity
  8
0
  6
Continuous
 62
     7
370
    25
100
AcDbCircle
 10
6262.2047298524
 20
5117.5084644877
 30
0.0
 40
0.2401101162877239
100
AcDbArc
 50
90.0
 51
180.0
  0
LINE
  5
19F
330
1F
100
AcDbEntity
  8
0
  6
Continuous
 62
     7
370
    25
100
AcDbLine
 10
6262.8291430313
 20
5117.748574604
 30
0.0
 11
6262.2047298524
 21
5117.748574604
 31
0.0
  0
ARC
  5
1A0
330
1F
100
AcDbEntity
  8
0
  6
Continuous
 62
     7
370
    25
100
AcDbCircle
 10
6262.8291430313
 20
5117.5084644877
 30
0.0
 40
0.2401101162886334
100
AcDbArc
 50
0.0
 51
90.0
  0
LINE
  5
1A1
330
1F
100
AcDbEntity
  8
0
  6
Continuous
 62
     7
370
    25
100
AcDbLine
 10
6263.0692531476
 20
5114.5674329531
 30
0.0
 11
6263.0692531476
 21
5117.5084644877
 31
0.0
  0
ARC
  5
1A2
330
1F
100
AcDbEntity
  8
0
  6
Continuous
 62
     7
370
    25
100
AcDbCircle
 10
6263.7368718362
 20
5114.5674329531
 30
0.0
 40
0.6676186886570576
100
AcDbArc
 50
180.0
 51
0.0
  0
LINE
  5
1A3
330
1F
100
AcDbEntity
  8
0
  6
Continuous
 62
     7
370
    25
100
AcDbLine
 10
6264.4044905249
 20
5116.9993102525
 30
0.0
 11
6264.4044905249
 21
5114.5674329531
 31
0.0
  0
ARC
  5
1A4
330
1F
100
AcDbEntity
  8
0
  6
Continuous
 62
     7
370
    25
100
AcDbCircle
 10
6264.6446006412
 20
5116.9993102525
 30
0.0
 40
0.2401101162886334
100
AcDbArc
 50
90.0
 51
180.0
  0
LINE
  5
1A5
330
1F
100
AcDbEntity
  8
0
  6
Continuous
 62
     7
370
    25
100
AcDbLine
 10
6265.3917201831
 20
5117.2394203688
 30
0.0
 11
6264.6446006412
 21
5117.2394203688
 31
0.0
  0
ARC
  5
1A6
330
1F
100
AcDbEntity
  8
0
  6
Continuous
 62
     7
370
    25
100
AcDbCircle
 10
6265.3917201831
 20
5116.9993102525
 30
0.0
 40
0.2401101162886334
100
AcDbArc
 50
0.0
 51
90.0
  0
LINE
  5
1A7
330
1F
100
AcDbEntity
  8
0
  6
Continuous
 62
     7
370
    25
100
AcDbLine
 10
6265.6318302994
 20
5114.5674329531
 30
0.0
 11
6265.6318302994
 21
5116.9993102525
 31
0.0
  0
ARC
  5
1A8
330
1F
100
AcDbEntity
  8
0
  6
Continuous
 62
     7
370
    25
100
AcDbCircle
 10
6266.299448988
 20
5114.5674329531
 30
0.0
 40
0.6676186886570576
100
AcDbArc
 50
180.0
 51
0.0
  0
LINE
  5
1A9
330
1F
100
AcDbEntity
  8
0
  6
Continuous
 62
     7
370
    25
100
AcDbLine
 10
6266.9670676767
 20
5116.0829599438
 30
0.0
 11
6266.9670676767
 21
5114.5674329531
 31
0.0
  0
ARC
  5
1AA
330
1F
100
AcDbEntity
  8
0
  6
Continuous
 62
     7
370
    25
100
AcDbCircle
 10
6267.207177793
 20
5116.0829599438
 30
0.0
 40
0.2401101162886334
100
AcDbArc
 50
90.0
 51
180.0
  0
LINE
  5
1AB
330
1F
100
AcDbEntity
  8
0
  6
Continuous
 62
     7
370
    25
100
AcDbLine
 10
6267.8692055175
 20
5116.3230700601
 30
0.0
 11
6267.207177793
 21
5116.3230700601
 31
0.0
  0
ARC
  5
1AC
330
1F
100
AcDbEntity
  8
0
  6
Continuous
 62
     7
370
    25
100
AcDbCircle
 10
6267.8692055175
 20
5116.0829599438
 30
0.0
 40
0.2401101162886334
100
AcDbArc
 50
0.0
 51
90.0
  0
LINE
  5
1AD
330
1F
100
AcDbEntity
  8
0
  6
Continuous
 62
     7
370
    25
100
AcDbLine
 10
6268.1093156338
 20
5108.199797663
 30
0.0
 11
6268.1093156338
 21
5116.0829599438
 31
0.0
  0
ARC
  5
1AE
330
1F
100
AcDbEntity
  8
0
  6
Continuous
 62
     7
370
    25
100
AcDbCircle
 10
6264.5833150831
 20
5108.199797663
 30
0.0
 40
3.526000550638855
100
AcDbArc
 50
270.0
 51
0.0
  0
LINE
  5
1AF
330
1F
100
AcDbEntity
  8
0
  6
Continuous
 62
     7
370
    25
100
AcDbLine
 10
6262.2160906762
 20
5104.6737971124
 30
0.0
 11
6264.5833150831
 21
5104.6737971124
 31
0.0
  0
ARC
  5
1B0
330
1F
100
AcDbEntity
  8
0
  6
Continuous
 62
     7
370
    25
100
AcDbCircle
 10
6262.2160906762
 20
5109.9667274401
 30
0.0
 40
5.292930327733302
100
AcDbArc
 50
180.0
 51
270.0
  0
LINE
  5
1B1
330
1F
100
AcDbEntity
  8
0
  6
Continuous
 62
     7
370
    25
100
AcDbLine
 10
6256.9231603484
 20
5114.4128352022
 30
0.0
 11
6256.9231603484
 21
5109.9667274401
 31
0.0
  0
ARC
  5
1B2
330
1F
100
AcDbEntity
  8
0
  6
Continuous
 62
     7
370
    25
100
AcDbCircle
 10
6256.5798463051
 20
5112.9121928395
 30
0.0
 40
1.539412885871924
100
AcDbArc
 50
0.0
 51
77.1137478469
  0
LINE
  5
1B3
330
1F
100
AcDbEntity
  8
0
  6
Continuous
 62
     7
370
    25
100
AcDbLine
 10
6258.119259191
 20
5110.9577719574
 30
0.0
 11
6258.119259191
 21
5112.9121928395
 31
0.0
  0
ARC
  5
1B4
330
1F
100
AcDbEntity
  8
0
  6
Continuous
 62
     7
370
    25
100
AcDbCircle
 10
6258.7868778796
 20
5110.9577719574
 30
0.0
 40
0.6676186886570576
100
AcDbArc
 50
180.0
 51
0.0
  0
LINE
  5
1B5
330
1F
100
AcDbEntity
  8
0
  6
Continuous
 62
     7
370
    25
100
AcDbLine
 10
6259.4544965683
 20
5122.2382732272
 30
0.0
 11
6259.4544965683
 21
5110.9577719574
 31
0.0
  0
ARC
  5
1B6
330
1F
100
AcDbEntity
  8
0
  6
Continuous
 62
     7
370
    25
100
AcDbCircle
 10
6260.0419394635
 20
5122.2382732272
 30
0.0
 40
0.5874428952447488
100
AcDbArc
 50
0.0
 51
180.0
  0
LINE
  5
1B7
330
1F
100
AcDbEntity
  8
0
  6
Continuous
 62
     7
370
    25
100
AcDbLine
 10
6260.6293823588
 20
5114.5674329531
 30
0.0
 11
6260.6293823588
 21
5122.2382732272
 31
0.0
  0
CIRCLE
  5
1B8
330
1F
100
AcDbEntity
  8
0
  6
Continuous
 62
     7
370
    25
100
AcDbCircle
 10
6262.0489085942
 20
5113.4961597697
 30
0.0
 40
12.5
  0
LINE
  5
1B9
330
1F
100
AcDbEntity
  8
0
  6
Continuous
 62
     7
370
    25
100
AcDbLine
 10
6261.6589823588
 20
5118.6925535827
 30
0.0
 11
6261.6589823588
 21
5122.2382732272
 31
0.0
  0
LINE
  5
1BA
330
1F
100
AcDbEntity
  8
0
  6
Continuous
 62
     7
370
    25
100
AcDbLine
 10
6258.4248965683
 20
5122.2382732272
 30
0.0
 11
6258.4248965683
 21
5114.6998216416
 31
0.0
  0
ARC
  5
1BB
330
1F
100
AcDbEntity
  8
0
  6
Continuous
 62
     7
370
    25
100
AcDbCircle
 10
6256.5798463051
 20
5112.9121928395
 30
0.0
 40
2.569012885871177
100
AcDbArc
 50
44.0944057146
 51
105.4941474424
  0
LINE
  5
1BC
330
1F
100
AcDbEntity
  8
0
  6
Continuous
 62
     7
370
    25
100
AcDbLine
 10
6255.8935603484
 20
5115.3878420055
 30
0.0
 11
6255.8935603484
 21
5109.9667274401
 31
0.0
  0
ARC
  5
1BD
330
1F
100
AcDbEntity
  8
0
  6
Continuous
 62
     7
370
    25
100
AcDbCircle
 10
6262.2160906762
 20
5109.9667274401
 30
0.0
 40
6.322530327734057
100
AcDbArc
 50
180.0
 51
270.0
  0
LINE
  5
1BE
330
1F
100
AcDbEntity
  8
0
  6
Continuous
 62
     7
370
    25
100
AcDbLine
 10
6262.2160906762
 20
5103.6441971124
 30
0.0
 11
6264.5833150831
 21
5103.6441971124
 31
0.0
  0
ARC
  5
1BF
330
1F
100
AcDbEntity
  8
0
  6
Continuous
 62
     7
370
    25
100
AcDbCircle
 10
6264.5833150831
 20
5108.199797663
 30
0.0
 40
4.555600550638701
100
AcDbArc
 50
270.0
 51
0.0
  0
LINE
  5
1C0
330
1F
100
AcDbEntity
  8
0
  6
Continuous
 62
     7
370
    25
100
AcDbLine
 10
6269.1389156338
 20
5108.199797663
 30
0.0
 11
6269.1389156338
 21
5116.0365681913
 31
0.0
  0
ARC
  5
1C1
330
1F
100
AcDbEntity
  8
0
  6
Continuous
 62
     7
370
    25
100
AcDbCircle
 10
6267.7853043876
 20
5116.0365681913
 30
0.0
 40
1.353611246209766
100
AcDbArc
 50
0.0
 51
90.0
  0
LINE
  5
1C2
330
1F
100
AcDbEntity
  8
0
  6
Continuous
 62
     7
370
    25
100
AcDbLine
 10
6267.7853043876
 20
5117.3901794375
 30
0.0
 11
6267.2910789229
 21
5117.3901794375
 31
0.0
  0
ARC
  5
1C3
330
1F
100
AcDbEntity
  8
0
  6
Continuous
 62
     7
370
    25
100
AcDbCircle
 10
6267.2910789229
 20
5116.0365681913
 30
0.0
 40
1.353611246209766
100
AcDbArc
 50
90.0
 51
118.7365577357
  0
ARC
  5
1C4
330
1F
100
AcDbEntity
  8
0
  6
Continuous
 62
     7
370
    25
100
AcDbCircle
 10
6265.3078190531
 20
5116.9851481148
 30
0.0
 40
1.353611246209233
100
AcDbArc
 50
10.1404867648
 51
90.0
  0
LINE
  5
1C5
330
1F
100
AcDbEntity
  8
0
  6
Continuous
 62
     7
370
    25
100
AcDbLine
 10
6265.3078190531
 20
5118.338759361
 30
0.0
 11
6264.7285017711
 21
5118.338759361
 31
0.0
  0
ARC
  5
1C6
330
1F
100
AcDbEntity
  8
0
  6
Continuous
 62
     7
370
    25
100
AcDbCircle
 10
6264.7285017711
 20
5116.9851481148
 30
0.0
 40
1.353611246207947
100
AcDbArc
 50
90.0
 51
124.744002227
  0
ARC
  5
1C7
330
1F
100
AcDbEntity
  8
0
  6
Continuous
 62
     7
370
    25
100
AcDbCircle
 10
6262.7452419014
 20
5117.4943023499
 30
0.0
 40
1.353611246208188
100
AcDbArc
 50
26.4592691592
 51
90.0
  0
LINE
  5
1C8
330
1F
100
AcDbEntity
  8
0
  6
Continuous
 62
     7
370
    25
100
AcDbLine
 10
6262.7452419014
 20
5118.8479135961
 30
0.0
 11
6262.2886309823
 21
5118.8479135961
 31
0.0
  0
ARC
  5
1C9
330
1F
100
AcDbEntity
  8
0
  6
Continuous
 62
     7
370
    25
100
AcDbCircle
 10
6262.2886309823
 20
5117.4943023499
 30
0.0
 40
1.353611246208857
100
AcDbArc
 50
90.0
 51
117.7207121261
  0
ARC
  5
1CA
330
1F
100
AcDbEntity
  8
0
  6
Continuous
 62
     7
370
    25
100
AcDbCircle
 10
6260.0419394635
 20
5122.2382732272
 30
0.0
 40
1.617042895245504
100
AcDbArc
 50
0.0
 51
180.0
  0
CIRCLE
  5
1CB
330
1F
100
AcDbEntity
  8
0
  6
Continuous
 62
     7
370
    25
100
AcDbCircle
 10
6262.0489085942
 20
5113.4961597697
 30
0.0
 40
14.0
  0
ARC
  5
1CC
330
1F
100
AcDbEntity
  8
0
  6
Continuous
 62
     7
370
    25
100
AcDbCircle
 10
7461.2970010474
 20
5114.5674329531
 30
0.0
 40
0.6676186886570576
100
AcDbArc
 50
180.0
 51
0.0
  0
LINE
  5
1CD
330
1F
100
AcDbEntity
  8
0
  6
Continuous
 62
     7
370
    25
100
AcDbLine
 10
7461.9646197361
 20
5117.5084644877
 30
0.0
 11
7461.9646197361
 21
5114.5674329531
 31
0.0
  0
ARC
  5
1CE
330
1F
100
AcDbEntity
  8
0
  6
Continuous
 62
     7
370
    25
100
AcDbCircle
 10
7462.2047298524
 20
5117.5084644877
 30
0.0
 40
0.2401101162877239
100
AcDbArc
 50
90.0
 51
180.0
  0
LINE
  5
1CF
330
1F
100
AcDbEntity
  8
0
  6
Continuous
 62
     7
370
    25
100
AcDbLine
 10
7462.8291430313
 20
5117.748574604
 30
0.0
 11
7462.2047298524
 21
5117.748574604
 31
0.0
  0
ARC
  5
1D0
330
1F
100
AcDbEntity
  8
0
  6
Continuous
 62
     7
370
    25
100
AcDbCircle
 10
7462.8291430313
 20
5117.5084644877
 30
0.0
 40
0.2401101162877239
100
AcDbArc
 50
0.0
 51
90.0
  0
LINE
  5
1D1
330
1F
100
AcDbEntity
  8
0
  6
Continuous
 62
     7
370
    25
100
AcDbLine
 10
7463.0692531476
 20
5114.5674329531
 30
0.0
 11
7463.0692531476
 21
5117.5084644877
 31
0.0
  0
ARC
  5
1D2
330
1F
100
AcDbEntity
  8
0
  6
Continuous
 62
     7
370
    25
100
AcDbCircle
 10
7463.7368718362
 20
5114.5674329531
 30
0.0
 40
0.6676186886570576
100
AcDbArc
 50
180.0
 51
0.0
  0
LINE
  5
1D3
330
1F
100
AcDbEntity
  8
0
  6
Continuous
 62
     7
370
    25
100
AcDbLine
 10
7464.4044905249
 20
5116.9993102525
 30
0.0
 11
7464.4044905249
 21
5114.5674329531
 31
0.0
  0
ARC
  5
1D4
330
1F
100
AcDbEntity
  8
0
  6
Continuous
 62
     7
370
    25
100
AcDbCircle
 10
7464.6446006412
 20
5116.9993102525
 30
0.0
 40
0.2401101162886334
100
AcDbArc
 50
90.0
 51
180.0
  0
LINE
  5
1D5
330
1F
100
AcDbEntity
  8
0
  6
Continuous
 62
     7
370
    25
100
AcDbLine
 10
7465.3917201831
 20
5117.2394203688
 30
0.0
 11
7464.6446006412
 21
5117.2394203688
 31
0.0
  0
ARC
  5
1D6
330
1F
100
AcDbEntity
  8
0
  6
Continuous
 62
     7
370
    25
100
AcDbCircle
 10
7465.3917201831
 20
5116.9993102525
 30
0.0
 40
0.2401101162886334
100
AcDbArc
 50
0.0
 51
90.0
  0
LINE
  5
1D7
330
1F
100
AcDbEntity
  8
0
  6
Continuous
 62
     7
370
    25
100
AcDbLine
 10
7465.6318302994
 20
5114.5674329531
 30
0.0
 11
7465.6318302994
 21
5116.9993102525
 31
0.0
  0
ARC
  5
1D8
330
1F
100
AcDbEntity
  8
0
  6
Continuous
 62
     7
370
    25
100
AcDbCircle
 10
7466.299448988
 20
5114.5674329531
 30
0.0
 40
0.6676186886570576
100
AcDbArc
 50
180.0
 51
0.0
  0
LINE
  5
1D9
330
1F
100
AcDbEntity
  8
0
  6
Continuous
 62
     7
370
    25
100
AcDbLine
 10
7466.9670676767
 20
5116.0829599438
 30
0.0
 11
7466.9670676767
 21
5114.5674329531
 31
0.0
  0
ARC
  5
1DA
330
1F
100
AcDbEntity
  8
0
  6
Continuous
 62
     7
370
    25
100
AcDbCircle
 10
7467.207177793
 20
5116.0829599438
 30
0.0
 40
0.2401101162886334
100
AcDbArc
 50
90.0
 51
180.0
  0
LINE
  5
1DB
330
1F
100
AcDbEntity
  8
0
  6
Continuous
 62
     7
370
    25
100
AcDbLine
 10
7467.8692055175
 20
5116.3230700601
 30
0.0
 11
7467.207177793
 21
5116.3230700601
 31
0.0
  0
ARC
  5
1DC
330
1F
100
AcDbEntity
  8
0
  6
Continuous
 62
     7
370
    25
100
AcDbCircle
 10
7467.8692055175
 20
5116.0829599438
 30
0.0
 40
0.2401101162886334
100
AcDbArc
 50
0.0
 51
90.0
  0
LINE
  5
1DD
330
1F
100
AcDbEntity
  8
0
  6
Continuous
 62
     7
370
    25
100
AcDbLine
 10
7468.1093156338
 20
5108.199797663
 30
0.0
 11
7468.1093156338
 21
5116.0829599438
 31
0.0
  0
ARC
  5
1DE
330
1F
100
AcDbEntity
  8
0
  6
Continuous
 62
     7
370
    25
100
AcDbCircle
 10
7464.5833150831
 20
5108.199797663
 30
0.0
 40
3.526000550637036
100
AcDbArc
 50
270.0
 51
0.0
  0
LINE
  5
1DF
330
1F
100
AcDbEntity
  8
0
  6
Continuous
 62
     7
370
    25
100
AcDbLine
 10
7462.2160906762
 20
5104.6737971124
 30
0.0
 11
7464.5833150831
 21
5104.6737971124
 31
0.0
  0
ARC
  5
1E0
330
1F
100
AcDbEntity
  8
0
  6
Continuous
 62
     7
370
    25
100
AcDbCircle
 10
7462.2160906762
 20
5109.9667274401
 30
0.0
 40
5.292930327733302
100
AcDbArc
 50
180.0
 51
270.0
  0
LINE
  5
1E1
330
1F
100
AcDbEntity
  8
0
  6
Continuous
 62
     7
370
    25
100
AcDbLine
 10
7456.9231603484
 20
5114.4128352022
 30
0.0
 11
7456.9231603484
 21
5109.9667274401
 31
0.0
  0
ARC
  5
1E2
330
1F
100
AcDbEntity
  8
0
  6
Continuous
 62
     7
370
    25
100
AcDbCircle
 10
7456.5798463051
 20
5112.9121928395
 30
0.0
 40
1.539412885871721
100
AcDbArc
 50
0.0
 51
77.1137478469
  0
LINE
  5
1E3
330
1F
100
AcDbEntity
  8
0
  6
Continuous
 62
     7
370
    25
100
AcDbLine
 10
7458.119259191
 20
5110.9577719574
 30
0.0
 11
7458.119259191
 21
5112.9121928395
 31
0.0
  0
ARC
  5
1E4
330
1F
100
AcDbEntity
  8
0
  6
Continuous
 62
     7
370
    25
100
AcDbCircle
 10
7458.7868778796
 20
5110.9577719574
 30
0.0
 40
0.6676186886570576
100
AcDbArc
 50
180.0
 51
0.0
  0
LINE
  5
1E5
330
1F
100
AcDbEntity
  8
0
  6
Continuous
 62
     7
370
    25
100
AcDbLine
 10
7459.4544965683
 20
5122.2382732272
 30
0.0
 11
7459.4544965683
 21
5110.9577719574
 31
0.0
  0
LINE
  5
1E6
330
1F
100
AcDbEntity
  8
0
  6
Continuous
 62
     7
370
    25
100
AcDbLine
 10
7460.6293823588
 20
5114.5674329531
 30
0.0
 11
7460.6293823588
 21
5122.2382732272
 31
0.0
  0
ARC
  5
1E7
330
1F
100
AcDbEntity
  8
0
  6
Continuous
 62
     7
370
    25
100
AcDbCircle
 10
7460.0419394635
 20
5122.2382732272
 30
0.0
 40
0.5874428952447488
100
AcDbArc
 50
0.0
 51
180.0
  0
CIRCLE
  5
1E8
330
1F
100
AcDbEntity
  8
0
  6
Continuous
 62
     7
370
    25
100
AcDbCircle
 10
7462.0489085942
 20
5113.4961597697
 30
0.0
 40
12.5
  0
LINE
  5
1E9
330
1F
100
AcDbEntity
  8
0
  6
Continuous
 62
     7
370
    25
100
AcDbLine
 10
7461.6589823588
 20
5118.6925535827
 30
0.0
 11
7461.6589823588
 21
5122.2382732272
 31
0.0
  0
ARC
  5
1EA
330
1F
100
AcDbEntity
  8
0
  6
Continuous
 62
     7
370
    25
100
AcDbCircle
 10
7460.0419394635
 20
5122.2382732272
 30
0.0
 40
1.617042895244595
100
AcDbArc
 50
0.0
 51
180.0
  0
LINE
  5
1EB
330
1F
100
AcDbEntity
  8
0
  6
Continuous
 62
     7
370
    25
100
AcDbLine
 10
7458.4248965683
 20
5122.2382732272
 30
0.0
 11
7458.4248965683
 21
5114.6998216416
 31
0.0
  0
ARC
  5
1EC
330
1F
100
AcDbEntity
  8
0
  6
Continuous
 62
     7
370
    25
100
AcDbCircle
 10
7456.5798463051
 20
5112.9121928395
 30
0.0
 40
2.569012885871177
100
AcDbArc
 50
44.0944057146
 51
105.4941474424
  0
LINE
  5
1ED
330
1F
100
AcDbEntity
  8
0
  6
Continuous
 62
     7
370
    25
100
AcDbLine
 10
7455.8935603484
 20
5115.3878420055
 30
0.0
 11
7455.8935603484
 21
5109.9667274401
 31
0.0
  0
ARC
  5
1EE
330
1F
100
AcDbEntity
  8
0
  6
Continuous
 62
     7
370
    25
100
AcDbCircle
 10
7462.2160906762
 20
5109.9667274401
 30
0.0
 40
6.322530327734057
100
AcDbArc
 50
180.0
 51
270.0
  0
LINE
  5
1EF
330
1F
100
AcDbEntity
  8
0
  6
Continuous
 62
     7
370
    25
100
AcDbLine
 10
7462.2160906762
 20
5103.6441971124
 30
0.0
 11
7464.5833150831
 21
5103.6441971124
 31
0.0
  0
ARC
  5
1F0
330
1F
100
AcDbEntity
  8
0
  6
Continuous
 62
     7
370
    25
100
AcDbCircle
 10
7464.5833150831
 20
5108.199797663
 30
0.0
 40
4.555600550636882
100
AcDbArc
 50
270.0
 51
0.0
  0
LINE
  5
1F1
330
1F
100
AcDbEntity
  8
0
  6
Continuous
 62
     7
370
    25
100
AcDbLine
 10
7469.1389156338
 20
5108.199797663
 30
0.0
 11
7469.1389156338
 21
5116.0365681913
 31
0.0
  0
ARC
  5
1F2
330
1F
100
AcDbEntity
  8
0
  6
Continuous
 62
     7
370
    25
100
AcDbCircle
 10
7467.7853043876
 20
5116.0365681913
 30
0.0
 40
1.353611246209766
100
AcDbArc
 50
0.0
 51
90.0
  0
LINE
  5
1F3
330
1F
100
AcDbEntity
  8
0
  6
Continuous
 62
     7
370
    25
100
AcDbLine
 10
7467.7853043876
 20
5117.3901794375
 30
0.0
 11
7467.2910789229
 21
5117.3901794375
 31
0.0
  0
ARC
  5
1F4
330
1F
100
AcDbEntity
  8
0
  6
Continuous
 62
     7
370
    25
100
AcDbCircle
 10
7467.2910789229
 20
5116.0365681913
 30
0.0
 40
1.353611246209766
100
AcDbArc
 50
90.0
 51
118.7365577357
  0
ARC
  5
1F5
330
1F
100
AcDbEntity
  8
0
  6
Continuous
 62
     7
370
    25
100
AcDbCircle
 10
7465.3078190531
 20
5116.9851481148
 30
0.0
 40
1.353611246209233
100
AcDbArc
 50
10.1404867648
 51
90.0
  0
LINE
  5
1F6
330
1F
100
AcDbEntity
  8
0
  6
Continuous
 62
     7
370
    25
100
AcDbLine
 10
7465.3078190531
 20
5118.338759361
 30
0.0
 11
7464.7285017711
 21
5118.338759361
 31
0.0
  0
ARC
  5
1F7
330
1F
100
AcDbEntity
  8
0
  6
Continuous
 62
     7
370
    25
100
AcDbCircle
 10
7464.7285017711
 20
5116.9851481148
 30
0.0
 40
1.353611246208256
100
AcDbArc
 50
90.0
 51
124.7440022271
  0
ARC
  5
1F8
330
1F
100
AcDbEntity
  8
0
  6
Continuous
 62
     7
370
    25
100
AcDbCircle
 10
7462.7452419014
 20
5117.4943023499
 30
0.0
 40
1.353611246207038
100
AcDbArc
 50
26.4592691592
 51
90.0
  0
LINE
  5
1F9
330
1F
100
AcDbEntity
  8
0
  6
Continuous
 62
     7
370
    25
100
AcDbLine
 10
7462.7452419014
 20
5118.8479135961
 30
0.0
 11
7462.2886309823
 21
5118.8479135961
 31
0.0
  0
ARC
  5
1FA
330
1F
100
AcDbEntity
  8
0
  6
Continuous
 62
     7
370
    25
100
AcDbCircle
 10
7462.2886309823
 20
5117.4943023499
 30
0.0
 40
1.35361124620922
100
AcDbArc
 50
90.0
 51
117.7207121261
  0
CIRCLE
  5
1FB
330
1F
100
AcDbEntity
  8
0
  6
Continuous
 62
     7
370
    25
100
AcDbCircle
 10
7462.0489085942
 20
5113.4961597697
 30
0.0
 40
14.0
  0
ARC
  5
1FC
330
1F
100
AcDbEntity
  8
0
  6
Continuous
 62
     7
370
    25
100
AcDbCircle
 10
8061.2970010474
 20
5114.5674329531
 30
0.0
 40
0.6676186886579671
100
AcDbArc
 50
180.0
 51
0.0
  0
LINE
  5
1FD
330
1F
100
AcDbEntity
  8
0
  6
Continuous
 62
     7
370
    25
100
AcDbLine
 10
8061.9646197361
 20
5117.5084644877
 30
0.0
 11
8061.9646197361
 21
5114.5674329531
 31
0.0
  0
ARC
  5
1FE
330
1F
100
AcDbEntity
  8
0
  6
Continuous
 62
     7
370
    25
100
AcDbCircle
 10
8062.2047298524
 20
5117.5084644877
 30
0.0
 40
0.2401101162877239
100
AcDbArc
 50
90.0
 51
180.0
  0
LINE
  5
1FF
330
1F
100
AcDbEntity
  8
0
  6
Continuous
 62
     7
370
    25
100
AcDbLine
 10
8062.8291430313
 20
5117.748574604
 30
0.0
 11
8062.2047298524
 21
5117.748574604
 31
0.0
  0
ARC
  5
200
330
1F
100
AcDbEntity
  8
0
  6
Continuous
 62
     7
370
    25
100
AcDbCircle
 10
8062.8291430313
 20
5117.5084644877
 30
0.0
 40
0.2401101162877239
100
AcDbArc
 50
0.0
 51
90.0
  0
LINE
  5
201
330
1F
100
AcDbEntity
  8
0
  6
Continuous
 62
     7
370
    25
100
AcDbLine
 10
8063.0692531476
 20
5114.5674329531
 30
0.0
 11
8063.0692531476
 21
5117.5084644877
 31
0.0
  0
ARC
  5
202
330
1F
100
AcDbEntity
  8
0
  6
Continuous
 62
     7
370
    25
100
AcDbCircle
 10
8063.7368718362
 20
5114.5674329531
 30
0.0
 40
0.6676186886579671
100
AcDbArc
 50
180.0
 51
0.0
  0
LINE
  5
203
330
1F
100
AcDbEntity
  8
0
  6
Continuous
 62
     7
370
    25
100
AcDbLine
 10
8064.4044905249
 20
5116.9993102525
 30
0.0
 11
8064.4044905249
 21
5114.5674329531
 31
0.0
  0
ARC
  5
204
330
1F
100
AcDbEntity
  8
0
  6
Continuous
 62
     7
370
    25
100
AcDbCircle
 10
8064.6446006412
 20
5116.9993102525
 30
0.0
 40
0.2401101162886334
100
AcDbArc
 50
90.0
 51
180.0
  0
LINE
  5
205
330
1F
100
AcDbEntity
  8
0
  6
Continuous
 62
     7
370
    25
100
AcDbLine
 10
8065.3917201831
 20
5117.2394203688
 30
0.0
 11
8064.6446006412
 21
5117.2394203688
 31
0.0
  0
ARC
  5
206
330
1F
100
AcDbEntity
  8
0
  6
Continuous
 62
     7
370
    25
100
AcDbCircle
 10
8065.3917201831
 20
5116.9993102525
 30
0.0
 40
0.2401101162886334
100
AcDbArc
 50
0.0
 51
90.0
  0
LINE
  5
207
330
1F
100
AcDbEntity
  8
0
  6
Continuous
 62
     7
370
    25
100
AcDbLine
 10
8065.6318302994
 20
5114.5674329531
 30
0.0
 11
8065.6318302994
 21
5116.9993102525
 31
0.0
  0
ARC
  5
208
330
1F
100
AcDbEntity
  8
0
  6
Continuous
 62
     7
370
    25
100
AcDbCircle
 10
8066.299448988
 20
5114.5674329531
 30
0.0
 40
0.6676186886579671
100
AcDbArc
 50
180.0
 51
0.0
  0
LINE
  5
209
330
1F
100
AcDbEntity
  8
0
  6
Continuous
 62
     7
370
    25
100
AcDbLine
 10
8066.9670676767
 20
5116.0829599438
 30
0.0
 11
8066.9670676767
 21
5114.5674329531
 31
0.0
  0
ARC
  5
20A
330
1F
100
AcDbEntity
  8
0
  6
Continuous
 62
     7
370
    25
100
AcDbCircle
 10
8067.207177793
 20
5116.0829599438
 30
0.0
 40
0.2401101162886334
100
AcDbArc
 50
90.0
 51
180.0
  0
LINE
  5
20B
330
1F
100
AcDbEntity
  8
0
  6
Continuous
 62
     7
370
    25
100
AcDbLine
 10
8067.8692055175
 20
5116.3230700601
 30
0.0
 11
8067.207177793
 21
5116.3230700601
 31
0.0
  0
ARC
  5
20C
330
1F
100
AcDbEntity
  8
0
  6
Continuous
 62
     7
370
    25
100
AcDbCircle
 10
8067.8692055175
 20
5116.0829599438
 30
0.0
 40
0.2401101162886334
100
AcDbArc
 50
0.0
 51
90.0
  0
LINE
  5
20D
330
1F
100
AcDbEntity
  8
0
  6
Continuous
 62
     7
370
    25
100
AcDbLine
 10
8068.1093156338
 20
5108.199797663
 30
0.0
 11
8068.1093156338
 21
5116.0829599438
 31
0.0
  0
ARC
  5
20E
330
1F
100
AcDbEntity
  8
0
  6
Continuous
 62
     7
370
    25
100
AcDbCircle
 10
8064.5833150831
 20
5108.199797663
 30
0.0
 40
3.526000550637946
100
AcDbArc
 50
270.0
 51
0.0
  0
LINE
  5
20F
330
1F
100
AcDbEntity
  8
0
  6
Continuous
 62
     7
370
    25
100
AcDbLine
 10
8062.2160906762
 20
5104.6737971124
 30
0.0
 11
8064.5833150831
 21
5104.6737971124
 31
0.0
  0
ARC
  5
210
330
1F
100
AcDbEntity
  8
0
  6
Continuous
 62
     7
370
    25
100
AcDbCircle
 10
8062.2160906762
 20
5109.9667274401
 30
0.0
 40
5.292930327734211
100
AcDbArc
 50
180.0
 51
270.0
  0
LINE
  5
211
330
1F
100
AcDbEntity
  8
0
  6
Continuous
 62
     7
370
    25
100
AcDbLine
 10
8056.9231603484
 20
5114.4128352022
 30
0.0
 11
8056.9231603484
 21
5109.9667274401
 31
0.0
  0
ARC
  5
212
330
1F
100
AcDbEntity
  8
0
  6
Continuous
 62
     7
370
    25
100
AcDbCircle
 10
8056.5798463051
 20
5112.9121928395
 30
0.0
 40
1.539412885871315
100
AcDbArc
 50
0.0
 51
77.113747847
  0
LINE
  5
213
330
1F
100
AcDbEntity
  8
0
  6
Continuous
 62
     7
370
    25
100
AcDbLine
 10
8058.119259191
 20
5110.9577719574
 30
0.0
 11
8058.119259191
 21
5112.9121928395
 31
0.0
  0
ARC
  5
214
330
1F
100
AcDbEntity
  8
0
  6
Continuous
 62
     7
370
    25
100
AcDbCircle
 10
8058.7868778796
 20
5110.9577719574
 30
0.0
 40
0.6676186886570576
100
AcDbArc
 50
180.0
 51
0.0
  0
LINE
  5
215
330
1F
100
AcDbEntity
  8
0
  6
Continuous
 62
     7
370
    25
100
AcDbLine
 10
8059.4544965683
 20
5122.2382732272
 30
0.0
 11
8059.4544965683
 21
5110.9577719574
 31
0.0
  0
ARC
  5
216
330
1F
100
AcDbEntity
  8
0
  6
Continuous
 62
     7
370
    25
100
AcDbCircle
 10
8060.0419394635
 20
5122.2382732272
 30
0.0
 40
0.5874428952447488
100
AcDbArc
 50
0.0
 51
180.0
  0
LINE
  5
217
330
1F
100
AcDbEntity
  8
0
  6
Continuous
 62
     7
370
    25
100
AcDbLine
 10
8060.6293823588
 20
5114.5674329531
 30
0.0
 11
8060.6293823588
 21
5122.2382732272
 31
0.0
  0
CIRCLE
  5
218
330
1F
100
AcDbEntity
  8
0
  6
Continuous
 62
     7
370
    25
100
AcDbCircle
 10
8062.0489085942
 20
5113.4961597697
 30
0.0
 40
12.49999999999909
  0
LINE
  5
219
330
1F
100
AcDbEntity
  8
0
  6
Continuous
 62
     7
370
    25
100
AcDbLine
 10
8061.6589823588
 20
5118.6925535827
 30
0.0
 11
8061.6589823588
 21
5122.2382732272
 31
0.0
  0
ARC
  5
21A
330
1F
100
AcDbEntity
  8
0
  6
Continuous
 62
     7
370
    25
100
AcDbCircle
 10
8060.0419394635
 20
5122.2382732272
 30
0.0
 40
1.617042895245504
100
AcDbArc
 50
0.0
 51
180.0
  0
LINE
  5
21B
330
1F
100
AcDbEntity
  8
0
  6
Continuous
 62
     7
370
    25
100
AcDbLine
 10
8058.4248965683
 20
5122.2382732272
 30
0.0
 11
8058.4248965683
 21
5114.6998216416
 31
0.0
  0
ARC
  5
21C
330
1F
100
AcDbEntity
  8
0
  6
Continuous
 62
     7
370
    25
100
AcDbCircle
 10
8056.5798463051
 20
5112.9121928395
 30
0.0
 40
2.569012885870526
100
AcDbArc
 50
44.0944057146
 51
105.4941474424
  0
LINE
  5
21D
330
1F
100
AcDbEntity
  8
0
  6
Continuous
 62
     7
370
    25
100
AcDbLine
 10
8055.8935603484
 20
5115.3878420055
 30
0.0
 11
8055.8935603484
 21
5109.9667274401
 31
0.0
  0
ARC
  5
21E
330
1F
100
AcDbEntity
  8
0
  6
Continuous
 62
     7
370
    25
100
AcDbCircle
 10
8062.2160906762
 20
5109.9667274401
 30
0.0
 40
6.322530327734057
100
AcDbArc
 50
180.0
 51
270.0
  0
LINE
  5
21F
330
1F
100
AcDbEntity
  8
0
  6
Continuous
 62
     7
370
    25
100
AcDbLine
 10
8062.2160906762
 20
5103.6441971124
 30
0.0
 11
8064.5833150831
 21
5103.6441971124
 31
0.0
  0
ARC
  5
220
330
1F
100
AcDbEntity
  8
0
  6
Continuous
 62
     7
370
    25
100
AcDbCircle
 10
8064.5833150831
 20
5108.199797663
 30
0.0
 40
4.555600550638701
100
AcDbArc
 50
270.0
 51
0.0
  0
LINE
  5
221
330
1F
100
AcDbEntity
  8
0
  6
Continuous
 62
     7
370
    25
100
AcDbLine
 10
8069.1389156338
 20
5108.199797663
 30
0.0
 11
8069.1389156338
 21
5116.0365681913
 31
0.0
  0
ARC
  5
222
330
1F
100
AcDbEntity
  8
0
  6
Continuous
 62
     7
370
    25
100
AcDbCircle
 10
8067.7853043876
 20
5116.0365681913
 30
0.0
 40
1.353611246209766
100
AcDbArc
 50
0.0
 51
90.0
  0
LINE
  5
223
330
1F
100
AcDbEntity
  8
0
  6
Continuous
 62
     7
370
    25
100
AcDbLine
 10
8067.7853043876
 20
5117.3901794375
 30
0.0
 11
8067.2910789229
 21
5117.3901794375
 31
0.0
  0
ARC
  5
224
330
1F
100
AcDbEntity
  8
0
  6
Continuous
 62
     7
370
    25
100
AcDbCircle
 10
8067.2910789229
 20
5116.0365681913
 30
0.0
 40
1.353611246210064
100
AcDbArc
 50
90.0
 51
118.7365577358
  0
ARC
  5
225
330
1F
100
AcDbEntity
  8
0
  6
Continuous
 62
     7
370
    25
100
AcDbCircle
 10
8065.3078190531
 20
5116.9851481148
 30
0.0
 40
1.353611246208338
100
AcDbArc
 50
10.1404867648
 51
90.0
  0
LINE
  5
226
330
1F
100
AcDbEntity
  8
0
  6
Continuous
 62
     7
370
    25
100
AcDbLine
 10
8065.3078190531
 20
5118.338759361
 30
0.0
 11
8064.7285017711
 21
5118.338759361
 31
0.0
  0
ARC
  5
227
330
1F
100
AcDbEntity
  8
0
  6
Continuous
 62
     7
370
    25
100
AcDbCircle
 10
8064.7285017711
 20
5116.9851481148
 30
0.0
 40
1.353611246208256
100
AcDbArc
 50
90.0
 51
124.7440022271
  0
ARC
  5
228
330
1F
100
AcDbEntity
  8
0
  6
Continuous
 62
     7
370
    25
100
AcDbCircle
 10
8062.7452419014
 20
5117.4943023499
 30
0.0
 40
1.353611246207038
100
AcDbArc
 50
26.4592691592
 51
90.0
  0
LINE
  5
229
330
1F
100
AcDbEntity
  8
0
  6
Continuous
 62
     7
370
    25
100
AcDbLine
 10
8062.7452419014
 20
5118.8479135961
 30
0.0
 11
8062.2886309823
 21
5118.8479135961
 31
0.0
  0
ARC
  5
22A
330
1F
100
AcDbEntity
  8
0
  6
Continuous
 62
     7
370
    25
100
AcDbCircle
 10
8062.2886309823
 20
5117.4943023499
 30
0.0
 40
1.35361124620922
100
AcDbArc
 50
90.0
 51
117.7207121261
  0
CIRCLE
  5
22B
330
1F
100
AcDbEntity
  8
0
  6
Continuous
 62
     7
370
    25
100
AcDbCircle
 10
8062.0489085942
 20
5113.4961597697
 30
0.0
 40
13.99999999999909
  0
LINE
  5
22C
330
1F
100
AcDbEntity
  8
0
  6
Continuous
 62
     7
370
    25
100
AcDbLine
 10
6743.5489085941
 20
5099.4961597696
 30
0.0
 11
6740.5489085941
 21
5099.4961597696
 31
0.0
  0
LINE
  5
22D
330
1F
100
AcDbEntity
  8
0
  6
Continuous
 62
     7
370
    25
100
AcDbLine
 10
7343.5489085941
 20
5099.4961597696
 30
0.0
 11
7340.5489085941
 21
5099.4961597696
 31
0.0
  0
LINE
  5
22E
330
1F
100
AcDbEntity
  8
0
  6
Continuous
 62
     7
370
    25
100
AcDbLine
 10
7943.5489085941
 20
5099.4961597696
 30
0.0
 11
7940.5489085941
 21
5099.4961597696
 31
0.0
  0
LINE
  5
22F
330
1F
100
AcDbEntity
  8
0
  6
Continuous
 62
     7
370
    25
100
AcDbLine
 10
6143.5489085941
 20
5099.4961597696
 30
0.0
 11
6140.5489085941
 21
5099.4961597696
 31
0.0
  0
ARC
  5
230
330
1F
100
AcDbEntity
  8
0
  6
Continuous
 62
     7
370
    25
100
AcDbCircle
 10
7342.1585214669
 20
5135.6381483875
 30
0.0
 40
32.33234845676281
100
AcDbArc
 50
270.3195445577
 51
277.00524986
  0
ARC
  5
231
330
1F
100
AcDbEntity
  8
0
  6
Continuous
 62
     7
370
    25
100
AcDbCircle
 10
7343.9578850649
 20
5121.2254791758
 30
0.0
 40
18.76440461061361
100
AcDbArc
 50
277.5095473836
 51
284.9272291806
  0
LINE
  5
232
330
1F
100
AcDbEntity
  8
0
  6
Continuous
 62
     7
370
    25
100
AcDbLine
 10
7348.7914460194
 20
5104.0602282921
 30
0.0
 11
7348.7914460194
 21
5103.0943024658
 31
0.0
  0
ARC
  5
233
330
1F
100
AcDbEntity
  8
0
  6
Continuous
 62
     7
370
    25
100
AcDbCircle
 10
7346.9163492322
 20
5111.437004006
 30
0.0
 40
7.61136044962556
100
AcDbArc
 50
284.2619248088
 51
297.2228497747
  0
ARC
  5
234
330
1F
100
AcDbEntity
  8
0
  6
Continuous
 62
     7
370
    25
100
AcDbCircle
 10
7350.3918083615
 20
5104.7842262913
 30
0.0
 40
0.9028767270883723
100
AcDbArc
 50
304.32312055
 51
1.5289520687
  0
LINE
  5
235
330
1F
100
AcDbEntity
  8
0
  6
Continuous
 62
     7
370
    25
100
AcDbLine
 10
7351.2943636373
 20
5105.4120205624
 30
0.0
 11
7351.2943636373
 21
5104.808316921
 31
0.0
  0
LINE
  5
236
330
1F
100
AcDbEntity
  8
0
  6
Continuous
 62
     7
370
    25
100
AcDbLine
 10
7350.2061975998
 20
5106.1737218743
 30
0.0
 11
7350.2061975998
 21
5105.8620701712
 31
0.0
  0
ARC
  5
237
330
1F
100
AcDbEntity
  8
0
  6
Continuous
 62
     7
370
    25
100
AcDbCircle
 10
7346.3174046691
 20
5097.3575580838
 30
0.0
 40
9.35144033304611
100
AcDbArc
 50
65.4271673512
 51
77.2488974279
  0
LINE
  5
238
330
1F
100
AcDbEntity
  8
0
  6
Continuous
 62
     7
370
    25
100
AcDbLine
 10
7348.3814190812
 20
5106.6944171221
 30
0.0
 11
7348.3814190812
 21
5106.4783738811
 31
0.0
  0
LINE
  5
239
330
1F
100
AcDbEntity
  8
0
  6
Continuous
 62
     7
370
    25
100
AcDbLine
 10
7344.7330620789
 20
5107.1928877686
 30
0.0
 11
7344.7330620789
 21
5107.0243417434
 31
0.0
  0
ARC
  5
23A
330
1F
100
AcDbEntity
  8
0
  6
Continuous
 62
     7
370
    25
100
AcDbCircle
 10
7342.0620952972
 20
5072.4987873775
 30
0.0
 40
34.62871594244935
100
AcDbArc
 50
85.5762935841
 51
90.5015401573
  0
LINE
  5
23B
330
1F
100
AcDbEntity
  8
0
  6
Continuous
 62
     7
370
    25
100
AcDbLine
 10
7341.7589757657
 20
5107.2880130161
 30
0.0
 11
7341.7589757657
 21
5107.126176629
 31
0.0
  0
LINE
  5
23C
330
1F
100
AcDbEntity
  8
0
  6
Continuous
 62
     7
370
    25
100
AcDbLine
 10
7337.6875858501
 20
5107.0263388689
 30
0.0
 11
7337.6875858501
 21
5106.8445385342
 31
0.0
  0
ARC
  5
23D
330
1F
100
AcDbEntity
  8
0
  6
Continuous
 62
     7
370
    25
100
AcDbCircle
 10
7340.1399321235
 20
5088.2410743901
 30
0.0
 40
18.76440461102034
100
AcDbArc
 50
97.5095473837
 51
104.9272291805
  0
LINE
  5
23E
330
1F
100
AcDbEntity
  8
0
  6
Continuous
 62
     7
370
    25
100
AcDbLine
 10
7335.3063711689
 20
5106.6006129502
 30
0.0
 11
7335.3063711689
 21
5106.3722511005
 31
0.0
  0
LINE
  5
23F
330
1F
100
AcDbEntity
  8
0
  6
Continuous
 62
     7
370
    25
100
AcDbLine
 10
7333.1969133349
 20
5105.8661181621
 30
0.0
 11
7333.1969133349
 21
5105.427986825
 31
0.0
  0
ARC
  5
240
330
1F
100
AcDbEntity
  8
0
  6
Continuous
 62
     7
370
    25
100
AcDbCircle
 10
7333.7060088268
 20
5104.6823272751
 30
0.0
 40
0.9028767270885116
100
AcDbArc
 50
124.32312055
 51
181.5289520688
  0
ARC
  5
241
330
1F
100
AcDbEntity
  8
0
  6
Continuous
 62
     7
370
    25
100
AcDbCircle
 10
7335.4165511672
 20
5107.8143469764
 30
0.0
 40
3.584487198699215
100
AcDbArc
 50
234.2803060963
 51
244.8224128653
  0
LINE
  5
242
330
1F
100
AcDbEntity
  8
0
  6
Continuous
 62
     7
370
    25
100
AcDbLine
 10
7333.8916195885
 20
5104.5704092215
 30
0.0
 11
7333.8916195885
 21
5103.6044833952
 31
0.0
  0
ARC
  5
243
330
1F
100
AcDbEntity
  8
0
  6
Continuous
 62
     7
370
    25
100
AcDbCircle
 10
7337.7804125192
 20
5112.1089954822
 30
0.0
 40
9.351440332756914
100
AcDbArc
 50
245.427167351
 51
257.2488974281
  0
ARC
  5
244
330
1F
100
AcDbEntity
  8
0
  6
Continuous
 62
     7
370
    25
100
AcDbCircle
 10
7341.1091080324
 20
5127.7263228936
 30
0.0
 40
24.38066653517189
100
AcDbArc
 50
258.1893005351
 51
265.8971784141
  0
LINE
  5
245
330
1F
100
AcDbEntity
  8
0
  6
Continuous
 62
     7
370
    25
100
AcDbLine
 10
7339.3647551094
 20
5103.4081376492
 30
0.0
 11
7339.3647551094
 21
5102.4422118229
 31
0.0
  0
ARC
  5
246
330
1F
100
AcDbEntity
  8
0
  6
Continuous
 62
     7
370
    25
100
AcDbCircle
 10
7342.0357218911
 20
5136.9677661882
 30
0.0
 40
34.62871594179636
100
AcDbArc
 50
265.5762935841
 51
270.5015401573
  0
LWPOLYLINE
  5
247
330
1F
100
AcDbEntity
  8
0
  6
Continuous
 62
     7
370
    25
100
AcDbPolyline
 90
        6
 70
   128
 43
0.0
 10
7335.5005682208
 20
5104.4004121668
 10
7334.6003350045
 20
5104.7811699067
 10
7334.0256401962
 20
5105.2020500809
 10
7333.8016007169
 20
5105.6446582062
 10
7333.9380081667
 20
5106.0896501837
 10
7334.0654050861
 20
5106.2375320214
  0
LWPOLYLINE
  5
248
330
1F
100
AcDbEntity
  8
0
  6
Continuous
 62
     7
370
    25
100
AcDbPolyline
 90
       14
 70
   128
 43
0.0
 10
7350.2235496555
 20
5105.9871489482
 10
7350.2962164715
 20
5105.7537470127
 10
7350.1598090216
 20
5105.3087550352
 10
7349.6689163027
 20
5104.8808274903
 10
7348.844992682
 20
5104.4886668651
 10
7347.7240475755
 20
5104.1494124607
 10
7346.3550716631
 20
5103.8778913225
 10
7344.7978957614
 20
5103.6859702272
 10
7343.1205759293
 20
5103.5820370476
 10
7341.3964190923
 20
5103.5706341623
 10
7339.7007791775
 20
5103.6522599321
 10
7338.1077637858
 20
5103.8233469193
 10
7336.6869953339
 20
5104.0764178015
 10
7335.5005682208
 20
5104.4004121668
  0
LINE
  5
249
330
1F
100
AcDbEntity
  8
0
  6
Continuous
 62
     7
370
    25
100
AcDbLine
 10
7350.7916455926
 20
5105.79145618
 30
0.0
 11
7351.0534567451
 21
5105.782491575
 31
0.0
  0
ARC
  5
24A
330
1F
100
AcDbEntity
  8
0
  6
Continuous
 62
     7
370
    25
100
AcDbCircle
 10
7349.8082996446
 20
5105.843170689
 30
0.0
 40
1.011320879479781
100
AcDbArc
 50
305.6817763792
 51
346.492222801
  0
LINE
  5
24B
330
1F
100
AcDbEntity
  8
0
  6
Continuous
 62
     7
370
    25
100
AcDbLine
 10
7348.7914460194
 20
5104.0602282921
 30
0.0
 11
7348.4829986536
 21
5104.1644038147
 31
0.0
  0
ARC
  5
24C
330
1F
100
AcDbEntity
  8
0
  6
Continuous
 62
     7
370
    25
100
AcDbCircle
 10
7343.8509743453
 20
5121.279457743
 30
0.0
 40
17.73078453315723
100
AcDbArc
 50
277.2930101399
 51
285.1437664242
  0
ARC
  5
24D
330
1F
100
AcDbEntity
  8
0
  6
Continuous
 62
     7
370
    25
100
AcDbCircle
 10
7342.0371383655
 20
5136.1628197623
 30
0.0
 40
32.72847533088799
100
AcDbArc
 50
265.4332158269
 51
270.6446179145
  0
LINE
  5
24E
330
1F
100
AcDbEntity
  8
0
  6
Continuous
 62
     7
370
    25
100
AcDbLine
 10
7339.4312627062
 20
5103.5382506535
 30
0.0
 11
7339.3647551094
 21
5103.4081376492
 31
0.0
  0
ARC
  5
24F
330
1F
100
AcDbEntity
  8
0
  6
Continuous
 62
     7
370
    25
100
AcDbCircle
 10
7338.016441838
 20
5112.6618500084
 30
0.0
 40
8.834111884616611
100
AcDbArc
 50
245.0796807337
 51
257.5963840454
  0
LINE
  5
250
330
1F
100
AcDbEntity
  8
0
  6
Continuous
 62
     7
370
    25
100
AcDbLine
 10
7333.8916195885
 20
5104.5704092215
 30
0.0
 11
7334.2941228996
 21
5104.6502412741
 31
0.0
  0
LWPOLYLINE
  5
251
330
1F
100
AcDbEntity
  8
0
  6
Continuous
 62
     7
370
    25
100
AcDbPolyline
 90
        3
 70
   128
 43
0.0
 10
7334.5489085942
 20
5105.7755850366
 10
7334.0256401962
 20
5106.1679759072
 10
7333.9886239573
 20
5106.2098487725
  0
LINE
  5
252
330
1F
100
AcDbEntity
  8
0
  6
Continuous
 62
     7
370
    25
100
AcDbLine
 10
7349.6686257472
 20
5105.8465721124
 30
0.0
 11
7349.5489085942
 21
5105.7755850366
 31
0.0
  0
LINE
  5
253
330
1F
100
AcDbEntity
  8
0
  6
Continuous
 62
     7
370
    25
100
AcDbLine
 10
7344.6665544822
 20
5106.8942287391
 30
0.0
 11
7344.7330620789
 21
5107.0243417434
 31
0.0
  0
ARC
  5
254
330
1F
100
AcDbEntity
  8
0
  6
Continuous
 62
     7
370
    25
100
AcDbCircle
 10
7342.0606788228
 20
5074.2696596298
 30
0.0
 40
32.72847533141901
100
AcDbArc
 50
85.4332158269
 51
90.6446179145
  0
LINE
  5
255
330
1F
100
AcDbEntity
  8
0
  6
Continuous
 62
     7
370
    25
100
AcDbLine
 10
7341.6924681689
 20
5106.9960636247
 30
0.0
 11
7341.7589757657
 21
5107.126176629
 31
0.0
  0
LWPOLYLINE
  5
256
330
1F
100
AcDbEntity
  8
0
  6
Continuous
 62
     7
370
    25
100
AcDbPolyline
 90
        7
 70
   128
 43
0.0
 10
7336.0958718911
 20
5104.5184840252
 10
7335.2543669775
 20
5104.8773062691
 10
7334.7305672783
 20
5105.2745594725
 10
7334.5489650852
 20
5105.691668517
 10
7334.7180519151
 20
5106.1091298473
 10
7335.2299214556
 20
5106.5074234355
 10
7335.3063711689
 20
5106.5493035665
  0
LWPOLYLINE
  5
257
330
1F
100
AcDbEntity
  8
0
  6
Continuous
 62
     7
370
    25
100
AcDbPolyline
 90
       14
 70
   128
 43
0.0
 10
7349.4999759312
 20
5105.9205792307
 10
7349.5017398226
 20
5105.9165654142
 10
7349.5080344033
 20
5105.4968196593
 10
7349.1655485513
 20
5105.0865371061
 10
7348.4902965246
 20
5104.704902111
 10
7347.5138523574
 20
5104.369759502
 10
7346.2818734936
 20
5104.0967801752
 10
7344.8519658957
 20
5103.8987283405
 10
7343.2909904538
 20
5103.7848646815
 10
7341.6719366446
 20
5103.7605133364
 10
7340.0705096247
 20
5103.8268129469
 10
7338.5615903419
 20
5103.9806634171
 10
7337.2157341847
 20
5104.2148708699
 10
7336.0958718911
 20
5104.5184840252
  0
LINE
  5
258
330
1F
100
AcDbEntity
  8
0
  6
Continuous
 62
     7
370
    25
100
AcDbLine
 10
7341.6924681689
 20
5107.2874493538
 30
0.0
 11
7341.6924681689
 21
5106.9960636247
 31
0.0
  0
LINE
  5
259
330
1F
100
AcDbEntity
  8
0
  6
Continuous
 62
     7
370
    25
100
AcDbLine
 10
7337.6875858501
 20
5106.8445385342
 30
0.0
 11
7337.9960332159
 21
5106.7403630116
 31
0.0
  0
ARC
  5
25A
330
1F
100
AcDbEntity
  8
0
  6
Continuous
 62
     7
370
    25
100
AcDbCircle
 10
7340.2468428429
 20
5089.1530216498
 30
0.0
 40
17.73078453291892
100
AcDbArc
 50
97.2930101399
 51
105.1437664243
  0
LINE
  5
25B
330
1F
100
AcDbEntity
  8
0
  6
Continuous
 62
     7
370
    25
100
AcDbLine
 10
7335.3063711689
 20
5106.3722511005
 30
0.0
 11
7335.6148185347
 21
5106.2680755779
 31
0.0
  0
LINE
  5
25C
330
1F
100
AcDbEntity
  8
0
  6
Continuous
 62
     7
370
    25
100
AcDbLine
 10
7337.9960332159
 20
5107.0639394269
 30
0.0
 11
7337.9960332159
 21
5106.7403630116
 31
0.0
  0
LINE
  5
25D
330
1F
100
AcDbEntity
  8
0
  6
Continuous
 62
     7
370
    25
100
AcDbLine
 10
7348.3814190812
 20
5106.4783738811
 30
0.0
 11
7347.9789157701
 21
5106.3985418285
 31
0.0
  0
LINE
  5
25E
330
1F
100
AcDbEntity
  8
0
  6
Continuous
 62
     7
370
    25
100
AcDbLine
 10
7350.2061975998
 20
5105.8620701712
 30
0.0
 11
7349.8036942887
 21
5105.7822381185
 31
0.0
  0
ARC
  5
25F
330
1F
100
AcDbEntity
  8
0
  6
Continuous
 62
     7
370
    25
100
AcDbCircle
 10
7346.0813753502
 20
5097.7706293841
 30
0.0
 40
8.834111884741027
100
AcDbArc
 50
65.0796807338
 51
77.5963840453
  0
LINE
  5
260
330
1F
100
AcDbEntity
  8
0
  6
Continuous
 62
     7
370
    25
100
AcDbLine
 10
7347.9789157701
 20
5106.7769746331
 30
0.0
 11
7347.9789157701
 21
5106.3985418285
 31
0.0
  0
LINE
  5
261
330
1F
100
AcDbEntity
  8
0
  6
Continuous
 62
     7
370
    25
100
AcDbLine
 10
7333.6996313796
 20
5106.0980459527
 30
0.0
 11
7333.6996313796
 21
5105.4107733923
 31
0.0
  0
LINE
  5
262
330
1F
100
AcDbEntity
  8
0
  6
Continuous
 62
     7
370
    25
100
AcDbLine
 10
7333.6996313796
 20
5105.4107733923
 30
0.0
 11
7333.1969133349
 21
5105.427986825
 31
0.0
  0
ARC
  5
263
330
1F
100
AcDbEntity
  8
0
  6
Continuous
 62
     7
370
    25
100
AcDbCircle
 10
7334.1643442923
 20
5104.6878001119
 30
0.0
 40
0.8594465983328949
100
AcDbArc
 50
122.7321069521
 51
183.1199656665
  0
LINE
  5
264
330
1F
100
AcDbEntity
  8
0
  6
Continuous
 62
     7
370
    25
100
AcDbLine
 10
7333.3061715958
 20
5104.6410232127
 30
0.0
 11
7332.803453551
 21
5104.6582366454
 31
0.0
  0
LINE
  5
265
330
1F
100
AcDbEntity
  8
0
  6
Continuous
 62
     7
370
    25
100
AcDbLine
 10
7333.3061715958
 20
5104.8255303537
 30
0.0
 11
7333.3061715958
 21
5104.6410232127
 31
0.0
  0
LINE
  5
266
330
1F
100
AcDbEntity
  8
0
  6
Continuous
 62
     7
370
    25
100
AcDbLine
 10
7350.7916455926
 20
5105.79145618
 30
0.0
 11
7350.7916455926
 21
5104.8255303537
 31
0.0
  0
LINE
  5
267
330
1F
100
AcDbEntity
  8
0
  6
Continuous
 62
     7
370
    25
100
AcDbLine
 10
7350.7916455926
 20
5104.8255303537
 30
0.0
 11
7351.2943636373
 21
5104.808316921
 31
0.0
  0
ARC
  5
268
330
1F
100
AcDbEntity
  8
0
  6
Continuous
 62
     7
370
    25
100
AcDbCircle
 10
7349.933472896
 20
5104.7787534544
 30
0.0
 40
0.8594465983340117
100
AcDbArc
 50
302.7321069522
 51
3.1199656665
  0
LINE
  5
269
330
1F
100
AcDbEntity
  8
0
  6
Continuous
 62
     7
370
    25
100
AcDbLine
 10
7350.3981858087
 20
5104.055780174
 30
0.0
 11
7350.9009038534
 21
5104.0385667413
 31
0.0
  0
LINE
  5
26A
330
1F
100
AcDbEntity
  8
0
  6
Continuous
 62
     7
370
    25
100
AcDbLine
 10
7350.3981858087
 20
5105.0217060003
 30
0.0
 11
7350.3981858087
 21
5104.055780174
 31
0.0
  0
LINE
  5
26B
330
1F
100
AcDbEntity
  8
0
  6
Continuous
 62
     7
370
    25
100
AcDbLine
 10
7334.2941228996
 20
5104.6502412741
 30
0.0
 11
7334.2941228996
 21
5103.6843154478
 31
0.0
  0
LINE
  5
26C
330
1F
100
AcDbEntity
  8
0
  6
Continuous
 62
     7
370
    25
100
AcDbLine
 10
7333.8916195885
 20
5103.6044833952
 30
0.0
 11
7334.2941228996
 21
5103.6843154478
 31
0.0
  0
ARC
  5
26D
330
1F
100
AcDbEntity
  8
0
  6
Continuous
 62
     7
370
    25
100
AcDbCircle
 10
7338.0164418381
 20
5111.6959241822
 30
0.0
 40
8.834111884769195
100
AcDbArc
 50
245.0796807339
 51
257.5963840453
  0
LINE
  5
26E
330
1F
100
AcDbEntity
  8
0
  6
Continuous
 62
     7
370
    25
100
AcDbLine
 10
7336.1189014182
 20
5104.0339375642
 30
0.0
 11
7336.1189014182
 21
5103.0680117379
 31
0.0
  0
LINE
  5
26F
330
1F
100
AcDbEntity
  8
0
  6
Continuous
 62
     7
370
    25
100
AcDbLine
 10
7335.7163981071
 20
5102.9881796852
 30
0.0
 11
7336.1189014182
 21
5103.0680117379
 31
0.0
  0
LINE
  5
270
330
1F
100
AcDbEntity
  8
0
  6
Continuous
 62
     7
370
    25
100
AcDbLine
 10
7348.4829986536
 20
5104.1644038147
 30
0.0
 11
7348.4829986536
 21
5103.1984779884
 31
0.0
  0
LINE
  5
271
330
1F
100
AcDbEntity
  8
0
  6
Continuous
 62
     7
370
    25
100
AcDbLine
 10
7348.7914460194
 20
5103.0943024658
 30
0.0
 11
7348.4829986536
 21
5103.1984779884
 31
0.0
  0
ARC
  5
272
330
1F
100
AcDbEntity
  8
0
  6
Continuous
 62
     7
370
    25
100
AcDbCircle
 10
7343.8509743454
 20
5120.3135319165
 30
0.0
 40
17.73078453291545
100
AcDbArc
 50
277.2930101399
 51
285.1437664243
  0
LINE
  5
273
330
1F
100
AcDbEntity
  8
0
  6
Continuous
 62
     7
370
    25
100
AcDbLine
 10
7346.1017839724
 20
5103.692116381
 30
0.0
 11
7346.1017839724
 21
5102.7261905547
 31
0.0
  0
LINE
  5
274
330
1F
100
AcDbEntity
  8
0
  6
Continuous
 62
     7
370
    25
100
AcDbLine
 10
7346.4102313382
 20
5102.6220150321
 30
0.0
 11
7346.1017839724
 21
5102.7261905547
 31
0.0
  0
LINE
  5
275
330
1F
100
AcDbEntity
  8
0
  6
Continuous
 62
     7
370
    25
100
AcDbLine
 10
7339.4312627062
 20
5103.5382506535
 30
0.0
 11
7339.4312627062
 21
5102.5723248272
 31
0.0
  0
LINE
  5
276
330
1F
100
AcDbEntity
  8
0
  6
Continuous
 62
     7
370
    25
100
AcDbLine
 10
7342.4053490194
 20
5103.4364157679
 30
0.0
 11
7342.4053490194
 21
5102.4704899417
 31
0.0
  0
ARC
  5
277
330
1F
100
AcDbEntity
  8
0
  6
Continuous
 62
     7
370
    25
100
AcDbCircle
 10
7342.0371383655
 20
5135.1968939365
 30
0.0
 40
32.72847533143267
100
AcDbArc
 50
265.4332158269
 51
270.6446179145
  0
LINE
  5
278
330
1F
100
AcDbEntity
  8
0
  6
Continuous
 62
     7
370
    25
100
AcDbLine
 10
7339.4312627062
 20
5102.5723248272
 30
0.0
 11
7339.3647551094
 21
5102.4422118229
 31
0.0
  0
LINE
  5
279
330
1F
100
AcDbEntity
  8
0
  6
Continuous
 62
     7
370
    25
100
AcDbLine
 10
7342.4053490194
 20
5102.4704899417
 30
0.0
 11
7342.3388414226
 21
5102.3403769374
 31
0.0
  0
ARC
  5
27A
330
1F
100
AcDbEntity
  8
0
  6
Continuous
 62
     7
370
    25
100
AcDbCircle
 10
6142.1585214669
 20
5135.6381483874
 30
0.0
 40
32.33234845671095
100
AcDbArc
 50
270.3195445577
 51
277.00524986
  0
ARC
  5
27B
330
1F
100
AcDbEntity
  8
0
  6
Continuous
 62
     7
370
    25
100
AcDbCircle
 10
6143.9578850649
 20
5121.2254791758
 30
0.0
 40
18.76440461064444
100
AcDbArc
 50
277.5095473836
 51
284.9272291806
  0
LINE
  5
27C
330
1F
100
AcDbEntity
  8
0
  6
Continuous
 62
     7
370
    25
100
AcDbLine
 10
6148.7914460194
 20
5104.0602282921
 30
0.0
 11
6148.7914460194
 21
5103.0943024658
 31
0.0
  0
ARC
  5
27D
330
1F
100
AcDbEntity
  8
0
  6
Continuous
 62
     7
370
    25
100
AcDbCircle
 10
6146.9163492323
 20
5111.4370040058
 30
0.0
 40
7.611360449506553
100
AcDbArc
 50
284.2619248087
 51
297.2228497748
  0
ARC
  5
27E
330
1F
100
AcDbEntity
  8
0
  6
Continuous
 62
     7
370
    25
100
AcDbCircle
 10
6150.3918083615
 20
5104.7842262913
 30
0.0
 40
0.9028767270928164
100
AcDbArc
 50
304.3231205501
 51
1.5289520685
  0
LINE
  5
27F
330
1F
100
AcDbEntity
  8
0
  6
Continuous
 62
     7
370
    25
100
AcDbLine
 10
6151.2943636373
 20
5105.4120205624
 30
0.0
 11
6151.2943636373
 21
5104.808316921
 31
0.0
  0
LINE
  5
280
330
1F
100
AcDbEntity
  8
0
  6
Continuous
 62
     7
370
    25
100
AcDbLine
 10
6150.2061975998
 20
5106.1737218743
 30
0.0
 11
6150.2061975998
 21
5105.8620701712
 31
0.0
  0
ARC
  5
281
330
1F
100
AcDbEntity
  8
0
  6
Continuous
 62
     7
370
    25
100
AcDbCircle
 10
6146.3174046691
 20
5097.3575580838
 30
0.0
 40
9.351440333064922
100
AcDbArc
 50
65.4271673512
 51
77.2488974279
  0
LINE
  5
282
330
1F
100
AcDbEntity
  8
0
  6
Continuous
 62
     7
370
    25
100
AcDbLine
 10
6148.3814190812
 20
5106.6944171221
 30
0.0
 11
6148.3814190812
 21
5106.4783738811
 31
0.0
  0
LINE
  5
283
330
1F
100
AcDbEntity
  8
0
  6
Continuous
 62
     7
370
    25
100
AcDbLine
 10
6144.7330620789
 20
5107.1928877686
 30
0.0
 11
6144.7330620789
 21
5107.0243417434
 31
0.0
  0
ARC
  5
284
330
1F
100
AcDbEntity
  8
0
  6
Continuous
 62
     7
370
    25
100
AcDbCircle
 10
6142.0620952972
 20
5072.4987873775
 30
0.0
 40
34.62871594245653
100
AcDbArc
 50
85.5762935841
 51
90.5015401573
  0
LINE
  5
285
330
1F
100
AcDbEntity
  8
0
  6
Continuous
 62
     7
370
    25
100
AcDbLine
 10
6141.7589757657
 20
5107.2880130161
 30
0.0
 11
6141.7589757657
 21
5107.126176629
 31
0.0
  0
LINE
  5
286
330
1F
100
AcDbEntity
  8
0
  6
Continuous
 62
     7
370
    25
100
AcDbLine
 10
6137.6875858501
 20
5107.0263388689
 30
0.0
 11
6137.6875858501
 21
5106.8445385342
 31
0.0
  0
ARC
  5
287
330
1F
100
AcDbEntity
  8
0
  6
Continuous
 62
     7
370
    25
100
AcDbCircle
 10
6140.1399321235
 20
5088.2410743902
 30
0.0
 40
18.76440461092315
100
AcDbArc
 50
97.5095473837
 51
104.9272291806
  0
LINE
  5
288
330
1F
100
AcDbEntity
  8
0
  6
Continuous
 62
     7
370
    25
100
AcDbLine
 10
6135.3063711689
 20
5106.6006129502
 30
0.0
 11
6135.3063711689
 21
5106.3722511005
 31
0.0
  0
LINE
  5
289
330
1F
100
AcDbEntity
  8
0
  6
Continuous
 62
     7
370
    25
100
AcDbLine
 10
6133.1969133349
 20
5105.8661181621
 30
0.0
 11
6133.1969133349
 21
5105.427986825
 31
0.0
  0
ARC
  5
28A
330
1F
100
AcDbEntity
  8
0
  6
Continuous
 62
     7
370
    25
100
AcDbCircle
 10
6133.7060088268
 20
5104.6823272751
 30
0.0
 40
0.902876727091124
100
AcDbArc
 50
124.3231205501
 51
181.5289520688
  0
ARC
  5
28B
330
1F
100
AcDbEntity
  8
0
  6
Continuous
 62
     7
370
    25
100
AcDbCircle
 10
6135.4165507783
 20
5107.8143462539
 30
0.0
 40
3.58448637942944
100
AcDbArc
 50
234.2802957882
 51
244.8224135793
  0
LINE
  5
28C
330
1F
100
AcDbEntity
  8
0
  6
Continuous
 62
     7
370
    25
100
AcDbLine
 10
6133.8916195885
 20
5104.5704092215
 30
0.0
 11
6133.8916195885
 21
5103.6044833952
 31
0.0
  0
ARC
  5
28D
330
1F
100
AcDbEntity
  8
0
  6
Continuous
 62
     7
370
    25
100
AcDbCircle
 10
6137.7804125192
 20
5112.1089954822
 30
0.0
 40
9.351440332737372
100
AcDbArc
 50
245.427167351
 51
257.2488974281
  0
ARC
  5
28E
330
1F
100
AcDbEntity
  8
0
  6
Continuous
 62
     7
370
    25
100
AcDbCircle
 10
6141.1091080324
 20
5127.7263228935
 30
0.0
 40
24.3806665350815
100
AcDbArc
 50
258.1893005351
 51
265.8971784141
  0
LINE
  5
28F
330
1F
100
AcDbEntity
  8
0
  6
Continuous
 62
     7
370
    25
100
AcDbLine
 10
6139.3647551094
 20
5103.4081376492
 30
0.0
 11
6139.3647551094
 21
5102.4422118229
 31
0.0
  0
ARC
  5
290
330
1F
100
AcDbEntity
  8
0
  6
Continuous
 62
     7
370
    25
100
AcDbCircle
 10
6142.0357218911
 20
5136.9677661882
 30
0.0
 40
34.62871594185911
100
AcDbArc
 50
265.5762935841
 51
270.5015401573
  0
LWPOLYLINE
  5
291
330
1F
100
AcDbEntity
  8
0
  6
Continuous
 62
     7
370
    25
100
AcDbPolyline
 90
        6
 70
   128
 43
0.0
 10
6135.5005682208
 20
5104.4004121668
 10
6134.6003350045
 20
5104.7811699067
 10
6134.0256401962
 20
5105.2020500809
 10
6133.8016007169
 20
5105.6446582062
 10
6133.9380081667
 20
5106.0896501837
 10
6134.0654051932
 20
5106.2375321278
  0
LWPOLYLINE
  5
292
330
1F
100
AcDbEntity
  8
0
  6
Continuous
 62
     7
370
    25
100
AcDbPolyline
 90
        6
 70
   128
 43
0.0
 10
6150.2235496555
 20
5105.9871489482
 10
6150.2962164715
 20
5105.7537470127
 10
6150.1598090216
 20
5105.3087550352
 10
6149.6689163027
 20
5104.8808274903
 10
6148.844992682
 20
5104.4886668651
 10
6148.4916804295
 20
5104.3655135428
  0
LINE
  5
293
330
1F
100
AcDbEntity
  8
0
  6
Continuous
 62
     7
370
    25
100
AcDbLine
 10
6135.8228351542
 20
5104.2982643555
 30
0.0
 11
6135.5005682208
 21
5104.4004121668
 31
0.0
  0
LINE
  5
294
330
1F
100
AcDbEntity
  8
0
  6
Continuous
 62
     7
370
    25
100
AcDbLine
 10
6150.7916455926
 20
5105.79145618
 30
0.0
 11
6151.0534567451
 21
5105.782491575
 31
0.0
  0
ARC
  5
295
330
1F
100
AcDbEntity
  8
0
  6
Continuous
 62
     7
370
    25
100
AcDbCircle
 10
6149.8082996446
 20
5105.843170689
 30
0.0
 40
1.011320879483058
100
AcDbArc
 50
305.6817763792
 51
346.4922228009
  0
LINE
  5
296
330
1F
100
AcDbEntity
  8
0
  6
Continuous
 62
     7
370
    25
100
AcDbLine
 10
6148.7914460194
 20
5104.0602282921
 30
0.0
 11
6148.4829986536
 21
5104.1644038147
 31
0.0
  0
ARC
  5
297
330
1F
100
AcDbEntity
  8
0
  6
Continuous
 62
     7
370
    25
100
AcDbCircle
 10
6143.8509743453
 20
5121.279457743
 30
0.0
 40
17.73078453315149
100
AcDbArc
 50
277.2930101399
 51
285.1437664242
  0
ARC
  5
298
330
1F
100
AcDbEntity
  8
0
  6
Continuous
 62
     7
370
    25
100
AcDbCircle
 10
6142.0371383655
 20
5136.1628197623
 30
0.0
 40
32.72847533088797
100
AcDbArc
 50
265.4332158269
 51
270.6446179145
  0
LINE
  5
299
330
1F
100
AcDbEntity
  8
0
  6
Continuous
 62
     7
370
    25
100
AcDbLine
 10
6139.4312627062
 20
5103.5382506535
 30
0.0
 11
6139.3647551094
 21
5103.4081376492
 31
0.0
  0
ARC
  5
29A
330
1F
100
AcDbEntity
  8
0
  6
Continuous
 62
     7
370
    25
100
AcDbCircle
 10
6138.0164418381
 20
5112.6618500084
 30
0.0
 40
8.83411188468355
100
AcDbArc
 50
245.0796807338
 51
257.5963840454
  0
LINE
  5
29B
330
1F
100
AcDbEntity
  8
0
  6
Continuous
 62
     7
370
    25
100
AcDbLine
 10
6133.8916195885
 20
5104.5704092215
 30
0.0
 11
6134.2941228996
 21
5104.6502412741
 31
0.0
  0
LWPOLYLINE
  5
29C
330
1F
100
AcDbEntity
  8
0
  6
Continuous
 62
     7
370
    25
100
AcDbPolyline
 90
        3
 70
   128
 43
0.0
 10
6134.5489085942
 20
5105.7755850366
 10
6134.0256401962
 20
5106.1679759072
 10
6133.9886239303
 20
5106.2098488045
  0
LINE
  5
29D
330
1F
100
AcDbEntity
  8
0
  6
Continuous
 62
     7
370
    25
100
AcDbLine
 10
6149.6686258977
 20
5105.8465722063
 30
0.0
 11
6149.5489085942
 21
5105.7755850366
 31
0.0
  0
LINE
  5
29E
330
1F
100
AcDbEntity
  8
0
  6
Continuous
 62
     7
370
    25
100
AcDbLine
 10
6144.6665544822
 20
5106.8942287391
 30
0.0
 11
6144.7330620789
 21
5107.0243417434
 31
0.0
  0
ARC
  5
29F
330
1F
100
AcDbEntity
  8
0
  6
Continuous
 62
     7
370
    25
100
AcDbCircle
 10
6142.0606788228
 20
5074.2696596298
 30
0.0
 40
32.72847533145355
100
AcDbArc
 50
85.4332158269
 51
90.6446179145
  0
LINE
  5
2A0
330
1F
100
AcDbEntity
  8
0
  6
Continuous
 62
     7
370
    25
100
AcDbLine
 10
6141.6924681689
 20
5106.9960636247
 30
0.0
 11
6141.7589757657
 21
5107.126176629
 31
0.0
  0
LWPOLYLINE
  5
2A1
330
1F
100
AcDbEntity
  8
0
  6
Continuous
 62
     7
370
    25
100
AcDbPolyline
 90
        7
 70
   128
 43
0.0
 10
6136.0958718911
 20
5104.5184840252
 10
6135.2543669775
 20
5104.8773062691
 10
6134.7305672783
 20
5105.2745594725
 10
6134.5489650852
 20
5105.691668517
 10
6134.7180519151
 20
5106.1091298473
 10
6135.2299214556
 20
5106.5074234355
 10
6135.3063711689
 20
5106.5493035665
  0
LWPOLYLINE
  5
2A2
330
1F
100
AcDbEntity
  8
0
  6
Continuous
 62
     7
370
    25
100
AcDbPolyline
 90
       14
 70
   128
 43
0.0
 10
6149.4999756458
 20
5105.9205798743
 10
6149.5017398226
 20
5105.9165654142
 10
6149.5080344033
 20
5105.4968196593
 10
6149.1655485513
 20
5105.0865371061
 10
6148.4902965246
 20
5104.704902111
 10
6147.5138523574
 20
5104.369759502
 10
6146.2818734936
 20
5104.0967801752
 10
6144.8519658957
 20
5103.8987283405
 10
6143.2909904538
 20
5103.7848646815
 10
6141.6719366446
 20
5103.7605133364
 10
6140.0705096247
 20
5103.8268129469
 10
6138.5615903419
 20
5103.9806634171
 10
6137.2157341847
 20
5104.2148708699
 10
6136.0958718911
 20
5104.5184840252
  0
LINE
  5
2A3
330
1F
100
AcDbEntity
  8
0
  6
Continuous
 62
     7
370
    25
100
AcDbLine
 10
6141.6924681689
 20
5107.2874493538
 30
0.0
 11
6141.6924681689
 21
5106.9960636247
 31
0.0
  0
LINE
  5
2A4
330
1F
100
AcDbEntity
  8
0
  6
Continuous
 62
     7
370
    25
100
AcDbLine
 10
6137.6875858501
 20
5106.8445385342
 30
0.0
 11
6137.9960332159
 21
5106.7403630116
 31
0.0
  0
ARC
  5
2A5
330
1F
100
AcDbEntity
  8
0
  6
Continuous
 62
     7
370
    25
100
AcDbCircle
 10
6140.2468428429
 20
5089.1530216499
 30
0.0
 40
17.73078453288613
100
AcDbArc
 50
97.2930101399
 51
105.1437664243
  0
LINE
  5
2A6
330
1F
100
AcDbEntity
  8
0
  6
Continuous
 62
     7
370
    25
100
AcDbLine
 10
6135.3063711689
 20
5106.3722511005
 30
0.0
 11
6135.6148185347
 21
5106.2680755779
 31
0.0
  0
LINE
  5
2A7
330
1F
100
AcDbEntity
  8
0
  6
Continuous
 62
     7
370
    25
100
AcDbLine
 10
6137.9960332159
 20
5107.0639394269
 30
0.0
 11
6137.9960332159
 21
5106.7403630116
 31
0.0
  0
LINE
  5
2A8
330
1F
100
AcDbEntity
  8
0
  6
Continuous
 62
     7
370
    25
100
AcDbLine
 10
6148.3814190812
 20
5106.4783738811
 30
0.0
 11
6147.9789157701
 21
5106.3985418285
 31
0.0
  0
LINE
  5
2A9
330
1F
100
AcDbEntity
  8
0
  6
Continuous
 62
     7
370
    25
100
AcDbLine
 10
6150.2061975998
 20
5105.8620701712
 30
0.0
 11
6149.8036942887
 21
5105.7822381185
 31
0.0
  0
ARC
  5
2AA
330
1F
100
AcDbEntity
  8
0
  6
Continuous
 62
     7
370
    25
100
AcDbCircle
 10
6146.0813753503
 20
5097.7706293842
 30
0.0
 40
8.834111884705086
100
AcDbArc
 50
65.0796807338
 51
77.5963840453
  0
LINE
  5
2AB
330
1F
100
AcDbEntity
  8
0
  6
Continuous
 62
     7
370
    25
100
AcDbLine
 10
6147.9789157701
 20
5106.7769746331
 30
0.0
 11
6147.9789157701
 21
5106.3985418285
 31
0.0
  0
LINE
  5
2AC
330
1F
100
AcDbEntity
  8
0
  6
Continuous
 62
     7
370
    25
100
AcDbLine
 10
6133.6996313796
 20
5106.0980459527
 30
0.0
 11
6133.6996313796
 21
5105.4107733923
 31
0.0
  0
LINE
  5
2AD
330
1F
100
AcDbEntity
  8
0
  6
Continuous
 62
     7
370
    25
100
AcDbLine
 10
6133.6996313796
 20
5105.4107733923
 30
0.0
 11
6133.1969133349
 21
5105.427986825
 31
0.0
  0
ARC
  5
2AE
330
1F
100
AcDbEntity
  8
0
  6
Continuous
 62
     7
370
    25
100
AcDbCircle
 10
6134.1643442923
 20
5104.6878001119
 30
0.0
 40
0.8594465983302695
100
AcDbArc
 50
122.7321069521
 51
183.1199656666
  0
LINE
  5
2AF
330
1F
100
AcDbEntity
  8
0
  6
Continuous
 62
     7
370
    25
100
AcDbLine
 10
6133.3061715958
 20
5104.6410232127
 30
0.0
 11
6132.803453551
 21
5104.6582366454
 31
0.0
  0
LINE
  5
2B0
330
1F
100
AcDbEntity
  8
0
  6
Continuous
 62
     7
370
    25
100
AcDbLine
 10
6133.3061715958
 20
5104.8255303537
 30
0.0
 11
6133.3061715958
 21
5104.6410232127
 31
0.0
  0
LINE
  5
2B1
330
1F
100
AcDbEntity
  8
0
  6
Continuous
 62
     7
370
    25
100
AcDbLine
 10
6150.7916455926
 20
5105.79145618
 30
0.0
 11
6150.7916455926
 21
5104.8255303537
 31
0.0
  0
LINE
  5
2B2
330
1F
100
AcDbEntity
  8
0
  6
Continuous
 62
     7
370
    25
100
AcDbLine
 10
6150.7916455926
 20
5104.8255303537
 30
0.0
 11
6151.2943636373
 21
5104.808316921
 31
0.0
  0
ARC
  5
2B3
330
1F
100
AcDbEntity
  8
0
  6
Continuous
 62
     7
370
    25
100
AcDbCircle
 10
6149.933472896
 20
5104.7787534544
 30
0.0
 40
0.8594465983330282
100
AcDbArc
 50
302.7321069521
 51
3.1199656665
  0
LINE
  5
2B4
330
1F
100
AcDbEntity
  8
0
  6
Continuous
 62
     7
370
    25
100
AcDbLine
 10
6150.3981858087
 20
5104.055780174
 30
0.0
 11
6150.9009038534
 21
5104.0385667413
 31
0.0
  0
LINE
  5
2B5
330
1F
100
AcDbEntity
  8
0
  6
Continuous
 62
     7
370
    25
100
AcDbLine
 10
6150.3981858087
 20
5105.0217060003
 30
0.0
 11
6150.3981858087
 21
5104.055780174
 31
0.0
  0
LINE
  5
2B6
330
1F
100
AcDbEntity
  8
0
  6
Continuous
 62
     7
370
    25
100
AcDbLine
 10
6134.2941228996
 20
5104.6502412741
 30
0.0
 11
6134.2941228996
 21
5103.6843154478
 31
0.0
  0
LINE
  5
2B7
330
1F
100
AcDbEntity
  8
0
  6
Continuous
 62
     7
370
    25
100
AcDbLine
 10
6133.8916195885
 20
5103.6044833952
 30
0.0
 11
6134.2941228996
 21
5103.6843154478
 31
0.0
  0
ARC
  5
2B8
330
1F
100
AcDbEntity
  8
0
  6
Continuous
 62
     7
370
    25
100
AcDbCircle
 10
6138.0164418381
 20
5111.6959241823
 30
0.0
 40
8.83411188479544
100
AcDbArc
 50
245.0796807339
 51
257.5963840453
  0
LINE
  5
2B9
330
1F
100
AcDbEntity
  8
0
  6
Continuous
 62
     7
370
    25
100
AcDbLine
 10
6136.1189014182
 20
5104.0339375642
 30
0.0
 11
6136.1189014182
 21
5103.0680117379
 31
0.0
  0
LINE
  5
2BA
330
1F
100
AcDbEntity
  8
0
  6
Continuous
 62
     7
370
    25
100
AcDbLine
 10
6135.7163981071
 20
5102.9881796852
 30
0.0
 11
6136.1189014182
 21
5103.0680117379
 31
0.0
  0
LINE
  5
2BB
330
1F
100
AcDbEntity
  8
0
  6
Continuous
 62
     7
370
    25
100
AcDbLine
 10
6148.4829986536
 20
5104.1644038147
 30
0.0
 11
6148.4829986536
 21
5103.1984779884
 31
0.0
  0
LINE
  5
2BC
330
1F
100
AcDbEntity
  8
0
  6
Continuous
 62
     7
370
    25
100
AcDbLine
 10
6148.7914460194
 20
5103.0943024658
 30
0.0
 11
6148.4829986536
 21
5103.1984779884
 31
0.0
  0
ARC
  5
2BD
330
1F
100
AcDbEntity
  8
0
  6
Continuous
 62
     7
370
    25
100
AcDbCircle
 10
6143.8509743454
 20
5120.3135319165
 30
0.0
 40
17.73078453294717
100
AcDbArc
 50
277.2930101399
 51
285.1437664243
  0
LINE
  5
2BE
330
1F
100
AcDbEntity
  8
0
  6
Continuous
 62
     7
370
    25
100
AcDbLine
 10
6146.1017839724
 20
5103.692116381
 30
0.0
 11
6146.1017839724
 21
5102.7261905547
 31
0.0
  0
LINE
  5
2BF
330
1F
100
AcDbEntity
  8
0
  6
Continuous
 62
     7
370
    25
100
AcDbLine
 10
6146.4102313382
 20
5102.6220150321
 30
0.0
 11
6146.1017839724
 21
5102.7261905547
 31
0.0
  0
LINE
  5
2C0
330
1F
100
AcDbEntity
  8
0
  6
Continuous
 62
     7
370
    25
100
AcDbLine
 10
6139.4312627062
 20
5103.5382506535
 30
0.0
 11
6139.4312627062
 21
5102.5723248272
 31
0.0
  0
LINE
  5
2C1
330
1F
100
AcDbEntity
  8
0
  6
Continuous
 62
     7
370
    25
100
AcDbLine
 10
6142.4053490194
 20
5103.4364157679
 30
0.0
 11
6142.4053490194
 21
5102.4704899417
 31
0.0
  0
ARC
  5
2C2
330
1F
100
AcDbEntity
  8
0
  6
Continuous
 62
     7
370
    25
100
AcDbCircle
 10
6142.0371383655
 20
5135.1968939365
 30
0.0
 40
32.728475331419
100
AcDbArc
 50
265.4332158269
 51
270.6446179145
  0
LINE
  5
2C3
330
1F
100
AcDbEntity
  8
0
  6
Continuous
 62
     7
370
    25
100
AcDbLine
 10
6139.4312627062
 20
5102.5723248272
 30
0.0
 11
6139.3647551094
 21
5102.4422118229
 31
0.0
  0
LINE
  5
2C4
330
1F
100
AcDbEntity
  8
0
  6
Continuous
 62
     7
370
    25
100
AcDbLine
 10
6142.4053490194
 20
5102.4704899417
 30
0.0
 11
6142.3388414226
 21
5102.3403769374
 31
0.0
  0
ARC
  5
2C5
330
1F
100
AcDbEntity
  8
0
  6
Continuous
 62
     7
370
    25
100
AcDbCircle
 10
7942.1585214669
 20
5135.6381483875
 30
0.0
 40
32.33234845674916
100
AcDbArc
 50
270.3195445577
 51
277.00524986
  0
ARC
  5
2C6
330
1F
100
AcDbEntity
  8
0
  6
Continuous
 62
     7
370
    25
100
AcDbCircle
 10
7943.9578850649
 20
5121.2254791758
 30
0.0
 40
18.76440461060051
100
AcDbArc
 50
277.5095473836
 51
284.9272291806
  0
LINE
  5
2C7
330
1F
100
AcDbEntity
  8
0
  6
Continuous
 62
     7
370
    25
100
AcDbLine
 10
7948.7914460194
 20
5104.0602282921
 30
0.0
 11
7948.7914460194
 21
5103.0943024658
 31
0.0
  0
ARC
  5
2C8
330
1F
100
AcDbEntity
  8
0
  6
Continuous
 62
     7
370
    25
100
AcDbCircle
 10
7946.9163492323
 20
5111.4370040058
 30
0.0
 40
7.611360449503813
100
AcDbArc
 50
284.2619248087
 51
297.2228497748
  0
ARC
  5
2C9
330
1F
100
AcDbEntity
  8
0
  6
Continuous
 62
     7
370
    25
100
AcDbCircle
 10
7950.3918083615
 20
5104.7842262913
 30
0.0
 40
0.9028767270859476
100
AcDbArc
 50
304.3231205498
 51
1.5289520687
  0
LINE
  5
2CA
330
1F
100
AcDbEntity
  8
0
  6
Continuous
 62
     7
370
    25
100
AcDbLine
 10
7951.2943636373
 20
5105.4120205624
 30
0.0
 11
7951.2943636373
 21
5104.808316921
 31
0.0
  0
LINE
  5
2CB
330
1F
100
AcDbEntity
  8
0
  6
Continuous
 62
     7
370
    25
100
AcDbLine
 10
7950.2061975998
 20
5106.1737218743
 30
0.0
 11
7950.2061975998
 21
5105.8620701712
 31
0.0
  0
ARC
  5
2CC
330
1F
100
AcDbEntity
  8
0
  6
Continuous
 62
     7
370
    25
100
AcDbCircle
 10
7946.3174046691
 20
5097.3575580838
 30
0.0
 40
9.351440333065122
100
AcDbArc
 50
65.4271673512
 51
77.2488974279
  0
LINE
  5
2CD
330
1F
100
AcDbEntity
  8
0
  6
Continuous
 62
     7
370
    25
100
AcDbLine
 10
7948.3814190812
 20
5106.6944171221
 30
0.0
 11
7948.3814190812
 21
5106.4783738811
 31
0.0
  0
LINE
  5
2CE
330
1F
100
AcDbEntity
  8
0
  6
Continuous
 62
     7
370
    25
100
AcDbLine
 10
7944.7330620789
 20
5107.1928877686
 30
0.0
 11
7944.7330620789
 21
5107.0243417434
 31
0.0
  0
ARC
  5
2CF
330
1F
100
AcDbEntity
  8
0
  6
Continuous
 62
     7
370
    25
100
AcDbCircle
 10
7942.0620952972
 20
5072.4987873775
 30
0.0
 40
34.62871594245019
100
AcDbArc
 50
85.5762935841
 51
90.5015401573
  0
LINE
  5
2D0
330
1F
100
AcDbEntity
  8
0
  6
Continuous
 62
     7
370
    25
100
AcDbLine
 10
7941.7589757657
 20
5107.2880130161
 30
0.0
 11
7941.7589757657
 21
5107.126176629
 31
0.0
  0
LINE
  5
2D1
330
1F
100
AcDbEntity
  8
0
  6
Continuous
 62
     7
370
    25
100
AcDbLine
 10
7937.6875858501
 20
5107.0263388689
 30
0.0
 11
7937.6875858501
 21
5106.8445385342
 31
0.0
  0
ARC
  5
2D2
330
1F
100
AcDbEntity
  8
0
  6
Continuous
 62
     7
370
    25
100
AcDbCircle
 10
7940.1399321235
 20
5088.2410743902
 30
0.0
 40
18.76440461095255
100
AcDbArc
 50
97.5095473837
 51
104.9272291806
  0
LINE
  5
2D3
330
1F
100
AcDbEntity
  8
0
  6
Continuous
 62
     7
370
    25
100
AcDbLine
 10
7935.3063711689
 20
5106.6006129502
 30
0.0
 11
7935.3063711689
 21
5106.3722511005
 31
0.0
  0
LINE
  5
2D4
330
1F
100
AcDbEntity
  8
0
  6
Continuous
 62
     7
370
    25
100
AcDbLine
 10
7933.1969133349
 20
5105.8661181621
 30
0.0
 11
7933.1969133349
 21
5105.427986825
 31
0.0
  0
ARC
  5
2D5
330
1F
100
AcDbEntity
  8
0
  6
Continuous
 62
     7
370
    25
100
AcDbCircle
 10
7933.7060088268
 20
5104.6823272751
 30
0.0
 40
0.9028767270958571
100
AcDbArc
 50
124.3231205502
 51
181.5289520685
  0
ARC
  5
2D6
330
1F
100
AcDbEntity
  8
0
  6
Continuous
 62
     7
370
    25
100
AcDbCircle
 10
7935.4165518987
 20
5107.814348335
 30
0.0
 40
3.584488739460708
100
AcDbArc
 50
234.2803254797
 51
244.8224115227
  0
LINE
  5
2D7
330
1F
100
AcDbEntity
  8
0
  6
Continuous
 62
     7
370
    25
100
AcDbLine
 10
7933.8916195885
 20
5104.5704092215
 30
0.0
 11
7933.8916195885
 21
5103.6044833952
 31
0.0
  0
ARC
  5
2D8
330
1F
100
AcDbEntity
  8
0
  6
Continuous
 62
     7
370
    25
100
AcDbCircle
 10
7937.7804125192
 20
5112.1089954822
 30
0.0
 40
9.351440332729473
100
AcDbArc
 50
245.427167351
 51
257.2488974282
  0
ARC
  5
2D9
330
1F
100
AcDbEntity
  8
0
  6
Continuous
 62
     7
370
    25
100
AcDbCircle
 10
7941.1091080324
 20
5127.7263228935
 30
0.0
 40
24.38066653514552
100
AcDbArc
 50
258.1893005351
 51
265.8971784141
  0
LINE
  5
2DA
330
1F
100
AcDbEntity
  8
0
  6
Continuous
 62
     7
370
    25
100
AcDbLine
 10
7939.3647551094
 20
5103.4081376492
 30
0.0
 11
7939.3647551094
 21
5102.4422118229
 31
0.0
  0
ARC
  5
2DB
330
1F
100
AcDbEntity
  8
0
  6
Continuous
 62
     7
370
    25
100
AcDbCircle
 10
7942.0357218911
 20
5136.9677661882
 30
0.0
 40
34.62871594185911
100
AcDbArc
 50
265.5762935841
 51
270.5015401573
  0
LWPOLYLINE
  5
2DC
330
1F
100
AcDbEntity
  8
0
  6
Continuous
 62
     7
370
    25
100
AcDbPolyline
 90
        6
 70
   128
 43
0.0
 10
7935.5005682208
 20
5104.4004121668
 10
7934.6003350045
 20
5104.7811699067
 10
7934.0256401962
 20
5105.2020500809
 10
7933.8016007169
 20
5105.6446582062
 10
7933.9380081667
 20
5106.0896501837
 10
7934.0941748861
 20
5106.2653429671
  0
LWPOLYLINE
  5
2DD
330
1F
100
AcDbEntity
  8
0
  6
Continuous
 62
     7
370
    25
100
AcDbPolyline
 90
       14
 70
   128
 43
0.0
 10
7950.2235496555
 20
5105.9871489482
 10
7950.2962164715
 20
5105.7537470127
 10
7950.1598090216
 20
5105.3087550352
 10
7949.6689163027
 20
5104.8808274903
 10
7948.844992682
 20
5104.4886668651
 10
7947.7240475755
 20
5104.1494124607
 10
7946.3550716631
 20
5103.8778913225
 10
7944.7978957614
 20
5103.6859702272
 10
7943.1205759293
 20
5103.5820370476
 10
7941.3964190923
 20
5103.5706341623
 10
7939.7007791775
 20
5103.6522599321
 10
7938.1077637858
 20
5103.8233469193
 10
7936.6869953339
 20
5104.0764178015
 10
7935.5005682208
 20
5104.4004121668
  0
LINE
  5
2DE
330
1F
100
AcDbEntity
  8
0
  6
Continuous
 62
     7
370
    25
100
AcDbLine
 10
7950.7916455926
 20
5105.79145618
 30
0.0
 11
7951.0534567451
 21
5105.782491575
 31
0.0
  0
ARC
  5
2DF
330
1F
100
AcDbEntity
  8
0
  6
Continuous
 62
     7
370
    25
100
AcDbCircle
 10
7949.8082996446
 20
5105.843170689
 30
0.0
 40
1.011320879472614
100
AcDbArc
 50
305.6817763789
 51
346.4922228012
  0
LINE
  5
2E0
330
1F
100
AcDbEntity
  8
0
  6
Continuous
 62
     7
370
    25
100
AcDbLine
 10
7948.7914460194
 20
5104.0602282921
 30
0.0
 11
7948.4829986536
 21
5104.1644038147
 31
0.0
  0
ARC
  5
2E1
330
1F
100
AcDbEntity
  8
0
  6
Continuous
 62
     7
370
    25
100
AcDbCircle
 10
7943.8509743453
 20
5121.279457743
 30
0.0
 40
17.73078453315173
100
AcDbArc
 50
277.2930101399
 51
285.1437664242
  0
ARC
  5
2E2
330
1F
100
AcDbEntity
  8
0
  6
Continuous
 62
     7
370
    25
100
AcDbCircle
 10
7942.0371383655
 20
5136.1628197623
 30
0.0
 40
32.72847533088799
100
AcDbArc
 50
265.4332158269
 51
270.6446179145
  0
LINE
  5
2E3
330
1F
100
AcDbEntity
  8
0
  6
Continuous
 62
     7
370
    25
100
AcDbLine
 10
7939.4312627062
 20
5103.5382506535
 30
0.0
 11
7939.3647551094
 21
5103.4081376492
 31
0.0
  0
ARC
  5
2E4
330
1F
100
AcDbEntity
  8
0
  6
Continuous
 62
     7
370
    25
100
AcDbCircle
 10
7938.016441838
 20
5112.6618500084
 30
0.0
 40
8.83411188464443
100
AcDbArc
 50
245.0796807338
 51
257.5963840454
  0
LINE
  5
2E5
330
1F
100
AcDbEntity
  8
0
  6
Continuous
 62
     7
370
    25
100
AcDbLine
 10
7933.8916195885
 20
5104.5704092215
 30
0.0
 11
7934.2941228996
 21
5104.6502412741
 31
0.0
  0
LWPOLYLINE
  5
2E6
330
1F
100
AcDbEntity
  8
0
  6
Continuous
 62
     7
370
    25
100
AcDbPolyline
 90
        3
 70
   128
 43
0.0
 10
7934.5489085942
 20
5105.7755850366
 10
7934.0256401962
 20
5106.1679759072
 10
7934.0127124049
 20
5106.1821655226
  0
LINE
  5
2E7
330
1F
100
AcDbEntity
  8
0
  6
Continuous
 62
     7
370
    25
100
AcDbLine
 10
7949.6686256757
 20
5105.8465720678
 30
0.0
 11
7949.5489085942
 21
5105.7755850366
 31
0.0
  0
LINE
  5
2E8
330
1F
100
AcDbEntity
  8
0
  6
Continuous
 62
     7
370
    25
100
AcDbLine
 10
7944.6665544822
 20
5106.8942287391
 30
0.0
 11
7944.7330620789
 21
5107.0243417434
 31
0.0
  0
ARC
  5
2E9
330
1F
100
AcDbEntity
  8
0
  6
Continuous
 62
     7
370
    25
100
AcDbCircle
 10
7942.0606788228
 20
5074.2696596298
 30
0.0
 40
32.72847533142354
100
AcDbArc
 50
85.4332158269
 51
90.6446179145
  0
LINE
  5
2EA
330
1F
100
AcDbEntity
  8
0
  6
Continuous
 62
     7
370
    25
100
AcDbLine
 10
7941.6924681689
 20
5106.9960636247
 30
0.0
 11
7941.7589757657
 21
5107.126176629
 31
0.0
  0
LWPOLYLINE
  5
2EB
330
1F
100
AcDbEntity
  8
0
  6
Continuous
 62
     7
370
    25
100
AcDbPolyline
 90
        7
 70
   128
 43
0.0
 10
7936.0958718911
 20
5104.5184840252
 10
7935.2543669775
 20
5104.8773062691
 10
7934.7305672783
 20
5105.2745594725
 10
7934.5489650852
 20
5105.691668517
 10
7934.7180519151
 20
5106.1091298473
 10
7935.2299214556
 20
5106.5074234355
 10
7935.3063711689
 20
5106.5493035665
  0
LWPOLYLINE
  5
2EC
330
1F
100
AcDbEntity
  8
0
  6
Continuous
 62
     7
370
    25
100
AcDbPolyline
 90
       14
 70
   128
 43
0.0
 10
7949.4999760998
 20
5105.9205788507
 10
7949.5017398226
 20
5105.9165654142
 10
7949.5080344033
 20
5105.4968196593
 10
7949.1655485513
 20
5105.0865371061
 10
7948.4902965246
 20
5104.704902111
 10
7947.5138523574
 20
5104.369759502
 10
7946.2818734936
 20
5104.0967801752
 10
7944.8519658957
 20
5103.8987283405
 10
7943.2909904538
 20
5103.7848646815
 10
7941.6719366446
 20
5103.7605133364
 10
7940.0705096247
 20
5103.8268129469
 10
7938.5615903419
 20
5103.9806634171
 10
7937.2157341847
 20
5104.2148708699
 10
7936.0958718911
 20
5104.5184840252
  0
LINE
  5
2ED
330
1F
100
AcDbEntity
  8
0
  6
Continuous
 62
     7
370
    25
100
AcDbLine
 10
7941.6924681689
 20
5107.2874493538
 30
0.0
 11
7941.6924681689
 21
5106.9960636247
 31
0.0
  0
LINE
  5
2EE
330
1F
100
AcDbEntity
  8
0
  6
Continuous
 62
     7
370
    25
100
AcDbLine
 10
7937.6875858501
 20
5106.8445385342
 30
0.0
 11
7937.9960332159
 21
5106.7403630116
 31
0.0
  0
ARC
  5
2EF
330
1F
100
AcDbEntity
  8
0
  6
Continuous
 62
     7
370
    25
100
AcDbCircle
 10
7940.246842843
 20
5089.1530216498
 30
0.0
 40
17.73078453298043
100
AcDbArc
 50
97.2930101399
 51
105.1437664243
  0
LINE
  5
2F0
330
1F
100
AcDbEntity
  8
0
  6
Continuous
 62
     7
370
    25
100
AcDbLine
 10
7935.3063711689
 20
5106.3722511005
 30
0.0
 11
7935.6148185347
 21
5106.2680755779
 31
0.0
  0
LINE
  5
2F1
330
1F
100
AcDbEntity
  8
0
  6
Continuous
 62
     7
370
    25
100
AcDbLine
 10
7937.9960332159
 20
5107.0639394269
 30
0.0
 11
7937.9960332159
 21
5106.7403630116
 31
0.0
  0
LINE
  5
2F2
330
1F
100
AcDbEntity
  8
0
  6
Continuous
 62
     7
370
    25
100
AcDbLine
 10
7948.3814190812
 20
5106.4783738811
 30
0.0
 11
7947.9789157701
 21
5106.3985418285
 31
0.0
  0
LINE
  5
2F3
330
1F
100
AcDbEntity
  8
0
  6
Continuous
 62
     7
370
    25
100
AcDbLine
 10
7950.2061975998
 20
5105.8620701712
 30
0.0
 11
7949.8036942887
 21
5105.7822381185
 31
0.0
  0
ARC
  5
2F4
330
1F
100
AcDbEntity
  8
0
  6
Continuous
 62
     7
370
    25
100
AcDbCircle
 10
7946.0813753502
 20
5097.7706293841
 30
0.0
 40
8.834111884748872
100
AcDbArc
 50
65.0796807338
 51
77.5963840453
  0
LINE
  5
2F5
330
1F
100
AcDbEntity
  8
0
  6
Continuous
 62
     7
370
    25
100
AcDbLine
 10
7947.9789157701
 20
5106.7769746331
 30
0.0
 11
7947.9789157701
 21
5106.3985418285
 31
0.0
  0
LINE
  5
2F6
330
1F
100
AcDbEntity
  8
0
  6
Continuous
 62
     7
370
    25
100
AcDbLine
 10
7933.6996313796
 20
5106.0980459527
 30
0.0
 11
7933.6996313796
 21
5105.4107733923
 31
0.0
  0
LINE
  5
2F7
330
1F
100
AcDbEntity
  8
0
  6
Continuous
 62
     7
370
    25
100
AcDbLine
 10
7933.6996313796
 20
5105.4107733923
 30
0.0
 11
7933.1969133349
 21
5105.427986825
 31
0.0
  0
ARC
  5
2F8
330
1F
100
AcDbEntity
  8
0
  6
Continuous
 62
     7
370
    25
100
AcDbCircle
 10
7934.1643442923
 20
5104.6878001119
 30
0.0
 40
0.8594465983297493
100
AcDbArc
 50
122.7321069521
 51
183.1199656666
  0
LINE
  5
2F9
330
1F
100
AcDbEntity
  8
0
  6
Continuous
 62
     7
370
    25
100
AcDbLine
 10
7933.3061715958
 20
5104.6410232127
 30
0.0
 11
7932.803453551
 21
5104.6582366454
 31
0.0
  0
LINE
  5
2FA
330
1F
100
AcDbEntity
  8
0
  6
Continuous
 62
     7
370
    25
100
AcDbLine
 10
7933.3061715958
 20
5104.8255303537
 30
0.0
 11
7933.3061715958
 21
5104.6410232127
 31
0.0
  0
LINE
  5
2FB
330
1F
100
AcDbEntity
  8
0
  6
Continuous
 62
     7
370
    25
100
AcDbLine
 10
7950.7916455926
 20
5105.79145618
 30
0.0
 11
7950.7916455926
 21
5104.8255303537
 31
0.0
  0
LINE
  5
2FC
330
1F
100
AcDbEntity
  8
0
  6
Continuous
 62
     7
370
    25
100
AcDbLine
 10
7950.7916455926
 20
5104.8255303537
 30
0.0
 11
7951.2943636373
 21
5104.808316921
 31
0.0
  0
ARC
  5
2FD
330
1F
100
AcDbEntity
  8
0
  6
Continuous
 62
     7
370
    25
100
AcDbCircle
 10
7949.933472896
 20
5104.7787534544
 30
0.0
 40
0.8594465983346616
100
AcDbArc
 50
302.7321069521
 51
3.1199656664
  0
LINE
  5
2FE
330
1F
100
AcDbEntity
  8
0
  6
Continuous
 62
     7
370
    25
100
AcDbLine
 10
7950.3981858087
 20
5104.055780174
 30
0.0
 11
7950.9009038534
 21
5104.0385667413
 31
0.0
  0
LINE
  5
2FF
330
1F
100
AcDbEntity
  8
0
  6
Continuous
 62
     7
370
    25
100
AcDbLine
 10
7950.3981858087
 20
5105.0217060003
 30
0.0
 11
7950.3981858087
 21
5104.055780174
 31
0.0
  0
LINE
  5
300
330
1F
100
AcDbEntity
  8
0
  6
Continuous
 62
     7
370
    25
100
AcDbLine
 10
7934.2941228996
 20
5104.6502412741
 30
0.0
 11
7934.2941228996
 21
5103.6843154478
 31
0.0
  0
LINE
  5
301
330
1F
100
AcDbEntity
  8
0
  6
Continuous
 62
     7
370
    25
100
AcDbLine
 10
7933.8916195885
 20
5103.6044833952
 30
0.0
 11
7934.2941228996
 21
5103.6843154478
 31
0.0
  0
ARC
  5
302
330
1F
100
AcDbEntity
  8
0
  6
Continuous
 62
     7
370
    25
100
AcDbCircle
 10
7938.0164418381
 20
5111.6959241823
 30
0.0
 40
8.834111884789909
100
AcDbArc
 50
245.0796807339
 51
257.5963840453
  0
LINE
  5
303
330
1F
100
AcDbEntity
  8
0
  6
Continuous
 62
     7
370
    25
100
AcDbLine
 10
7936.1189014182
 20
5104.0339375642
 30
0.0
 11
7936.1189014182
 21
5103.0680117379
 31
0.0
  0
LINE
  5
304
330
1F
100
AcDbEntity
  8
0
  6
Continuous
 62
     7
370
    25
100
AcDbLine
 10
7935.7163981071
 20
5102.9881796852
 30
0.0
 11
7936.1189014182
 21
5103.0680117379
 31
0.0
  0
LINE
  5
305
330
1F
100
AcDbEntity
  8
0
  6
Continuous
 62
     7
370
    25
100
AcDbLine
 10
7948.4829986536
 20
5104.1644038147
 30
0.0
 11
7948.4829986536
 21
5103.1984779884
 31
0.0
  0
LINE
  5
306
330
1F
100
AcDbEntity
  8
0
  6
Continuous
 62
     7
370
    25
100
AcDbLine
 10
7948.7914460194
 20
5103.0943024658
 30
0.0
 11
7948.4829986536
 21
5103.1984779884
 31
0.0
  0
ARC
  5
307
330
1F
100
AcDbEntity
  8
0
  6
Continuous
 62
     7
370
    25
100
AcDbCircle
 10
7943.8509743454
 20
5120.3135319165
 30
0.0
 40
17.7307845329474
100
AcDbArc
 50
277.2930101399
 51
285.1437664243
  0
LINE
  5
308
330
1F
100
AcDbEntity
  8
0
  6
Continuous
 62
     7
370
    25
100
AcDbLine
 10
7946.1017839724
 20
5103.692116381
 30
0.0
 11
7946.1017839724
 21
5102.7261905547
 31
0.0
  0
LINE
  5
309
330
1F
100
AcDbEntity
  8
0
  6
Continuous
 62
     7
370
    25
100
AcDbLine
 10
7946.4102313382
 20
5102.6220150321
 30
0.0
 11
7946.1017839724
 21
5102.7261905547
 31
0.0
  0
LINE
  5
30A
330
1F
100
AcDbEntity
  8
0
  6
Continuous
 62
     7
370
    25
100
AcDbLine
 10
7939.4312627062
 20
5103.5382506535
 30
0.0
 11
7939.4312627062
 21
5102.5723248272
 31
0.0
  0
LINE
  5
30B
330
1F
100
AcDbEntity
  8
0
  6
Continuous
 62
     7
370
    25
100
AcDbLine
 10
7942.4053490194
 20
5103.4364157679
 30
0.0
 11
7942.4053490194
 21
5102.4704899417
 31
0.0
  0
ARC
  5
30C
330
1F
100
AcDbEntity
  8
0
  6
Continuous
 62
     7
370
    25
100
AcDbCircle
 10
7942.0371383655
 20
5135.1968939365
 30
0.0
 40
32.728475331419
100
AcDbArc
 50
265.4332158269
 51
270.6446179145
  0
LINE
  5
30D
330
1F
100
AcDbEntity
  8
0
  6
Continuous
 62
     7
370
    25
100
AcDbLine
 10
7939.4312627062
 20
5102.5723248272
 30
0.0
 11
7939.3647551094
 21
5102.4422118229
 31
0.0
  0
LINE
  5
30E
330
1F
100
AcDbEntity
  8
0
  6
Continuous
 62
     7
370
    25
100
AcDbLine
 10
7942.4053490194
 20
5102.4704899417
 30
0.0
 11
7942.3388414226
 21
5102.3403769374
 31
0.0
  0
ARC
  5
30F
330
1F
100
AcDbEntity
  8
0
  6
Continuous
 62
     7
370
    25
100
AcDbCircle
 10
6742.1585214669
 20
5135.6381483875
 30
0.0
 40
32.33234845677192
100
AcDbArc
 50
270.3195445577
 51
277.00524986
  0
ARC
  5
310
330
1F
100
AcDbEntity
  8
0
  6
Continuous
 62
     7
370
    25
100
AcDbCircle
 10
6743.9578850649
 20
5121.2254791758
 30
0.0
 40
18.76440461063849
100
AcDbArc
 50
277.5095473836
 51
284.9272291806
  0
LINE
  5
311
330
1F
100
AcDbEntity
  8
0
  6
Continuous
 62
     7
370
    25
100
AcDbLine
 10
6748.7914460194
 20
5104.0602282921
 30
0.0
 11
6748.7914460194
 21
5103.0943024658
 31
0.0
  0
ARC
  5
312
330
1F
100
AcDbEntity
  8
0
  6
Continuous
 62
     7
370
    25
100
AcDbCircle
 10
6746.9163492323
 20
5111.4370040059
 30
0.0
 40
7.611360449534168
100
AcDbArc
 50
284.2619248087
 51
297.2228497748
  0
ARC
  5
313
330
1F
100
AcDbEntity
  8
0
  6
Continuous
 62
     7
370
    25
100
AcDbCircle
 10
6750.3918083615
 20
5104.7842262913
 30
0.0
 40
0.9028767270927801
100
AcDbArc
 50
304.3231205499
 51
1.5289520684
  0
LINE
  5
314
330
1F
100
AcDbEntity
  8
0
  6
Continuous
 62
     7
370
    25
100
AcDbLine
 10
6751.2943636373
 20
5105.4120205624
 30
0.0
 11
6751.2943636373
 21
5104.808316921
 31
0.0
  0
LINE
  5
315
330
1F
100
AcDbEntity
  8
0
  6
Continuous
 62
     7
370
    25
100
AcDbLine
 10
6750.2061975998
 20
5106.1737218743
 30
0.0
 11
6750.2061975998
 21
5105.8620701712
 31
0.0
  0
ARC
  5
316
330
1F
100
AcDbEntity
  8
0
  6
Continuous
 62
     7
370
    25
100
AcDbCircle
 10
6746.3174046691
 20
5097.3575580839
 30
0.0
 40
9.351440333001634
100
AcDbArc
 50
65.4271673512
 51
77.248897428
  0
LINE
  5
317
330
1F
100
AcDbEntity
  8
0
  6
Continuous
 62
     7
370
    25
100
AcDbLine
 10
6748.3814190812
 20
5106.6944171221
 30
0.0
 11
6748.3814190812
 21
5106.4783738811
 31
0.0
  0
LINE
  5
318
330
1F
100
AcDbEntity
  8
0
  6
Continuous
 62
     7
370
    25
100
AcDbLine
 10
6744.7330620789
 20
5107.1928877686
 30
0.0
 11
6744.7330620789
 21
5107.0243417434
 31
0.0
  0
ARC
  5
319
330
1F
100
AcDbEntity
  8
0
  6
Continuous
 62
     7
370
    25
100
AcDbCircle
 10
6742.0620952972
 20
5072.4987873775
 30
0.0
 40
34.6287159424738
100
AcDbArc
 50
85.5762935841
 51
90.5015401573
  0
LINE
  5
31A
330
1F
100
AcDbEntity
  8
0
  6
Continuous
 62
     7
370
    25
100
AcDbLine
 10
6741.7589757657
 20
5107.2880130161
 30
0.0
 11
6741.7589757657
 21
5107.126176629
 31
0.0
  0
LINE
  5
31B
330
1F
100
AcDbEntity
  8
0
  6
Continuous
 62
     7
370
    25
100
AcDbLine
 10
6737.6875858501
 20
5107.0263388689
 30
0.0
 11
6737.6875858501
 21
5106.8445385342
 31
0.0
  0
ARC
  5
31C
330
1F
100
AcDbEntity
  8
0
  6
Continuous
 62
     7
370
    25
100
AcDbCircle
 10
6740.1399321235
 20
5088.2410743902
 30
0.0
 40
18.76440461094726
100
AcDbArc
 50
97.5095473837
 51
104.9272291806
  0
LINE
  5
31D
330
1F
100
AcDbEntity
  8
0
  6
Continuous
 62
     7
370
    25
100
AcDbLine
 10
6735.3063711689
 20
5106.6006129502
 30
0.0
 11
6735.3063711689
 21
5106.3722511005
 31
0.0
  0
LINE
  5
31E
330
1F
100
AcDbEntity
  8
0
  6
Continuous
 62
     7
370
    25
100
AcDbLine
 10
6733.1969133349
 20
5105.8661181621
 30
0.0
 11
6733.1969133349
 21
5105.427986825
 31
0.0
  0
ARC
  5
31F
330
1F
100
AcDbEntity
  8
0
  6
Continuous
 62
     7
370
    25
100
AcDbCircle
 10
6733.7060088268
 20
5104.6823272751
 30
0.0
 40
0.9028767270955729
100
AcDbArc
 50
124.3231205502
 51
181.5289520685
  0
ARC
  5
320
330
1F
100
AcDbEntity
  8
0
  6
Continuous
 62
     7
370
    25
100
AcDbCircle
 10
6735.4006220818
 20
5107.7847612523
 30
0.0
 40
3.550936144589312
100
AcDbArc
 50
233.8550182221
 51
244.8519277995
  0
LINE
  5
321
330
1F
100
AcDbEntity
  8
0
  6
Continuous
 62
     7
370
    25
100
AcDbLine
 10
6733.8916195885
 20
5104.5704092215
 30
0.0
 11
6733.8916195885
 21
5103.6044833952
 31
0.0
  0
ARC
  5
322
330
1F
100
AcDbEntity
  8
0
  6
Continuous
 62
     7
370
    25
100
AcDbCircle
 10
6737.7804125192
 20
5112.1089954822
 30
0.0
 40
9.351440332737795
100
AcDbArc
 50
245.427167351
 51
257.2488974282
  0
ARC
  5
323
330
1F
100
AcDbEntity
  8
0
  6
Continuous
 62
     7
370
    25
100
AcDbCircle
 10
6741.1091080324
 20
5127.7263228935
 30
0.0
 40
24.38066653512355
100
AcDbArc
 50
258.1893005351
 51
265.8971784141
  0
LINE
  5
324
330
1F
100
AcDbEntity
  8
0
  6
Continuous
 62
     7
370
    25
100
AcDbLine
 10
6739.3647551094
 20
5103.4081376492
 30
0.0
 11
6739.3647551094
 21
5102.4422118229
 31
0.0
  0
ARC
  5
325
330
1F
100
AcDbEntity
  8
0
  6
Continuous
 62
     7
370
    25
100
AcDbCircle
 10
6742.0357218911
 20
5136.9677661883
 30
0.0
 40
34.62871594187828
100
AcDbArc
 50
265.5762935841
 51
270.5015401573
  0
LWPOLYLINE
  5
326
330
1F
100
AcDbEntity
  8
0
  6
Continuous
 62
     7
370
    25
100
AcDbPolyline
 90
        6
 70
   128
 43
0.0
 10
6735.5005682208
 20
5104.4004121668
 10
6734.6003350045
 20
5104.7811699067
 10
6734.0256401962
 20
5105.2020500809
 10
6733.8016007169
 20
5105.6446582062
 10
6733.9380081667
 20
5106.0896501837
 10
6734.0941748861
 20
5106.2653429671
  0
LWPOLYLINE
  5
327
330
1F
100
AcDbEntity
  8
0
  6
Continuous
 62
     7
370
    25
100
AcDbPolyline
 90
        6
 70
   128
 43
0.0
 10
6750.2061975998
 20
5106.0184153847
 10
6750.2962164715
 20
5105.7537470127
 10
6750.1598090216
 20
5105.3087550352
 10
6749.6689163027
 20
5104.8808274903
 10
6748.844992682
 20
5104.4886668651
 10
6748.4916804295
 20
5104.3655135428
  0
LINE
  5
328
330
1F
100
AcDbEntity
  8
0
  6
Continuous
 62
     7
370
    25
100
AcDbLine
 10
6735.8228351542
 20
5104.2982643555
 30
0.0
 11
6735.5005682208
 21
5104.4004121668
 31
0.0
  0
LINE
  5
329
330
1F
100
AcDbEntity
  8
0
  6
Continuous
 62
     7
370
    25
100
AcDbLine
 10
6750.7916455926
 20
5105.79145618
 30
0.0
 11
6751.0534567451
 21
5105.782491575
 31
0.0
  0
ARC
  5
32A
330
1F
100
AcDbEntity
  8
0
  6
Continuous
 62
     7
370
    25
100
AcDbCircle
 10
6749.8082996446
 20
5105.843170689
 30
0.0
 40
1.011320879483157
100
AcDbArc
 50
305.6817763792
 51
346.4922228009
  0
LINE
  5
32B
330
1F
100
AcDbEntity
  8
0
  6
Continuous
 62
     7
370
    25
100
AcDbLine
 10
6748.7914460194
 20
5104.0602282921
 30
0.0
 11
6748.4829986536
 21
5104.1644038147
 31
0.0
  0
ARC
  5
32C
330
1F
100
AcDbEntity
  8
0
  6
Continuous
 62
     7
370
    25
100
AcDbCircle
 10
6743.8509743453
 20
5121.279457743
 30
0.0
 40
17.73078453313147
100
AcDbArc
 50
277.2930101399
 51
285.1437664243
  0
ARC
  5
32D
330
1F
100
AcDbEntity
  8
0
  6
Continuous
 62
     7
370
    25
100
AcDbCircle
 10
6742.0371383655
 20
5136.1628197623
 30
0.0
 40
32.72847533091981
100
AcDbArc
 50
265.4332158269
 51
270.6446179145
  0
LINE
  5
32E
330
1F
100
AcDbEntity
  8
0
  6
Continuous
 62
     7
370
    25
100
AcDbLine
 10
6739.4312627062
 20
5103.5382506535
 30
0.0
 11
6739.3647551094
 21
5103.4081376492
 31
0.0
  0
ARC
  5
32F
330
1F
100
AcDbEntity
  8
0
  6
Continuous
 62
     7
370
    25
100
AcDbCircle
 10
6738.0164418381
 20
5112.6618500084
 30
0.0
 40
8.834111884683585
100
AcDbArc
 50
245.0796807338
 51
257.5963840454
  0
LINE
  5
330
330
1F
100
AcDbEntity
  8
0
  6
Continuous
 62
     7
370
    25
100
AcDbLine
 10
6733.8916195885
 20
5104.5704092215
 30
0.0
 11
6734.2941228996
 21
5104.6502412741
 31
0.0
  0
LWPOLYLINE
  5
331
330
1F
100
AcDbEntity
  8
0
  6
Continuous
 62
     7
370
    25
100
AcDbPolyline
 90
        3
 70
   128
 43
0.0
 10
6734.5489085942
 20
5105.7755850366
 10
6734.0256401962
 20
5106.1679759072
 10
6734.0127124049
 20
5106.1821655226
  0
LINE
  5
332
330
1F
100
AcDbEntity
  8
0
  6
Continuous
 62
     7
370
    25
100
AcDbLine
 10
6749.6686257459
 20
5105.8465721116
 30
0.0
 11
6749.5489085942
 21
5105.7755850366
 31
0.0
  0
LINE
  5
333
330
1F
100
AcDbEntity
  8
0
  6
Continuous
 62
     7
370
    25
100
AcDbLine
 10
6744.6665544822
 20
5106.8942287391
 30
0.0
 11
6744.7330620789
 21
5107.0243417434
 31
0.0
  0
ARC
  5
334
330
1F
100
AcDbEntity
  8
0
  6
Continuous
 62
     7
370
    25
100
AcDbCircle
 10
6742.0606788228
 20
5074.2696596298
 30
0.0
 40
32.72847533142173
100
AcDbArc
 50
85.4332158269
 51
90.6446179145
  0
LINE
  5
335
330
1F
100
AcDbEntity
  8
0
  6
Continuous
 62
     7
370
    25
100
AcDbLine
 10
6741.6924681689
 20
5106.9960636247
 30
0.0
 11
6741.7589757657
 21
5107.126176629
 31
0.0
  0
LWPOLYLINE
  5
336
330
1F
100
AcDbEntity
  8
0
  6
Continuous
 62
     7
370
    25
100
AcDbPolyline
 90
        7
 70
   128
 43
0.0
 10
6736.0958718911
 20
5104.5184840252
 10
6735.2543669775
 20
5104.8773062691
 10
6734.7305672783
 20
5105.2745594725
 10
6734.5489650852
 20
5105.691668517
 10
6734.7180519151
 20
5106.1091298473
 10
6735.2299214556
 20
5106.5074234355
 10
6735.3063711689
 20
5106.5493035665
  0
LWPOLYLINE
  5
337
330
1F
100
AcDbEntity
  8
0
  6
Continuous
 62
     7
370
    25
100
AcDbPolyline
 90
       14
 70
   128
 43
0.0
 10
6749.4999759317
 20
5105.9205792296
 10
6749.5017398226
 20
5105.9165654142
 10
6749.5080344033
 20
5105.4968196593
 10
6749.1655485513
 20
5105.0865371061
 10
6748.4902965246
 20
5104.704902111
 10
6747.5138523574
 20
5104.369759502
 10
6746.2818734936
 20
5104.0967801752
 10
6744.8519658957
 20
5103.8987283405
 10
6743.2909904538
 20
5103.7848646815
 10
6741.6719366446
 20
5103.7605133364
 10
6740.0705096247
 20
5103.8268129469
 10
6738.5615903419
 20
5103.9806634171
 10
6737.2157341847
 20
5104.2148708699
 10
6736.0958718911
 20
5104.5184840252
  0
LINE
  5
338
330
1F
100
AcDbEntity
  8
0
  6
Continuous
 62
     7
370
    25
100
AcDbLine
 10
6741.6924681689
 20
5107.2874493538
 30
0.0
 11
6741.6924681689
 21
5106.9960636247
 31
0.0
  0
LINE
  5
339
330
1F
100
AcDbEntity
  8
0
  6
Continuous
 62
     7
370
    25
100
AcDbLine
 10
6737.6875858501
 20
5106.8445385342
 30
0.0
 11
6737.9960332159
 21
5106.7403630116
 31
0.0
  0
ARC
  5
33A
330
1F
100
AcDbEntity
  8
0
  6
Continuous
 62
     7
370
    25
100
AcDbCircle
 10
6740.2468428429
 20
5089.1530216499
 30
0.0
 40
17.73078453288302
100
AcDbArc
 50
97.2930101399
 51
105.1437664243
  0
LINE
  5
33B
330
1F
100
AcDbEntity
  8
0
  6
Continuous
 62
     7
370
    25
100
AcDbLine
 10
6735.3063711689
 20
5106.3722511005
 30
0.0
 11
6735.6148185347
 21
5106.2680755779
 31
0.0
  0
LINE
  5
33C
330
1F
100
AcDbEntity
  8
0
  6
Continuous
 62
     7
370
    25
100
AcDbLine
 10
6737.9960332159
 20
5107.0639394269
 30
0.0
 11
6737.9960332159
 21
5106.7403630116
 31
0.0
  0
LINE
  5
33D
330
1F
100
AcDbEntity
  8
0
  6
Continuous
 62
     7
370
    25
100
AcDbLine
 10
6748.3814190812
 20
5106.4783738811
 30
0.0
 11
6747.9789157701
 21
5106.3985418285
 31
0.0
  0
LINE
  5
33E
330
1F
100
AcDbEntity
  8
0
  6
Continuous
 62
     7
370
    25
100
AcDbLine
 10
6750.2061975998
 20
5105.8620701712
 30
0.0
 11
6749.8036942887
 21
5105.7822381185
 31
0.0
  0
ARC
  5
33F
330
1F
100
AcDbEntity
  8
0
  6
Continuous
 62
     7
370
    25
100
AcDbCircle
 10
6746.0813753502
 20
5097.7706293841
 30
0.0
 40
8.834111884746402
100
AcDbArc
 50
65.0796807338
 51
77.5963840453
  0
LINE
  5
340
330
1F
100
AcDbEntity
  8
0
  6
Continuous
 62
     7
370
    25
100
AcDbLine
 10
6747.9789157701
 20
5106.7769746331
 30
0.0
 11
6747.9789157701
 21
5106.3985418285
 31
0.0
  0
LINE
  5
341
330
1F
100
AcDbEntity
  8
0
  6
Continuous
 62
     7
370
    25
100
AcDbLine
 10
6733.6996313796
 20
5106.0980459527
 30
0.0
 11
6733.6996313796
 21
5105.4107733923
 31
0.0
  0
LINE
  5
342
330
1F
100
AcDbEntity
  8
0
  6
Continuous
 62
     7
370
    25
100
AcDbLine
 10
6733.6996313796
 20
5105.4107733923
 30
0.0
 11
6733.1969133349
 21
5105.427986825
 31
0.0
  0
ARC
  5
343
330
1F
100
AcDbEntity
  8
0
  6
Continuous
 62
     7
370
    25
100
AcDbCircle
 10
6734.1643442923
 20
5104.6878001119
 30
0.0
 40
0.8594465983377823
100
AcDbArc
 50
122.7321069522
 51
183.1199656662
  0
LINE
  5
344
330
1F
100
AcDbEntity
  8
0
  6
Continuous
 62
     7
370
    25
100
AcDbLine
 10
6733.3061715958
 20
5104.6410232127
 30
0.0
 11
6732.803453551
 21
5104.6582366454
 31
0.0
  0
LINE
  5
345
330
1F
100
AcDbEntity
  8
0
  6
Continuous
 62
     7
370
    25
100
AcDbLine
 10
6733.3061715958
 20
5104.8255303537
 30
0.0
 11
6733.3061715958
 21
5104.6410232127
 31
0.0
  0
LINE
  5
346
330
1F
100
AcDbEntity
  8
0
  6
Continuous
 62
     7
370
    25
100
AcDbLine
 10
6750.7916455926
 20
5105.79145618
 30
0.0
 11
6750.7916455926
 21
5104.8255303537
 31
0.0
  0
LINE
  5
347
330
1F
100
AcDbEntity
  8
0
  6
Continuous
 62
     7
370
    25
100
AcDbLine
 10
6750.7916455926
 20
5104.8255303537
 30
0.0
 11
6751.2943636373
 21
5104.808316921
 31
0.0
  0
ARC
  5
348
330
1F
100
AcDbEntity
  8
0
  6
Continuous
 62
     7
370
    25
100
AcDbCircle
 10
6749.933472896
 20
5104.7787534544
 30
0.0
 40
0.8594465983340117
100
AcDbArc
 50
302.7321069522
 51
3.1199656665
  0
LINE
  5
349
330
1F
100
AcDbEntity
  8
0
  6
Continuous
 62
     7
370
    25
100
AcDbLine
 10
6750.3981858087
 20
5104.055780174
 30
0.0
 11
6750.9009038534
 21
5104.0385667413
 31
0.0
  0
LINE
  5
34A
330
1F
100
AcDbEntity
  8
0
  6
Continuous
 62
     7
370
    25
100
AcDbLine
 10
6750.3981858087
 20
5105.0217060003
 30
0.0
 11
6750.3981858087
 21
5104.055780174
 31
0.0
  0
LINE
  5
34B
330
1F
100
AcDbEntity
  8
0
  6
Continuous
 62
     7
370
    25
100
AcDbLine
 10
6734.2941228996
 20
5104.6502412741
 30
0.0
 11
6734.2941228996
 21
5103.6843154478
 31
0.0
  0
LINE
  5
34C
330
1F
100
AcDbEntity
  8
0
  6
Continuous
 62
     7
370
    25
100
AcDbLine
 10
6733.8916195885
 20
5103.6044833952
 30
0.0
 11
6734.2941228996
 21
5103.6843154478
 31
0.0
  0
ARC
  5
34D
330
1F
100
AcDbEntity
  8
0
  6
Continuous
 62
     7
370
    25
100
AcDbCircle
 10
6738.0164418381
 20
5111.6959241823
 30
0.0
 40
8.834111884815004
100
AcDbArc
 50
245.0796807339
 51
257.5963840453
  0
LINE
  5
34E
330
1F
100
AcDbEntity
  8
0
  6
Continuous
 62
     7
370
    25
100
AcDbLine
 10
6736.1189014182
 20
5104.0339375642
 30
0.0
 11
6736.1189014182
 21
5103.0680117379
 31
0.0
  0
LINE
  5
34F
330
1F
100
AcDbEntity
  8
0
  6
Continuous
 62
     7
370
    25
100
AcDbLine
 10
6735.7163981071
 20
5102.9881796852
 30
0.0
 11
6736.1189014182
 21
5103.0680117379
 31
0.0
  0
LINE
  5
350
330
1F
100
AcDbEntity
  8
0
  6
Continuous
 62
     7
370
    25
100
AcDbLine
 10
6748.4829986536
 20
5104.1644038147
 30
0.0
 11
6748.4829986536
 21
5103.1984779884
 31
0.0
  0
LINE
  5
351
330
1F
100
AcDbEntity
  8
0
  6
Continuous
 62
     7
370
    25
100
AcDbLine
 10
6748.7914460194
 20
5103.0943024658
 30
0.0
 11
6748.4829986536
 21
5103.1984779884
 31
0.0
  0
ARC
  5
352
330
1F
100
AcDbEntity
  8
0
  6
Continuous
 62
     7
370
    25
100
AcDbCircle
 10
6743.8509743454
 20
5120.3135319165
 30
0.0
 40
17.73078453286671
100
AcDbArc
 50
277.2930101399
 51
285.1437664243
  0
LINE
  5
353
330
1F
100
AcDbEntity
  8
0
  6
Continuous
 62
     7
370
    25
100
AcDbLine
 10
6746.1017839724
 20
5103.692116381
 30
0.0
 11
6746.1017839724
 21
5102.7261905547
 31
0.0
  0
LINE
  5
354
330
1F
100
AcDbEntity
  8
0
  6
Continuous
 62
     7
370
    25
100
AcDbLine
 10
6746.4102313382
 20
5102.6220150321
 30
0.0
 11
6746.1017839724
 21
5102.7261905547
 31
0.0
  0
LINE
  5
355
330
1F
100
AcDbEntity
  8
0
  6
Continuous
 62
     7
370
    25
100
AcDbLine
 10
6739.4312627062
 20
5103.5382506535
 30
0.0
 11
6739.4312627062
 21
5102.5723248272
 31
0.0
  0
LINE
  5
356
330
1F
100
AcDbEntity
  8
0
  6
Continuous
 62
     7
370
    25
100
AcDbLine
 10
6742.4053490194
 20
5103.4364157679
 30
0.0
 11
6742.4053490194
 21
5102.4704899417
 31
0.0
  0
ARC
  5
357
330
1F
100
AcDbEntity
  8
0
  6
Continuous
 62
     7
370
    25
100
AcDbCircle
 10
6742.0371383655
 20
5135.1968939365
 30
0.0
 40
32.72847533141901
100
AcDbArc
 50
265.4332158269
 51
270.6446179145
  0
LINE
  5
358
330
1F
100
AcDbEntity
  8
0
  6
Continuous
 62
     7
370
    25
100
AcDbLine
 10
6739.4312627062
 20
5102.5723248272
 30
0.0
 11
6739.3647551094
 21
5102.4422118229
 31
0.0
  0
LINE
  5
359
330
1F
100
AcDbEntity
  8
0
  6
Continuous
 62
     7
370
    25
100
AcDbLine
 10
6742.4053490194
 20
5102.4704899417
 30
0.0
 11
6742.3388414226
 21
5102.3403769374
 31
0.0
  0
CIRCLE
  5
35A
330
1F
100
AcDbEntity
  8
0
  6
Continuous
 62
     7
370
    25
100
AcDbCircle
 10
6142.0489085942
 20
5113.4961597697
 30
0.0
 40
29.49999999999986
  0
CIRCLE
  5
35B
330
1F
100
AcDbEntity
  8
0
  6
Continuous
 62
     7
370
    25
100
AcDbCircle
 10
6142.0489085942
 20
5113.4961597697
 30
0.0
 40
29.99999999999991
  0
CIRCLE
  5
35C
330
1F
100
AcDbEntity
  8
0
  6
Continuous
 62
     7
370
    25
100
AcDbCircle
 10
6742.0489085942
 20
5113.4961597697
 30
0.0
 40
29.50000000000038
  0
CIRCLE
  5
35D
330
1F
100
AcDbEntity
  8
0
  6
Continuous
 62
     7
370
    25
100
AcDbCircle
 10
6742.0489085942
 20
5113.4961597697
 30
0.0
 40
30.00000000000043
  0
CIRCLE
  5
35E
330
1F
100
AcDbEntity
  8
0
  6
Continuous
 62
     7
370
    25
100
AcDbCircle
 10
7942.0489085942
 20
5113.4961597697
 30
0.0
 40
29.49999999999986
  0
CIRCLE
  5
35F
330
1F
100
AcDbEntity
  8
0
  6
Continuous
 62
     7
370
    25
100
AcDbCircle
 10
7942.0489085942
 20
5113.4961597697
 30
0.0
 40
30.00000000000043
  0
CIRCLE
  5
360
330
1F
100
AcDbEntity
  8
0
  6
Continuous
 62
     7
370
    25
100
AcDbCircle
 10
7342.0489085942
 20
5113.4961597697
 30
0.0
 40
29.49999999999986
  0
CIRCLE
  5
361
330
1F
100
AcDbEntity
  8
0
  6
Continuous
 62
     7
370
    25
100
AcDbCircle
 10
7342.0489085942
 20
5113.4961597697
 30
0.0
 40
29.99999999999991
  0
LINE
  5
362
330
1F
100
AcDbEntity
  8
0
  6
Continuous
 62
     7
370
    25
100
AcDbLine
 10
7929.8982227835
 20
5108.8743815048
 30
0.0
 11
7954.1995944048
 21
5108.8743815048
 31
0.0
  0
LINE
  5
363
330
1F
100
AcDbEntity
  8
0
  6
Continuous
 62
     7
370
    25
100
AcDbLine
 10
7955.1672379616
 20
5108.6064323124
 30
0.0
 11
7954.1995944048
 21
5108.8743815048
 31
0.0
  0
ARC
  5
364
330
1F
100
AcDbEntity
  8
0
  6
Continuous
 62
     7
370
    25
100
AcDbCircle
 10
7942.0489085942
 20
5113.4961597697
 30
0.0
 40
13.99999999999974
100
AcDbArc
 50
200.4424420745
 51
339.5575579255
  0
LINE
  5
365
330
1F
100
AcDbEntity
  8
0
  6
Continuous
 62
     7
370
    25
100
AcDbLine
 10
7929.8982227835
 20
5108.8743815048
 30
0.0
 11
7928.9305792267
 21
5108.6064323124
 31
0.0
  0
LWPOLYLINE
  5
366
330
1F
100
AcDbEntity
  8
0
  6
Continuous
 62
     7
370
    25
100
AcDbPolyline
 90
       34
 70
   128
 43
0.0
 10
7942.0489085942
 20
5107.2891148536
 10
7943.9177646322
 20
5107.24292753
 10
7945.7190753438
 20
5107.1060348897
 10
7947.3877366665
 20
5106.8833845892
 10
7948.8634388325
 20
5106.5830237906
 10
7950.0928461207
 20
5106.2158083156
 10
7951.0315245483
 20
5105.7950102884
 10
7951.6455478314
 20
5105.335838446
 10
7951.9127235686
 20
5104.8548884551
 10
7951.8233953327
 20
5104.3695431015
 10
7951.380791679
 20
5103.8973440309
 10
7950.6009094565
 20
5103.455357748
 10
7949.5119356409
 20
5103.0595587885
 10
7948.1532285831
 20
5102.7242523583
 10
7946.5738954962
 20
5102.4615573052
 10
7944.831017593
 20
5102.2809681129
 10
7942.9875870218
 20
5102.1890117454
 10
7941.1102301665
 20
5102.1890117454
 10
7939.2667995954
 20
5102.2809681129
 10
7937.5239216921
 20
5102.4615573052
 10
7935.9445886052
 20
5102.7242523583
 10
7934.5858815474
 20
5103.0595587885
 10
7933.4969077318
 20
5103.455357748
 10
7932.7170255094
 20
5103.8973440309
 10
7932.2744218556
 20
5104.3695431015
 10
7932.1850936197
 20
5104.8548884551
 10
7932.452269357
 20
5105.335838446
 10
7933.06629264
 20
5105.7950102884
 10
7934.0049710677
 20
5106.2158083156
 10
7935.2343783558
 20
5106.5830237906
 10
7936.7100805218
 20
5106.8833845892
 10
7938.3787418445
 20
5107.1060348897
 10
7940.1800525561
 20
5107.24292753
 10
7942.0489085942
 20
5107.2891148536
  0
ARC
  5
367
330
1F
100
AcDbEntity
  8
0
  6
Continuous
 62
     7
370
    25
100
AcDbCircle
 10
7942.0489085942
 20
5113.4961597697
 30
0.0
 40
13.0000000000006
100
AcDbArc
 50
339.1745965348
 51
200.8254034652
  0
ARC
  5
368
330
1F
100
AcDbEntity
  8
0
  6
Continuous
 62
     7
370
    25
100
AcDbCircle
 10
7942.0489085942
 20
5113.4961597697
 30
0.0
 40
13.99999999999974
100
AcDbArc
 50
339.5575579255
 51
200.4424420745
  0
LWPOLYLINE
  5
369
330
1F
100
AcDbEntity
  8
0
  6
Continuous
 62
     7
370
    25
100
AcDbPolyline
 90
        3
 70
   128
 43
0.0
 10
7951.2989085942
 20
5105.6111508299
 10
7951.4239085942
 20
5105.2162396963
 10
7951.2989085942
 20
5104.8213285627
  0
LWPOLYLINE
  5
36A
330
1F
100
AcDbEntity
  8
0
  6
Continuous
 62
     7
370
    25
100
AcDbPolyline
 90
        3
 70
   128
 43
0.0
 10
7950.3981858087
 20
5104.1126808434
 10
7949.8439362095
 20
5103.8681882226
 10
7948.7914460194
 20
5103.5303596245
  0
ARC
  5
36B
330
1F
100
AcDbEntity
  8
0
  6
Continuous
 62
     7
370
    25
100
AcDbCircle
 10
7942.179242777
 20
5135.3038205974
 30
0.0
 40
32.51304127751187
100
AcDbArc
 50
270.3984566601
 51
276.9293382744
  0
ARC
  5
36C
330
1F
100
AcDbEntity
  8
0
  6
Continuous
 62
     7
370
    25
100
AcDbCircle
 10
7941.1780609847
 20
5128.1498790218
 30
0.0
 40
25.32349552620549
100
AcDbArc
 50
258.4758326321
 51
265.8937831658
  0
LWPOLYLINE
  5
36D
330
1F
100
AcDbEntity
  8
0
  6
Continuous
 62
     7
370
    25
100
AcDbPolyline
 90
        3
 70
   128
 43
0.0
 10
7933.8916195885
 20
5104.0203595534
 10
7933.3875379769
 20
5104.2876856912
 10
7932.9291221312
 20
5104.6539336615
  0
LWPOLYLINE
  5
36E
330
1F
100
AcDbEntity
  8
0
  6
Continuous
 62
     7
370
    25
100
AcDbPolyline
 90
        3
 70
   128
 43
0.0
 10
7932.7989085942
 20
5104.8213285628
 10
7932.6739085942
 20
5105.2162396963
 10
7932.7989085942
 20
5105.6111508299
  0
ARC
  5
36F
330
1F
100
AcDbEntity
  8
0
  6
Continuous
 62
     7
370
    25
100
AcDbCircle
 10
7342.0489085942
 20
5113.4961597697
 30
0.0
 40
13.99999999999974
100
AcDbArc
 50
339.5575579255
 51
200.4424420745
  0
LINE
  5
370
330
1F
100
AcDbEntity
  8
0
  6
Continuous
 62
     7
370
    25
100
AcDbLine
 10
7355.1672379616
 20
5108.6064323124
 30
0.0
 11
7354.1995944048
 21
5108.8743815048
 31
0.0
  0
ARC
  5
371
330
1F
100
AcDbEntity
  8
0
  6
Continuous
 62
     7
370
    25
100
AcDbCircle
 10
7342.0489085942
 20
5113.4961597697
 30
0.0
 40
13.00000000000145
100
AcDbArc
 50
339.1745965348
 51
200.8254034652
  0
LINE
  5
372
330
1F
100
AcDbEntity
  8
0
  6
Continuous
 62
     7
370
    25
100
AcDbLine
 10
7329.8982227835
 20
5108.8743815048
 30
0.0
 11
7328.9305792267
 21
5108.6064323124
 31
0.0
  0
LINE
  5
373
330
1F
100
AcDbEntity
  8
0
  6
Continuous
 62
     7
370
    25
100
AcDbLine
 10
7329.8982227835
 20
5108.8743815048
 30
0.0
 11
7354.1995944048
 21
5108.8743815048
 31
0.0
  0
ARC
  5
374
330
1F
100
AcDbEntity
  8
0
  6
Continuous
 62
     7
370
    25
100
AcDbCircle
 10
7342.0489085942
 20
5113.4961597697
 30
0.0
 40
13.99999999999974
100
AcDbArc
 50
200.4424420745
 51
339.5575579255
  0
LWPOLYLINE
  5
375
330
1F
100
AcDbEntity
  8
0
  6
Continuous
 62
     7
370
    25
100
AcDbPolyline
 90
       34
 70
   128
 43
0.0
 10
7342.0489085942
 20
5107.2891148536
 10
7343.9177646322
 20
5107.24292753
 10
7345.7190753438
 20
5107.1060348897
 10
7347.3877366665
 20
5106.8833845892
 10
7348.8634388325
 20
5106.5830237906
 10
7350.0928461207
 20
5106.2158083156
 10
7351.0315245483
 20
5105.7950102884
 10
7351.6455478314
 20
5105.335838446
 10
7351.9127235686
 20
5104.8548884551
 10
7351.8233953327
 20
5104.3695431015
 10
7351.380791679
 20
5103.8973440309
 10
7350.6009094565
 20
5103.455357748
 10
7349.5119356409
 20
5103.0595587885
 10
7348.1532285831
 20
5102.7242523583
 10
7346.5738954962
 20
5102.4615573052
 10
7344.831017593
 20
5102.2809681129
 10
7342.9875870218
 20
5102.1890117454
 10
7341.1102301665
 20
5102.1890117454
 10
7339.2667995954
 20
5102.2809681129
 10
7337.5239216921
 20
5102.4615573052
 10
7335.9445886052
 20
5102.7242523583
 10
7334.5858815474
 20
5103.0595587885
 10
7333.4969077318
 20
5103.455357748
 10
7332.7170255094
 20
5103.8973440309
 10
7332.2744218556
 20
5104.3695431015
 10
7332.1850936197
 20
5104.8548884551
 10
7332.452269357
 20
5105.335838446
 10
7333.06629264
 20
5105.7950102884
 10
7334.0049710677
 20
5106.2158083156
 10
7335.2343783558
 20
5106.5830237906
 10
7336.7100805218
 20
5106.8833845892
 10
7338.3787418445
 20
5107.1060348897
 10
7340.1800525561
 20
5107.24292753
 10
7342.0489085942
 20
5107.2891148536
  0
LWPOLYLINE
  5
376
330
1F
100
AcDbEntity
  8
0
  6
Continuous
 62
     7
370
    25
100
AcDbPolyline
 90
        3
 70
   128
 43
0.0
 10
7351.2782809842
 20
5105.6422553953
 10
7351.4239085942
 20
5105.2162396963
 10
7351.2989085942
 20
5104.8213285627
  0
LWPOLYLINE
  5
377
330
1F
100
AcDbEntity
  8
0
  6
Continuous
 62
     7
370
    25
100
AcDbPolyline
 90
        3
 70
   128
 43
0.0
 10
7350.3981858087
 20
5104.1126808434
 10
7349.8439362095
 20
5103.8681882226
 10
7348.7914460194
 20
5103.5303596245
  0
ARC
  5
378
330
1F
100
AcDbEntity
  8
0
  6
Continuous
 62
     7
370
    25
100
AcDbCircle
 10
7342.179242777
 20
5135.3038205974
 30
0.0
 40
32.51304127751187
100
AcDbArc
 50
270.3984566601
 51
276.9293382744
  0
ARC
  5
379
330
1F
100
AcDbEntity
  8
0
  6
Continuous
 62
     7
370
    25
100
AcDbCircle
 10
7341.1780609848
 20
5128.1498790219
 30
0.0
 40
25.32349552627878
100
AcDbArc
 50
258.4758326321
 51
265.8937831658
  0
LWPOLYLINE
  5
37A
330
1F
100
AcDbEntity
  8
0
  6
Continuous
 62
     7
370
    25
100
AcDbPolyline
 90
        3
 70
   128
 43
0.0
 10
7333.8916195885
 20
5104.0203595534
 10
7333.3875379769
 20
5104.2876856912
 10
7332.9291221312
 20
5104.6539336615
  0
LWPOLYLINE
  5
37B
330
1F
100
AcDbEntity
  8
0
  6
Continuous
 62
     7
370
    25
100
AcDbPolyline
 90
        3
 70
   128
 43
0.0
 10
7332.7989085942
 20
5104.8213285628
 10
7332.6739085942
 20
5105.2162396963
 10
7332.8195362043
 20
5105.6422553956
  0
ARC
  5
37C
330
1F
100
AcDbEntity
  8
0
  6
Continuous
 62
     7
370
    25
100
AcDbCircle
 10
6742.0489085942
 20
5113.4961597697
 30
0.0
 40
13.0000000000006
100
AcDbArc
 50
339.1745965348
 51
200.8254034652
  0
LINE
  5
37D
330
1F
100
AcDbEntity
  8
0
  6
Continuous
 62
     7
370
    25
100
AcDbLine
 10
6729.8982227835
 20
5108.8743815048
 30
0.0
 11
6754.1995944048
 21
5108.8743815048
 31
0.0
  0
LINE
  5
37E
330
1F
100
AcDbEntity
  8
0
  6
Continuous
 62
     7
370
    25
100
AcDbLine
 10
6755.1672379616
 20
5108.6064323124
 30
0.0
 11
6754.1995944048
 21
5108.8743815048
 31
0.0
  0
ARC
  5
37F
330
1F
100
AcDbEntity
  8
0
  6
Continuous
 62
     7
370
    25
100
AcDbCircle
 10
6742.0489085942
 20
5113.4961597697
 30
0.0
 40
13.99999999999974
100
AcDbArc
 50
200.4424420745
 51
339.5575579255
  0
LINE
  5
380
330
1F
100
AcDbEntity
  8
0
  6
Continuous
 62
     7
370
    25
100
AcDbLine
 10
6729.8982227835
 20
5108.8743815048
 30
0.0
 11
6728.9305792267
 21
5108.6064323124
 31
0.0
  0
LWPOLYLINE
  5
381
330
1F
100
AcDbEntity
  8
0
  6
Continuous
 62
     7
370
    25
100
AcDbPolyline
 90
       34
 70
   128
 43
0.0
 10
6742.0489085942
 20
5107.2891148536
 10
6743.9177646322
 20
5107.24292753
 10
6745.7190753438
 20
5107.1060348897
 10
6747.3877366665
 20
5106.8833845892
 10
6748.8634388325
 20
5106.5830237906
 10
6750.0928461207
 20
5106.2158083156
 10
6751.0315245483
 20
5105.7950102884
 10
6751.6455478314
 20
5105.335838446
 10
6751.9127235686
 20
5104.8548884551
 10
6751.8233953327
 20
5104.3695431015
 10
6751.380791679
 20
5103.8973440309
 10
6750.6009094565
 20
5103.455357748
 10
6749.5119356409
 20
5103.0595587885
 10
6748.1532285831
 20
5102.7242523583
 10
6746.5738954962
 20
5102.4615573052
 10
6744.831017593
 20
5102.2809681129
 10
6742.9875870218
 20
5102.1890117454
 10
6741.1102301665
 20
5102.1890117454
 10
6739.2667995954
 20
5102.2809681129
 10
6737.5239216921
 20
5102.4615573052
 10
6735.9445886052
 20
5102.7242523583
 10
6734.5858815474
 20
5103.0595587885
 10
6733.4969077318
 20
5103.455357748
 10
6732.7170255094
 20
5103.8973440309
 10
6732.2744218556
 20
5104.3695431015
 10
6732.1850936197
 20
5104.8548884551
 10
6732.452269357
 20
5105.335838446
 10
6733.06629264
 20
5105.7950102884
 10
6734.0049710677
 20
5106.2158083156
 10
6735.2343783558
 20
5106.5830237906
 10
6736.7100805218
 20
5106.8833845892
 10
6738.3787418445
 20
5107.1060348897
 10
6740.1800525561
 20
5107.24292753
 10
6742.0489085942
 20
5107.2891148536
  0
ARC
  5
382
330
1F
100
AcDbEntity
  8
0
  6
Continuous
 62
     7
370
    25
100
AcDbCircle
 10
6742.0489085942
 20
5113.4961597697
 30
0.0
 40
13.99999999999974
100
AcDbArc
 50
339.5575579255
 51
200.4424420745
  0
LWPOLYLINE
  5
383
330
1F
100
AcDbEntity
  8
0
  6
Continuous
 62
     7
370
    25
100
AcDbPolyline
 90
        3
 70
   128
 43
0.0
 10
6751.2989085942
 20
5105.6111508299
 10
6751.4239085942
 20
5105.2162396963
 10
6751.2989085942
 20
5104.8213285627
  0
LWPOLYLINE
  5
384
330
1F
100
AcDbEntity
  8
0
  6
Continuous
 62
     7
370
    25
100
AcDbPolyline
 90
        3
 70
   128
 43
0.0
 10
6750.3981858087
 20
5104.1126808434
 10
6749.8439362095
 20
5103.8681882226
 10
6748.7914460194
 20
5103.5303596245
  0
ARC
  5
385
330
1F
100
AcDbEntity
  8
0
  6
Continuous
 62
     7
370
    25
100
AcDbCircle
 10
6742.179242777
 20
5135.3038205974
 30
0.0
 40
32.51304127749547
100
AcDbArc
 50
270.39845666
 51
276.9293382744
  0
ARC
  5
386
330
1F
100
AcDbEntity
  8
0
  6
Continuous
 62
     7
370
    25
100
AcDbCircle
 10
6741.1780609847
 20
5128.1498790219
 30
0.0
 40
25.32349552626041
100
AcDbArc
 50
258.4758326321
 51
265.8937831658
  0
LWPOLYLINE
  5
387
330
1F
100
AcDbEntity
  8
0
  6
Continuous
 62
     7
370
    25
100
AcDbPolyline
 90
        3
 70
   128
 43
0.0
 10
6733.8916195885
 20
5104.0203595534
 10
6733.3875379769
 20
5104.2876856912
 10
6732.9291221312
 20
5104.6539336615
  0
LWPOLYLINE
  5
388
330
1F
100
AcDbEntity
  8
0
  6
Continuous
 62
     7
370
    25
100
AcDbPolyline
 90
        3
 70
   128
 43
0.0
 10
6732.7989085942
 20
5104.8213285628
 10
6732.6739085942
 20
5105.2162396963
 10
6732.7989085942
 20
5105.6111508299
  0
ARC
  5
389
330
1F
100
AcDbEntity
  8
0
  6
Continuous
 62
     7
370
    25
100
AcDbCircle
 10
6142.0489085942
 20
5113.4961597697
 30
0.0
 40
13.0000000000006
100
AcDbArc
 50
339.1745965348
 51
200.8254034652
  0
LINE
  5
38A
330
1F
100
AcDbEntity
  8
0
  6
Continuous
 62
     7
370
    25
100
AcDbLine
 10
6129.8982227835
 20
5108.8743815048
 30
0.0
 11
6154.1995944048
 21
5108.8743815048
 31
0.0
  0
ARC
  5
38B
330
1F
100
AcDbEntity
  8
0
  6
Continuous
 62
     7
370
    25
100
AcDbCircle
 10
6142.0489085942
 20
5113.4961597697
 30
0.0
 40
13.99999999999974
100
AcDbArc
 50
339.5575579255
 51
200.4424420745
  0
LINE
  5
38C
330
1F
100
AcDbEntity
  8
0
  6
Continuous
 62
     7
370
    25
100
AcDbLine
 10
6155.1672379616
 20
5108.6064323124
 30
0.0
 11
6154.1995944048
 21
5108.8743815048
 31
0.0
  0
LINE
  5
38D
330
1F
100
AcDbEntity
  8
0
  6
Continuous
 62
     7
370
    25
100
AcDbLine
 10
6129.8982227835
 20
5108.8743815048
 30
0.0
 11
6128.9305792267
 21
5108.6064323124
 31
0.0
  0
ARC
  5
38E
330
1F
100
AcDbEntity
  8
0
  6
Continuous
 62
     7
370
    25
100
AcDbCircle
 10
6142.0489085942
 20
5113.4961597697
 30
0.0
 40
14.00000000000059
100
AcDbArc
 50
200.4424420745
 51
339.5575579255
  0
LWPOLYLINE
  5
38F
330
1F
100
AcDbEntity
  8
0
  6
Continuous
 62
     7
370
    25
100
AcDbPolyline
 90
       34
 70
   128
 43
0.0
 10
6142.0489085942
 20
5107.2891148536
 10
6143.9177646322
 20
5107.24292753
 10
6145.7190753438
 20
5107.1060348897
 10
6147.3877366665
 20
5106.8833845892
 10
6148.8634388325
 20
5106.5830237906
 10
6150.0928461207
 20
5106.2158083156
 10
6151.0315245483
 20
5105.7950102884
 10
6151.6455478314
 20
5105.335838446
 10
6151.9127235686
 20
5104.8548884551
 10
6151.8233953327
 20
5104.3695431015
 10
6151.380791679
 20
5103.8973440309
 10
6150.6009094565
 20
5103.455357748
 10
6149.5119356409
 20
5103.0595587885
 10
6148.1532285831
 20
5102.7242523583
 10
6146.5738954962
 20
5102.4615573052
 10
6144.831017593
 20
5102.2809681129
 10
6142.9875870218
 20
5102.1890117454
 10
6141.1102301665
 20
5102.1890117454
 10
6139.2667995954
 20
5102.2809681129
 10
6137.5239216921
 20
5102.4615573052
 10
6135.9445886052
 20
5102.7242523583
 10
6134.5858815474
 20
5103.0595587885
 10
6133.4969077318
 20
5103.455357748
 10
6132.7170255094
 20
5103.8973440309
 10
6132.2744218556
 20
5104.3695431015
 10
6132.1850936197
 20
5104.8548884551
 10
6132.452269357
 20
5105.335838446
 10
6133.06629264
 20
5105.7950102884
 10
6134.0049710677
 20
5106.2158083156
 10
6135.2343783558
 20
5106.5830237906
 10
6136.7100805218
 20
5106.8833845892
 10
6138.3787418445
 20
5107.1060348897
 10
6140.1800525561
 20
5107.24292753
 10
6142.0489085942
 20
5107.2891148536
  0
LWPOLYLINE
  5
390
330
1F
100
AcDbEntity
  8
0
  6
Continuous
 62
     7
370
    25
100
AcDbPolyline
 90
        3
 70
   128
 43
0.0
 10
6151.2782813004
 20
5105.6422549364
 10
6151.4239085942
 20
5105.2162396963
 10
6151.2989085942
 20
5104.8213285627
  0
LWPOLYLINE
  5
391
330
1F
100
AcDbEntity
  8
0
  6
Continuous
 62
     7
370
    25
100
AcDbPolyline
 90
        3
 70
   128
 43
0.0
 10
6150.3981858087
 20
5104.1126808434
 10
6149.8439362095
 20
5103.8681882226
 10
6148.7914460194
 20
5103.5303596245
  0
ARC
  5
392
330
1F
100
AcDbEntity
  8
0
  6
Continuous
 62
     7
370
    25
100
AcDbCircle
 10
6142.179242777
 20
5135.3038205974
 30
0.0
 40
32.51304127751187
100
AcDbArc
 50
270.3984566601
 51
276.9293382744
  0
ARC
  5
393
330
1F
100
AcDbEntity
  8
0
  6
Continuous
 62
     7
370
    25
100
AcDbCircle
 10
6141.1780609847
 20
5128.1498790218
 30
0.0
 40
25.32349552620512
100
AcDbArc
 50
258.4758326321
 51
265.8937831658
  0
LWPOLYLINE
  5
394
330
1F
100
AcDbEntity
  8
0
  6
Continuous
 62
     7
370
    25
100
AcDbPolyline
 90
        3
 70
   128
 43
0.0
 10
6133.8916195885
 20
5104.0203595534
 10
6133.3875379769
 20
5104.2876856912
 10
6132.9291221312
 20
5104.6539336615
  0
LWPOLYLINE
  5
395
330
1F
100
AcDbEntity
  8
0
  6
Continuous
 62
     7
370
    25
100
AcDbPolyline
 90
        3
 70
   128
 43
0.0
 10
6132.7989085942
 20
5104.8213285628
 10
6132.6739085942
 20
5105.2162396963
 10
6132.8195358746
 20
5105.6422549171
  0
LINE
  5
396
330
1F
100
AcDbEntity
  8
0
  6
Continuous
 62
     8
370
    25
100
AcDbLine
 10
7060.0489085942
 20
3973.4961597697
 30
0.0
 11
7060.0489085942
 21
4553.4961597697
 31
0.0
  0
LINE
  5
397
330
1F
100
AcDbEntity
  8
0
  6
Continuous
 62
     8
370
    25
100
AcDbLine
 10
7024.0489085942
 20
3973.4961597697
 30
0.0
 11
7024.0489085942
 21
4553.4961597697
 31
0.0
  0
LINE
  5
398
330
1F
100
AcDbEntity
  8
0
  6
Continuous
 62
     8
370
    25
100
AcDbLine
 10
5832.0489085942
 20
3973.4961597697
 30
0.0
 11
5832.0489085942
 21
4553.4961597697
 31
0.0
  0
LINE
  5
399
330
1F
100
AcDbEntity
  8
0
  6
Continuous
 62
     8
370
    25
100
AcDbLine
 10
5796.0489085942
 20
3973.4961597697
 30
0.0
 11
5796.0489085942
 21
4553.4961597697
 31
0.0
  0
LINE
  5
39A
330
1F
100
AcDbEntity
  8
0
  6
Continuous
 62
     8
370
    25
100
AcDbLine
 10
5834.0489085942
 20
4110.4961597697
 30
0.0
 11
7022.0489085942
 21
4110.4961597697
 31
0.0
  0
LINE
  5
39B
330
1F
100
AcDbEntity
  8
0
  6
Continuous
 62
     8
370
    25
100
AcDbLine
 10
7062.0489085942
 20
4110.4961597697
 30
0.0
 11
8250.0489085942
 21
4110.4961597697
 31
0.0
  0
LINE
  5
39C
330
1F
100
AcDbEntity
  8
0
  6
Continuous
 62
     8
370
    25
100
AcDbLine
 10
5834.0489085942
 20
4146.4961597697
 30
0.0
 11
7022.0489085942
 21
4146.4961597697
 31
0.0
  0
LINE
  5
39D
330
1F
100
AcDbEntity
  8
0
  6
Continuous
 62
     8
370
    25
100
AcDbLine
 10
7062.0489085942
 20
4146.4961597697
 30
0.0
 11
8250.0489085942
 21
4146.4961597697
 31
0.0
  0
LINE
  5
39E
330
1F
100
AcDbEntity
  8
0
  6
Continuous
 62
     8
370
    25
100
AcDbLine
 10
8252.0489085942
 20
3973.4961597697
 30
0.0
 11
8252.0489085942
 21
4553.4961597697
 31
0.0
  0
LINE
  5
39F
330
1F
100
AcDbEntity
  8
0
  6
Continuous
 62
     8
370
    25
100
AcDbLine
 10
8288.0489085942
 20
3973.4961597697
 30
0.0
 11
8288.0489085942
 21
4553.4961597697
 31
0.0
  0
LINE
  5
3A0
330
1F
100
AcDbEntity
  8
0
  6
Continuous
 62
     8
370
    25
100
AcDbLine
 10
5917.442694314
 20
4394.4463741356
 30
0.0
 11
5971.6551228743
 21
4394.4463741356
 31
0.0
  0
LINE
  5
3A1
330
1F
100
AcDbEntity
  8
0
  6
Continuous
 62
     8
370
    25
100
AcDbLine
 10
5971.8583503493
 20
4519.0996920957
 30
0.0
 11
5917.239466839
 21
4519.0996920957
 31
0.0
  0
LINE
  5
3A2
330
1F
100
AcDbEntity
  8
0
  6
Continuous
 62
     8
370
    25
100
AcDbLine
 10
5921.5489085942
 20
4535.252049997
 30
0.0
 11
5967.5489085942
 21
4535.252049997
 31
0.0
  0
LINE
  5
3A3
330
1F
100
AcDbEntity
  8
0
  6
Continuous
 62
     7
370
    25
100
AcDbLine
 10
9065.2111387345
 20
3965.4961597697
 30
0.0
 11
9065.2111387345
 21
3961.4961597697
 31
0.0
  0
LINE
  5
3A4
330
1F
100
AcDbEntity
  8
0
  6
Continuous
 62
     7
370
    25
100
AcDbLine
 10
9075.2111387345
 20
3961.4961597697
 30
0.0
 11
9075.2111387345
 21
3965.4961597697
 31
0.0
  0
LINE
  5
3A5
330
1F
100
AcDbEntity
  8
0
  6
Continuous
 62
     7
370
    25
100
AcDbLine
 10
8633.1190504253
 20
3965.4961597697
 30
0.0
 11
8633.1190504253
 21
3961.4961597697
 31
0.0
  0
LINE
  5
3A6
330
1F
100
AcDbEntity
  8
0
  6
Continuous
 62
     7
370
    25
100
AcDbLine
 10
8643.1190504253
 20
3961.4961597697
 30
0.0
 11
8643.1190504253
 21
3965.4961597697
 31
0.0
  0
LINE
  5
3A7
330
1F
100
AcDbEntity
  8
0
  6
Continuous
 62
     7
370
    25
100
AcDbLine
 10
8618.1190504253
 20
4539.752049997
 30
0.0
 11
8612.1111387345
 21
4539.752049997
 31
0.0
  0
LINE
  5
3A8
330
1F
100
AcDbEntity
  8
0
  6
Continuous
 62
     7
370
    25
100
AcDbLine
 10
8612.1111387345
 20
4459.752049997
 30
0.0
 11
8618.1190504253
 21
4459.752049997
 31
0.0
  0
LINE
  5
3A9
330
1F
100
AcDbEntity
  8
0
  6
Continuous
 62
     7
370
    25
100
AcDbLine
 10
8612.1111387345
 20
4519.752049997
 30
0.0
 11
8602.1111387345
 21
4519.752049997
 31
0.0
  0
LINE
  5
3AA
330
1F
100
AcDbEntity
  8
0
  6
Continuous
 62
     7
370
    25
100
AcDbLine
 10
8602.1111387345
 20
4479.752049997
 30
0.0
 11
8612.1111387345
 21
4479.752049997
 31
0.0
  0
LINE
  5
3AB
330
1F
100
AcDbEntity
  8
0
  6
Continuous
 62
     7
370
    25
100
AcDbLine
 10
8794.6111387345
 20
4519.752049997
 30
0.0
 11
8658.1190504253
 21
4519.752049997
 31
0.0
  0
LINE
  5
3AC
330
1F
100
AcDbEntity
  8
0
  6
Continuous
 62
     7
370
    25
100
AcDbLine
 10
8658.1190504253
 20
4479.752049997
 30
0.0
 11
8794.6111387345
 21
4479.752049997
 31
0.0
  0
LINE
  5
3AD
330
1F
100
AcDbEntity
  8
0
  6
Continuous
 62
     7
370
    25
100
AcDbLine
 10
8838.6111387345
 20
4553.4961597697
 30
0.0
 11
8838.6111387345
 21
4538.252049997
 31
0.0
  0
LINE
  5
3AE
330
1F
100
AcDbEntity
  8
0
  6
Continuous
 62
     7
370
    25
100
AcDbLine
 10
8838.6111387345
 20
4524.252049997
 30
0.0
 11
8838.6111387345
 21
4521.752049997
 31
0.0
  0
LINE
  5
3AF
330
1F
100
AcDbEntity
  8
0
  6
Continuous
 62
     7
370
    25
100
AcDbLine
 10
8870.6111387345
 20
4521.752049997
 30
0.0
 11
8870.6111387345
 21
4524.252049997
 31
0.0
  0
LINE
  5
3B0
330
1F
100
AcDbEntity
  8
0
  6
Continuous
 62
     7
370
    25
100
AcDbLine
 10
8870.6111387345
 20
4538.252049997
 30
0.0
 11
8870.6111387345
 21
4553.4961597697
 31
0.0
  0
LINE
  5
3B1
330
1F
100
AcDbEntity
  8
0
  6
Continuous
 62
     7
370
    25
100
AcDbLine
 10
8820.6111387345
 20
4461.752049997
 30
0.0
 11
8827.5049244543
 21
4394.4463741356
 31
0.0
  0
LINE
  5
3B2
330
1F
100
AcDbEntity
  8
0
  6
Continuous
 62
     7
370
    25
100
AcDbLine
 10
8881.7173530146
 20
4394.4463741356
 30
0.0
 11
8888.6111387345
 21
4461.752049997
 31
0.0
  0
LINE
  5
3B3
330
1F
100
AcDbEntity
  8
0
  6
Continuous
 62
     7
370
    25
100
AcDbLine
 10
8888.6111387345
 20
4461.752049997
 30
0.0
 11
8881.9205804896
 21
4519.0996920957
 31
0.0
  0
LINE
  5
3B4
330
1F
100
AcDbEntity
  8
0
  6
Continuous
 62
     7
370
    25
100
AcDbLine
 10
8822.4822403696
 20
4477.790064012
 30
0.0
 11
8820.6111387345
 21
4461.752049997
 31
0.0
  0
LINE
  5
3B5
330
1F
100
AcDbEntity
  8
0
  6
Continuous
 62
     7
370
    25
100
AcDbLine
 10
8810.6111387345
 20
4527.252049997
 30
0.0
 11
8806.6111387345
 21
4525.752049997
 31
0.0
  0
LINE
  5
3B6
330
1F
100
AcDbEntity
  8
0
  6
Continuous
 62
     7
370
    25
100
AcDbLine
 10
8806.6111387345
 20
4473.752049997
 30
0.0
 11
8810.6111387345
 21
4472.252049997
 31
0.0
  0
ARC
  5
3B7
330
1F
100
AcDbEntity
  8
0
  6
Continuous
 62
     7
370
    25
100
AcDbCircle
 10
8878.9407910724
 20
4518.752049997
 30
0.0
 40
3.000000000000807
100
AcDbArc
 50
6.654425046
 51
90.0
  0
ARC
  5
3B8
330
1F
100
AcDbEntity
  8
0
  6
Continuous
 62
     7
370
    25
100
AcDbCircle
 10
8830.4893108683
 20
4394.752049997
 30
0.0
 40
3.000000000000332
100
AcDbArc
 50
185.8481280261
 51
270.0
  0
ARC
  5
3B9
330
1F
100
AcDbEntity
  8
0
  6
Continuous
 62
     7
370
    25
100
AcDbCircle
 10
8878.7329666007
 20
4394.752049997
 30
0.0
 40
3.000000000000332
100
AcDbArc
 50
270.0
 51
354.1518719739
  0
ARC
  5
3BA
330
1F
100
AcDbEntity
  8
0
  6
Continuous
 62
     7
370
    25
100
AcDbCircle
 10
8797.6111387345
 20
4522.752049997
 30
0.0
 40
3.0
100
AcDbArc
 50
90.0
 51
180.0
  0
ARC
  5
3BB
330
1F
100
AcDbEntity
  8
0
  6
Continuous
 62
     7
370
    25
100
AcDbCircle
 10
8797.6111387345
 20
4476.752049997
 30
0.0
 40
3.0
100
AcDbArc
 50
180.0
 51
270.0
  0
LINE
  5
3BC
330
1F
100
AcDbEntity
  8
0
  6
Continuous
 62
     7
370
    25
100
AcDbLine
 10
8806.6111387345
 20
4525.752049997
 30
0.0
 11
8797.6111387345
 21
4525.752049997
 31
0.0
  0
LINE
  5
3BD
330
1F
100
AcDbEntity
  8
0
  6
Continuous
 62
     7
370
    25
100
AcDbLine
 10
8797.6111387345
 20
4473.752049997
 30
0.0
 11
8806.6111387345
 21
4473.752049997
 31
0.0
  0
LINE
  5
3BE
330
1F
100
AcDbEntity
  8
0
  6
Continuous
 62
     7
370
    25
100
AcDbLine
 10
8879.6111387345
 20
4524.252049997
 30
0.0
 11
8877.6111387345
 21
4528.252049997
 31
0.0
  0
LINE
  5
3BF
330
1F
100
AcDbEntity
  8
0
  6
Continuous
 62
     7
370
    25
100
AcDbLine
 10
8831.6111387345
 20
4528.252049997
 30
0.0
 11
8829.6111387345
 21
4524.252049997
 31
0.0
  0
ARC
  5
3C0
330
1F
100
AcDbEntity
  8
0
  6
Continuous
 62
     7
370
    25
100
AcDbCircle
 10
8834.6111387345
 20
4535.252049997
 30
0.0
 40
3.0
100
AcDbArc
 50
90.0
 51
180.0
  0
ARC
  5
3C1
330
1F
100
AcDbEntity
  8
0
  6
Continuous
 62
     7
370
    25
100
AcDbCircle
 10
8874.6111387345
 20
4535.252049997
 30
0.0
 40
3.0
100
AcDbArc
 50
0.0
 51
90.0
  0
LINE
  5
3C2
330
1F
100
AcDbEntity
  8
0
  6
Continuous
 62
     7
370
    25
100
AcDbLine
 10
8831.6111387345
 20
4535.252049997
 30
0.0
 11
8831.6111387345
 21
4528.252049997
 31
0.0
  0
LINE
  5
3C3
330
1F
100
AcDbEntity
  8
0
  6
Continuous
 62
     7
370
    25
100
AcDbLine
 10
8877.6111387345
 20
4528.252049997
 30
0.0
 11
8877.6111387345
 21
4535.252049997
 31
0.0
  0
LINE
  5
3C4
330
1F
100
AcDbEntity
  8
0
  6
Continuous
 62
     7
370
    25
100
AcDbLine
 10
8810.6111387345
 20
4477.752049997
 30
0.0
 11
8822.5059838963
 21
4477.752049997
 31
0.0
  0
LINE
  5
3C5
330
1F
100
AcDbEntity
  8
0
  6
Continuous
 62
     7
370
    25
100
AcDbLine
 10
8827.6111387345
 20
4521.752049997
 30
0.0
 11
8810.6111387345
 21
4521.752049997
 31
0.0
  0
ARC
  5
3C6
330
1F
100
AcDbEntity
  8
0
  6
Continuous
 62
     7
370
    25
100
AcDbCircle
 10
8629.76469766
 20
5183.961859163
 30
0.0
 40
36.9999999999996
100
AcDbArc
 50
59.0753555839
 51
96.9246444161
  0
LINE
  5
3C7
330
1F
100
AcDbEntity
  8
0
  6
Continuous
 62
     7
370
    25
100
AcDbLine
 10
8664.6111387345
 20
5143.4961597697
 30
0.0
 11
8662.1111387345
 21
5143.4961597697
 31
0.0
  0
LINE
  5
3C8
330
1F
100
AcDbEntity
  8
0
  6
Continuous
 62
     7
370
    25
100
AcDbLine
 10
8662.1111387345
 20
5083.4961597697
 30
0.0
 11
8664.6111387345
 21
5083.4961597697
 31
0.0
  0
LINE
  5
3C9
330
1F
100
AcDbEntity
  8
0
  6
Continuous
 62
     7
370
    25
100
AcDbLine
 10
8664.6111387345
 20
5083.4961597697
 30
0.0
 11
8665.1111387345
 21
5083.9961597697
 31
0.0
  0
LINE
  5
3CA
330
1F
100
AcDbEntity
  8
0
  6
Continuous
 62
     7
370
    25
100
AcDbLine
 10
8665.1111387345
 20
5142.9961597697
 30
0.0
 11
8664.6111387345
 21
5143.4961597697
 31
0.0
  0
LINE
  5
3CB
330
1F
100
AcDbEntity
  8
0
  6
Continuous
 62
     7
370
    25
100
AcDbLine
 10
8673.7611387345
 20
5099.4961597697
 30
0.0
 11
8796.1111387345
 21
5099.4961597697
 31
0.0
  0
LINE
  5
3CC
330
1F
100
AcDbEntity
  8
0
  6
Continuous
 62
     7
370
    25
100
AcDbLine
 10
8665.1111387345
 20
5099.4961597697
 30
0.0
 11
8670.4818281693
 21
5099.4961597697
 31
0.0
  0
LINE
  5
3CD
330
1F
100
AcDbEntity
  8
0
  6
Continuous
 62
     7
370
    25
100
AcDbLine
 10
8830.1111387345
 20
5127.4961597697
 30
0.0
 11
8665.1111387345
 21
5127.4961597697
 31
0.0
  0
LINE
  5
3CE
330
1F
100
AcDbEntity
  8
0
  6
Continuous
 62
     7
370
    25
100
AcDbLine
 10
8831.1111387345
 20
5126.4961597697
 30
0.0
 11
8830.1111387345
 21
5127.4961597697
 31
0.0
  0
ARC
  5
3CF
330
1F
100
AcDbEntity
  8
0
  6
Continuous
 62
     7
370
    25
100
AcDbCircle
 10
9055.7111387345
 20
3971.4961597697
 30
0.0
 40
6.0
100
AcDbArc
 50
180.0
 51
270.0
  0
LINE
  5
3D0
330
1F
100
AcDbEntity
  8
0
  6
Continuous
 62
     7
370
    25
100
AcDbLine
 10
9049.7111387345
 20
3971.4961597697
 30
0.0
 11
9052.2111387345
 21
3971.4961597697
 31
0.0
  0
ELLIPSE
  5
3D1
330
1F
100
AcDbEntity
  8
0
  6
Continuous
 62
     7
370
    25
100
AcDbEllipse
 10
9055.7111387345
 20
3971.4961597697
 30
0.0
 11
0.0
 21
5.999999999999544
 31
0.0
210
0.0
220
0.0
230
1.0
 40
0.5833333333
 41
1.570796326794897
 42
3.141592653589793
  0
LINE
  5
3D2
330
1F
100
AcDbEntity
  8
0
  6
Continuous
 62
     7
370
    25
100
AcDbLine
 10
9052.2111387345
 20
3971.4961597697
 30
0.0
 11
9088.2111387345
 21
3971.4961597697
 31
0.0
  0
ELLIPSE
  5
3D3
330
1F
100
AcDbEntity
  8
0
  6
Continuous
 62
     7
370
    25
100
AcDbEllipse
 10
9084.7111387345
 20
3971.4961597697
 30
0.0
 11
0.0
 21
5.999999999999544
 31
0.0
210
0.0
220
0.0
230
1.0
 40
0.5833333333
 41
3.141592653589793
 42
4.712388980384698
  0
LINE
  5
3D4
330
1F
100
AcDbEntity
  8
0
  6
Continuous
 62
     7
370
    25
100
AcDbLine
 10
9084.7111387345
 20
3965.4961597697
 30
0.0
 11
9055.7111387345
 21
3965.4961597697
 31
0.0
  0
LINE
  5
3D5
330
1F
100
AcDbEntity
  8
0
  6
Continuous
 62
     7
370
    25
100
AcDbLine
 10
9052.2111387345
 20
3971.4961597697
 30
0.0
 11
9052.2111387345
 21
3973.4961597697
 31
0.0
  0
LINE
  5
3D6
330
1F
100
AcDbEntity
  8
0
  6
Continuous
 62
     7
370
    25
100
AcDbLine
 10
9049.7111387345
 20
3971.4961597697
 30
0.0
 11
9049.7111387345
 21
3973.4961597697
 31
0.0
  0
LINE
  5
3D7
330
1F
100
AcDbEntity
  8
0
  6
Continuous
 62
     7
370
    25
100
AcDbLine
 10
9052.2111387345
 20
3973.4961597697
 30
0.0
 11
9049.7111387345
 21
3973.4961597697
 31
0.0
  0
LINE
  5
3D8
330
1F
100
AcDbEntity
  8
0
  6
Continuous
 62
     7
370
    25
100
AcDbLine
 10
9088.2111387345
 20
3971.4961597697
 30
0.0
 11
9088.2111387345
 21
3973.4961597697
 31
0.0
  0
LINE
  5
3D9
330
1F
100
AcDbEntity
  8
0
  6
Continuous
 62
     7
370
    25
100
AcDbLine
 10
9088.2111387345
 20
3973.4961597697
 30
0.0
 11
9052.2111387345
 21
3973.4961597697
 31
0.0
  0
LINE
  5
3DA
330
1F
100
AcDbEntity
  8
0
  6
Continuous
 62
     7
370
    25
100
AcDbLine
 10
9090.7111387345
 20
3971.4961597697
 30
0.0
 11
9090.7111387345
 21
3973.4961597697
 31
0.0
  0
LINE
  5
3DB
330
1F
100
AcDbEntity
  8
0
  6
Continuous
 62
     7
370
    25
100
AcDbLine
 10
9088.2111387345
 20
3971.4961597697
 30
0.0
 11
9090.7111387345
 21
3971.4961597697
 31
0.0
  0
LINE
  5
3DC
330
1F
100
AcDbEntity
  8
0
  6
Continuous
 62
     7
370
    25
100
AcDbLine
 10
9090.7111387345
 20
3973.4961597697
 30
0.0
 11
9088.2111387345
 21
3973.4961597697
 31
0.0
  0
ARC
  5
3DD
330
1F
100
AcDbEntity
  8
0
  6
Continuous
 62
     7
370
    25
100
AcDbCircle
 10
9084.7111387345
 20
3971.4961597697
 30
0.0
 40
6.0
100
AcDbArc
 50
270.0
 51
0.0
  0
LINE
  5
3DE
330
1F
100
AcDbEntity
  8
0
  6
Continuous
 62
     7
370
    25
100
AcDbLine
 10
9070.2111387345
 20
3953.4961597697
 30
0.0
 11
9070.2111387345
 21
3961.4961597697
 31
0.0
  0
LINE
  5
3DF
330
1F
100
AcDbEntity
  8
0
  6
Continuous
 62
     7
370
    25
100
AcDbLine
 10
9070.2111387345
 20
3953.4961597697
 30
0.0
 11
9055.2111387345
 21
3953.4961597697
 31
0.0
  0
LINE
  5
3E0
330
1F
100
AcDbEntity
  8
0
  6
Continuous
 62
     7
370
    25
100
AcDbLine
 10
9055.2111387345
 20
3953.4961597697
 30
0.0
 11
9055.2111387345
 21
3961.4961597697
 31
0.0
  0
LINE
  5
3E1
330
1F
100
AcDbEntity
  8
0
  6
Continuous
 62
     7
370
    25
100
AcDbLine
 10
9070.2111387345
 20
3961.4961597697
 30
0.0
 11
9055.2111387345
 21
3961.4961597697
 31
0.0
  0
LINE
  5
3E2
330
1F
100
AcDbEntity
  8
0
  6
Continuous
 62
     7
370
    25
100
AcDbLine
 10
9085.2111387345
 20
3953.4961597697
 30
0.0
 11
9085.2111387345
 21
3961.4961597697
 31
0.0
  0
LINE
  5
3E3
330
1F
100
AcDbEntity
  8
0
  6
Continuous
 62
     7
370
    25
100
AcDbLine
 10
9085.2111387345
 20
3961.4961597697
 30
0.0
 11
9070.2111387345
 21
3961.4961597697
 31
0.0
  0
LINE
  5
3E4
330
1F
100
AcDbEntity
  8
0
  6
Continuous
 62
     7
370
    25
100
AcDbLine
 10
9085.2111387345
 20
3953.4961597697
 30
0.0
 11
9070.2111387345
 21
3953.4961597697
 31
0.0
  0
LINE
  5
3E5
330
1F
100
AcDbEntity
  8
0
  6
Continuous
 62
     7
370
    25
100
AcDbLine
 10
8620.1190504253
 20
3971.4961597697
 30
0.0
 11
8656.1190504253
 21
3971.4961597697
 31
0.0
  0
ELLIPSE
  5
3E6
330
1F
100
AcDbEntity
  8
0
  6
Continuous
 62
     7
370
    25
100
AcDbEllipse
 10
8652.6190504253
 20
3971.4961597697
 30
0.0
 11
0.0
 21
6.0
 31
0.0
210
0.0
220
0.0
230
1.0
 40
0.5833333333
 41
3.141592653589793
 42
4.712388980384698
  0
LINE
  5
3E7
330
1F
100
AcDbEntity
  8
0
  6
Continuous
 62
     7
370
    25
100
AcDbLine
 10
8652.6190504253
 20
3965.4961597697
 30
0.0
 11
8623.6190504253
 21
3965.4961597697
 31
0.0
  0
ELLIPSE
  5
3E8
330
1F
100
AcDbEntity
  8
0
  6
Continuous
 62
     7
370
    25
100
AcDbEllipse
 10
8623.6190504253
 20
3971.4961597697
 30
0.0
 11
0.0
 21
6.0
 31
0.0
210
0.0
220
0.0
230
1.0
 40
0.5833333333
 41
1.570796326794897
 42
3.141592653589793
  0
ARC
  5
3E9
330
1F
100
AcDbEntity
  8
0
  6
Continuous
 62
     7
370
    25
100
AcDbCircle
 10
8623.6190504253
 20
3971.4961597697
 30
0.0
 40
6.0
100
AcDbArc
 50
180.0
 51
270.0
  0
LINE
  5
3EA
330
1F
100
AcDbEntity
  8
0
  6
Continuous
 62
     7
370
    25
100
AcDbLine
 10
8617.6190504253
 20
3971.4961597697
 30
0.0
 11
8620.1190504253
 21
3971.4961597697
 31
0.0
  0
LINE
  5
3EB
330
1F
100
AcDbEntity
  8
0
  6
Continuous
 62
     7
370
    25
100
AcDbLine
 10
8656.1190504253
 20
3973.4961597697
 30
0.0
 11
8620.1190504253
 21
3973.4961597697
 31
0.0
  0
LINE
  5
3EC
330
1F
100
AcDbEntity
  8
0
  6
Continuous
 62
     7
370
    25
100
AcDbLine
 10
8656.1190504253
 20
3971.4961597697
 30
0.0
 11
8656.1190504253
 21
3973.4961597697
 31
0.0
  0
LINE
  5
3ED
330
1F
100
AcDbEntity
  8
0
  6
Continuous
 62
     7
370
    25
100
AcDbLine
 10
8620.1190504253
 20
3971.4961597697
 30
0.0
 11
8620.1190504253
 21
3973.4961597697
 31
0.0
  0
ARC
  5
3EE
330
1F
100
AcDbEntity
  8
0
  6
Continuous
 62
     7
370
    25
100
AcDbCircle
 10
8652.6190504253
 20
3971.4961597697
 30
0.0
 40
6.0
100
AcDbArc
 50
270.0
 51
0.0
  0
LINE
  5
3EF
330
1F
100
AcDbEntity
  8
0
  6
Continuous
 62
     7
370
    25
100
AcDbLine
 10
8656.1190504253
 20
3971.4961597697
 30
0.0
 11
8658.6190504253
 21
3971.4961597697
 31
0.0
  0
LINE
  5
3F0
330
1F
100
AcDbEntity
  8
0
  6
Continuous
 62
     7
370
    25
100
AcDbLine
 10
8620.1190504253
 20
3973.4961597697
 30
0.0
 11
8617.6190504253
 21
3973.4961597697
 31
0.0
  0
LINE
  5
3F1
330
1F
100
AcDbEntity
  8
0
  6
Continuous
 62
     7
370
    25
100
AcDbLine
 10
8617.6190504253
 20
3971.4961597697
 30
0.0
 11
8617.6190504253
 21
3973.4961597697
 31
0.0
  0
LINE
  5
3F2
330
1F
100
AcDbEntity
  8
0
  6
Continuous
 62
     7
370
    25
100
AcDbLine
 10
8658.6190504253
 20
3973.4961597697
 30
0.0
 11
8656.1190504253
 21
3973.4961597697
 31
0.0
  0
LINE
  5
3F3
330
1F
100
AcDbEntity
  8
0
  6
Continuous
 62
     7
370
    25
100
AcDbLine
 10
8658.6190504253
 20
3971.4961597697
 30
0.0
 11
8658.6190504253
 21
3973.4961597697
 31
0.0
  0
LINE
  5
3F4
330
1F
100
AcDbEntity
  8
0
  6
Continuous
 62
     7
370
    25
100
AcDbLine
 10
8638.1190504253
 20
3953.4961597697
 30
0.0
 11
8638.1190504253
 21
3961.4961597697
 31
0.0
  0
LINE
  5
3F5
330
1F
100
AcDbEntity
  8
0
  6
Continuous
 62
     7
370
    25
100
AcDbLine
 10
8638.1190504253
 20
3953.4961597697
 30
0.0
 11
8623.1190504253
 21
3953.4961597697
 31
0.0
  0
LINE
  5
3F6
330
1F
100
AcDbEntity
  8
0
  6
Continuous
 62
     7
370
    25
100
AcDbLine
 10
8623.1190504253
 20
3953.4961597697
 30
0.0
 11
8623.1190504253
 21
3961.4961597697
 31
0.0
  0
LINE
  5
3F7
330
1F
100
AcDbEntity
  8
0
  6
Continuous
 62
     7
370
    25
100
AcDbLine
 10
8638.1190504253
 20
3961.4961597697
 30
0.0
 11
8623.1190504253
 21
3961.4961597697
 31
0.0
  0
LINE
  5
3F8
330
1F
100
AcDbEntity
  8
0
  6
Continuous
 62
     7
370
    25
100
AcDbLine
 10
8653.1190504253
 20
3953.4961597697
 30
0.0
 11
8653.1190504253
 21
3961.4961597697
 31
0.0
  0
LINE
  5
3F9
330
1F
100
AcDbEntity
  8
0
  6
Continuous
 62
     7
370
    25
100
AcDbLine
 10
8653.1190504253
 20
3961.4961597697
 30
0.0
 11
8638.1190504253
 21
3961.4961597697
 31
0.0
  0
LINE
  5
3FA
330
1F
100
AcDbEntity
  8
0
  6
Continuous
 62
     7
370
    25
100
AcDbLine
 10
8653.1190504253
 20
3953.4961597697
 30
0.0
 11
8638.1190504253
 21
3953.4961597697
 31
0.0
  0
LINE
  5
3FB
330
1F
100
AcDbEntity
  8
0
  6
Continuous
 62
     7
370
    25
100
AcDbLine
 10
9050.2111387345
 20
3973.4961597697
 30
0.0
 11
9050.2111387345
 21
4553.4961597697
 31
0.0
  0
LINE
  5
3FC
330
1F
100
AcDbEntity
  8
0
  6
Continuous
 62
     7
370
    25
100
AcDbLine
 10
9090.2111387345
 20
3973.4961597697
 30
0.0
 11
9090.2111387345
 21
4553.4961597697
 31
0.0
  0
LINE
  5
3FD
330
1F
100
AcDbEntity
  8
0
  6
Continuous
 62
     7
370
    25
100
AcDbLine
 10
8618.1190504253
 20
3973.4961597697
 30
0.0
 11
8618.1190504253
 21
4553.4961597697
 31
0.0
  0
LINE
  5
3FE
330
1F
100
AcDbEntity
  8
0
  6
Continuous
 62
     7
370
    25
100
AcDbLine
 10
8658.1190504253
 20
3973.4961597697
 30
0.0
 11
8658.1190504253
 21
4553.4961597697
 31
0.0
  0
LINE
  5
3FF
330
1F
100
AcDbEntity
  8
0
  6
Continuous
 62
     7
370
    25
100
AcDbLine
 10
9050.2111387345
 20
4108.4961597697
 30
0.0
 11
8658.1190504253
 21
4108.4961597697
 31
0.0
  0
LINE
  5
400
330
1F
100
AcDbEntity
  8
0
  6
Continuous
 62
     7
370
    25
100
AcDbLine
 10
9050.2111387345
 20
4110.4961597697
 30
0.0
 11
8658.1190504253
 21
4110.4961597697
 31
0.0
  0
LINE
  5
401
330
1F
100
AcDbEntity
  8
0
  6
Continuous
 62
     7
370
    25
100
AcDbLine
 10
9050.2111387346
 20
4146.4961597697
 30
0.0
 11
8658.1190504253
 21
4146.4961597697
 31
0.0
  0
LINE
  5
402
330
1F
100
AcDbEntity
  8
0
  6
Continuous
 62
     7
370
    25
100
AcDbLine
 10
9050.2111387345
 20
4148.4961597697
 30
0.0
 11
8658.1190504253
 21
4148.4961597697
 31
0.0
  0
LINE
  5
403
330
1F
100
AcDbEntity
  8
0
  6
Continuous
 62
     7
370
    25
100
AcDbLine
 10
8615.2111387345
 20
4553.4961597697
 30
0.0
 11
8612.1111387345
 21
4553.4961597697
 31
0.0
  0
LINE
  5
404
330
1F
100
AcDbEntity
  8
0
  6
Continuous
 62
     7
370
    25
100
AcDbLine
 10
8612.1111387345
 20
4553.4961597697
 30
0.0
 11
8612.1111387345
 21
5198.0961597697
 31
0.0
  0
LINE
  5
405
330
1F
100
AcDbEntity
  8
0
  6
Continuous
 62
     7
370
    25
100
AcDbLine
 10
8612.1111387345
 20
5198.0961597697
 30
0.0
 11
8615.2111387345
 21
5198.0961597697
 31
0.0
  0
LINE
  5
406
330
1F
100
AcDbEntity
  8
0
  6
Continuous
 62
     7
370
    25
100
AcDbLine
 10
8615.2111387345
 20
5198.0961597697
 30
0.0
 11
8615.2111387345
 21
4553.4961597697
 31
0.0
  0
ARC
  5
407
330
1F
100
AcDbEntity
  8
0
  6
Continuous
 62
     7
370
    25
100
AcDbCircle
 10
8614.3111387345
 20
5220.7793860254
 30
0.0
 40
2.200000000000641
100
AcDbArc
 50
78.0
 51
180.0
  0
LINE
  5
408
330
1F
100
AcDbEntity
  8
0
  6
Continuous
 62
     7
370
    25
100
AcDbLine
 10
8614.7685444543
 20
5222.931310747
 30
0.0
 11
8660.3685444543
 21
5213.2387315348
 31
0.0
  0
ARC
  5
409
330
1F
100
AcDbEntity
  8
0
  6
Continuous
 62
     7
370
    25
100
AcDbCircle
 10
8659.9111387345
 20
5211.0868068132
 30
0.0
 40
2.200000000000728
100
AcDbArc
 50
0.0
 51
78.0
  0
LINE
  5
40A
330
1F
100
AcDbEntity
  8
0
  6
Continuous
 62
     7
370
    25
100
AcDbLine
 10
8662.1111387345
 20
5211.0868068132
 30
0.0
 11
8662.1111387345
 21
4803.4961597697
 31
0.0
  0
LINE
  5
40B
330
1F
100
AcDbEntity
  8
0
  6
Continuous
 62
     7
370
    25
100
AcDbLine
 10
8662.1111387345
 20
4803.4961597697
 30
0.0
 11
9089.9111387345
 21
4803.4961597697
 31
0.0
  0
ARC
  5
40C
330
1F
100
AcDbEntity
  8
0
  6
Continuous
 62
     7
370
    25
100
AcDbCircle
 10
9089.9111387345
 20
4801.2961597697
 30
0.0
 40
2.200000000000728
100
AcDbArc
 50
0.0
 51
90.0
  0
LINE
  5
40D
330
1F
100
AcDbEntity
  8
0
  6
Continuous
 62
     7
370
    25
100
AcDbLine
 10
9092.1111387345
 20
4801.2961597697
 30
0.0
 11
9092.1111387345
 21
4778.4961597697
 31
0.0
  0
LINE
  5
40E
330
1F
100
AcDbEntity
  8
0
  6
Continuous
 62
     7
370
    25
100
AcDbLine
 10
9092.1111387345
 20
4778.4961597697
 30
0.0
 11
9089.1111387345
 21
4778.4961597697
 31
0.0
  0
LINE
  5
40F
330
1F
100
AcDbEntity
  8
0
  6
Continuous
 62
     7
370
    25
100
AcDbLine
 10
9089.1111387345
 20
4778.4961597697
 30
0.0
 11
9089.1111387345
 21
4778.4861597697
 31
0.0
  0
LINE
  5
410
330
1F
100
AcDbEntity
  8
0
  6
Continuous
 62
     7
370
    25
100
AcDbLine
 10
9089.1111387345
 20
4553.4961597697
 30
0.0
 11
9089.1111387345
 21
4778.4861597697
 31
0.0
  0
LINE
  5
411
330
1F
100
AcDbEntity
  8
0
  6
Continuous
 62
     7
370
    25
100
AcDbLine
 10
9089.1111387345
 20
4553.4961597697
 30
0.0
 11
8615.2111387345
 21
4553.4961597697
 31
0.0
  0
LINE
  5
412
330
1F
100
AcDbEntity
  8
0
  6
Continuous
 62
     7
370
    25
100
AcDbLine
 10
8615.2111387345
 20
5198.0961597697
 30
0.0
 11
8616.2111387345
 21
5198.0961597697
 31
0.0
  0
LINE
  5
413
330
1F
100
AcDbEntity
  8
0
  6
Continuous
 62
     7
370
    25
100
AcDbLine
 10
8616.2111387345
 20
5198.0961597697
 30
0.0
 11
8616.2111387345
 21
5200.0961597697
 31
0.0
  0
LINE
  5
414
330
1F
100
AcDbEntity
  8
0
  6
Continuous
 62
     7
370
    25
100
AcDbLine
 10
8616.2111387345
 20
5200.0961597697
 30
0.0
 11
8612.1111387345
 21
5200.0961597697
 31
0.0
  0
LINE
  5
415
330
1F
100
AcDbEntity
  8
0
  6
Continuous
 62
     7
370
    25
100
AcDbLine
 10
8612.1111387345
 20
5200.0961597697
 30
0.0
 11
8612.1111387345
 21
5220.7793860254
 31
0.0
  0
LINE
  5
416
330
1F
100
AcDbEntity
  8
0
  6
Continuous
 62
     7
370
    25
100
AcDbLine
 10
9092.2111387345
 20
4553.4961597697
 30
0.0
 11
9092.2111387345
 21
4778.4861597697
 31
0.0
  0
LINE
  5
417
330
1F
100
AcDbEntity
  8
0
  6
Continuous
 62
     7
370
    25
100
AcDbLine
 10
9092.2111387345
 20
4553.4961597697
 30
0.0
 11
9089.1111387345
 21
4553.4961597697
 31
0.0
  0
LINE
  5
418
330
1F
100
AcDbEntity
  8
0
  6
Continuous
 62
     7
370
    25
100
AcDbLine
 10
9089.1111387345
 20
4778.4861597697
 30
0.0
 11
9092.2111387345
 21
4778.4861597697
 31
0.0
  0
LINE
  5
419
330
1F
100
AcDbEntity
  8
0
  6
Continuous
 62
     7
370
    25
100
AcDbLine
 10
8612.1111387345
 20
5198.4961597697
 30
0.0
 11
8613.3111387345
 21
5198.4961597697
 31
0.0
  0
LINE
  5
41A
330
1F
100
AcDbEntity
  8
0
  6
Continuous
 62
     7
370
    25
100
AcDbLine
 10
8612.1111387345
 20
5200.0961597697
 30
0.0
 11
8612.1111387345
 21
5198.4961597697
 31
0.0
  0
LINE
  5
41B
330
1F
100
AcDbEntity
  8
0
  6
Continuous
 62
     7
370
    25
100
AcDbLine
 10
8613.3111387345
 20
5200.0961597697
 30
0.0
 11
8613.3111387345
 21
5198.4961597697
 31
0.0
  0
LINE
  5
41C
330
1F
100
AcDbEntity
  8
0
  6
Continuous
 62
     7
370
    25
100
AcDbLine
 10
8612.1111387345
 20
4539.752049997
 30
0.0
 11
8612.1111387345
 21
4459.752049997
 31
0.0
  0
LINE
  5
41D
330
1F
100
AcDbEntity
  8
0
  6
Continuous
 62
     7
370
    25
100
AcDbLine
 10
8602.1111387345
 20
4519.752049997
 30
0.0
 11
8602.1111387345
 21
4479.752049997
 31
0.0
  0
LINE
  5
41E
330
1F
100
AcDbEntity
  8
0
  6
Continuous
 62
     7
370
    25
100
AcDbLine
 10
8820.6111387345
 20
4461.752049997
 30
0.0
 11
8888.6111387345
 21
4461.752049997
 31
0.0
  0
LWPOLYLINE
  5
41F
330
1F
100
AcDbEntity
  8
0
  6
Continuous
 62
     7
370
    25
100
AcDbPolyline
 90
       20
 70
   128
 43
0.0
 10
8829.3893849541
 20
4519.0996920957
 10
8830.3947829819
 20
4517.4796332986
 10
8831.6691315341
 20
4515.2341198934
 10
8832.9797235814
 20
4512.5502690561
 10
8833.9923753945
 20
4509.9417503195
 10
8834.7765111467
 20
4506.9973903892
 10
8835.1039248714
 20
4504.5885401261
 10
8835.1241675309
 20
4502.0256646709
 10
8834.8158888067
 20
4499.5188230569
 10
8834.1943545773
 20
4497.0004533251
 10
8832.9962299621
 20
4493.797634193
 10
8831.4913505375
 20
4490.7463112222
 10
8829.3757333866
 20
4487.1893599604
 10
8827.2048846149
 20
4483.9809791608
 10
8825.5940266994
 20
4481.770149538
 10
8824.1856626613
 20
4479.9191696805
 10
8823.3189024718
 20
4478.8099894473
 10
8822.7260965197
 20
4478.0626061533
 10
8822.4840876396
 20
4477.7598903618
 10
8822.5060169816
 20
4477.787290074
  0
LINE
  5
420
330
1F
100
AcDbEntity
  8
0
  6
Continuous
 62
     7
370
    25
100
AcDbLine
 10
8806.6111387345
 20
4525.752049997
 30
0.0
 11
8806.6111387345
 21
4473.752049997
 31
0.0
  0
LINE
  5
421
330
1F
100
AcDbEntity
  8
0
  6
Continuous
 62
     7
370
    25
100
AcDbLine
 10
8810.6111387345
 20
4527.252049997
 30
0.0
 11
8810.6111387345
 21
4472.252049997
 31
0.0
  0
ARC
  5
422
330
1F
100
AcDbEntity
  8
0
  6
Continuous
 62
     7
370
    25
100
AcDbCircle
 10
8832.2423936182
 20
4518.8933751538
 30
0.0
 40
2.860458899837557
100
AcDbArc
 50
92.0237024968
 51
175.863823239
  0
LINE
  5
423
330
1F
100
AcDbEntity
  8
0
  6
Continuous
 62
     7
370
    25
100
AcDbLine
 10
8832.1413824381
 20
4521.752049997
 30
0.0
 11
8878.9407910724
 21
4521.752049997
 31
0.0
  0
LINE
  5
424
330
1F
100
AcDbEntity
  8
0
  6
Continuous
 62
     7
370
    25
100
AcDbLine
 10
8830.4893108683
 20
4391.752049997
 30
0.0
 11
8878.7329665864
 21
4391.752049997
 31
0.0
  0
LINE
  5
425
330
1F
100
AcDbEntity
  8
0
  6
Continuous
 62
     7
370
    25
100
AcDbLine
 10
8794.6111387345
 20
4522.752049997
 30
0.0
 11
8794.6111387345
 21
4476.752049997
 31
0.0
  0
LINE
  5
426
330
1F
100
AcDbEntity
  8
0
  6
Continuous
 62
     7
370
    25
100
AcDbLine
 10
8831.6111387345
 20
4528.252049997
 30
0.0
 11
8877.6111387345
 21
4528.252049997
 31
0.0
  0
LINE
  5
427
330
1F
100
AcDbEntity
  8
0
  6
Continuous
 62
     7
370
    25
100
AcDbLine
 10
8829.6111387345
 20
4524.252049997
 30
0.0
 11
8879.6111387345
 21
4524.252049997
 31
0.0
  0
LINE
  5
428
330
1F
100
AcDbEntity
  8
0
  6
Continuous
 62
     7
370
    25
100
AcDbLine
 10
8834.6111387345
 20
4538.252049997
 30
0.0
 11
8874.6111385606
 21
4538.252049997
 31
0.0
  0
ARC
  5
429
330
1F
100
AcDbEntity
  8
0
  6
Continuous
 62
     7
370
    25
100
AcDbCircle
 10
8759.8217887665
 20
4474.3810913954
 30
0.0
 40
82.70068734853176
100
AcDbArc
 50
32.7332300193
 51
34.9457141131
  0
LINE
  5
42A
330
1F
100
AcDbEntity
  8
0
  6
Continuous
 62
     7
370
    25
100
AcDbLine
 10
8827.6111387345
 20
4521.752049997
 30
0.0
 11
8832.1413824381
 21
4521.752049997
 31
0.0
  0
LINE
  5
42B
330
1F
100
AcDbEntity
  8
0
  6
Continuous
 62
     7
370
    25
100
AcDbLine
 10
8671.0569706636
 20
5099.4961597696
 30
0.0
 11
8670.6111387345
 21
5099.4961597696
 31
0.0
  0
LINE
  5
42C
330
1F
100
AcDbEntity
  8
0
  6
Continuous
 62
     7
370
    25
100
AcDbLine
 10
8673.6111387345
 20
5099.4961597696
 30
0.0
 11
8671.0569706636
 21
5099.4961597696
 31
0.0
  0
LINE
  5
42D
330
1F
100
AcDbEntity
  8
0
  6
Continuous
 62
     7
370
    25
100
AcDbLine
 10
8664.6111387345
 20
5083.4961597697
 30
0.0
 11
8664.6111387345
 21
5143.4961597697
 31
0.0
  0
LINE
  5
42E
330
1F
100
AcDbEntity
  8
0
  6
Continuous
 62
     7
370
    25
100
AcDbLine
 10
8665.1111387345
 20
5142.9961597697
 30
0.0
 11
8665.1111387345
 21
5083.9961597697
 31
0.0
  0
LINE
  5
42F
330
1F
100
AcDbEntity
  8
0
  6
Continuous
 62
     7
370
    25
100
AcDbLine
 10
8664.6111387345
 20
5125.0681161264
 30
0.0
 11
8664.6111387345
 21
5143.4961597697
 31
0.0
  0
LINE
  5
430
330
1F
100
AcDbEntity
  8
0
  6
Continuous
 62
     7
370
    25
100
AcDbLine
 10
8664.6111387345
 20
5083.4961597697
 30
0.0
 11
8664.6111387345
 21
5125.0681161264
 31
0.0
  0
LINE
  5
431
330
1F
100
AcDbEntity
  8
0
  6
Continuous
 62
     7
370
    25
100
AcDbLine
 10
8665.1111387345
 20
5124.8752501872
 30
0.0
 11
8665.1111387345
 21
5083.9961597697
 31
0.0
  0
LINE
  5
432
330
1F
100
AcDbEntity
  8
0
  6
Continuous
 62
     7
370
    25
100
AcDbLine
 10
8665.1111387345
 20
5142.9961597697
 30
0.0
 11
8665.1111387345
 21
5124.8752501872
 31
0.0
  0
LINE
  5
433
330
1F
100
AcDbEntity
  8
0
  6
Continuous
 62
     7
370
    25
100
AcDbLine
 10
8830.1111387345
 20
5108.6064323124
 30
0.0
 11
8830.1111387345
 21
5127.4961597697
 31
0.0
  0
LINE
  5
434
330
1F
100
AcDbEntity
  8
0
  6
Continuous
 62
     7
370
    25
100
AcDbLine
 10
8796.1111387345
 20
5099.4961597697
 30
0.0
 11
8830.1111387345
 21
5108.6064323124
 31
0.0
  0
ARC
  5
435
330
1F
100
AcDbEntity
  8
0
  6
Continuous
 62
     7
370
    25
100
AcDbCircle
 10
8672.1112072839
 20
5085.5481985435
 30
0.0
 40
14.04520901087484
100
AcDbArc
 50
83.253721142
 51
96.661860791
  0
LINE
  5
436
330
1F
100
AcDbEntity
  8
0
  6
Continuous
 62
     7
370
    25
100
AcDbLine
 10
8831.1111387345
 20
5126.4961597697
 30
0.0
 11
8831.1111387345
 21
5108.8743815048
 31
0.0
  0
LINE
  5
437
330
1F
100
AcDbEntity
  8
0
  6
Continuous
 62
     7
370
    25
100
AcDbLine
 10
8831.1111387345
 20
5108.8743815048
 30
0.0
 11
8830.1111387345
 21
5108.6064323124
 31
0.0
  0
LINE
  5
438
330
1F
100
AcDbEntity
  8
0
  6
Continuous
 62
     8
370
    25
100
AcDbLine
 10
9052.2111387345
 20
3973.4961597697
 30
0.0
 11
9052.2111387345
 21
4553.4961597697
 31
0.0
  0
LINE
  5
439
330
1F
100
AcDbEntity
  8
0
  6
Continuous
 62
     8
370
    25
100
AcDbLine
 10
9088.2111387345
 20
3973.4961597697
 30
0.0
 11
9088.2111387345
 21
4553.4961597697
 31
0.0
  0
LINE
  5
43A
330
1F
100
AcDbEntity
  8
0
  6
Continuous
 62
     8
370
    25
100
AcDbLine
 10
8620.1190504253
 20
3973.4961597697
 30
0.0
 11
8620.1190504253
 21
4553.4961597697
 31
0.0
  0
LINE
  5
43B
330
1F
100
AcDbEntity
  8
0
  6
Continuous
 62
     8
370
    25
100
AcDbLine
 10
8656.1190504253
 20
3973.4961597697
 30
0.0
 11
8656.1190504253
 21
4553.4961597697
 31
0.0
  0
LINE
  5
43C
330
1F
100
AcDbEntity
  8
0
  6
Continuous
 62
     8
370
    25
100
AcDbLine
 10
8827.5049244543
 20
4394.4463741356
 30
0.0
 11
8881.7173530146
 21
4394.4463741356
 31
0.0
  0
LINE
  5
43D
330
1F
100
AcDbEntity
  8
0
  6
Continuous
 62
     8
370
    25
100
AcDbLine
 10
8881.9205804896
 20
4519.0996920957
 30
0.0
 11
8829.3893849541
 21
4519.0996920957
 31
0.0
  0
LINE
  5
43E
330
1F
100
AcDbEntity
  8
0
  6
Continuous
 62
     8
370
    25
100
AcDbLine
 10
8797.6111387345
 20
4525.752049997
 30
0.0
 11
8797.6111387345
 21
4473.752049997
 31
0.0
  0
LINE
  5
43F
330
1F
100
AcDbEntity
  8
0
  6
Continuous
 62
     8
370
    25
100
AcDbLine
 10
8831.6111387345
 20
4535.252049997
 30
0.0
 11
8877.6111387345
 21
4535.252049997
 31
0.0
  0
LINE
  5
440
330
1F
100
AcDbEntity
  8
0
  6
Continuous
 62
     7
370
    25
100
AcDbLine
 10
5964.5489085942
 20
3689.3919126164
 30
0.0
 11
5964.5489085942
 21
3699.3919126164
 31
0.0
  0
LINE
  5
441
330
1F
100
AcDbEntity
  8
0
  6
Continuous
 62
     7
370
    25
100
AcDbLine
 10
5924.5489085942
 20
3699.3919126164
 30
0.0
 11
5924.5489085942
 21
3689.3919126164
 31
0.0
  0
LINE
  5
442
330
1F
100
AcDbEntity
  8
0
  6
Continuous
 62
     7
370
    25
100
AcDbLine
 10
6848.0489085942
 20
3638.8919126164
 30
0.0
 11
6849.5489085942
 21
3637.3919126164
 31
0.0
  0
LINE
  5
443
330
1F
100
AcDbEntity
  8
0
  6
Continuous
 62
     7
370
    25
100
AcDbLine
 10
6874.5489085942
 20
3637.3919126164
 30
0.0
 11
6876.0489085942
 21
3638.8919126164
 31
0.0
  0
LINE
  5
444
330
1F
100
AcDbEntity
  8
0
  6
Continuous
 62
     7
370
    25
100
AcDbLine
 10
6848.0489085942
 20
3639.3919126164
 30
0.0
 11
6848.0489085942
 21
3638.8919126164
 31
0.0
  0
LINE
  5
445
330
1F
100
AcDbEntity
  8
0
  6
Continuous
 62
     7
370
    25
100
AcDbLine
 10
6876.0489085942
 20
3638.8919126164
 30
0.0
 11
6876.0489085942
 21
3639.3919126164
 31
0.0
  0
LINE
  5
446
330
1F
100
AcDbEntity
  8
0
  6
Continuous
 62
     7
370
    25
100
AcDbLine
 10
6248.0489085942
 20
3639.3919126164
 30
0.0
 11
6248.0489085942
 21
3638.8919126164
 31
0.0
  0
LINE
  5
447
330
1F
100
AcDbEntity
  8
0
  6
Continuous
 62
     7
370
    25
100
AcDbLine
 10
6276.0489085942
 20
3638.8919126164
 30
0.0
 11
6276.0489085942
 21
3639.3919126164
 31
0.0
  0
LINE
  5
448
330
1F
100
AcDbEntity
  8
0
  6
Continuous
 62
     7
370
    25
100
AcDbLine
 10
6248.0489085942
 20
3638.8919126164
 30
0.0
 11
6249.5489085942
 21
3637.3919126164
 31
0.0
  0
LINE
  5
449
330
1F
100
AcDbEntity
  8
0
  6
Continuous
 62
     7
370
    25
100
AcDbLine
 10
6274.5489085942
 20
3637.3919126164
 30
0.0
 11
6276.0489085942
 21
3638.8919126164
 31
0.0
  0
LINE
  5
44A
330
1F
100
AcDbEntity
  8
0
  6
Continuous
 62
     7
370
    25
100
AcDbLine
 10
7448.0489085942
 20
3638.8919126164
 30
0.0
 11
7449.5489085942
 21
3637.3919126164
 31
0.0
  0
LINE
  5
44B
330
1F
100
AcDbEntity
  8
0
  6
Continuous
 62
     7
370
    25
100
AcDbLine
 10
7474.5489085942
 20
3637.3919126164
 30
0.0
 11
7476.0489085942
 21
3638.8919126164
 31
0.0
  0
LINE
  5
44C
330
1F
100
AcDbEntity
  8
0
  6
Continuous
 62
     7
370
    25
100
AcDbLine
 10
7448.0489085942
 20
3639.3919126164
 30
0.0
 11
7448.0489085942
 21
3638.8919126164
 31
0.0
  0
LINE
  5
44D
330
1F
100
AcDbEntity
  8
0
  6
Continuous
 62
     7
370
    25
100
AcDbLine
 10
7476.0489085942
 20
3638.8919126164
 30
0.0
 11
7476.0489085942
 21
3639.3919126164
 31
0.0
  0
LINE
  5
44E
330
1F
100
AcDbEntity
  8
0
  6
Continuous
 62
     7
370
    25
100
AcDbLine
 10
8048.0489085942
 20
3639.3919126164
 30
0.0
 11
8048.0489085942
 21
3638.8919126164
 31
0.0
  0
LINE
  5
44F
330
1F
100
AcDbEntity
  8
0
  6
Continuous
 62
     7
370
    25
100
AcDbLine
 10
8076.0489085942
 20
3638.8919126164
 30
0.0
 11
8076.0489085942
 21
3639.3919126164
 31
0.0
  0
LINE
  5
450
330
1F
100
AcDbEntity
  8
0
  6
Continuous
 62
     7
370
    25
100
AcDbLine
 10
8048.0489085942
 20
3638.8919126164
 30
0.0
 11
8049.5489085942
 21
3637.3919126164
 31
0.0
  0
LINE
  5
451
330
1F
100
AcDbEntity
  8
0
  6
Continuous
 62
     7
370
    25
100
AcDbLine
 10
8074.5489085942
 20
3637.3919126164
 30
0.0
 11
8076.0489085942
 21
3638.8919126164
 31
0.0
  0
LINE
  5
452
330
1F
100
AcDbEntity
  8
0
  6
Continuous
 62
     7
370
    25
100
AcDbLine
 10
6172.0489085942
 20
3636.8919126164
 30
0.0
 11
6172.0489085942
 21
3639.3919126164
 31
0.0
  0
LINE
  5
453
330
1F
100
AcDbEntity
  8
0
  6
Continuous
 62
     7
370
    25
100
AcDbLine
 10
6112.0489085942
 20
3639.3919126164
 30
0.0
 11
6112.0489085942
 21
3636.8919126164
 31
0.0
  0
LINE
  5
454
330
1F
100
AcDbEntity
  8
0
  6
Continuous
 62
     7
370
    25
100
AcDbLine
 10
6112.0489085942
 20
3636.8919126164
 30
0.0
 11
6112.5489085942
 21
3636.3919126164
 31
0.0
  0
LINE
  5
455
330
1F
100
AcDbEntity
  8
0
  6
Continuous
 62
     7
370
    25
100
AcDbLine
 10
6171.5489085942
 20
3636.3919126164
 30
0.0
 11
6172.0489085942
 21
3636.8919126164
 31
0.0
  0
LINE
  5
456
330
1F
100
AcDbEntity
  8
0
  6
Continuous
 62
     7
370
    25
100
AcDbLine
 10
6772.0489085942
 20
3636.8919126164
 30
0.0
 11
6772.0489085942
 21
3639.3919126164
 31
0.0
  0
LINE
  5
457
330
1F
100
AcDbEntity
  8
0
  6
Continuous
 62
     7
370
    25
100
AcDbLine
 10
6712.0489085942
 20
3639.3919126164
 30
0.0
 11
6712.0489085942
 21
3636.8919126164
 31
0.0
  0
LINE
  5
458
330
1F
100
AcDbEntity
  8
0
  6
Continuous
 62
     7
370
    25
100
AcDbLine
 10
6712.0489085942
 20
3636.8919126164
 30
0.0
 11
6712.5489085942
 21
3636.3919126164
 31
0.0
  0
LINE
  5
459
330
1F
100
AcDbEntity
  8
0
  6
Continuous
 62
     7
370
    25
100
AcDbLine
 10
6771.5489085942
 20
3636.3919126164
 30
0.0
 11
6772.0489085942
 21
3636.8919126164
 31
0.0
  0
LINE
  5
45A
330
1F
100
AcDbEntity
  8
0
  6
Continuous
 62
     7
370
    25
100
AcDbLine
 10
7972.0489085942
 20
3636.8919126164
 30
0.0
 11
7972.0489085942
 21
3639.3919126164
 31
0.0
  0
LINE
  5
45B
330
1F
100
AcDbEntity
  8
0
  6
Continuous
 62
     7
370
    25
100
AcDbLine
 10
7912.0489085942
 20
3639.3919126164
 30
0.0
 11
7912.0489085942
 21
3636.8919126164
 31
0.0
  0
LINE
  5
45C
330
1F
100
AcDbEntity
  8
0
  6
Continuous
 62
     7
370
    25
100
AcDbLine
 10
7912.0489085942
 20
3636.8919126164
 30
0.0
 11
7912.5489085942
 21
3636.3919126164
 31
0.0
  0
LINE
  5
45D
330
1F
100
AcDbEntity
  8
0
  6
Continuous
 62
     7
370
    25
100
AcDbLine
 10
7971.5489085942
 20
3636.3919126164
 30
0.0
 11
7972.0489085942
 21
3636.8919126164
 31
0.0
  0
LINE
  5
45E
330
1F
100
AcDbEntity
  8
0
  6
Continuous
 62
     7
370
    25
100
AcDbLine
 10
7372.0489085942
 20
3636.8919126164
 30
0.0
 11
7372.0489085942
 21
3639.3919126164
 31
0.0
  0
LINE
  5
45F
330
1F
100
AcDbEntity
  8
0
  6
Continuous
 62
     7
370
    25
100
AcDbLine
 10
7312.0489085942
 20
3639.3919126164
 30
0.0
 11
7312.0489085942
 21
3636.8919126164
 31
0.0
  0
LINE
  5
460
330
1F
100
AcDbEntity
  8
0
  6
Continuous
 62
     7
370
    25
100
AcDbLine
 10
7312.0489085942
 20
3636.8919126164
 30
0.0
 11
7312.5489085942
 21
3636.3919126164
 31
0.0
  0
LINE
  5
461
330
1F
100
AcDbEntity
  8
0
  6
Continuous
 62
     7
370
    25
100
AcDbLine
 10
7371.5489085942
 20
3636.3919126164
 30
0.0
 11
7372.0489085942
 21
3636.8919126164
 31
0.0
  0
LINE
  5
462
330
1F
100
AcDbEntity
  8
0
  6
Continuous
 62
     7
370
    25
100
AcDbLine
 10
7928.0489085942
 20
3636.3919126164
 30
0.0
 11
7928.0489085942
 21
3471.3919126164
 31
0.0
  0
LINE
  5
463
330
1F
100
AcDbEntity
  8
0
  6
Continuous
 62
     7
370
    25
100
AcDbLine
 10
7956.0489085942
 20
3471.3919126164
 30
0.0
 11
7956.0489085942
 21
3636.3919126164
 31
0.0
  0
LINE
  5
464
330
1F
100
AcDbEntity
  8
0
  6
Continuous
 62
     7
370
    25
100
AcDbLine
 10
7928.0489085942
 20
3471.3919126164
 30
0.0
 11
7929.0489085942
 21
3470.3919126164
 31
0.0
  0
LINE
  5
465
330
1F
100
AcDbEntity
  8
0
  6
Continuous
 62
     7
370
    25
100
AcDbLine
 10
7955.0489085942
 20
3470.3919126164
 30
0.0
 11
7956.0489085942
 21
3471.3919126164
 31
0.0
  0
LINE
  5
466
330
1F
100
AcDbEntity
  8
0
  6
Continuous
 62
     7
370
    25
100
AcDbLine
 10
7328.0489085942
 20
3636.3919126164
 30
0.0
 11
7328.0489085942
 21
3471.3919126164
 31
0.0
  0
LINE
  5
467
330
1F
100
AcDbEntity
  8
0
  6
Continuous
 62
     7
370
    25
100
AcDbLine
 10
7356.0489085942
 20
3471.3919126164
 30
0.0
 11
7356.0489085942
 21
3636.3919126164
 31
0.0
  0
LINE
  5
468
330
1F
100
AcDbEntity
  8
0
  6
Continuous
 62
     7
370
    25
100
AcDbLine
 10
7328.0489085942
 20
3471.3919126164
 30
0.0
 11
7329.0489085942
 21
3470.3919126164
 31
0.0
  0
LINE
  5
469
330
1F
100
AcDbEntity
  8
0
  6
Continuous
 62
     7
370
    25
100
AcDbLine
 10
7355.0489085942
 20
3470.3919126164
 30
0.0
 11
7356.0489085942
 21
3471.3919126164
 31
0.0
  0
LINE
  5
46A
330
1F
100
AcDbEntity
  8
0
  6
Continuous
 62
     7
370
    25
100
AcDbLine
 10
6728.0489085942
 20
3636.3919126164
 30
0.0
 11
6728.0489085942
 21
3471.3919126164
 31
0.0
  0
LINE
  5
46B
330
1F
100
AcDbEntity
  8
0
  6
Continuous
 62
     7
370
    25
100
AcDbLine
 10
6756.0489085942
 20
3471.3919126164
 30
0.0
 11
6756.0489085942
 21
3636.3919126164
 31
0.0
  0
LINE
  5
46C
330
1F
100
AcDbEntity
  8
0
  6
Continuous
 62
     7
370
    25
100
AcDbLine
 10
6728.0489085942
 20
3471.3919126164
 30
0.0
 11
6729.0489085942
 21
3470.3919126164
 31
0.0
  0
LINE
  5
46D
330
1F
100
AcDbEntity
  8
0
  6
Continuous
 62
     7
370
    25
100
AcDbLine
 10
6755.0489085942
 20
3470.3919126164
 30
0.0
 11
6756.0489085942
 21
3471.3919126164
 31
0.0
  0
LINE
  5
46E
330
1F
100
AcDbEntity
  8
0
  6
Continuous
 62
     7
370
    25
100
AcDbLine
 10
6128.0489085942
 20
3636.3919126164
 30
0.0
 11
6128.0489085942
 21
3471.3919126164
 31
0.0
  0
LINE
  5
46F
330
1F
100
AcDbEntity
  8
0
  6
Continuous
 62
     7
370
    25
100
AcDbLine
 10
6156.0489085942
 20
3471.3919126164
 30
0.0
 11
6156.0489085942
 21
3636.3919126164
 31
0.0
  0
LINE
  5
470
330
1F
100
AcDbEntity
  8
0
  6
Continuous
 62
     7
370
    25
100
AcDbLine
 10
6128.0489085942
 20
3471.3919126164
 30
0.0
 11
6129.0489085942
 21
3470.3919126164
 31
0.0
  0
LINE
  5
471
330
1F
100
AcDbEntity
  8
0
  6
Continuous
 62
     7
370
    25
100
AcDbLine
 10
6155.0489085942
 20
3470.3919126164
 30
0.0
 11
6156.0489085942
 21
3471.3919126164
 31
0.0
  0
LINE
  5
472
330
1F
100
AcDbEntity
  8
0
  6
Continuous
 62
     7
370
    25
100
AcDbLine
 10
5849.2270825799
 20
3254.3919126164
 30
0.0
 11
5849.2270825799
 21
3639.3919126164
 31
0.0
  0
LINE
  5
473
330
1F
100
AcDbEntity
  8
0
  6
Continuous
 62
     7
370
    25
100
AcDbLine
 10
5849.2270825799
 20
3254.3919126164
 30
0.0
 11
5847.0270825799
 21
3254.3919126164
 31
0.0
  0
LINE
  5
474
330
1F
100
AcDbEntity
  8
0
  6
Continuous
 62
     7
370
    25
100
AcDbLine
 10
5847.0270825799
 20
3254.3919126164
 30
0.0
 11
5847.0270825799
 21
3639.3919126164
 31
0.0
  0
LINE
  5
475
330
1F
100
AcDbEntity
  8
0
  6
Continuous
 62
     7
370
    25
100
AcDbLine
 10
5796.2489085942
 20
3254.3919126164
 30
0.0
 11
5796.2489085942
 21
3639.3919126164
 31
0.0
  0
LINE
  5
476
330
1F
100
AcDbEntity
  8
0
  6
Continuous
 62
     7
370
    25
100
AcDbLine
 10
5796.2489085942
 20
3254.3919126164
 30
0.0
 11
5794.0489085942
 21
3254.3919126164
 31
0.0
  0
LINE
  5
477
330
1F
100
AcDbEntity
  8
0
  6
Continuous
 62
     7
370
    25
100
AcDbLine
 10
5796.2489085942
 20
3254.3919126164
 30
0.0
 11
5847.0270825799
 21
3254.3919126164
 31
0.0
  0
LINE
  5
478
330
1F
100
AcDbEntity
  8
0
  6
Continuous
 62
     7
370
    25
100
AcDbLine
 10
8245.3989085942
 20
3209.2919126164
 30
0.0
 11
5838.6989085942
 21
3209.2919126164
 31
0.0
  0
LINE
  5
479
330
1F
100
AcDbEntity
  8
0
  6
Continuous
 62
     7
370
    25
100
AcDbLine
 10
5838.6989085942
 20
3209.2919126164
 30
0.0
 11
5838.6989085942
 21
3209.3919126164
 31
0.0
  0
LINE
  5
47A
330
1F
100
AcDbEntity
  8
0
  6
Continuous
 62
     7
370
    25
100
AcDbLine
 10
8245.3989085942
 20
3209.2919126164
 30
0.0
 11
8245.3989085942
 21
3209.3919126164
 31
0.0
  0
LWPOLYLINE
  5
47B
330
1F
100
AcDbEntity
  8
0
  6
Continuous
 62
     7
370
    25
100
AcDbPolyline
 90
        3
 70
   128
 43
0.0
 10
8245.3989085942
 20
3209.2919126164
 10
8245.7208076255
 20
3209.3236169037
 10
8245.9645940191
 20
3209.3919126164
  0
LWPOLYLINE
  5
47C
330
1F
100
AcDbEntity
  8
0
  6
Continuous
 62
     7
370
    25
100
AcDbPolyline
 90
        3
 70
   128
 43
0.0
 10
5838.1332231693
 20
3209.3919126164
 10
5838.3770095628
 20
3209.3236169037
 10
5838.6989085942
 20
3209.2919126164
  0
LINE
  5
47D
330
1F
100
AcDbEntity
  8
0
  6
Continuous
 62
     7
370
    25
100
AcDbLine
 10
8292.0489085942
 20
3689.3919126164
 30
0.0
 11
8290.0489085942
 21
3689.3919126164
 31
0.0
  0
LINE
  5
47E
330
1F
100
AcDbEntity
  8
0
  6
Continuous
 62
     7
370
    25
100
AcDbLine
 10
8292.0489085942
 20
3686.7345068966
 30
0.0
 11
8290.0489085942
 21
3686.7345068966
 31
0.0
  0
LINE
  5
47F
330
1F
100
AcDbEntity
  8
0
  6
Continuous
 62
     7
370
    25
100
AcDbLine
 10
8290.0489085942
 20
3689.3919126164
 30
0.0
 11
8290.0489085942
 21
3686.7345068966
 31
0.0
  0
LINE
  5
480
330
1F
100
AcDbEntity
  8
0
  6
Continuous
 62
     7
370
    25
100
AcDbLine
 10
8292.0489085942
 20
3689.3919126164
 30
0.0
 11
8292.0489085942
 21
3686.7345068966
 31
0.0
  0
LINE
  5
481
330
1F
100
AcDbEntity
  8
0
  6
Continuous
 62
     7
370
    25
100
AcDbLine
 10
8292.0489085942
 20
3641.1345068966
 30
0.0
 11
8290.0489085942
 21
3641.1345068966
 31
0.0
  0
LINE
  5
482
330
1F
100
AcDbEntity
  8
0
  6
Continuous
 62
     7
370
    25
100
AcDbLine
 10
8290.0489085942
 20
3686.7345068966
 30
0.0
 11
8290.0489085942
 21
3641.1345068966
 31
0.0
  0
LINE
  5
483
330
1F
100
AcDbEntity
  8
0
  6
Continuous
 62
     7
370
    25
100
AcDbLine
 10
8292.0489085942
 20
3686.7345068966
 30
0.0
 11
8292.0489085942
 21
3641.1345068966
 31
0.0
  0
LINE
  5
484
330
1F
100
AcDbEntity
  8
0
  6
Continuous
 62
     7
370
    25
100
AcDbLine
 10
8292.0489085942
 20
3639.3919126164
 30
0.0
 11
8290.0489085942
 21
3639.3919126164
 31
0.0
  0
LINE
  5
485
330
1F
100
AcDbEntity
  8
0
  6
Continuous
 62
     7
370
    25
100
AcDbLine
 10
8290.0489085942
 20
3641.1345068966
 30
0.0
 11
8290.0489085942
 21
3639.3919126164
 31
0.0
  0
LINE
  5
486
330
1F
100
AcDbEntity
  8
0
  6
Continuous
 62
     7
370
    25
100
AcDbLine
 10
8292.0489085942
 20
3641.1345068966
 30
0.0
 11
8292.0489085942
 21
3639.3919126164
 31
0.0
  0
LINE
  5
487
330
1F
100
AcDbEntity
  8
0
  6
Continuous
 62
     7
370
    25
100
AcDbLine
 10
8292.0489085942
 20
3211.5919126164
 30
0.0
 11
8290.0489085942
 21
3211.5919126164
 31
0.0
  0
LINE
  5
488
330
1F
100
AcDbEntity
  8
0
  6
Continuous
 62
     7
370
    25
100
AcDbLine
 10
8290.0489085942
 20
3639.3919126164
 30
0.0
 11
8290.0489085942
 21
3211.5919126164
 31
0.0
  0
LINE
  5
489
330
1F
100
AcDbEntity
  8
0
  6
Continuous
 62
     7
370
    25
100
AcDbLine
 10
8292.0489085942
 20
3639.3919126164
 30
0.0
 11
8292.0489085942
 21
3211.5919126164
 31
0.0
  0
LINE
  5
48A
330
1F
100
AcDbEntity
  8
0
  6
Continuous
 62
     7
370
    25
100
AcDbLine
 10
8292.0489085942
 20
3209.3919126164
 30
0.0
 11
8290.0489085942
 21
3209.3919126164
 31
0.0
  0
LINE
  5
48B
330
1F
100
AcDbEntity
  8
0
  6
Continuous
 62
     7
370
    25
100
AcDbLine
 10
8290.0489085942
 20
3211.5919126164
 30
0.0
 11
8290.0489085942
 21
3209.3919126164
 31
0.0
  0
LINE
  5
48C
330
1F
100
AcDbEntity
  8
0
  6
Continuous
 62
     7
370
    25
100
AcDbLine
 10
8292.0489085942
 20
3211.5919126164
 30
0.0
 11
8292.0489085942
 21
3209.3919126164
 31
0.0
  0
LWPOLYLINE
  5
48D
330
1F
100
AcDbEntity
  8
0
  6
Continuous
 62
     7
370
    25
100
AcDbPolyline
 90
        3
 70
   128
 43
0.0
 10
8289.7299335618
 20
3209.3919126164
 10
8289.5536885924
 20
3209.3514782471
 10
8288.9489085942
 20
3209.2919126164
  0
LINE
  5
48E
330
1F
100
AcDbEntity
  8
0
  6
Continuous
 62
     7
370
    25
100
AcDbLine
 10
8288.9489085942
 20
3209.2919126164
 30
0.0
 11
8250.1489085942
 21
3209.2919126164
 31
0.0
  0
LWPOLYLINE
  5
48F
330
1F
100
AcDbEntity
  8
0
  6
Continuous
 62
     7
370
    25
100
AcDbPolyline
 90
        3
 70
   128
 43
0.0
 10
8249.3678836266
 20
3209.3919126164
 10
8249.5441285959
 20
3209.3514782472
 10
8250.1489085942
 20
3209.2919126164
  0
LINE
  5
490
330
1F
100
AcDbEntity
  8
0
  6
Continuous
 62
     7
370
    25
100
AcDbLine
 10
5792.0489085942
 20
3686.7345068966
 30
0.0
 11
5794.0489085942
 21
3686.7345068966
 31
0.0
  0
LINE
  5
491
330
1F
100
AcDbEntity
  8
0
  6
Continuous
 62
     7
370
    25
100
AcDbLine
 10
5792.0489085942
 20
3689.3919126164
 30
0.0
 11
5792.0489085942
 21
3686.7345068966
 31
0.0
  0
LINE
  5
492
330
1F
100
AcDbEntity
  8
0
  6
Continuous
 62
     7
370
    25
100
AcDbLine
 10
5792.0489085942
 20
3689.3919126164
 30
0.0
 11
5794.0489085942
 21
3689.3919126164
 31
0.0
  0
LINE
  5
493
330
1F
100
AcDbEntity
  8
0
  6
Continuous
 62
     7
370
    25
100
AcDbLine
 10
5794.0489085942
 20
3689.3919126164
 30
0.0
 11
5794.0489085942
 21
3686.7345068966
 31
0.0
  0
LINE
  5
494
330
1F
100
AcDbEntity
  8
0
  6
Continuous
 62
     7
370
    25
100
AcDbLine
 10
5792.0489085942
 20
3641.1345068966
 30
0.0
 11
5794.0489085942
 21
3641.1345068966
 31
0.0
  0
LINE
  5
495
330
1F
100
AcDbEntity
  8
0
  6
Continuous
 62
     7
370
    25
100
AcDbLine
 10
5794.0489085942
 20
3686.7345068966
 30
0.0
 11
5794.0489085942
 21
3641.1345068966
 31
0.0
  0
LINE
  5
496
330
1F
100
AcDbEntity
  8
0
  6
Continuous
 62
     7
370
    25
100
AcDbLine
 10
5792.0489085942
 20
3686.7345068966
 30
0.0
 11
5792.0489085942
 21
3641.1345068966
 31
0.0
  0
LINE
  5
497
330
1F
100
AcDbEntity
  8
0
  6
Continuous
 62
     7
370
    25
100
AcDbLine
 10
5792.0489085942
 20
3639.3919126164
 30
0.0
 11
5794.0489085942
 21
3639.3919126164
 31
0.0
  0
LINE
  5
498
330
1F
100
AcDbEntity
  8
0
  6
Continuous
 62
     7
370
    25
100
AcDbLine
 10
5794.0489085942
 20
3641.1345068966
 30
0.0
 11
5794.0489085942
 21
3639.3919126164
 31
0.0
  0
LINE
  5
499
330
1F
100
AcDbEntity
  8
0
  6
Continuous
 62
     7
370
    25
100
AcDbLine
 10
5792.0489085942
 20
3641.1345068966
 30
0.0
 11
5792.0489085942
 21
3639.3919126164
 31
0.0
  0
LINE
  5
49A
330
1F
100
AcDbEntity
  8
0
  6
Continuous
 62
     7
370
    25
100
AcDbLine
 10
5792.0489085942
 20
3211.5919126164
 30
0.0
 11
5794.0489085942
 21
3211.5919126164
 31
0.0
  0
LINE
  5
49B
330
1F
100
AcDbEntity
  8
0
  6
Continuous
 62
     7
370
    25
100
AcDbLine
 10
5794.0489085942
 20
3639.3919126164
 30
0.0
 11
5794.0489085942
 21
3211.5919126164
 31
0.0
  0
LINE
  5
49C
330
1F
100
AcDbEntity
  8
0
  6
Continuous
 62
     7
370
    25
100
AcDbLine
 10
5792.0489085942
 20
3639.3919126164
 30
0.0
 11
5792.0489085942
 21
3211.5919126164
 31
0.0
  0
LINE
  5
49D
330
1F
100
AcDbEntity
  8
0
  6
Continuous
 62
     7
370
    25
100
AcDbLine
 10
5792.0489085942
 20
3209.3919126164
 30
0.0
 11
5794.0489085942
 21
3209.3919126164
 31
0.0
  0
LINE
  5
49E
330
1F
100
AcDbEntity
  8
0
  6
Continuous
 62
     7
370
    25
100
AcDbLine
 10
5794.0489085942
 20
3211.5919126164
 30
0.0
 11
5794.0489085942
 21
3209.3919126164
 31
0.0
  0
LINE
  5
49F
330
1F
100
AcDbEntity
  8
0
  6
Continuous
 62
     7
370
    25
100
AcDbLine
 10
5792.0489085942
 20
3211.5919126164
 30
0.0
 11
5792.0489085942
 21
3209.3919126164
 31
0.0
  0
LWPOLYLINE
  5
4A0
330
1F
100
AcDbEntity
  8
0
  6
Continuous
 62
     7
370
    25
100
AcDbPolyline
 90
        3
 70
   128
 43
0.0
 10
5794.3678836266
 20
3209.3919126164
 10
5794.5441285959
 20
3209.3514782471
 10
5795.1489085942
 20
3209.2919126164
  0
LINE
  5
4A1
330
1F
100
AcDbEntity
  8
0
  6
Continuous
 62
     7
370
    25
100
AcDbLine
 10
5795.1489085942
 20
3209.2919126164
 30
0.0
 11
5833.9489085942
 21
3209.2919126164
 31
0.0
  0
LWPOLYLINE
  5
4A2
330
1F
100
AcDbEntity
  8
0
  6
Continuous
 62
     7
370
    25
100
AcDbPolyline
 90
        3
 70
   128
 43
0.0
 10
5834.7299335617
 20
3209.3919126164
 10
5834.5536885924
 20
3209.3514782472
 10
5833.9489085942
 20
3209.2919126164
  0
LINE
  5
4A3
330
1F
100
AcDbEntity
  8
0
  6
Continuous
 62
     7
370
    25
100
AcDbLine
 10
8290.0489085942
 20
3689.3919126164
 30
0.0
 11
5794.0489085942
 21
3689.3919126164
 31
0.0
  0
LINE
  5
4A4
330
1F
100
AcDbEntity
  8
0
  6
Continuous
 62
     7
370
    25
100
AcDbLine
 10
5794.0489085942
 20
3686.7345068966
 30
0.0
 11
8290.0489085942
 21
3686.7345068966
 31
0.0
  0
LINE
  5
4A5
330
1F
100
AcDbEntity
  8
0
  6
Continuous
 62
     7
370
    25
100
AcDbLine
 10
8290.0489085942
 20
3641.1345068966
 30
0.0
 11
5794.0489085942
 21
3641.1345068966
 31
0.0
  0
LINE
  5
4A6
330
1F
100
AcDbEntity
  8
0
  6
Continuous
 62
     7
370
    25
100
AcDbLine
 10
5794.0489085942
 20
3639.3919126164
 30
0.0
 11
8290.0489085942
 21
3639.3919126164
 31
0.0
  0
LINE
  5
4A7
330
1F
100
AcDbEntity
  8
0
  6
Continuous
 62
     7
370
    25
100
AcDbLine
 10
8290.0489085942
 20
3254.3919126164
 30
0.0
 11
5849.2270825799
 21
3254.3919126164
 31
0.0
  0
LINE
  5
4A8
330
1F
100
AcDbEntity
  8
0
  6
Continuous
 62
     7
370
    25
100
AcDbLine
 10
5794.0489085942
 20
3252.1919126164
 30
0.0
 11
8290.0489085942
 21
3252.1919126164
 31
0.0
  0
LINE
  5
4A9
330
1F
100
AcDbEntity
  8
0
  6
Continuous
 62
     7
370
    25
100
AcDbLine
 10
8290.0489085942
 20
3211.5919126164
 30
0.0
 11
5794.0489085942
 21
3211.5919126164
 31
0.0
  0
LINE
  5
4AA
330
1F
100
AcDbEntity
  8
0
  6
Continuous
 62
     7
370
    25
100
AcDbLine
 10
5794.0489085942
 20
3211.5919126164
 30
0.0
 11
5794.0489085942
 21
3252.1919126164
 31
0.0
  0
LINE
  5
4AB
330
1F
100
AcDbEntity
  8
0
  6
Continuous
 62
     7
370
    25
100
AcDbLine
 10
8290.0489085942
 20
3211.5919126164
 30
0.0
 11
8290.0489085942
 21
3252.1919126164
 31
0.0
  0
LINE
  5
4AC
330
1F
100
AcDbEntity
  8
0
  6
Continuous
 62
     7
370
    25
100
AcDbLine
 10
5794.0489085942
 20
3209.3919126164
 30
0.0
 11
8290.0489085942
 21
3209.3919126164
 31
0.0
  0
ARC
  5
4AD
330
1F
100
AcDbEntity
  8
0
  6
Continuous
 62
     7
370
    25
100
AcDbCircle
 10
5944.5489085942
 20
3446.8919126164
 30
0.0
 40
5.250000000000189
100
AcDbArc
 50
347.0441398029
 51
150.6177183995
  0
LINE
  5
4AE
330
1F
100
AcDbEntity
  8
0
  6
Continuous
 62
     7
370
    25
100
AcDbLine
 10
5949.6652597354
 20
3445.714860791
 30
0.0
 11
5939.974239306
 21
3449.4677427552
 31
0.0
  0
ARC
  5
4AF
330
1F
100
AcDbEntity
  8
0
  6
Continuous
 62
     7
370
    25
100
AcDbCircle
 10
5944.5489085942
 20
3446.8919126164
 30
0.0
 40
5.250000000000007
100
AcDbArc
 50
167.044139803
 51
330.6177183995
  0
LINE
  5
4B0
330
1F
100
AcDbEntity
  8
0
  6
Continuous
 62
     7
370
    25
100
AcDbLine
 10
5939.4325574529
 20
3448.0689644417
 30
0.0
 11
5949.1235778823
 21
3444.3160824776
 31
0.0
  0
ARC
  5
4B1
330
1F
100
AcDbEntity
  8
0
  6
Continuous
 62
     7
370
    25
100
AcDbCircle
 10
5944.5489085942
 20
3446.8919126164
 30
0.0
 40
5.250000000000189
100
AcDbArc
 50
150.6177183995
 51
167.044139803
  0
ARC
  5
4B2
330
1F
100
AcDbEntity
  8
0
  6
Continuous
 62
     7
370
    25
100
AcDbCircle
 10
5944.5489085942
 20
3446.8919126164
 30
0.0
 40
5.249999999999619
100
AcDbArc
 50
330.6177183995
 51
347.0441398029
  0
CIRCLE
  5
4B3
330
1F
100
AcDbEntity
  8
0
  6
Continuous
 62
     7
370
    25
100
AcDbCircle
 10
5944.5489085942
 20
3446.8919126164
 30
0.0
 40
24.4999999999998
  0
CIRCLE
  5
4B4
330
1F
100
AcDbEntity
  8
0
  6
Continuous
 62
     7
370
    25
100
AcDbCircle
 10
5944.5489085942
 20
3446.8919126164
 30
0.0
 40
34.99999999999991
  0
CIRCLE
  5
4B5
330
1F
100
AcDbEntity
  8
0
  6
Continuous
 62
     7
370
    25
100
AcDbCircle
 10
5944.5489085942
 20
3446.8919126164
 30
0.0
 40
22.4999999999997
  0
CIRCLE
  5
4B6
330
1F
100
AcDbEntity
  8
0
  6
Continuous
 62
     7
370
    25
100
AcDbCircle
 10
5944.5489085942
 20
3446.8919126164
 30
0.0
 40
21.50000000000009
  0
CIRCLE
  5
4B7
330
1F
100
AcDbEntity
  8
0
  6
Continuous
 62
     7
370
    25
100
AcDbCircle
 10
5944.5489085942
 20
3446.8919126164
 30
0.0
 40
19.55298992456289
  0
CIRCLE
  5
4B8
330
1F
100
AcDbEntity
  8
0
  6
Continuous
 62
     7
370
    25
100
AcDbCircle
 10
5944.5489085942
 20
3446.8919126164
 30
0.0
 40
6.182050807568241
  0
ARC
  5
4B9
330
1F
100
AcDbEntity
  8
0
  6
Continuous
 62
     7
370
    25
100
AcDbCircle
 10
5944.5489085942
 20
3446.8919126164
 30
0.0
 40
19.50000000000029
100
AcDbArc
 50
110.4734666804
 51
136.5740765598
  0
ARC
  5
4BA
330
1F
100
AcDbEntity
  8
0
  6
Continuous
 62
     7
370
    25
100
AcDbCircle
 10
5933.2918208677
 20
3457.5468633867
 30
0.0
 40
4.000000000000093
100
AcDbArc
 50
136.5740765598
 51
316.5740765598
  0
ARC
  5
4BB
330
1F
100
AcDbEntity
  8
0
  6
Continuous
 62
     7
370
    25
100
AcDbCircle
 10
5944.5489085942
 20
3446.8919126164
 30
0.0
 40
11.50000000000041
100
AcDbArc
 50
110.4734666804
 51
136.5740765598
  0
ARC
  5
4BC
330
1F
100
AcDbEntity
  8
0
  6
Continuous
 62
     7
370
    25
100
AcDbCircle
 10
5939.1274181561
 20
3461.4128437652
 30
0.0
 40
4.000000000000198
100
AcDbArc
 50
290.4734666804
 51
110.4734666804
  0
ARC
  5
4BD
330
1F
100
AcDbEntity
  8
0
  6
Continuous
 62
     7
370
    25
100
AcDbCircle
 10
5944.5489085942
 20
3446.8919126164
 30
0.0
 40
19.50000000000093
100
AcDbArc
 50
200.4734666804
 51
226.5740765598
  0
ARC
  5
4BE
330
1F
100
AcDbEntity
  8
0
  6
Continuous
 62
     7
370
    25
100
AcDbCircle
 10
5933.8939578239
 20
3435.6348248899
 30
0.0
 40
4.000000000000424
100
AcDbArc
 50
226.5740765598
 51
46.5740765598
  0
ARC
  5
4BF
330
1F
100
AcDbEntity
  8
0
  6
Continuous
 62
     7
370
    25
100
AcDbCircle
 10
5944.5489085942
 20
3446.8919126164
 30
0.0
 40
11.50000000000104
100
AcDbArc
 50
200.4734666804
 51
226.5740765598
  0
ARC
  5
4C0
330
1F
100
AcDbEntity
  8
0
  6
Continuous
 62
     7
370
    25
100
AcDbCircle
 10
5930.0279774453
 20
3441.4704221783
 30
0.0
 40
4.000000000000891
100
AcDbArc
 50
20.4734666804
 51
200.4734666804
  0
ARC
  5
4C1
330
1F
100
AcDbEntity
  8
0
  6
Continuous
 62
     7
370
    25
100
AcDbCircle
 10
5944.5489085942
 20
3446.8919126164
 30
0.0
 40
19.50000000000005
100
AcDbArc
 50
290.4734666804
 51
316.5740765598
  0
ARC
  5
4C2
330
1F
100
AcDbEntity
  8
0
  6
Continuous
 62
     7
370
    25
100
AcDbCircle
 10
5955.8059963207
 20
3436.2369618461
 30
0.0
 40
3.999999999999781
100
AcDbArc
 50
316.5740765598
 51
136.5740765598
  0
ARC
  5
4C3
330
1F
100
AcDbEntity
  8
0
  6
Continuous
 62
     7
370
    25
100
AcDbCircle
 10
5944.5489085942
 20
3446.8919126164
 30
0.0
 40
11.50000000000006
100
AcDbArc
 50
290.4734666804
 51
316.5740765598
  0
ARC
  5
4C4
330
1F
100
AcDbEntity
  8
0
  6
Continuous
 62
     7
370
    25
100
AcDbCircle
 10
5949.9703990323
 20
3432.3709814675
 30
0.0
 40
4.000000000000198
100
AcDbArc
 50
110.4734666804
 51
290.4734666804
  0
ARC
  5
4C5
330
1F
100
AcDbEntity
  8
0
  6
Continuous
 62
     7
370
    25
100
AcDbCircle
 10
5944.5489085942
 20
3446.8919126164
 30
0.0
 40
19.49999999999936
100
AcDbArc
 50
20.4734666804
 51
46.5740765598
  0
ARC
  5
4C6
330
1F
100
AcDbEntity
  8
0
  6
Continuous
 62
     7
370
    25
100
AcDbCircle
 10
5955.2038593645
 20
3458.1490003429
 30
0.0
 40
3.999999999999798
100
AcDbArc
 50
46.5740765598
 51
226.5740765598
  0
ARC
  5
4C7
330
1F
100
AcDbEntity
  8
0
  6
Continuous
 62
     7
370
    25
100
AcDbCircle
 10
5944.5489085942
 20
3446.8919126164
 30
0.0
 40
11.49999999999975
100
AcDbArc
 50
20.4734666804
 51
46.5740765598
  0
ARC
  5
4C8
330
1F
100
AcDbEntity
  8
0
  6
Continuous
 62
     7
370
    25
100
AcDbCircle
 10
5959.069839743
 20
3452.3134030545
 30
0.0
 40
4.000000000000198
100
AcDbArc
 50
200.4734666804
 51
20.4734666804
  0
CIRCLE
  5
4C9
330
1F
100
AcDbEntity
  8
0
  6
Continuous
 62
     7
370
    25
100
AcDbCircle
 10
5944.5489085942
 20
3446.8919126164
 30
0.0
 40
5.682050807568877
  0
LINE
  5
4CA
330
1F
100
AcDbEntity
  8
0
  6
Continuous
 62
     7
370
    25
100
AcDbLine
 10
5954.3037171378
 20
3699.3919126164
 30
0.0
 11
5924.5489085942
 21
3699.3919126164
 31
0.0
  0
LINE
  5
4CB
330
1F
100
AcDbEntity
  8
0
  6
Continuous
 62
     7
370
    25
100
AcDbLine
 10
5964.5489085942
 20
3699.3919126164
 30
0.0
 11
5954.3037171378
 21
3699.3919126164
 31
0.0
  0
LINE
  5
4CC
330
1F
100
AcDbEntity
  8
0
  6
Continuous
 62
     7
370
    25
100
AcDbLine
 10
5958.7309595309
 20
3437.5896156709
 30
0.0
 11
5959.1854722937
 21
3438.3768548687
 31
0.0
  0
LINE
  5
4CD
330
1F
100
AcDbEntity
  8
0
  6
Continuous
 62
     7
370
    25
100
AcDbLine
 10
5954.5158722708
 20
3440.0231974352
 30
0.0
 11
5958.7309595309
 21
3437.5896156709
 31
0.0
  0
LINE
  5
4CE
330
1F
100
AcDbEntity
  8
0
  6
Continuous
 62
     7
370
    25
100
AcDbLine
 10
5930.3668576574
 20
3437.5896156709
 30
0.0
 11
5935.1072420674
 21
3440.3264778861
 31
0.0
  0
LINE
  5
4CF
330
1F
100
AcDbEntity
  8
0
  6
Continuous
 62
     7
370
    25
100
AcDbLine
 10
5929.4018576574
 20
3439.2610447002
 30
0.0
 11
5930.3668576574
 21
3437.5896156709
 31
0.0
  0
LINE
  5
4D0
330
1F
100
AcDbEntity
  8
0
  6
Continuous
 62
     7
370
    25
100
AcDbLine
 10
5934.1422420674
 20
3441.9979069154
 30
0.0
 11
5929.4018576574
 21
3439.2610447002
 31
0.0
  0
ARC
  5
4D1
330
1F
100
AcDbEntity
  8
0
  6
Continuous
 62
     7
370
    25
100
AcDbCircle
 10
5944.5489085942
 20
3446.8919126164
 30
0.0
 40
14.50000000000077
100
AcDbArc
 50
213.815953349
 51
241.417483189
  0
ARC
  5
4D2
330
1F
100
AcDbEntity
  8
0
  6
Continuous
 62
     7
370
    25
100
AcDbCircle
 10
5944.5489085942
 20
3446.8919126164
 30
0.0
 40
14.50000000000037
100
AcDbArc
 50
275.6300600809
 51
326.184046651
  0
ARC
  5
4D3
330
1F
100
AcDbEntity
  8
0
  6
Continuous
 62
     7
370
    25
100
AcDbCircle
 10
5944.5489085942
 20
3446.8919126164
 30
0.0
 40
14.50000000000098
100
AcDbArc
 50
95.6300600677
 51
151.4174831748
  0
ARC
  5
4D4
330
1F
100
AcDbEntity
  8
0
  6
Continuous
 62
     7
370
    25
100
AcDbCircle
 10
5944.5489085942
 20
3446.8919126164
 30
0.0
 40
14.50000000000036
100
AcDbArc
 50
185.6300600625
 51
206.184046651
  0
ARC
  5
4D5
330
1F
100
AcDbEntity
  8
0
  6
Continuous
 62
     7
370
    25
100
AcDbCircle
 10
5944.5489085942
 20
3446.8919126164
 30
0.0
 40
14.4999999999999
100
AcDbArc
 50
5.6300600633
 51
61.4174831502
  0
LWPOLYLINE
  5
4D6
330
1F
100
AcDbEntity
  8
0
  6
Continuous
 62
     7
370
    25
100
AcDbPolyline
 90
       37
 70
   128
 43
0.0
 10
5914.0489085942
 20
3652.7236733035
 10
5916.1326867262
 20
3652.9019964228
 10
5918.1531503141
 20
3653.4315475229
 10
5920.0489085942
 20
3654.2962364616
 10
5921.7623599104
 20
3655.4697901032
 10
5923.2414419116
 20
3656.9165506139
 10
5924.4412134396
 20
3658.5925589079
 10
5925.3252200436
 20
3660.4468903211
 10
5925.8666016303
 20
3662.423201932
 10
5926.0489085942
 20
3664.4614445123
 10
5925.8666016303
 20
3666.4996870925
 10
5925.3252200436
 20
3668.4759987034
 10
5924.4412134396
 20
3670.3303301167
 10
5923.2414419116
 20
3672.0063384106
 10
5921.7623599104
 20
3673.4530989214
 10
5920.0489085942
 20
3674.6266525629
 10
5918.1531503141
 20
3675.4913415017
 10
5916.1326867262
 20
3676.0208926018
 10
5914.0489085942
 20
3676.1992157211
 10
5911.9651304622
 20
3676.0208926018
 10
5909.9446668743
 20
3675.4913415017
 10
5908.0489085942
 20
3674.6266525629
 10
5906.3354572779
 20
3673.4530989214
 10
5904.8563752767
 20
3672.0063384106
 10
5903.6566037488
 20
3670.3303301167
 10
5902.7725971447
 20
3668.4759987034
 10
5902.231215558
 20
3666.4996870925
 10
5902.0489085942
 20
3664.4614445123
 10
5902.231215558
 20
3662.423201932
 10
5902.7725971447
 20
3660.4468903211
 10
5903.6566037488
 20
3658.5925589079
 10
5904.8563752767
 20
3656.9165506139
 10
5906.3354572779
 20
3655.4697901032
 10
5908.0489085942
 20
3654.2962364616
 10
5909.9446668743
 20
3653.4315475229
 10
5911.9651304622
 20
3652.9019964228
 10
5914.0489085942
 20
3652.7236733035
  0
LINE
  5
4D7
330
1F
100
AcDbEntity
  8
0
  6
Continuous
 62
     7
370
    25
100
AcDbLine
 10
6874.5489085942
 20
3637.3919126164
 30
0.0
 11
6849.5489085942
 21
3637.3919126164
 31
0.0
  0
LINE
  5
4D8
330
1F
100
AcDbEntity
  8
0
  6
Continuous
 62
     7
370
    25
100
AcDbLine
 10
6848.0489085942
 20
3638.8919126164
 30
0.0
 11
6876.0489085942
 21
3638.8919126164
 31
0.0
  0
LINE
  5
4D9
330
1F
100
AcDbEntity
  8
0
  6
Continuous
 62
     7
370
    25
100
AcDbLine
 10
6248.0489085942
 20
3638.8919126164
 30
0.0
 11
6276.0489085942
 21
3638.8919126164
 31
0.0
  0
LINE
  5
4DA
330
1F
100
AcDbEntity
  8
0
  6
Continuous
 62
     7
370
    25
100
AcDbLine
 10
6274.5489085942
 20
3637.3919126164
 30
0.0
 11
6249.5489085942
 21
3637.3919126164
 31
0.0
  0
LINE
  5
4DB
330
1F
100
AcDbEntity
  8
0
  6
Continuous
 62
     7
370
    25
100
AcDbLine
 10
7474.5489085942
 20
3637.3919126164
 30
0.0
 11
7449.5489085942
 21
3637.3919126164
 31
0.0
  0
LINE
  5
4DC
330
1F
100
AcDbEntity
  8
0
  6
Continuous
 62
     7
370
    25
100
AcDbLine
 10
7448.0489085942
 20
3638.8919126164
 30
0.0
 11
7476.0489085942
 21
3638.8919126164
 31
0.0
  0
LINE
  5
4DD
330
1F
100
AcDbEntity
  8
0
  6
Continuous
 62
     7
370
    25
100
AcDbLine
 10
8048.0489085942
 20
3638.8919126164
 30
0.0
 11
8076.0489085942
 21
3638.8919126164
 31
0.0
  0
LINE
  5
4DE
330
1F
100
AcDbEntity
  8
0
  6
Continuous
 62
     7
370
    25
100
AcDbLine
 10
8074.5489085942
 20
3637.3919126164
 30
0.0
 11
8049.5489085942
 21
3637.3919126164
 31
0.0
  0
LINE
  5
4DF
330
1F
100
AcDbEntity
  8
0
  6
Continuous
 62
     7
370
    25
100
AcDbLine
 10
6112.0489085942
 20
3636.8919126164
 30
0.0
 11
6172.0489085942
 21
3636.8919126164
 31
0.0
  0
LINE
  5
4E0
330
1F
100
AcDbEntity
  8
0
  6
Continuous
 62
     7
370
    25
100
AcDbLine
 10
6171.5489085942
 20
3636.3919126164
 30
0.0
 11
6112.5489085942
 21
3636.3919126164
 31
0.0
  0
LINE
  5
4E1
330
1F
100
AcDbEntity
  8
0
  6
Continuous
 62
     7
370
    25
100
AcDbLine
 10
6712.0489085942
 20
3636.8919126164
 30
0.0
 11
6772.0489085942
 21
3636.8919126164
 31
0.0
  0
LINE
  5
4E2
330
1F
100
AcDbEntity
  8
0
  6
Continuous
 62
     7
370
    25
100
AcDbLine
 10
6771.5489085942
 20
3636.3919126164
 30
0.0
 11
6712.5489085942
 21
3636.3919126164
 31
0.0
  0
LINE
  5
4E3
330
1F
100
AcDbEntity
  8
0
  6
Continuous
 62
     7
370
    25
100
AcDbLine
 10
7912.0489085942
 20
3636.8919126164
 30
0.0
 11
7972.0489085942
 21
3636.8919126164
 31
0.0
  0
LINE
  5
4E4
330
1F
100
AcDbEntity
  8
0
  6
Continuous
 62
     7
370
    25
100
AcDbLine
 10
7971.5489085942
 20
3636.3919126164
 30
0.0
 11
7912.5489085942
 21
3636.3919126164
 31
0.0
  0
LINE
  5
4E5
330
1F
100
AcDbEntity
  8
0
  6
Continuous
 62
     7
370
    25
100
AcDbLine
 10
7312.0489085942
 20
3636.8919126164
 30
0.0
 11
7372.0489085942
 21
3636.8919126164
 31
0.0
  0
LINE
  5
4E6
330
1F
100
AcDbEntity
  8
0
  6
Continuous
 62
     7
370
    25
100
AcDbLine
 10
7371.5489085942
 20
3636.3919126164
 30
0.0
 11
7312.5489085942
 21
3636.3919126164
 31
0.0
  0
LINE
  5
4E7
330
1F
100
AcDbEntity
  8
0
  6
Continuous
 62
     7
370
    25
100
AcDbLine
 10
6714.3705808615
 20
3636.8919126164
 30
0.0
 11
6772.0489085942
 21
3636.8919126164
 31
0.0
  0
LINE
  5
4E8
330
1F
100
AcDbEntity
  8
0
  6
Continuous
 62
     7
370
    25
100
AcDbLine
 10
6712.0489085942
 20
3636.8919126164
 30
0.0
 11
6714.3705808615
 21
3636.8919126164
 31
0.0
  0
LINE
  5
4E9
330
1F
100
AcDbEntity
  8
0
  6
Continuous
 62
     7
370
    25
100
AcDbLine
 10
6714.8318863237
 20
3636.3919126164
 30
0.0
 11
6712.5489085942
 21
3636.3919126164
 31
0.0
  0
LINE
  5
4EA
330
1F
100
AcDbEntity
  8
0
  6
Continuous
 62
     7
370
    25
100
AcDbLine
 10
6771.5489085942
 20
3636.3919126164
 30
0.0
 11
6714.8318863237
 21
3636.3919126164
 31
0.0
  0
LINE
  5
4EB
330
1F
100
AcDbEntity
  8
0
  6
Continuous
 62
     7
370
    25
100
AcDbLine
 10
7914.8318863237
 20
3636.3919126164
 30
0.0
 11
7912.5489085942
 21
3636.3919126164
 31
0.0
  0
LINE
  5
4EC
330
1F
100
AcDbEntity
  8
0
  6
Continuous
 62
     7
370
    25
100
AcDbLine
 10
7971.5489085942
 20
3636.3919126164
 30
0.0
 11
7914.8318863237
 21
3636.3919126164
 31
0.0
  0
LINE
  5
4ED
330
1F
100
AcDbEntity
  8
0
  6
Continuous
 62
     7
370
    25
100
AcDbLine
 10
7914.3705808615
 20
3636.8919126164
 30
0.0
 11
7972.0489085942
 21
3636.8919126164
 31
0.0
  0
LINE
  5
4EE
330
1F
100
AcDbEntity
  8
0
  6
Continuous
 62
     7
370
    25
100
AcDbLine
 10
7912.0489085942
 20
3636.8919126164
 30
0.0
 11
7914.3705808615
 21
3636.8919126164
 31
0.0
  0
LINE
  5
4EF
330
1F
100
AcDbEntity
  8
0
  6
Continuous
 62
     7
370
    25
100
AcDbLine
 10
6114.8318863237
 20
3636.3919126164
 30
0.0
 11
6112.5489085942
 21
3636.3919126164
 31
0.0
  0
LINE
  5
4F0
330
1F
100
AcDbEntity
  8
0
  6
Continuous
 62
     7
370
    25
100
AcDbLine
 10
6171.5489085942
 20
3636.3919126164
 30
0.0
 11
6114.8318863237
 21
3636.3919126164
 31
0.0
  0
LINE
  5
4F1
330
1F
100
AcDbEntity
  8
0
  6
Continuous
 62
     7
370
    25
100
AcDbLine
 10
6114.3705808615
 20
3636.8919126164
 30
0.0
 11
6172.0489085942
 21
3636.8919126164
 31
0.0
  0
LINE
  5
4F2
330
1F
100
AcDbEntity
  8
0
  6
Continuous
 62
     7
370
    25
100
AcDbLine
 10
6112.0489085942
 20
3636.8919126164
 30
0.0
 11
6114.3705808615
 21
3636.8919126164
 31
0.0
  0
LINE
  5
4F3
330
1F
100
AcDbEntity
  8
0
  6
Continuous
 62
     7
370
    25
100
AcDbLine
 10
7314.3705808615
 20
3636.8919126164
 30
0.0
 11
7372.0489085942
 21
3636.8919126164
 31
0.0
  0
LINE
  5
4F4
330
1F
100
AcDbEntity
  8
0
  6
Continuous
 62
     7
370
    25
100
AcDbLine
 10
7312.0489085942
 20
3636.8919126164
 30
0.0
 11
7314.3705808615
 21
3636.8919126164
 31
0.0
  0
LINE
  5
4F5
330
1F
100
AcDbEntity
  8
0
  6
Continuous
 62
     7
370
    25
100
AcDbLine
 10
7314.8318863237
 20
3636.3919126164
 30
0.0
 11
7312.5489085942
 21
3636.3919126164
 31
0.0
  0
LINE
  5
4F6
330
1F
100
AcDbEntity
  8
0
  6
Continuous
 62
     7
370
    25
100
AcDbLine
 10
7371.5489085942
 20
3636.3919126164
 30
0.0
 11
7314.8318863237
 21
3636.3919126164
 31
0.0
  0
LINE
  5
4F7
330
1F
100
AcDbEntity
  8
0
  6
Continuous
 62
     7
370
    25
100
AcDbLine
 10
7928.0489085942
 20
3471.3919126164
 30
0.0
 11
7956.0489085942
 21
3471.3919126164
 31
0.0
  0
LINE
  5
4F8
330
1F
100
AcDbEntity
  8
0
  6
Continuous
 62
     7
370
    25
100
AcDbLine
 10
7955.0489085942
 20
3470.3919126164
 30
0.0
 11
7929.0489085942
 21
3470.3919126164
 31
0.0
  0
LINE
  5
4F9
330
1F
100
AcDbEntity
  8
0
  6
Continuous
 62
     7
370
    25
100
AcDbLine
 10
7328.0489085942
 20
3471.3919126164
 30
0.0
 11
7356.0489085942
 21
3471.3919126164
 31
0.0
  0
LINE
  5
4FA
330
1F
100
AcDbEntity
  8
0
  6
Continuous
 62
     7
370
    25
100
AcDbLine
 10
7355.0489085942
 20
3470.3919126164
 30
0.0
 11
7329.0489085942
 21
3470.3919126164
 31
0.0
  0
LINE
  5
4FB
330
1F
100
AcDbEntity
  8
0
  6
Continuous
 62
     7
370
    25
100
AcDbLine
 10
6728.0489085942
 20
3471.3919126164
 30
0.0
 11
6756.0489085942
 21
3471.3919126164
 31
0.0
  0
LINE
  5
4FC
330
1F
100
AcDbEntity
  8
0
  6
Continuous
 62
     7
370
    25
100
AcDbLine
 10
6755.0489085942
 20
3470.3919126164
 30
0.0
 11
6729.0489085942
 21
3470.3919126164
 31
0.0
  0
LINE
  5
4FD
330
1F
100
AcDbEntity
  8
0
  6
Continuous
 62
     7
370
    25
100
AcDbLine
 10
6128.0489085942
 20
3471.3919126164
 30
0.0
 11
6156.0489085942
 21
3471.3919126164
 31
0.0
  0
LINE
  5
4FE
330
1F
100
AcDbEntity
  8
0
  6
Continuous
 62
     7
370
    25
100
AcDbLine
 10
6155.0489085942
 20
3470.3919126164
 30
0.0
 11
6129.0489085942
 21
3470.3919126164
 31
0.0
  0
LINE
  5
4FF
330
1F
100
AcDbEntity
  8
0
  6
Continuous
 62
     8
370
    25
100
AcDbLine
 10
8288.9489085942
 20
3209.3919126164
 30
0.0
 11
8288.9489085942
 21
3209.2919126164
 31
0.0
  0
LINE
  5
500
330
1F
100
AcDbEntity
  8
0
  6
Continuous
 62
     8
370
    25
100
AcDbLine
 10
8250.1489085942
 20
3209.3919126164
 30
0.0
 11
8250.1489085942
 21
3209.2919126164
 31
0.0
  0
LINE
  5
501
330
1F
100
AcDbEntity
  8
0
  6
Continuous
 62
     8
370
    25
100
AcDbLine
 10
5795.1489085942
 20
3209.3919126164
 30
0.0
 11
5795.1489085942
 21
3209.2919126164
 31
0.0
  0
LINE
  5
502
330
1F
100
AcDbEntity
  8
0
  6
Continuous
 62
     8
370
    25
100
AcDbLine
 10
5833.9489085942
 20
3209.3919126164
 30
0.0
 11
5833.9489085942
 21
3209.2919126164
 31
0.0
  0
LINE
  5
503
330
1F
100
AcDbEntity
  8
0
  6
Continuous
 62
     8
370
    25
100
AcDbLine
 10
5849.2270825799
 20
3639.0495433094
 30
0.0
 11
6112.0489085942
 21
3639.0495433094
 31
0.0
  0
LINE
  5
504
330
1F
100
AcDbEntity
  8
0
  6
Continuous
 62
     8
370
    25
100
AcDbLine
 10
6172.0489085942
 20
3639.0495433094
 30
0.0
 11
6248.0489085942
 21
3639.0495433094
 31
0.0
  0
LINE
  5
505
330
1F
100
AcDbEntity
  8
0
  6
Continuous
 62
     8
370
    25
100
AcDbLine
 10
6276.0489085942
 20
3639.0495433094
 30
0.0
 11
6712.0489085942
 21
3639.0495433094
 31
0.0
  0
LINE
  5
506
330
1F
100
AcDbEntity
  8
0
  6
Continuous
 62
     8
370
    25
100
AcDbLine
 10
6772.0489085942
 20
3639.0495433094
 30
0.0
 11
6848.0489085942
 21
3639.0495433094
 31
0.0
  0
LINE
  5
507
330
1F
100
AcDbEntity
  8
0
  6
Continuous
 62
     8
370
    25
100
AcDbLine
 10
6876.0489085942
 20
3639.0495433094
 30
0.0
 11
7312.0489085942
 21
3639.0495433094
 31
0.0
  0
LINE
  5
508
330
1F
100
AcDbEntity
  8
0
  6
Continuous
 62
     8
370
    25
100
AcDbLine
 10
7372.0489085942
 20
3639.0495433094
 30
0.0
 11
7448.0489085942
 21
3639.0495433094
 31
0.0
  0
LINE
  5
509
330
1F
100
AcDbEntity
  8
0
  6
Continuous
 62
     8
370
    25
100
AcDbLine
 10
7476.0489085942
 20
3639.0495433094
 30
0.0
 11
7912.0489085942
 21
3639.0495433094
 31
0.0
  0
LINE
  5
50A
330
1F
100
AcDbEntity
  8
0
  6
Continuous
 62
     8
370
    25
100
AcDbLine
 10
7972.0489085942
 20
3639.0495433094
 30
0.0
 11
8048.0489085942
 21
3639.0495433094
 31
0.0
  0
LINE
  5
50B
330
1F
100
AcDbEntity
  8
0
  6
Continuous
 62
     8
370
    25
100
AcDbLine
 10
8076.0489085942
 20
3639.0495433094
 30
0.0
 11
8290.0489085942
 21
3639.0495433094
 31
0.0
  0
LINE
  5
50C
330
1F
100
AcDbEntity
  8
0
  6
Continuous
 62
     8
370
    25
100
AcDbLine
 10
8290.0489085942
 20
3254.7342819233
 30
0.0
 11
5849.2270825799
 21
3254.7342819233
 31
0.0
  0
LINE
  5
50D
330
1F
100
AcDbEntity
  8
0
  6
Continuous
 62
     8
370
    25
100
AcDbLine
 10
8290.0489085942
 20
3513.6744702975
 30
0.0
 11
7956.0489085942
 21
3513.6744702975
 31
0.0
  0
LINE
  5
50E
330
1F
100
AcDbEntity
  8
0
  6
Continuous
 62
     8
370
    25
100
AcDbLine
 10
7928.0489085942
 20
3513.6744702975
 30
0.0
 11
7356.0489085942
 21
3513.6744702975
 31
0.0
  0
LINE
  5
50F
330
1F
100
AcDbEntity
  8
0
  6
Continuous
 62
     8
370
    25
100
AcDbLine
 10
7328.0489085942
 20
3513.6744702975
 30
0.0
 11
6756.0489085942
 21
3513.6744702975
 31
0.0
  0
LINE
  5
510
330
1F
100
AcDbEntity
  8
0
  6
Continuous
 62
     8
370
    25
100
AcDbLine
 10
6728.0489085942
 20
3513.6744702975
 30
0.0
 11
6156.0489085942
 21
3513.6744702975
 31
0.0
  0
LINE
  5
511
330
1F
100
AcDbEntity
  8
0
  6
Continuous
 62
     8
370
    25
100
AcDbLine
 10
6128.0489085942
 20
3513.6744702975
 30
0.0
 11
5849.2270825799
 21
3513.6744702975
 31
0.0
  0
LINE
  5
512
330
1F
100
AcDbEntity
  8
0
  6
Continuous
 62
     8
370
    25
100
AcDbLine
 10
5849.2270825799
 20
3380.1093549353
 30
0.0
 11
8290.0489085942
 21
3380.1093549353
 31
0.0
  0
LINE
  5
513
330
1F
100
AcDbEntity
  8
0
  6
Continuous
 62
     8
370
    25
100
AcDbLine
 10
5849.2270825799
 20
3513.0168396044
 30
0.0
 11
6128.0489085942
 21
3513.0168396044
 31
0.0
  0
LINE
  5
514
330
1F
100
AcDbEntity
  8
0
  6
Continuous
 62
     8
370
    25
100
AcDbLine
 10
6156.0489085942
 20
3513.0168396044
 30
0.0
 11
6728.0489085942
 21
3513.0168396044
 31
0.0
  0
LINE
  5
515
330
1F
100
AcDbEntity
  8
0
  6
Continuous
 62
     8
370
    25
100
AcDbLine
 10
6756.0489085942
 20
3513.0168396044
 30
0.0
 11
7328.0489085942
 21
3513.0168396044
 31
0.0
  0
LINE
  5
516
330
1F
100
AcDbEntity
  8
0
  6
Continuous
 62
     8
370
    25
100
AcDbLine
 10
7356.0489085942
 20
3513.0168396044
 30
0.0
 11
7928.0489085942
 21
3513.0168396044
 31
0.0
  0
LINE
  5
517
330
1F
100
AcDbEntity
  8
0
  6
Continuous
 62
     8
370
    25
100
AcDbLine
 10
7956.0489085942
 20
3513.0168396044
 30
0.0
 11
8290.0489085942
 21
3513.0168396044
 31
0.0
  0
LINE
  5
518
330
1F
100
AcDbEntity
  8
0
  6
Continuous
 62
     8
370
    25
100
AcDbLine
 10
8290.0489085942
 20
3380.7669856284
 30
0.0
 11
5849.2270825799
 21
3380.7669856284
 31
0.0
  0
ENDSEC
  0
SECTION
  2
OBJECTS
  0
DICTIONARY
  5
C
330
0
100
AcDbDictionary
281
     1
  3
ACAD_GROUP
350
D
  3
ACAD_LAYOUT
350
1A
  3
ACAD_MLINESTYLE
350
17
  3
ACAD_PLOTSETTINGS
350
19
  3
ACAD_PLOTSTYLENAME
350
E
  3
ACAD_SCALELIST
350
47
  3
DWGPROPS
350
519
  0
DICTIONARY
  5
D
102
{ACAD_REACTORS
330
C
102
}
330
C
100
AcDbDictionary
281
     1
  0
DICTIONARY
  5
1A
102
{ACAD_REACTORS
330
C
102
}
330
C
100
AcDbDictionary
281
     1
  3
Layout1
350
1E
  3
Layout2
350
26
  3
Model
350
22
  0
DICTIONARY
  5
17
102
{ACAD_REACTORS
330
C
102
}
330
C
100
AcDbDictionary
281
     1
  3
Standard
350
18
  0
DICTIONARY
  5
19
102
{ACAD_REACTORS
330
C
102
}
330
C
100
AcDbDictionary
281
     1
  0
ACDBDICTIONARYWDFLT
  5
E
102
{ACAD_REACTORS
330
C
102
}
330
C
100
AcDbDictionary
281
     1
  3
Normal
350
F
100
AcDbDictionaryWithDefault
340
F
  0
DICTIONARY
  5
47
102
{ACAD_REACTORS
330
C
102
}
330
C
100
AcDbDictionary
281
     1
  3
A0
350
48
  3
A1
350
49
  3
A2
350
4A
  3
A3
350
4B
  3
A4
350
4C
  3
A5
350
4D
  3
A6
350
4E
  3
A7
350
4F
  3
A8
350
50
  3
A9
350
51
  3
B0
350
52
  3
B1
350
53
  3
B2
350
54
  3
B3
350
55
  3
B4
350
56
  3
B5
350
57
  3
B6
350
58
  3
B7
350
59
  3
B8
350
5A
  3
B9
350
5B
  3
C0
350
5C
  3
C1
350
5D
  3
C2
350
5E
  3
C3
350
5F
  3
C4
350
60
  3
C5
350
61
  3
C6
350
62
  3
C7
350
63
  3
C8
350
64
  3
C9
350
65
  3
D0
350
66
  3
D1
350
67
  3
D2
350
68
  0
XRECORD
  5
519
102
{ACAD_REACTORS
330
C
102
}
330
C
100
AcDbXrecord
280
     1
  1
DWGPROPS COOKIE
  2

  3

  4

  6

  7

  8
radek.stransky
  9

300
=
301
=
302
=
303
=
304
=
305
=
306
=
307
=
308
=
309
=
 40
0.0
 41
2459838.467880336
 42
2459838.467880729
  1

 90
        0
  0
LAYOUT
  5
1E
102
{ACAD_REACTORS
330
1A
102
}
330
1A
100
AcDbPlotSettings
  1

  2
none_device
  4

  6

 40
0.0
 41
0.0
 42
0.0
 43
0.0
 44
0.0
 45
0.0
 46
0.0
 47
0.0
 48
0.0
 49
0.0
140
0.0
141
0.0
142
1.0
143
1.0
 70
   688
 72
     1
 73
     0
 74
     5
  7

 75
    16
147
1.0
148
0.0
149
0.0
100
AcDbLayout
  1
Layout1
 70
     1
 71
     1
 10
0.0
 20
0.0
 11
420.0
 21
297.0
 12
0.0
 22
0.0
 32
0.0
 14
1.0000000000E+20
 24
1.0000000000E+20
 34
1.0000000000E+20
 15
-1.0000000000E+20
 25
-1.0000000000E+20
 35
-1.0000000000E+20
146
0.0
 13
0.0
 23
0.0
 33
0.0
 16
1.0
 26
0.0
 36
0.0
 17
0.0
 27
1.0
 37
0.0
 76
     0
330
1B
  0
LAYOUT
  5
26
102
{ACAD_REACTORS
330
1A
102
}
330
1A
100
AcDbPlotSettings
  1

  2
none_device
  4

  6

 40
0.0
 41
0.0
 42
0.0
 43
0.0
 44
0.0
 45
0.0
 46
0.0
 47
0.0
 48
0.0
 49
0.0
140
0.0
141
0.0
142
1.0
143
1.0
 70
   688
 72
     1
 73
     0
 74
     5
  7

 75
    16
147
1.0
148
0.0
149
0.0
100
AcDbLayout
  1
Layout2
 70
     1
 71
     2
 10
0.0
 20
0.0
 11
0.0
 21
0.0
 12
0.0
 22
0.0
 32
0.0
 14
0.0
 24
0.0
 34
0.0
 15
0.0
 25
0.0
 35
0.0
146
0.0
 13
0.0
 23
0.0
 33
0.0
 16
1.0
 26
0.0
 36
0.0
 17
0.0
 27
1.0
 37
0.0
 76
     0
330
23
  0
LAYOUT
  5
22
102
{ACAD_REACTORS
330
1A
102
}
330
1A
100
AcDbPlotSettings
  1

  2
none_device
  4
Letter_(8.50_x_11.00_Inches)
  6

 40
6.35
 41
6.35
 42
6.35000508
 43
6.35000508
 44
215.9
 45
279.4
 46
0.0
 47
0.0
 48
0.0
 49
0.0
140
0.0
141
0.0
142
1.0
143
1.0
 70
  1712
 72
     1
 73
     0
 74
     0
  7

 75
     0
147
1.0
148
0.0
149
0.0
100
AcDbLayout
  1
Model
 70
     1
 71
     0
 10
0.0
 20
0.0
 11
20000.0
 21
10000.0
 12
0.0
 22
0.0
 32
0.0
 14
0.0
 24
0.0
 34
0.0
 15
20000.0
 25
10000.0
 35
0.0
146
0.0
 13
0.0
 23
0.0
 33
0.0
 16
1.0
 26
0.0
 36
0.0
 17
0.0
 27
1.0
 37
0.0
 76
     0
330
1F
331
29
  0
MLINESTYLE
  5
18
102
{ACAD_REACTORS
330
17
102
}
330
17
100
AcDbMlineStyle
  2
Standard
 70
     0
  3

 62
   256
 51
90.0
 52
90.0
 71
     2
 49
0.5
 62
   256
  6
BYLAYER
 49
-0.5
 62
   256
  6
BYLAYER
  0
ACDBPLACEHOLDER
  5
F
102
{ACAD_REACTORS
330
E
102
}
330
E
  0
SCALE
  5
48
102
{ACAD_REACTORS
330
47
102
}
330
47
100
AcDbScale
 70
     0
300
1:1
140
1.0
141
1.0
290
     1
  0
SCALE
  5
49
102
{ACAD_REACTORS
330
47
102
}
330
47
100
AcDbScale
 70
     0
300
1:2
140
1.0
141
2.0
290
     0
  0
SCALE
  5
4A
102
{ACAD_REACTORS
330
47
102
}
330
47
100
AcDbScale
 70
     0
300
1:4
140
1.0
141
4.0
290
     0
  0
SCALE
  5
4B
102
{ACAD_REACTORS
330
47
102
}
330
47
100
AcDbScale
 70
     0
300
1:5
140
1.0
141
5.0
290
     0
  0
SCALE
  5
4C
102
{ACAD_REACTORS
330
47
102
}
330
47
100
AcDbScale
 70
     0
300
1:8
140
1.0
141
8.0
290
     0
  0
SCALE
  5
4D
102
{ACAD_REACTORS
330
47
102
}
330
47
100
AcDbScale
 70
     0
300
1:10
140
1.0
141
10.0
290
     0
  0
SCALE
  5
4E
102
{ACAD_REACTORS
330
47
102
}
330
47
100
AcDbScale
 70
     0
300
1:16
140
1.0
141
16.0
290
     0
  0
SCALE
  5
4F
102
{ACAD_REACTORS
330
47
102
}
330
47
100
AcDbScale
 70
     0
300
1:20
140
1.0
141
20.0
290
     0
  0
SCALE
  5
50
102
{ACAD_REACTORS
330
47
102
}
330
47
100
AcDbScale
 70
     0
300
1:30
140
1.0
141
30.0
290
     0
  0
SCALE
  5
51
102
{ACAD_REACTORS
330
47
102
}
330
47
100
AcDbScale
 70
     0
300
1:40
140
1.0
141
40.0
290
     0
  0
SCALE
  5
52
102
{ACAD_REACTORS
330
47
102
}
330
47
100
AcDbScale
 70
     0
300
1:50
140
1.0
141
50.0
290
     0
  0
SCALE
  5
53
102
{ACAD_REACTORS
330
47
102
}
330
47
100
AcDbScale
 70
     0
300
1:100
140
1.0
141
100.0
290
     0
  0
SCALE
  5
54
102
{ACAD_REACTORS
330
47
102
}
330
47
100
AcDbScale
 70
     0
300
2:1
140
2.0
141
1.0
290
     0
  0
SCALE
  5
55
102
{ACAD_REACTORS
330
47
102
}
330
47
100
AcDbScale
 70
     0
300
4:1
140
4.0
141
1.0
290
     0
  0
SCALE
  5
56
102
{ACAD_REACTORS
330
47
102
}
330
47
100
AcDbScale
 70
     0
300
8:1
140
8.0
141
1.0
290
     0
  0
SCALE
  5
57
102
{ACAD_REACTORS
330
47
102
}
330
47
100
AcDbScale
 70
     0
300
10:1
140
10.0
141
1.0
290
     0
  0
SCALE
  5
58
102
{ACAD_REACTORS
330
47
102
}
330
47
100
AcDbScale
 70
     0
300
100:1
140
100.0
141
1.0
290
     0
  0
SCALE
  5
59
102
{ACAD_REACTORS
330
47
102
}
330
47
100
AcDbScale
 70
     0
300
1/128" = 1'-0"
140
0.0078125
141
12.0
290
     0
  0
SCALE
  5
5A
102
{ACAD_REACTORS
330
47
102
}
330
47
100
AcDbScale
 70
     0
300
1/64" = 1'-0"
140
0.015625
141
12.0
290
     0
  0
SCALE
  5
5B
102
{ACAD_REACTORS
330
47
102
}
330
47
100
AcDbScale
 70
     0
300
1/32" = 1'-0"
140
0.03125
141
12.0
290
     0
  0
SCALE
  5
5C
102
{ACAD_REACTORS
330
47
102
}
330
47
100
AcDbScale
 70
     0
300
1/16" = 1'-0"
140
0.0625
141
12.0
290
     0
  0
SCALE
  5
5D
102
{ACAD_REACTORS
330
47
102
}
330
47
100
AcDbScale
 70
     0
300
3/32" = 1'-0"
140
0.09375
141
12.0
290
     0
  0
SCALE
  5
5E
102
{ACAD_REACTORS
330
47
102
}
330
47
100
AcDbScale
 70
     0
300
1/8" = 1'-0"
140
0.125
141
12.0
290
     0
  0
SCALE
  5
5F
102
{ACAD_REACTORS
330
47
102
}
330
47
100
AcDbScale
 70
     0
300
3/16" = 1'-0"
140
0.1875
141
12.0
290
     0
  0
SCALE
  5
60
102
{ACAD_REACTORS
330
47
102
}
330
47
100
AcDbScale
 70
     0
300
1/4" = 1'-0"
140
0.25
141
12.0
290
     0
  0
SCALE
  5
61
102
{ACAD_REACTORS
330
47
102
}
330
47
100
AcDbScale
 70
     0
300
3/8" = 1'-0"
140
0.375
141
12.0
290
     0
  0
SCALE
  5
62
102
{ACAD_REACTORS
330
47
102
}
330
47
100
AcDbScale
 70
     0
300
1/2" = 1'-0"
140
0.5
141
12.0
290
     0
  0
SCALE
  5
63
102
{ACAD_REACTORS
330
47
102
}
330
47
100
AcDbScale
 70
     0
300
3/4" = 1'-0"
140
0.75
141
12.0
290
     0
  0
SCALE
  5
64
102
{ACAD_REACTORS
330
47
102
}
330
47
100
AcDbScale
 70
     0
300
1" = 1'-0"
140
1.0
141
12.0
290
     0
  0
SCALE
  5
65
102
{ACAD_REACTORS
330
47
102
}
330
47
100
AcDbScale
 70
     0
300
1-1/2" = 1'-0"
140
1.5
141
12.0
290
     0
  0
SCALE
  5
66
102
{ACAD_REACTORS
330
47
102
}
330
47
100
AcDbScale
 70
     0
300
3" = 1'-0"
140
3.0
141
12.0
290
     0
  0
SCALE
  5
67
102
{ACAD_REACTORS
330
47
102
}
330
47
100
AcDbScale
 70
     0
300
6" = 1'-0"
140
6.0
141
12.0
290
     0
  0
SCALE
  5
68
102
{ACAD_REACTORS
330
47
102
}
330
47
100
AcDbScale
 70
     0
300
1'-0" = 1'-0"
140
12.0
141
12.0
290
     0
  0
ENDSEC
  0
EOF
