  0
SECTION
  2
HEADER
  9
$ACADVER
  1
AC1015
  9
$ACADMAINTVER
 70
     6
  9
$DWGCODEPAGE
  3
ANSI_1250
  9
$INSBASE
 10
0.0
 20
0.0
 30
0.0
  9
$EXTMIN
 10
8400.5795656292
 20
4699.7532286671
 30
0.0
  9
$EXTMAX
 10
8984.3840772493
 20
5238.5336697264
 30
0.0
  9
$LIMMIN
 10
0.0
 20
0.0
  9
$LIMMAX
 10
420.0
 20
297.0
  9
$ORTHOMODE
 70
     0
  9
$REGENMODE
 70
     1
  9
$FILLMODE
 70
     1
  9
$QTEXTMODE
 70
     0
  9
$MIRRTEXT
 70
     1
  9
$LTSCALE
 40
1.0
  9
$ATTMODE
 70
     1
  9
$TEXTSIZE
 40
3.5
  9
$TRACEWID
 40
1.0
  9
$TEXTSTYLE
  7
Standard
  9
$CLAYER
  8
0
  9
$CELTYPE
  6
ByLayer
  9
$CECOLOR
 62
   256
  9
$CELTSCALE
 40
1.0
  9
$DISPSILH
 70
     0
  9
$DIMSCALE
 40
1.0
  9
$DIMASZ
 40
3.302
  9
$DIMEXO
 40
0.0
  9
$DIMDLI
 40
3.75
  9
$DIMRND
 40
0.0
  9
$DIMDLE
 40
0.0
  9
$DIMEXE
 40
1.0
  9
$DIMTP
 40
0.0
  9
$DIMTM
 40
0.0
  9
$DIMTXT
 40
3.5
  9
$DIMCEN
 40
2.5
  9
$DIMTSZ
 40
0.0
  9
$DIMTOL
 70
     0
  9
$DIMLIM
 70
     0
  9
$DIMTIH
 70
     1
  9
$DIMTOH
 70
     1
  9
$DIMSE1
 70
     0
  9
$DIMSE2
 70
     0
  9
$DIMTAD
 70
     1
  9
$DIMZIN
 70
     0
  9
$DIMBLK
  1

  9
$DIMASO
 70
     1
  9
$DIMSHO
 70
     1
  9
$DIMPOST
  1

  9
$DIMAPOST
  1

  9
$DIMALT
 70
     0
  9
$DIMALTD
 70
     3
  9
$DIMALTF
 40
0.0393700787
  9
$DIMLFAC
 40
1.0
  9
$DIMTOFL
 70
     1
  9
$DIMTVP
 40
0.0
  9
$DIMTIX
 70
     0
  9
$DIMSOXD
 70
     0
  9
$DIMSAH
 70
     0
  9
$DIMBLK1
  1

  9
$DIMBLK2
  1

  9
$DIMSTYLE
  2
ISO-25
  9
$DIMCLRD
 70
     0
  9
$DIMCLRE
 70
     0
  9
$DIMCLRT
 70
     0
  9
$DIMTFAC
 40
1.0
  9
$DIMGAP
 40
1.524
  9
$DIMJUST
 70
     0
  9
$DIMSD1
 70
     0
  9
$DIMSD2
 70
     0
  9
$DIMTOLJ
 70
     0
  9
$DIMTZIN
 70
     0
  9
$DIMALTZ
 70
     0
  9
$DIMALTTZ
 70
     0
  9
$DIMUPT
 70
     0
  9
$DIMDEC
 70
     2
  9
$DIMTDEC
 70
     2
  9
$DIMALTU
 70
     2
  9
$DIMALTTD
 70
     3
  9
$DIMTXSTY
  7
Standard
  9
$DIMAUNIT
 70
     0
  9
$DIMADEC
 70
     2
  9
$DIMALTRND
 40
0.0
  9
$DIMAZIN
 70
     0
  9
$DIMDSEP
 70
    44
  9
$DIMATFIT
 70
     3
  9
$DIMFRAC
 70
     0
  9
$DIMLDRBLK
  1

  9
$DIMLUNIT
 70
     2
  9
$DIMLWD
 70
    -2
  9
$DIMLWE
 70
    -2
  9
$DIMTMOVE
 70
     0
  9
$LUNITS
 70
     2
  9
$LUPREC
 70
     2
  9
$SKETCHINC
 40
1.0
  9
$FILLETRAD
 40
10.0
  9
$AUNITS
 70
     0
  9
$AUPREC
 70
     2
  9
$MENU
  1
.
  9
$ELEVATION
 40
0.0
  9
$PELEVATION
 40
0.0
  9
$THICKNESS
 40
0.0
  9
$LIMCHECK
 70
     0
  9
$CHAMFERA
 40
0.0
  9
$CHAMFERB
 40
0.0
  9
$CHAMFERC
 40
0.0
  9
$CHAMFERD
 40
0.0
  9
$SKPOLY
 70
     0
  9
$TDCREATE
 40
2459095.559615174
  9
$TDUCREATE
 40
2459095.47628184
  9
$TDUPDATE
 40
2459095.559665764
  9
$TDUUPDATE
 40
2459095.476332431
  9
$TDINDWG
 40
0.0000000116
  9
$TDUSRTIMER
 40
0.0000000116
  9
$USRTIMER
 70
     1
  9
$ANGBASE
 50
0.0
  9
$ANGDIR
 70
     0
  9
$PDMODE
 70
     0
  9
$PDSIZE
 40
-1.0
  9
$PLINEWID
 40
0.0
  9
$SPLFRAME
 70
     0
  9
$SPLINETYPE
 70
     6
  9
$SPLINESEGS
 70
     8
  9
$HANDSEED
  5
58E
  9
$SURFTAB1
 70
     6
  9
$SURFTAB2
 70
     6
  9
$SURFTYPE
 70
     6
  9
$SURFU
 70
     6
  9
$SURFV
 70
     6
  9
$UCSBASE
  2

  9
$UCSNAME
  2

  9
$UCSORG
 10
0.0
 20
0.0
 30
0.0
  9
$UCSXDIR
 10
1.0
 20
0.0
 30
0.0
  9
$UCSYDIR
 10
0.0
 20
1.0
 30
0.0
  9
$UCSORTHOREF
  2

  9
$UCSORTHOVIEW
 70
     0
  9
$UCSORGTOP
 10
0.0
 20
0.0
 30
0.0
  9
$UCSORGBOTTOM
 10
0.0
 20
0.0
 30
0.0
  9
$UCSORGLEFT
 10
0.0
 20
0.0
 30
0.0
  9
$UCSORGRIGHT
 10
0.0
 20
0.0
 30
0.0
  9
$UCSORGFRONT
 10
0.0
 20
0.0
 30
0.0
  9
$UCSORGBACK
 10
0.0
 20
0.0
 30
0.0
  9
$PUCSBASE
  2

  9
$PUCSNAME
  2

  9
$PUCSORG
 10
0.0
 20
0.0
 30
0.0
  9
$PUCSXDIR
 10
1.0
 20
0.0
 30
0.0
  9
$PUCSYDIR
 10
0.0
 20
1.0
 30
0.0
  9
$PUCSORTHOREF
  2

  9
$PUCSORTHOVIEW
 70
     0
  9
$PUCSORGTOP
 10
0.0
 20
0.0
 30
0.0
  9
$PUCSORGBOTTOM
 10
0.0
 20
0.0
 30
0.0
  9
$PUCSORGLEFT
 10
0.0
 20
0.0
 30
0.0
  9
$PUCSORGRIGHT
 10
0.0
 20
0.0
 30
0.0
  9
$PUCSORGFRONT
 10
0.0
 20
0.0
 30
0.0
  9
$PUCSORGBACK
 10
0.0
 20
0.0
 30
0.0
  9
$USERI1
 70
     0
  9
$USERI2
 70
     0
  9
$USERI3
 70
     0
  9
$USERI4
 70
     0
  9
$USERI5
 70
     0
  9
$USERR1
 40
0.0
  9
$USERR2
 40
0.0
  9
$USERR3
 40
0.0
  9
$USERR4
 40
0.0
  9
$USERR5
 40
0.0
  9
$WORLDVIEW
 70
     1
  9
$SHADEDGE
 70
     3
  9
$SHADEDIF
 70
    70
  9
$TILEMODE
 70
     1
  9
$MAXACTVP
 70
    64
  9
$PINSBASE
 10
0.0
 20
0.0
 30
0.0
  9
$PLIMCHECK
 70
     0
  9
$PEXTMIN
 10
1.0000000000E+20
 20
1.0000000000E+20
 30
1.0000000000E+20
  9
$PEXTMAX
 10
-1.0000000000E+20
 20
-1.0000000000E+20
 30
-1.0000000000E+20
  9
$PLIMMIN
 10
0.0
 20
0.0
  9
$PLIMMAX
 10
420.0
 20
297.0
  9
$UNITMODE
 70
     0
  9
$VISRETAIN
 70
     1
  9
$PLINEGEN
 70
     0
  9
$PSLTSCALE
 70
     1
  9
$TREEDEPTH
 70
  3020
  9
$CMLSTYLE
  2
Standard
  9
$CMLJUST
 70
     0
  9
$CMLSCALE
 40
20.0
  9
$PROXYGRAPHICS
 70
     1
  9
$MEASUREMENT
 70
     1
  9
$CELWEIGHT
370
    -1
  9
$ENDCAPS
280
     0
  9
$JOINSTYLE
280
     0
  9
$LWDISPLAY
290
     1
  9
$INSUNITS
 70
     4
  9
$HYPERLINKBASE
  1

  9
$STYLESHEET
  1

  9
$XEDIT
290
     1
  9
$CEPSNTYPE
380
     0
  9
$PSTYLEMODE
290
     1
  9
$FINGERPRINTGUID
  2
{05e167d6-3e5a-441d-9650-b26c0895996d}
  9
$VERSIONGUID
  2
{FAEB1C32-E019-11D5-929B-00C0DF256EC4}
  9
$EXTNAMES
290
     1
  9
$PSVPSCALE
 40
0.0
  9
$OLESTARTUP
290
     0
  0
ENDSEC
  0
SECTION
  2
CLASSES
  0
CLASS
  1
ACDBDICTIONARYWDFLT
  2
AcDbDictionaryWithDefault
  3
ObjectDBX Classes
 90
        0
280
     0
281
     0
  0
CLASS
  1
VISUALSTYLE
  2
AcDbVisualStyle
  3
ObjectDBX Classes
 90
     4095
280
     0
281
     0
  0
CLASS
  1
MATERIAL
  2
AcDbMaterial
  3
ObjectDBX Classes
 90
     1153
280
     0
281
     0
  0
CLASS
  1
SCALE
  2
AcDbScale
  3
ObjectDBX Classes
 90
     1153
280
     0
281
     0
  0
CLASS
  1
TABLESTYLE
  2
AcDbTableStyle
  3
ObjectDBX Classes
 90
     4095
280
     0
281
     0
  0
CLASS
  1
MLEADERSTYLE
  2
AcDbMLeaderStyle
  3
ACDB_MLEADERSTYLE_CLASS
 90
     4095
280
     0
281
     0
  0
CLASS
  1
SUN
  2
AcDbSun
  3
SCENEOE
 90
     1153
280
     0
281
     0
  0
CLASS
  1
ACDBPLACEHOLDER
  2
AcDbPlaceHolder
  3
ObjectDBX Classes
 90
        0
280
     0
281
     0
  0
CLASS
  1
LAYOUT
  2
AcDbLayout
  3
ObjectDBX Classes
 90
        0
280
     0
281
     0
  0
ENDSEC
  0
SECTION
  2
TABLES
  0
TABLE
  2
VPORT
  5
8
330
0
100
AcDbSymbolTable
 70
     1
  0
VPORT
  5
29
330
8
100
AcDbSymbolTableRecord
100
AcDbViewportTableRecord
  2
*Active
 70
     0
 10
0.0
 20
0.0
 11
1.0
 21
1.0
 12
8692.4818214392
 22
4969.1434491968
 13
0.0
 23
0.0
 14
10.0
 24
10.0
 15
10.0
 25
10.0
 16
0.0
 26
0.0
 36
1.0
 17
0.0
 27
0.0
 37
0.0
 40
549.5560498805
 41
1.0835666389
 42
50.0
 43
0.0
 44
0.0
 50
0.0
 51
0.0
 71
     0
 72
   100
 73
     1
 74
     3
 75
     0
 76
     0
 77
     0
 78
     0
281
     0
 65
     1
110
0.0
120
0.0
130
0.0
111
1.0
121
0.0
131
0.0
112
0.0
122
1.0
132
0.0
 79
     0
146
0.0
  0
ENDTAB
  0
TABLE
  2
LTYPE
  5
5
330
0
100
AcDbSymbolTable
 70
     6
  0
LTYPE
  5
14
330
5
100
AcDbSymbolTableRecord
100
AcDbLinetypeTableRecord
  2
ByBlock
 70
     0
  3

 72
    65
 73
     0
 40
0.0
  0
LTYPE
  5
15
330
5
100
AcDbSymbolTableRecord
100
AcDbLinetypeTableRecord
  2
ByLayer
 70
     0
  3

 72
    65
 73
     0
 40
0.0
  0
LTYPE
  5
16
330
5
100
AcDbSymbolTableRecord
100
AcDbLinetypeTableRecord
  2
Continuous
 70
     0
  3
Solid line
 72
    65
 73
     0
 40
0.0
  0
LTYPE
  5
6E
330
5
100
AcDbSymbolTableRecord
100
AcDbLinetypeTableRecord
  2
HIDDEN
 70
     0
  3
Hidden __ __ __ __ __ __ __ __ __ __ __ __ __ __
 72
    65
 73
     2
 40
1.905
 49
1.27
 74
     0
 49
-0.635
 74
     0
  0
LTYPE
  5
6F
330
5
100
AcDbSymbolTableRecord
100
AcDbLinetypeTableRecord
  2
PHANTOM
 70
     0
  3
Phantom ______  __  __  ______  __  __  ______
 72
    65
 73
     6
 40
12.7
 49
6.35
 74
     0
 49
-1.27
 74
     0
 49
1.27
 74
     0
 49
-1.27
 74
     0
 49
1.27
 74
     0
 49
-1.27
 74
     0
  0
LTYPE
  5
70
330
5
100
AcDbSymbolTableRecord
100
AcDbLinetypeTableRecord
  2
CENTER
 70
     0
  3
Center ____ _ ____ _ ____ _ ____ _ ____ _ ____
 72
    65
 73
     4
 40
10.16
 49
6.35
 74
     0
 49
-1.27
 74
     0
 49
1.27
 74
     0
 49
-1.27
 74
     0
  0
LTYPE
  5
71
330
5
100
AcDbSymbolTableRecord
100
AcDbLinetypeTableRecord
  2
CENTERX2
 70
     0
  3
Center (2x) ________  __  ________  __  _____
 72
    65
 73
     4
 40
20.32
 49
12.7
 74
     0
 49
-2.54
 74
     0
 49
2.54
 74
     0
 49
-2.54
 74
     0
  0
LTYPE
  5
72
330
5
100
AcDbSymbolTableRecord
100
AcDbLinetypeTableRecord
  2
DOT2
 70
     0
  3
Dot (.5x) ........................................
 72
    65
 73
     2
 40
0.635
 49
0.0
 74
     0
 49
-0.635
 74
     0
  0
ENDTAB
  0
TABLE
  2
LAYER
  5
2
330
0
100
AcDbSymbolTable
 70
     1
  0
LAYER
  5
10
330
2
100
AcDbSymbolTableRecord
100
AcDbLayerTableRecord
  2
0
 70
     0
 62
     7
  6
Continuous
370
    -3
390
F
  0
ENDTAB
  0
TABLE
  2
STYLE
  5
3
330
0
100
AcDbSymbolTable
 70
     1
  0
STYLE
  5
11
330
3
100
AcDbSymbolTableRecord
100
AcDbTextStyleTableRecord
  2
Standard
 70
     0
 40
0.0
 41
1.0
 50
0.0
 71
     0
 42
3.5
  3
txt
  4

  0
ENDTAB
  0
TABLE
  2
VIEW
  5
6
330
0
100
AcDbSymbolTable
 70
     0
  0
ENDTAB
  0
TABLE
  2
UCS
  5
7
330
0
100
AcDbSymbolTable
 70
     0
  0
ENDTAB
  0
TABLE
  2
APPID
  5
9
330
0
100
AcDbSymbolTable
 70
     1
  0
APPID
  5
12
330
9
100
AcDbSymbolTableRecord
100
AcDbRegAppTableRecord
  2
ACAD
 70
     0
  0
ENDTAB
  0
TABLE
  2
DIMSTYLE
  5
A
330
0
100
AcDbSymbolTable
 70
     1
100
AcDbDimStyleTable
  0
DIMSTYLE
105
27
330
A
100
AcDbSymbolTableRecord
100
AcDbDimStyleTableRecord
  2
ISO-25
 70
     0
 41
2.5
 42
0.625
 43
3.75
 44
1.25
 73
     0
 74
     0
 77
     1
 78
     8
140
2.5
141
2.5
143
0.0393700787
147
0.625
171
     3
172
     1
178
     0
271
     2
272
     2
274
     3
278
    44
283
     0
284
     8
340
11
  0
ENDTAB
  0
TABLE
  2
BLOCK_RECORD
  5
1
330
0
100
AcDbSymbolTable
 70
     1
  0
BLOCK_RECORD
  5
1F
330
1
100
AcDbSymbolTableRecord
100
AcDbBlockTableRecord
  2
*Model_Space
340
22
  0
BLOCK_RECORD
  5
1B
330
1
100
AcDbSymbolTableRecord
100
AcDbBlockTableRecord
  2
*Paper_Space
340
1E
  0
BLOCK_RECORD
  5
23
330
1
100
AcDbSymbolTableRecord
100
AcDbBlockTableRecord
  2
*Paper_Space0
340
26
  0
ENDTAB
  0
ENDSEC
  0
SECTION
  2
BLOCKS
  0
BLOCK
  5
20
330
1F
100
AcDbEntity
  8
0
100
AcDbBlockBegin
  2
*Model_Space
 70
     0
 10
0.0
 20
0.0
 30
0.0
  3
*Model_Space
  1

  0
ENDBLK
  5
21
330
1F
100
AcDbEntity
  8
0
100
AcDbBlockEnd
  0
BLOCK
  5
1C
330
1B
100
AcDbEntity
 67
     1
  8
0
100
AcDbBlockBegin
  2
*Paper_Space
 70
     0
 10
0.0
 20
0.0
 30
0.0
  3
*Paper_Space
  1

  0
ENDBLK
  5
1D
330
1B
100
AcDbEntity
 67
     1
  8
0
100
AcDbBlockEnd
  0
BLOCK
  5
24
330
23
100
AcDbEntity
  8
0
100
AcDbBlockBegin
  2
*Paper_Space0
 70
     0
 10
0.0
 20
0.0
 30
0.0
  3
*Paper_Space0
  1

  0
ENDBLK
  5
25
330
23
100
AcDbEntity
  8
0
100
AcDbBlockEnd
  0
ENDSEC
  0
SECTION
  2
ENTITIES
  0
ARC
  5
73
330
1F
100
AcDbEntity
  8
0
  6
Continuous
 62
     7
100
AcDbCircle
 10
8490.0795617549
 20
5183.6073359973
 30
0.0
 40
0.5000000000008796
100
AcDbArc
 50
0.0001882476
 51
76.6578818949
  0
ARC
  5
74
330
1F
100
AcDbEntity
  8
0
  6
Continuous
 62
     7
100
AcDbCircle
 10
8481.0795563905
 20
5183.6073357146
 30
0.0
 40
0.5000000000018884
100
AcDbArc
 50
103.3419777229
 51
179.9997793571
  0
ARC
  5
75
330
1F
100
AcDbEntity
  8
0
  6
Continuous
 62
     7
100
AcDbCircle
 10
8485.5795596687
 20
5164.633670531
 30
0.0
 40
20.00000000000053
100
AcDbArc
 50
76.6576362029
 51
103.3423637971
  0
ARC
  5
76
330
1F
100
AcDbEntity
  8
0
  6
Continuous
 62
     7
100
AcDbCircle
 10
8469.8795569627
 20
5099.9836721642
 30
0.0
 40
1.149996274749324
100
AcDbArc
 50
89.9997725304
 51
180.0002274749
  0
ARC
  5
77
330
1F
100
AcDbEntity
  8
0
  6
Continuous
 62
     7
100
AcDbCircle
 10
8469.8795606879
 20
5087.0836756332
 30
0.0
 40
1.150000000000514
100
AcDbArc
 50
180.0001437323
 51
270.0002274744
  0
ARC
  5
78
330
1F
100
AcDbEntity
  8
0
  6
Continuous
 62
     7
100
AcDbCircle
 10
8501.2795649079
 20
5087.0836756332
 30
0.0
 40
1.149999999950504
100
AcDbArc
 50
269.9999581251
 51
359.9998562673
  0
ARC
  5
79
330
1F
100
AcDbEntity
  8
0
  6
Continuous
 62
     7
100
AcDbCircle
 10
8501.2795686332
 20
5099.9836721643
 30
0.0
 40
1.149996274645641
100
AcDbArc
 50
359.9997725258
 51
90.0004130868
  0
ARC
  5
7A
330
1F
100
AcDbEntity
  8
0
  6
Continuous
 62
     7
100
AcDbCircle
 10
8560.5795595011
 20
5212.5336703634
 30
0.0
 40
10.00000000000182
100
AcDbArc
 50
0.0000012806
 51
89.9999987194
  0
ARC
  5
7B
330
1F
100
AcDbEntity
  8
0
  6
Continuous
 62
     7
100
AcDbCircle
 10
8410.5795656292
 20
5062.5336764915
 30
0.0
 40
10.00000000000091
100
AcDbArc
 50
180.0000546418
 51
269.9999453582
  0
ARC
  5
7C
330
1F
100
AcDbEntity
  8
0
  6
Continuous
 62
     7
100
AcDbCircle
 10
8410.5795656292
 20
5212.5336703634
 30
0.0
 40
10.00000000000182
100
AcDbArc
 50
90.0000546418
 51
179.9999987195
  0
ARC
  5
7D
330
1F
100
AcDbEntity
  8
0
  6
Continuous
 62
     7
100
AcDbCircle
 10
8560.5795595011
 20
5062.5336764915
 30
0.0
 40
10.00000000000273
100
AcDbArc
 50
270.0000012805
 51
359.9999453582
  0
ARC
  5
7E
330
1F
100
AcDbEntity
  8
0
  6
Continuous
 62
     7
100
AcDbCircle
 10
8485.5795627979
 20
5142.8336694684
 30
0.0
 40
13.00000000000111
100
AcDbArc
 50
196.7463742109
 51
343.2536257891
  0
ARC
  5
7F
330
1F
100
AcDbEntity
  8
0
  6
Continuous
 62
     7
100
AcDbCircle
 10
8485.5795627979
 20
5142.8336694684
 30
0.0
 40
15.00000036469114
100
AcDbArc
 50
196.7463788407
 51
343.2536211593
  0
ARC
  5
80
330
1F
100
AcDbEntity
  8
0
  6
Continuous
 62
     7
100
AcDbCircle
 10
8485.57955721
 20
5160.5336651212
 30
0.0
 40
18.09999999999917
100
AcDbArc
 50
343.2536421595
 51
196.7463578405
  0
ARC
  5
81
330
1F
100
AcDbEntity
  8
0
  6
Continuous
 62
     7
100
AcDbCircle
 10
8485.57955721
 20
5160.5336651212
 30
0.0
 40
20.09999929129845
100
AcDbArc
 50
343.2536472443
 51
196.7463527557
  0
ARC
  5
82
330
1F
100
AcDbEntity
  8
0
  6
Continuous
 62
     7
100
AcDbCircle
 10
8485.57955721
 20
5160.5336651212
 30
0.0
 40
28.499995704967
100
AcDbArc
 50
296.7987286049
 51
309.044692359
  0
ARC
  5
83
330
1F
100
AcDbEntity
  8
0
  6
Continuous
 62
     7
100
AcDbCircle
 10
8485.57955721
 20
5160.5336651212
 30
0.0
 40
28.499995704967
100
AcDbArc
 50
309.044692359
 51
243.201280219
  0
ARC
  5
84
330
1F
100
AcDbEntity
  8
0
  6
Continuous
 62
     7
100
AcDbCircle
 10
8485.57955721
 20
5160.5336651212
 30
0.0
 40
23.49999954946187
100
AcDbArc
 50
102.2844851928
 51
227.9513543167
  0
ARC
  5
85
330
1F
100
AcDbEntity
  8
0
  6
Continuous
 62
     7
100
AcDbCircle
 10
8485.57955721
 20
5160.5336651212
 30
0.0
 40
23.50000171928707
100
AcDbArc
 50
312.0486545861
 51
77.7155030928
  0
ARC
  5
86
330
1F
100
AcDbEntity
  8
0
  6
Continuous
 62
     7
100
AcDbCircle
 10
8501.2795649079
 20
5087.0836756332
 30
0.0
 40
1.100002878900662
100
AcDbArc
 50
269.9999562209
 51
359.9998497339
  0
ARC
  5
87
330
1F
100
AcDbEntity
  8
0
  6
Continuous
 62
     7
100
AcDbCircle
 10
8501.2795686332
 20
5099.9836721643
 30
0.0
 40
1.09999915359769
100
AcDbArc
 50
359.9997621859
 51
90.0004318617
  0
ARC
  5
88
330
1F
100
AcDbEntity
  8
0
  6
Continuous
 62
     7
100
AcDbCircle
 10
8469.8795569627
 20
5099.9836721642
 30
0.0
 40
1.099999153701372
100
AcDbArc
 50
89.9997621907
 51
180.0002378146
  0
ARC
  5
89
330
1F
100
AcDbEntity
  8
0
  6
Continuous
 62
     7
100
AcDbCircle
 10
8469.8795606879
 20
5087.0836756332
 30
0.0
 40
1.100002878952562
100
AcDbArc
 50
180.0001502657
 51
270.0002378126
  0
ARC
  5
8A
330
1F
100
AcDbEntity
  8
0
  6
Continuous
 62
     7
100
AcDbCircle
 10
8501.2795686332
 20
5099.9836721643
 30
0.0
 40
0.9999974608015618
100
AcDbArc
 50
359.9997383963
 51
90.0004750487
  0
ARC
  5
8B
330
1F
100
AcDbEntity
  8
0
  6
Continuous
 62
     7
100
AcDbCircle
 10
8501.2795649079
 20
5087.0836756332
 30
0.0
 40
1.000001186099849
100
AcDbArc
 50
269.9999518428
 51
359.999834707
  0
ARC
  5
8C
330
1F
100
AcDbEntity
  8
0
  6
Continuous
 62
     7
100
AcDbCircle
 10
8469.8795606879
 20
5087.0836756332
 30
0.0
 40
1.000001186152494
100
AcDbArc
 50
180.0001652926
 51
270.0002615942
  0
ARC
  5
8D
330
1F
100
AcDbEntity
  8
0
  6
Continuous
 62
     7
100
AcDbCircle
 10
8469.8795569627
 20
5099.9836721642
 30
0.0
 40
0.9999974609013044
100
AcDbArc
 50
89.9997384093
 51
180.0002615966
  0
CIRCLE
  5
8E
330
1F
100
AcDbEntity
  8
0
  6
Continuous
 62
     7
100
AcDbCircle
 10
8544.9994976687
 20
5078.720106631
 30
0.0
 40
0.505037100001573
  0
CIRCLE
  5
8F
330
1F
100
AcDbEntity
  8
0
  6
Continuous
 62
     7
100
AcDbCircle
 10
8544.9994976687
 20
5078.720106631
 30
0.0
 40
0.5814415000004374
  0
ARC
  5
90
330
1F
100
AcDbEntity
  8
0
  6
Continuous
 62
     7
100
AcDbCircle
 10
8485.57955721
 20
5160.5336651212
 30
0.0
 40
23.24999956194882
100
AcDbArc
 50
102.4186727216
 51
226.9188655413
  0
ARC
  5
91
330
1F
100
AcDbEntity
  8
0
  6
Continuous
 62
     7
100
AcDbCircle
 10
8485.57955721
 20
5160.5336651212
 30
0.0
 40
23.25000177003147
100
AcDbArc
 50
313.0811433094
 51
77.581315444
  0
ARC
  5
92
330
1F
100
AcDbEntity
  8
0
  6
Continuous
 62
     7
100
AcDbCircle
 10
8485.57955721
 20
5160.5336651212
 30
0.0
 40
28.29999570649661
100
AcDbArc
 50
297.4312122875
 51
309.0446924345
  0
ARC
  5
93
330
1F
100
AcDbEntity
  8
0
  6
Continuous
 62
     7
100
AcDbCircle
 10
8485.57955721
 20
5160.5336651212
 30
0.0
 40
28.29999570649661
100
AcDbArc
 50
309.0446924345
 51
242.5687965487
  0
ARC
  5
94
330
1F
100
AcDbEntity
  8
0
  6
Continuous
 62
     7
100
AcDbCircle
 10
8982.3840772493
 20
5178.6336693628
 30
0.0
 40
1.999999999999559
100
AcDbArc
 50
359.9999906062
 51
90.0001161129
  0
ARC
  5
95
330
1F
100
AcDbEntity
  8
0
  6
Continuous
 62
     7
100
AcDbCircle
 10
8976.1840763433
 20
5137.4336668713
 30
0.0
 40
2.999999999998757
100
AcDbArc
 50
0.000069895
 51
90.000072399
  0
ARC
  5
96
330
1F
100
AcDbEntity
  8
0
  6
Continuous
 62
     7
100
AcDbCircle
 10
8979.6840786322
 20
5128.3336696489
 30
0.0
 40
0.5000000000005128
100
AcDbArc
 50
179.9998838796
 51
269.9992623285
  0
ARC
  5
97
330
1F
100
AcDbEntity
  8
0
  6
Continuous
 62
     7
100
AcDbCircle
 10
8982.3840772493
 20
5129.8336696489
 30
0.0
 40
2.000000000000469
100
AcDbArc
 50
269.999883887
 51
0.0001161129
  0
ARC
  5
98
330
1F
100
AcDbEntity
  8
0
  6
Continuous
 62
     7
100
AcDbCircle
 10
8975.884075938
 20
5183.6073365882
 30
0.0
 40
0.5000000000011063
100
AcDbArc
 50
0.0001205348
 51
76.6575884702
  0
ARC
  5
99
330
1F
100
AcDbEntity
  8
0
  6
Continuous
 62
     7
100
AcDbCircle
 10
8966.8840705736
 20
5183.6073351237
 30
0.0
 40
0.5000000000026941
100
AcDbArc
 50
103.3416842982
 51
179.9997116465
  0
ARC
  5
9A
330
1F
100
AcDbEntity
  8
0
  6
Continuous
 62
     7
100
AcDbCircle
 10
8971.3840763433
 20
5164.633670531
 30
0.0
 40
20.00000000000011
100
AcDbArc
 50
76.6576362029
 51
103.3423637971
  0
ARC
  5
9B
330
1F
100
AcDbEntity
  8
0
  6
Continuous
 62
     7
100
AcDbCircle
 10
8930.5840763432
 20
5132.2336736901
 30
0.0
 40
0.200000000000649
100
AcDbArc
 50
180.0009050152
 51
269.9997609694
  0
ARC
  5
9C
330
1F
100
AcDbEntity
  8
0
  6
Continuous
 62
     7
100
AcDbCircle
 10
8930.5840763433
 20
5188.8336699946
 30
0.0
 40
0.2000000000014469
100
AcDbArc
 50
90.0002390379
 51
179.9998463333
  0
ARC
  5
9D
330
1F
100
AcDbEntity
  8
0
  6
Continuous
 62
     7
100
AcDbCircle
 10
8933.184078203
 20
5132.2336736901
 30
0.0
 40
0.199999999999369
100
AcDbArc
 50
269.9990301139
 51
359.9988354434
  0
ARC
  5
9E
330
1F
100
AcDbEntity
  8
0
  6
Continuous
 62
     7
100
AcDbCircle
 10
8933.184078203
 20
5188.8336699947
 30
0.0
 40
0.1999999999993683
100
AcDbArc
 50
0.0000973088
 51
90.0009698741
  0
ARC
  5
9F
330
1F
100
AcDbEntity
  8
0
  6
Continuous
 62
     7
100
AcDbCircle
 10
8918.854397529
 20
5161.7336705305
 30
0.0
 40
0.5000000000002428
100
AcDbArc
 50
147.7243556854
 51
263.1064438746
  0
ARC
  5
A0
330
1F
100
AcDbEntity
  8
0
  6
Continuous
 62
     7
100
AcDbCircle
 10
8919.3340777737
 20
5099.7636732919
 30
0.0
 40
0.5000000000001174
100
AcDbArc
 50
180.0007376601
 51
270.0001161203
  0
ARC
  5
A1
330
1F
100
AcDbEntity
  8
0
  6
Continuous
 62
     7
100
AcDbCircle
 10
8917.6840763433
 20
5117.013670531
 30
0.0
 40
1.150000000000543
100
AcDbArc
 50
290.3544063982
 51
69.6455936018
  0
ARC
  5
A2
330
1F
100
AcDbEntity
  8
0
  6
Continuous
 62
     7
100
AcDbCircle
 10
8917.6840777738
 20
5106.7136700003
 30
0.0
 40
1.150000000001673
100
AcDbArc
 50
0.000136673
 51
69.6456696195
  0
ARC
  5
A3
330
1F
100
AcDbEntity
  8
0
  6
Continuous
 62
     7
100
AcDbCircle
 10
8915.2340763433
 20
5215.233670531
 30
0.0
 40
0.1999999999998181
100
AcDbArc
 50
270.0
 51
32.7790806689
  0
ARC
  5
A4
330
1F
100
AcDbEntity
  8
0
  6
Continuous
 62
     7
100
AcDbCircle
 10
8908.9340763433
 20
5215.233670531
 30
0.0
 40
0.1999999999998239
100
AcDbArc
 50
147.2209193325
 51
270.0
  0
ARC
  5
A5
330
1F
100
AcDbEntity
  8
0
  6
Continuous
 62
     7
100
AcDbCircle
 10
8913.584076341
 20
5214.1711705346
 30
0.0
 40
2.162500000000451
100
AcDbArc
 50
32.7790805547
 51
89.9999478226
  0
ARC
  5
A6
330
1F
100
AcDbEntity
  8
0
  6
Continuous
 62
     7
100
AcDbCircle
 10
8910.5840763456
 20
5214.1711705346
 30
0.0
 40
2.162500000000208
100
AcDbArc
 50
89.9999116233
 51
147.2209194455
  0
ARC
  5
A7
330
1F
100
AcDbEntity
  8
0
  6
Continuous
 62
     7
100
AcDbCircle
 10
8908.9340763433
 20
5059.833670531
 30
0.0
 40
0.1999999999998181
100
AcDbArc
 50
89.9999999995
 51
212.7790806684
  0
ARC
  5
A8
330
1F
100
AcDbEntity
  8
0
  6
Continuous
 62
     7
100
AcDbCircle
 10
8915.2340763433
 20
5059.833670531
 30
0.0
 40
0.2000000000008087
100
AcDbArc
 50
327.2209193321
 51
89.9999999995
  0
ARC
  5
A9
330
1F
100
AcDbEntity
  8
0
  6
Continuous
 62
     7
100
AcDbCircle
 10
8910.5840720906
 20
5060.8961771352
 30
0.0
 40
2.162500000001984
100
AcDbArc
 50
212.7792887872
 51
270.0002011144
  0
ARC
  5
AA
330
1F
100
AcDbEntity
  8
0
  6
Continuous
 62
     7
100
AcDbCircle
 10
8913.584080596
 20
5060.8961771352
 30
0.0
 40
2.162500000001231
100
AcDbArc
 50
269.9999394395
 51
327.2207112124
  0
ARC
  5
AB
330
1F
100
AcDbEntity
  8
0
  6
Continuous
 62
     7
100
AcDbCircle
 10
8920.3840795739
 20
5212.5336703634
 30
0.0
 40
9.99999999999871
100
AcDbArc
 50
0.0000012805
 51
90.0000307358
  0
ARC
  5
AC
330
1F
100
AcDbEntity
  8
0
  6
Continuous
 62
     7
100
AcDbCircle
 10
8920.3840795739
 20
5062.5336764915
 30
0.0
 40
10.00000000000053
100
AcDbArc
 50
269.9999692642
 51
359.9999453582
  0
ARC
  5
AD
330
1F
100
AcDbEntity
  8
0
  6
Continuous
 62
     7
100
AcDbCircle
 10
8918.639869473
 20
5161.3974776049
 30
0.0
 40
0.5009424738367088
100
AcDbArc
 50
153.7832378271
 51
266.9488188908
  0
ARC
  5
AE
330
1F
100
AcDbEntity
  8
0
  6
Continuous
 62
     7
100
AcDbCircle
 10
8918.5840745552
 20
5163.1783452896
 30
0.0
 40
0.4999999999996664
100
AcDbArc
 50
327.7244583224
 51
359.9999475847
  0
ARC
  5
AF
330
1F
100
AcDbEntity
  8
0
  6
Continuous
 62
     7
100
AcDbCircle
 10
8919.3850161957
 20
5162.6740630616
 30
0.0
 40
0.4464724293314224
100
AcDbArc
 50
147.8952014693
 51
183.8153464714
  0
ARC
  5
B0
330
1F
100
AcDbEntity
  8
0
  6
Continuous
 62
     7
100
AcDbCircle
 10
8919.4606049515
 20
5162.8262867938
 30
0.0
 40
0.4445920270029044
100
AcDbArc
 50
158.1466085658
 51
182.7169445732
  0
ARC
  5
B1
330
1F
100
AcDbEntity
  8
0
  6
Continuous
 62
     7
100
AcDbCircle
 10
8868.0840763433
 20
5080.033670531
 30
0.0
 40
4.750000000000503
100
AcDbArc
 50
169.8484146344
 51
281.1110537714
  0
ARC
  5
B2
330
1F
100
AcDbEntity
  8
0
  6
Continuous
 62
     7
100
AcDbCircle
 10
8868.0840763433
 20
5080.033670531
 30
0.0
 40
3.999999999999009
100
AcDbArc
 50
94.8568559989
 51
115.331600629
  0
ARC
  5
B3
330
1F
100
AcDbEntity
  8
0
  6
Continuous
 62
     7
100
AcDbCircle
 10
8868.0840763433
 20
5080.033670531
 30
0.0
 40
4.000000000002585
100
AcDbArc
 50
177.7259759781
 51
282.2605667908
  0
CIRCLE
  5
B4
330
1F
100
AcDbEntity
  8
0
  6
Continuous
 62
     7
100
AcDbCircle
 10
8868.0840763433
 20
5195.033670531
 30
0.0
 40
5.0
  0
CIRCLE
  5
B5
330
1F
100
AcDbEntity
  8
0
  6
Continuous
 62
     7
100
AcDbCircle
 10
8868.0840763433
 20
5080.033670531
 30
0.0
 40
5.0
  0
ARC
  5
B6
330
1F
100
AcDbEntity
  8
0
  6
Continuous
 62
     7
100
AcDbCircle
 10
8918.0840731962
 20
5212.0265637844
 30
0.0
 40
1.800000000001139
100
AcDbArc
 50
360.0
 51
89.9997840904
  0
ARC
  5
B7
330
1F
100
AcDbEntity
  8
0
  6
Continuous
 62
     7
100
AcDbCircle
 10
8918.0840731962
 20
5212.0265637844
 30
0.0
 40
0.800001556299322
100
AcDbArc
 50
359.9999975284
 51
89.9997746054
  0
ARC
  5
B8
330
1F
100
AcDbEntity
  8
0
  6
Continuous
 62
     7
100
AcDbCircle
 10
8918.0840763433
 20
5063.0407773122
 30
0.0
 40
0.8000000000010914
100
AcDbArc
 50
270.0
 51
0.0
  0
ARC
  5
B9
330
1F
100
AcDbEntity
  8
0
  6
Continuous
 62
     7
100
AcDbCircle
 10
8918.0840763433
 20
5063.0407773122
 30
0.0
 40
1.799995780106519
100
AcDbArc
 50
270.0001157346
 51
0.0001897226
  0
ARC
  5
BA
330
1F
100
AcDbEntity
  8
0
  6
Continuous
 62
     7
100
AcDbCircle
 10
8503.6795603184
 20
4701.7532286671
 30
0.0
 40
2.000000000000469
100
AcDbArc
 50
269.9999906091
 51
0.0001161128
  0
ARC
  5
BB
330
1F
100
AcDbEntity
  8
0
  6
Continuous
 62
     7
100
AcDbCircle
 10
8467.4795615522
 20
4701.7532286671
 30
0.0
 40
1.999999999999247
100
AcDbArc
 50
179.9998838871
 51
269.9999026718
  0
ARC
  5
BC
330
1F
100
AcDbEntity
  8
0
  6
Continuous
 62
     7
100
AcDbCircle
 10
8457.2795609204
 20
4753.5532295731
 30
0.0
 40
0.2000000000010065
100
AcDbArc
 50
90.0003585849
 51
179.9997609343
  0
ARC
  5
BD
330
1F
100
AcDbEntity
  8
0
  6
Continuous
 62
     7
100
AcDbCircle
 10
8513.8795609502
 20
4753.5532295731
 30
0.0
 40
0.2000000000024686
100
AcDbArc
 50
0.000239066
 51
90.0003671221
  0
ARC
  5
BE
330
1F
100
AcDbEntity
  8
0
  6
Continuous
 62
     7
100
AcDbCircle
 10
8457.2795609203
 20
4750.9532277134
 30
0.0
 40
0.2000000000002008
100
AcDbArc
 50
179.9990300852
 51
269.9988354713
  0
ARC
  5
BF
330
1F
100
AcDbEntity
  8
0
  6
Continuous
 62
     7
100
AcDbCircle
 10
8513.8795609502
 20
4750.9532277134
 30
0.0
 40
0.2000000000010162
100
AcDbArc
 50
270.0000973377
 51
0.0009699028
  0
ARC
  5
C0
330
1F
100
AcDbEntity
  8
0
  6
Continuous
 62
     7
100
AcDbCircle
 10
8442.2901436994
 20
4765.553232084
 30
0.0
 40
0.5000000000003959
100
AcDbArc
 50
269.9991227674
 51
322.648817931
  0
ARC
  5
C1
330
1F
100
AcDbEntity
  8
0
  6
Continuous
 62
     7
100
AcDbCircle
 10
8463.579558398
 20
4766.750724594
 30
0.0
 40
1.999999999999203
100
AcDbArc
 50
272.8660553054
 51
339.5892736157
  0
ARC
  5
C2
330
1F
100
AcDbEntity
  8
0
  6
Continuous
 62
     7
100
AcDbCircle
 10
8563.9795596912
 20
4810.2532304433
 30
0.0
 40
0.8000000000010923
100
AcDbArc
 50
269.9999972856
 51
359.9999026687
  0
ARC
  5
C3
330
1F
100
AcDbEntity
  8
0
  6
Continuous
 62
     7
100
AcDbCircle
 10
8563.9795596912
 20
4821.8532303718
 30
0.0
 40
0.8000000000010923
100
AcDbArc
 50
359.9999639252
 51
90.0000027144
  0
ARC
  5
C4
330
1F
100
AcDbEntity
  8
0
  6
Continuous
 62
     7
100
AcDbCircle
 10
8508.1291964721
 20
4813.372593705
 30
0.0
 40
0.4000000000004235
100
AcDbArc
 50
355.5802766621
 51
85.5806478971
  0
ARC
  5
C5
330
1F
100
AcDbEntity
  8
0
  6
Continuous
 62
     7
100
AcDbCircle
 10
8507.7303858362
 20
4813.4034170203
 30
0.0
 40
0.3999999999998556
100
AcDbArc
 50
85.5801582461
 51
175.5803822292
  0
ARC
  5
C6
330
1F
100
AcDbEntity
  8
0
  6
Continuous
 62
     7
100
AcDbCircle
 10
8508.7428234218
 20
4813.5257609516
 30
0.0
 40
0.199999999999922
100
AcDbArc
 50
85.5799296955
 51
175.5800967216
  0
CIRCLE
  5
C7
330
1F
100
AcDbEntity
  8
0
  6
Continuous
 62
     7
100
AcDbCircle
 10
8551.0795596687
 20
4772.0532295731
 30
0.0
 40
3.350000000000364
  0
CIRCLE
  5
C8
330
1F
100
AcDbEntity
  8
0
  6
Continuous
 62
     7
100
AcDbCircle
 10
8420.0795596687
 20
4772.0532295731
 30
0.0
 40
3.350000000000364
  0
ARC
  5
C9
330
1F
100
AcDbEntity
  8
0
  6
Continuous
 62
     7
100
AcDbCircle
 10
8560.5795595011
 20
4763.7532263425
 30
0.0
 40
10.00000000000182
100
AcDbArc
 50
270.0000012806
 51
0.0000307357
  0
ARC
  5
CA
330
1F
100
AcDbEntity
  8
0
  6
Continuous
 62
     7
100
AcDbCircle
 10
8410.5795656292
 20
4763.7532263425
 30
0.0
 40
10.00000000000144
100
AcDbArc
 50
179.9999692642
 51
269.9999453582
  0
CIRCLE
  5
CB
330
1F
100
AcDbEntity
  8
0
  6
Continuous
 62
     7
100
AcDbCircle
 10
8485.5795596687
 20
4712.7532295731
 30
0.0
 40
4.615384615386574
  0
CIRCLE
  5
CC
330
1F
100
AcDbEntity
  8
0
  6
Continuous
 62
     7
100
AcDbCircle
 10
8485.5795596687
 20
4712.7532295731
 30
0.0
 40
5.000000000001819
  0
ARC
  5
CD
330
1F
100
AcDbEntity
  8
0
  6
Continuous
 62
     7
100
AcDbCircle
 10
8485.5795571664
 20
4832.0532279369
 30
0.0
 40
13.22050000000042
100
AcDbArc
 50
33.1797476098
 51
123.1797239496
  0
CIRCLE
  5
CE
330
1F
100
AcDbEntity
  8
0
  6
Continuous
 62
     7
100
AcDbCircle
 10
8485.5795571664
 20
4832.0532279369
 30
0.0
 40
11.72050250230507
  0
CIRCLE
  5
CF
330
1F
100
AcDbEntity
  8
0
  6
Continuous
 62
     7
100
AcDbCircle
 10
8485.5795571664
 20
4832.0532279369
 30
0.0
 40
9.750002502307462
  0
ARC
  5
D0
330
1F
100
AcDbEntity
  8
0
  6
Continuous
 62
     7
100
AcDbCircle
 10
8430.5797596312
 20
4772.3023677266
 30
0.0
 40
6.999140446196722
100
AcDbArc
 50
270.4019435135
 51
296.7672162725
  0
ARC
  5
D1
330
1F
100
AcDbEntity
  8
0
  6
Continuous
 62
     7
100
AcDbCircle
 10
8430.5795596687
 20
4772.3032295731
 30
0.0
 40
7.000000000000392
100
AcDbArc
 50
260.4008593349
 51
296.7655005768
  0
ARC
  5
D2
330
1F
100
AcDbEntity
  8
0
  6
Continuous
 62
     7
100
AcDbCircle
 10
8437.8404186379
 20
4765.6991917169
 30
0.0
 40
0.999999999999983
100
AcDbArc
 50
287.7122510717
 51
347.7122871558
  0
ARC
  5
D3
330
1F
100
AcDbEntity
  8
0
  6
Continuous
 62
     7
100
AcDbCircle
 10
8442.2639810362
 20
4765.5296615182
 30
0.0
 40
0.4771468224564884
100
AcDbArc
 50
273.1422676993
 51
2.8312078184
  0
CIRCLE
  5
D4
330
1F
100
AcDbEntity
  8
0
  6
Continuous
 62
     7
100
AcDbCircle
 10
8485.5795571664
 20
4832.0532279369
 30
0.0
 40
9.500002502307465
  0
CIRCLE
  5
D5
330
1F
100
AcDbEntity
  8
0
  6
Continuous
 62
     7
100
AcDbCircle
 10
8485.5795571664
 20
4832.0532279369
 30
0.0
 40
7.500002502305684
  0
CIRCLE
  5
D6
330
1F
100
AcDbEntity
  8
0
  6
Continuous
 62
     7
100
AcDbCircle
 10
8485.5795571664
 20
4832.0532279369
 30
0.0
 40
4.500002502307622
  0
CIRCLE
  5
D7
330
1F
100
AcDbEntity
  8
0
  6
Continuous
 62
     7
100
AcDbCircle
 10
8551.0795596687
 20
4772.0532295731
 30
0.0
 40
1.500000000001819
  0
CIRCLE
  5
D8
330
1F
100
AcDbEntity
  8
0
  6
Continuous
 62
     7
100
AcDbCircle
 10
8551.0795596687
 20
4772.0532295731
 30
0.0
 40
3.318152866242599
  0
CIRCLE
  5
D9
330
1F
100
AcDbEntity
  8
0
  6
Continuous
 62
     7
100
AcDbCircle
 10
8551.0795596687
 20
4772.0532295731
 30
0.0
 40
1.250000000001819
  0
CIRCLE
  5
DA
330
1F
100
AcDbEntity
  8
0
  6
Continuous
 62
     7
100
AcDbCircle
 10
8551.0795596687
 20
4772.0532295731
 30
0.0
 40
1.050000000001091
  0
CIRCLE
  5
DB
330
1F
100
AcDbEntity
  8
0
  6
Continuous
 62
     7
100
AcDbCircle
 10
8420.0795596687
 20
4772.0532295731
 30
0.0
 40
1.500000000001819
  0
CIRCLE
  5
DC
330
1F
100
AcDbEntity
  8
0
  6
Continuous
 62
     7
100
AcDbCircle
 10
8420.0795596687
 20
4772.0532295731
 30
0.0
 40
3.318152866242599
  0
CIRCLE
  5
DD
330
1F
100
AcDbEntity
  8
0
  6
Continuous
 62
     7
100
AcDbCircle
 10
8420.0795596687
 20
4772.0532295731
 30
0.0
 40
1.250000000001819
  0
CIRCLE
  5
DE
330
1F
100
AcDbEntity
  8
0
  6
Continuous
 62
     7
100
AcDbCircle
 10
8420.0795596687
 20
4772.0532295731
 30
0.0
 40
1.049999999999272
  0
CIRCLE
  5
DF
330
1F
100
AcDbEntity
  8
0
  6
Continuous
 62
     7
100
AcDbCircle
 10
8508.0795596687
 20
4816.0532295731
 30
0.0
 40
5.0
  0
CIRCLE
  5
E0
330
1F
100
AcDbEntity
  8
0
  6
Continuous
 62
     7
100
AcDbCircle
 10
8463.0795596687
 20
4816.0532295731
 30
0.0
 40
4.999999999998181
  0
ARC
  5
E1
330
1F
100
AcDbEntity
  8
0
  6
Continuous
 62
     7
100
AcDbCircle
 10
8409.8795579163
 20
4766.0532295731
 30
0.0
 40
0.7999974131539407
100
AcDbArc
 50
180.0002604026
 51
269.9999402341
  0
ARC
  5
E2
330
1F
100
AcDbEntity
  8
0
  6
Continuous
 62
     7
100
AcDbCircle
 10
8409.8795579163
 20
4766.0532295731
 30
0.0
 40
1.79999943974923
100
AcDbArc
 50
180.0001157341
 51
269.9999567419
  0
ARC
  5
E3
330
1F
100
AcDbEntity
  8
0
  6
Continuous
 62
     7
100
AcDbCircle
 10
8561.2795612185
 20
4766.0532295731
 30
0.0
 40
0.7999984027038268
100
AcDbArc
 50
270.0000034015
 51
359.9997395977
  0
ARC
  5
E4
330
1F
100
AcDbEntity
  8
0
  6
Continuous
 62
     7
100
AcDbCircle
 10
8561.2795612185
 20
4766.0532295731
 30
0.0
 40
1.799998450198507
100
AcDbArc
 50
270.0
 51
359.9998842658
  0
ARC
  5
E5
330
1F
100
AcDbEntity
  8
0
  6
Continuous
 62
     7
100
AcDbCircle
 10
8442.4042330938
 20
4765.4556258439
 30
0.0
 40
0.3501892233843892
100
AcDbArc
 50
324.0187907843
 51
16.1836589846
  0
ELLIPSE
  5
E6
330
1F
100
AcDbEntity
  8
0
  6
Continuous
 62
     7
100
AcDbEllipse
 10
8911.8340763433
 20
5138.1170038639
 30
0.0
 11
0.0
 21
12.42857142857338
 31
0.0
210
0.0
220
0.0
230
1.0
 40
0.5833333333
 41
4.712388980384698
 42
4.956175918852876
  0
ELLIPSE
  5
E7
330
1F
100
AcDbEntity
  8
0
  6
Continuous
 62
     7
100
AcDbEllipse
 10
8911.8340763433
 20
5138.1170038639
 30
0.0
 11
0.0
 21
12.77142857142917
 31
0.0
210
0.0
220
0.0
230
1.0
 40
0.5833333333
 41
4.712388980384698
 42
4.944624290647566
  0
ELLIPSE
  5
E8
330
1F
100
AcDbEntity
  8
0
  6
Continuous
 62
     7
100
AcDbEllipse
 10
8911.8340763433
 20
5131.5336705305
 30
0.0
 11
0.0
 21
87.0
 31
0.0
210
0.0
220
0.0
230
1.0
 40
0.0833333333
 41
4.82276622409684
 42
4.885668616802218
  0
ELLIPSE
  5
E9
330
1F
100
AcDbEntity
  8
0
  6
Continuous
 62
     7
100
AcDbEllipse
 10
8911.8340763433
 20
5131.5336705305
 30
0.0
 11
0.0
 21
89.40000000000055
 31
0.0
210
0.0
220
0.0
230
1.0
 40
0.0833333333
 41
4.813230946486206
 42
4.880971603876405
  0
ELLIPSE
  5
EA
330
1F
100
AcDbEntity
  8
0
  6
Continuous
 62
     7
100
AcDbEllipse
 10
8911.8340763404
 20
5140.09617053
 30
0.0
 11
7.450000000002547
 21
0.0
 31
0.0
210
0.0
220
0.0
230
1.0
 40
0.5833333333
 41
0.1008419662230014
 42
0.2322353102629932
  0
ELLIPSE
  5
EB
330
1F
100
AcDbEntity
  8
0
  6
Continuous
 62
     7
100
AcDbEllipse
 10
8430.5795603912
 20
4769.1182876366
 30
0.0
 11
13.5
 21
0.0
 31
0.0
210
0.0
220
0.0
230
1.0
 40
0.6081871345
 41
5.834028881449261
 42
5.900612677495054
  0
LINE
  5
EC
330
1F
100
AcDbEntity
  8
0
  6
Continuous
 62
     7
100
AcDbLine
 10
8490.5795617549
 20
5180.0085917277
 30
0.0
 11
8490.5795617549
 21
5183.60733764
 31
0.0
  0
LINE
  5
ED
330
1F
100
AcDbEntity
  8
0
  6
Continuous
 62
     7
100
AcDbLine
 10
8480.5795563905
 20
5183.60733764
 30
0.0
 11
8480.5795563905
 21
5180.0168693228
 31
0.0
  0
LINE
  5
EE
330
1F
100
AcDbEntity
  8
0
  6
Continuous
 62
     7
100
AcDbLine
 10
8498.1142296044
 20
5237.7195038063
 30
0.0
 11
8497.3000599591
 21
5238.5336697264
 31
0.0
  0
LINE
  5
EF
330
1F
100
AcDbEntity
  8
0
  6
Continuous
 62
     7
100
AcDbLine
 10
8473.8590581862
 20
5238.5336697264
 30
0.0
 11
8472.5189520566
 21
5237.1935654594
 31
0.0
  0
LINE
  5
F0
330
1F
100
AcDbEntity
  8
0
  6
Continuous
 62
     7
100
AcDbLine
 10
8498.8000629989
 20
5236.4915140135
 30
0.0
 11
8498.8000629989
 21
5236.8885889811
 31
0.0
  0
LINE
  5
F1
330
1F
100
AcDbEntity
  8
0
  6
Continuous
 62
     7
100
AcDbLine
 10
8498.8000629989
 20
5234.9040132178
 30
0.0
 11
8498.8000629989
 21
5235.3010881854
 31
0.0
  0
LINE
  5
F2
330
1F
100
AcDbEntity
  8
0
  6
Continuous
 62
     7
100
AcDbLine
 10
8498.8000629989
 20
5233.3165142847
 30
0.0
 11
8498.8000629989
 21
5233.7135873897
 31
0.0
  0
LINE
  5
F3
330
1F
100
AcDbEntity
  8
0
  6
Continuous
 62
     7
100
AcDbLine
 10
8498.8000629989
 20
5231.729013489
 30
0.0
 11
8498.8000629989
 21
5232.1260884566
 31
0.0
  0
LINE
  5
F4
330
1F
100
AcDbEntity
  8
0
  6
Continuous
 62
     7
100
AcDbLine
 10
8498.8000629989
 20
5230.1415136246
 30
0.0
 11
8498.8000629989
 21
5230.5385885922
 31
0.0
  0
LINE
  5
F5
330
1F
100
AcDbEntity
  8
0
  6
Continuous
 62
     7
100
AcDbLine
 10
8472.359062597
 20
5229.7447385428
 30
0.0
 11
8472.359062597
 21
5229.5336701138
 31
0.0
  0
LINE
  5
F6
330
1F
100
AcDbEntity
  8
0
  6
Continuous
 62
     7
100
AcDbLine
 10
8472.359062597
 20
5231.3322384072
 30
0.0
 11
8472.359062597
 21
5230.9352584345
 31
0.0
  0
LINE
  5
F7
330
1F
100
AcDbEntity
  8
0
  6
Continuous
 62
     7
100
AcDbLine
 10
8472.359062597
 20
5232.919739203
 30
0.0
 11
8472.359062597
 21
5232.5227592302
 31
0.0
  0
LINE
  5
F8
330
1F
100
AcDbEntity
  8
0
  6
Continuous
 62
     7
100
AcDbLine
 10
8472.359062597
 20
5234.507238136
 30
0.0
 11
8472.359062597
 21
5234.1102581633
 31
0.0
  0
LINE
  5
F9
330
1F
100
AcDbEntity
  8
0
  6
Continuous
 62
     7
100
AcDbLine
 10
8472.359062597
 20
5236.0947389318
 30
0.0
 11
8472.359062597
 21
5235.697758959
 31
0.0
  0
LINE
  5
FA
330
1F
100
AcDbEntity
  8
0
  6
Continuous
 62
     7
100
AcDbLine
 10
8497.9329346267
 20
5237.5739474012
 30
0.0
 11
8498.1045140473
 21
5237.6730717881
 31
0.0
  0
LINE
  5
FB
330
1F
100
AcDbEntity
  8
0
  6
Continuous
 62
     7
100
AcDbLine
 10
8473.2183455078
 20
5235.2023977948
 30
0.0
 11
8473.2183455078
 21
5235.0080661638
 31
0.0
  0
LINE
  5
FC
330
1F
100
AcDbEntity
  8
0
  6
Continuous
 62
     7
100
AcDbLine
 10
8473.2183455078
 20
5233.6148969991
 30
0.0
 11
8473.2183455078
 21
5233.4205672307
 31
0.0
  0
LINE
  5
FD
330
1F
100
AcDbEntity
  8
0
  6
Continuous
 62
     7
100
AcDbLine
 10
8473.2183455078
 20
5232.027398066
 30
0.0
 11
8473.2183455078
 21
5231.833066435
 31
0.0
  0
LINE
  5
FE
330
1F
100
AcDbEntity
  8
0
  6
Continuous
 62
     7
100
AcDbLine
 10
8473.2183455078
 20
5230.4398972703
 30
0.0
 11
8473.2183455078
 21
5230.2455665706
 31
0.0
  0
LINE
  5
FF
330
1F
100
AcDbEntity
  8
0
  6
Continuous
 62
     7
100
AcDbLine
 10
8497.9407726375
 20
5235.7977103604
 30
0.0
 11
8497.9407726375
 21
5235.9909765584
 31
0.0
  0
LINE
  5
100
330
1F
100
AcDbEntity
  8
0
  6
Continuous
 62
     7
100
AcDbLine
 10
8497.9407726375
 20
5234.2102095647
 30
0.0
 11
8497.9407726375
 21
5234.4034776254
 31
0.0
  0
LINE
  5
101
330
1F
100
AcDbEntity
  8
0
  6
Continuous
 62
     7
100
AcDbLine
 10
8497.9407726375
 20
5232.6227106316
 30
0.0
 11
8497.9407726375
 21
5232.8159768296
 31
0.0
  0
LINE
  5
102
330
1F
100
AcDbEntity
  8
0
  6
Continuous
 62
     7
100
AcDbLine
 10
8497.9407726375
 20
5231.0352098359
 30
0.0
 11
8497.9407726375
 21
5231.2284778966
 31
0.0
  0
LINE
  5
103
330
1F
100
AcDbEntity
  8
0
  6
Continuous
 62
     7
100
AcDbLine
 10
8497.9407726375
 20
5229.5336701138
 30
0.0
 11
8497.9407726375
 21
5229.6409771008
 31
0.0
  0
LINE
  5
104
330
1F
100
AcDbEntity
  8
0
  6
Continuous
 62
     7
100
AcDbLine
 10
8497.9407726375
 20
5237.3852092935
 30
0.0
 11
8497.9407726375
 21
5237.5784773542
 31
0.0
  0
LINE
  5
105
330
1F
100
AcDbEntity
  8
0
  6
Continuous
 62
     7
100
AcDbLine
 10
8473.2183455078
 20
5236.7898967279
 30
0.0
 11
8473.2183455078
 21
5236.5955669595
 31
0.0
  0
LINE
  5
106
330
1F
100
AcDbEntity
  8
0
  6
Continuous
 62
     7
100
AcDbLine
 10
8520.372265443
 20
5041.5204666717
 30
0.0
 11
8521.3590613155
 21
5040.533667074
 31
0.0
  0
LINE
  5
107
330
1F
100
AcDbEntity
  8
0
  6
Continuous
 62
     7
100
AcDbLine
 10
8544.8000593631
 20
5040.533667074
 30
0.0
 11
8546.3000605402
 21
5042.0336775644
 31
0.0
  0
LINE
  5
108
330
1F
100
AcDbEntity
  8
0
  6
Continuous
 62
     7
100
AcDbLine
 10
8520.7261605708
 20
5041.761403547
 30
0.0
 11
8520.3677764682
 21
5041.5543668134
 31
0.0
  0
LINE
  5
109
330
1F
100
AcDbEntity
  8
0
  6
Continuous
 62
     7
100
AcDbLine
 10
8519.8590582756
 20
5042.8434513671
 30
0.0
 11
8519.8590582756
 21
5042.446767555
 31
0.0
  0
LINE
  5
10A
330
1F
100
AcDbEntity
  8
0
  6
Continuous
 62
     7
100
AcDbLine
 10
8519.8590582756
 20
5044.4309465749
 30
0.0
 11
8519.8590582756
 21
5044.0342627628
 31
0.0
  0
LINE
  5
10B
330
1F
100
AcDbEntity
  8
0
  6
Continuous
 62
     7
100
AcDbLine
 10
8519.8590582756
 20
5046.0184566839
 30
0.0
 11
8519.8590582756
 21
5045.6217728717
 31
0.0
  0
LINE
  5
10C
330
1F
100
AcDbEntity
  8
0
  6
Continuous
 62
     7
100
AcDbLine
 10
8519.8590582756
 20
5047.6059518916
 30
0.0
 11
8519.8590582756
 21
5047.2092680795
 31
0.0
  0
LINE
  5
10D
330
1F
100
AcDbEntity
  8
0
  6
Continuous
 62
     7
100
AcDbLine
 10
8519.8590582756
 20
5049.1934470994
 30
0.0
 11
8519.8590582756
 21
5048.7967632873
 31
0.0
  0
LINE
  5
10E
330
1F
100
AcDbEntity
  8
0
  6
Continuous
 62
     7
100
AcDbLine
 10
8546.3000605402
 20
5048.0029784305
 30
0.0
 11
8546.3000605402
 21
5048.3998559577
 31
0.0
  0
LINE
  5
10F
330
1F
100
AcDbEntity
  8
0
  6
Continuous
 62
     7
100
AcDbLine
 10
8546.3000605402
 20
5046.4154832227
 30
0.0
 11
8546.3000605402
 21
5046.8123607499
 31
0.0
  0
LINE
  5
110
330
1F
100
AcDbEntity
  8
0
  6
Continuous
 62
     7
100
AcDbLine
 10
8546.3000605402
 20
5044.8279880149
 30
0.0
 11
8546.3000605402
 21
5045.224850641
 31
0.0
  0
LINE
  5
111
330
1F
100
AcDbEntity
  8
0
  6
Continuous
 62
     7
100
AcDbLine
 10
8546.3000605402
 20
5043.240477906
 30
0.0
 11
8546.3000605402
 21
5043.6373554332
 31
0.0
  0
LINE
  5
112
330
1F
100
AcDbEntity
  8
0
  6
Continuous
 62
     7
100
AcDbLine
 10
8545.3528347013
 20
5042.5763629539
 30
0.0
 11
8545.3528347013
 21
5042.7748017175
 31
0.0
  0
LINE
  5
113
330
1F
100
AcDbEntity
  8
0
  6
Continuous
 62
     7
100
AcDbLine
 10
8545.3528347013
 20
5044.1638581617
 30
0.0
 11
8545.3528347013
 21
5044.3622969253
 31
0.0
  0
LINE
  5
114
330
1F
100
AcDbEntity
  8
0
  6
Continuous
 62
     7
100
AcDbLine
 10
8545.3528347013
 20
5045.7513682706
 30
0.0
 11
8545.3528347013
 21
5045.9498070342
 31
0.0
  0
LINE
  5
115
330
1F
100
AcDbEntity
  8
0
  6
Continuous
 62
     7
100
AcDbLine
 10
8545.3528347013
 20
5047.3388634784
 30
0.0
 11
8545.3528347013
 21
5047.537302242
 31
0.0
  0
LINE
  5
116
330
1F
100
AcDbEntity
  8
0
  6
Continuous
 62
     7
100
AcDbLine
 10
8545.3528347013
 20
5048.9263586862
 30
0.0
 11
8545.3528347013
 21
5049.1247974498
 31
0.0
  0
LINE
  5
117
330
1F
100
AcDbEntity
  8
0
  6
Continuous
 62
     7
100
AcDbLine
 10
8520.7183449117
 20
5043.5387395484
 30
0.0
 11
8520.7183449117
 21
5043.3443986041
 31
0.0
  0
LINE
  5
118
330
1F
100
AcDbEntity
  8
0
  6
Continuous
 62
     7
100
AcDbLine
 10
8520.7183449117
 20
5045.1262496574
 30
0.0
 11
8520.7183449117
 21
5044.9318938119
 31
0.0
  0
LINE
  5
119
330
1F
100
AcDbEntity
  8
0
  6
Continuous
 62
     7
100
AcDbLine
 10
8520.7183449117
 20
5046.7137448652
 30
0.0
 11
8520.7183449117
 21
5046.5193890197
 31
0.0
  0
LINE
  5
11A
330
1F
100
AcDbEntity
  8
0
  6
Continuous
 62
     7
100
AcDbLine
 10
8520.7183449117
 20
5048.301240073
 30
0.0
 11
8520.7183449117
 21
5048.1068991287
 31
0.0
  0
LINE
  5
11B
330
1F
100
AcDbEntity
  8
0
  6
Continuous
 62
     7
100
AcDbLine
 10
8520.7183449117
 20
5041.9512443406
 30
0.0
 11
8520.7183449117
 21
5041.7568884952
 31
0.0
  0
LINE
  5
11C
330
1F
100
AcDbEntity
  8
0
  6
Continuous
 62
     7
100
AcDbLine
 10
8425.1958666889
 20
5041.6968666179
 30
0.0
 11
8426.3590662329
 21
5040.533667074
 31
0.0
  0
LINE
  5
11D
330
1F
100
AcDbEntity
  8
0
  6
Continuous
 62
     7
100
AcDbLine
 10
8451.0104222743
 20
5041.7440287931
 30
0.0
 11
8451.3000561444
 21
5042.0336775644
 31
0.0
  0
LINE
  5
11E
330
1F
100
AcDbEntity
  8
0
  6
Continuous
 62
     7
100
AcDbLine
 10
8449.8000605551
 20
5040.533667074
 30
0.0
 11
8450.4509209242
 21
5041.1845348937
 31
0.0
  0
LINE
  5
11F
330
1F
100
AcDbEntity
  8
0
  6
Continuous
 62
     7
100
AcDbLine
 10
8450.4338888971
 20
5049.3501179082
 30
0.0
 11
8450.7186575381
 21
5049.5146118266
 31
0.0
  0
LINE
  5
120
330
1F
100
AcDbEntity
  8
0
  6
Continuous
 62
     7
100
AcDbLine
 10
8424.9845086185
 20
5049.5336704118
 30
0.0
 11
8424.8655228464
 21
5049.4649313552
 31
0.0
  0
LINE
  5
121
330
1F
100
AcDbEntity
  8
0
  6
Continuous
 62
     7
100
AcDbLine
 10
8424.8590557424
 20
5043.1074403388
 30
0.0
 11
8424.8590557424
 21
5042.7104883058
 31
0.0
  0
LINE
  5
122
330
1F
100
AcDbEntity
  8
0
  6
Continuous
 62
     7
100
AcDbLine
 10
8424.8590557424
 20
5044.6949355466
 30
0.0
 11
8424.8590557424
 21
5044.2979984147
 31
0.0
  0
LINE
  5
123
330
1F
100
AcDbEntity
  8
0
  6
Continuous
 62
     7
100
AcDbLine
 10
8424.8590557424
 20
5046.2824307544
 30
0.0
 11
8424.8590557424
 21
5045.8854936225
 31
0.0
  0
LINE
  5
124
330
1F
100
AcDbEntity
  8
0
  6
Continuous
 62
     7
100
AcDbLine
 10
8424.8590557424
 20
5047.8699408634
 30
0.0
 11
8424.8590557424
 21
5047.4729888303
 31
0.0
  0
LINE
  5
125
330
1F
100
AcDbEntity
  8
0
  6
Continuous
 62
     7
100
AcDbLine
 10
8424.8590557424
 20
5049.5336704118
 30
0.0
 11
8424.8590557424
 21
5049.0604989393
 31
0.0
  0
LINE
  5
126
330
1F
100
AcDbEntity
  8
0
  6
Continuous
 62
     7
100
AcDbLine
 10
8451.3000561444
 20
5048.2666395767
 30
0.0
 11
8451.3000561444
 21
5048.6635022027
 31
0.0
  0
LINE
  5
127
330
1F
100
AcDbEntity
  8
0
  6
Continuous
 62
     7
100
AcDbLine
 10
8451.3000561444
 20
5046.6791294677
 30
0.0
 11
8451.3000561444
 21
5047.0760069949
 31
0.0
  0
LINE
  5
128
330
1F
100
AcDbEntity
  8
0
  6
Continuous
 62
     7
100
AcDbLine
 10
8451.3000561444
 20
5045.0916342599
 30
0.0
 11
8451.3000561444
 21
5045.4885117872
 31
0.0
  0
LINE
  5
129
330
1F
100
AcDbEntity
  8
0
  6
Continuous
 62
     7
100
AcDbLine
 10
8451.3000561444
 20
5043.5041390521
 30
0.0
 11
8451.3000561444
 21
5043.9010016782
 31
0.0
  0
LINE
  5
12A
330
1F
100
AcDbEntity
  8
0
  6
Continuous
 62
     7
100
AcDbLine
 10
8451.3000561444
 20
5042.0336775644
 30
0.0
 11
8451.3000561444
 21
5042.3135064704
 31
0.0
  0
LINE
  5
12B
330
1F
100
AcDbEntity
  8
0
  6
Continuous
 62
     7
100
AcDbLine
 10
8450.4408030359
 20
5042.809700237
 30
0.0
 11
8450.4408030359
 21
5043.004100786
 31
0.0
  0
LINE
  5
12C
330
1F
100
AcDbEntity
  8
0
  6
Continuous
 62
     7
100
AcDbLine
 10
8450.4408030359
 20
5044.3971954448
 30
0.0
 11
8450.4408030359
 21
5044.5916108949
 31
0.0
  0
LINE
  5
12D
330
1F
100
AcDbEntity
  8
0
  6
Continuous
 62
     7
100
AcDbLine
 10
8450.4408030359
 20
5045.9846906526
 30
0.0
 11
8450.4408030359
 21
5046.1791061027
 31
0.0
  0
LINE
  5
12E
330
1F
100
AcDbEntity
  8
0
  6
Continuous
 62
     7
100
AcDbLine
 10
8450.4408030359
 20
5047.5722007615
 30
0.0
 11
8450.4408030359
 21
5047.7666013105
 31
0.0
  0
LINE
  5
12F
330
1F
100
AcDbEntity
  8
0
  6
Continuous
 62
     7
100
AcDbLine
 10
8450.4408030359
 20
5049.1596959693
 30
0.0
 11
8450.4408030359
 21
5049.3541114194
 31
0.0
  0
LINE
  5
130
330
1F
100
AcDbEntity
  8
0
  6
Continuous
 62
     7
100
AcDbLine
 10
8425.7183163015
 20
5043.801879154
 30
0.0
 11
8425.7183163015
 21
5043.607568012
 31
0.0
  0
LINE
  5
131
330
1F
100
AcDbEntity
  8
0
  6
Continuous
 62
     7
100
AcDbLine
 10
8425.7183163015
 20
5045.3893892629
 30
0.0
 11
8425.7183163015
 21
5045.1950632198
 31
0.0
  0
LINE
  5
132
330
1F
100
AcDbEntity
  8
0
  6
Continuous
 62
     7
100
AcDbLine
 10
8425.7183163015
 20
5046.9768844707
 30
0.0
 11
8425.7183163015
 21
5046.7825733287
 31
0.0
  0
LINE
  5
133
330
1F
100
AcDbEntity
  8
0
  6
Continuous
 62
     7
100
AcDbLine
 10
8425.7183163015
 20
5048.5643796785
 30
0.0
 11
8425.7183163015
 21
5048.3700685365
 31
0.0
  0
LINE
  5
134
330
1F
100
AcDbEntity
  8
0
  6
Continuous
 62
     7
100
AcDbLine
 10
8425.7183163015
 20
5042.2143839462
 30
0.0
 11
8425.7183163015
 21
5042.0200728042
 31
0.0
  0
LINE
  5
135
330
1F
100
AcDbEntity
  8
0
  6
Continuous
 62
     7
100
AcDbLine
 10
8450.4408030359
 20
5041.2221901281
 30
0.0
 11
8450.4408030359
 21
5041.4166055782
 31
0.0
  0
LINE
  5
136
330
1F
100
AcDbEntity
  8
0
  6
Continuous
 62
     7
100
AcDbLine
 10
8560.5795597246
 20
5222.5336703634
 30
0.0
 11
8410.5795560924
 21
5222.5336703634
 31
0.0
  0
LINE
  5
137
330
1F
100
AcDbEntity
  8
0
  6
Continuous
 62
     7
100
AcDbLine
 10
8560.5795597246
 20
5222.5336703634
 30
0.0
 11
8560.5795595011
 21
5212.5336703634
 31
0.0
  0
LINE
  5
138
330
1F
100
AcDbEntity
  8
0
  6
Continuous
 62
     7
100
AcDbLine
 10
8560.5795595011
 20
5212.5336703634
 30
0.0
 11
8410.5795656292
 21
5212.5336703634
 31
0.0
  0
LINE
  5
139
330
1F
100
AcDbEntity
  8
0
  6
Continuous
 62
     7
100
AcDbLine
 10
8410.5795560924
 20
5222.5336703634
 30
0.0
 11
8410.5795656292
 21
5212.5336703634
 31
0.0
  0
LINE
  5
13A
330
1F
100
AcDbEntity
  8
0
  6
Continuous
 62
     7
100
AcDbLine
 10
8410.5795656292
 20
5062.5336764915
 30
0.0
 11
8560.5795595011
 21
5062.5336764915
 31
0.0
  0
LINE
  5
13B
330
1F
100
AcDbEntity
  8
0
  6
Continuous
 62
     7
100
AcDbLine
 10
8560.5795595011
 20
5062.5336764915
 30
0.0
 11
8560.5795597246
 21
5052.5336764915
 31
0.0
  0
LINE
  5
13C
330
1F
100
AcDbEntity
  8
0
  6
Continuous
 62
     7
100
AcDbLine
 10
8410.5795560924
 20
5052.5336764915
 30
0.0
 11
8560.5795597246
 21
5052.5336764915
 31
0.0
  0
LINE
  5
13D
330
1F
100
AcDbEntity
  8
0
  6
Continuous
 62
     7
100
AcDbLine
 10
8410.5795656292
 20
5062.5336764915
 30
0.0
 11
8410.5795560924
 21
5052.5336764915
 31
0.0
  0
LINE
  5
13E
330
1F
100
AcDbEntity
  8
0
  6
Continuous
 62
     7
100
AcDbLine
 10
8410.5795656292
 20
5212.5336703634
 30
0.0
 11
8410.5795656292
 21
5062.5336764915
 31
0.0
  0
LINE
  5
13F
330
1F
100
AcDbEntity
  8
0
  6
Continuous
 62
     7
100
AcDbLine
 10
8560.5795595011
 20
5062.5336764915
 30
0.0
 11
8560.5795595011
 21
5212.5336703634
 31
0.0
  0
LINE
  5
140
330
1F
100
AcDbEntity
  8
0
  6
Continuous
 62
     7
100
AcDbLine
 10
8501.2795603421
 20
5101.1336684389
 30
0.0
 11
8469.8795615283
 21
5101.1336684389
 31
0.0
  0
LINE
  5
141
330
1F
100
AcDbEntity
  8
0
  6
Continuous
 62
     7
100
AcDbLine
 10
8468.7295606879
 20
5099.9836675985
 30
0.0
 11
8468.7295606879
 21
5087.0836727484
 31
0.0
  0
LINE
  5
142
330
1F
100
AcDbEntity
  8
0
  6
Continuous
 62
     7
100
AcDbLine
 10
8469.8795652536
 20
5085.9336756333
 30
0.0
 11
8501.2795640674
 21
5085.9336756333
 31
0.0
  0
LINE
  5
143
330
1F
100
AcDbEntity
  8
0
  6
Continuous
 62
     7
100
AcDbLine
 10
8502.4295649079
 20
5087.0836727483
 30
0.0
 11
8502.4295649078
 21
5099.9836675986
 31
0.0
  0
LINE
  5
144
330
1F
100
AcDbEntity
  8
0
  6
Continuous
 62
     7
100
AcDbLine
 10
8560.5795595011
 20
5212.5336703634
 30
0.0
 11
8570.5795595011
 21
5212.5336705869
 31
0.0
  0
LINE
  5
145
330
1F
100
AcDbEntity
  8
0
  6
Continuous
 62
     7
100
AcDbLine
 10
8570.5795595011
 20
5062.5336669547
 30
0.0
 11
8570.5795595011
 21
5212.5336705869
 31
0.0
  0
LINE
  5
146
330
1F
100
AcDbEntity
  8
0
  6
Continuous
 62
     7
100
AcDbLine
 10
8560.5795595011
 20
5062.5336764915
 30
0.0
 11
8570.5795595011
 21
5062.5336669547
 31
0.0
  0
LINE
  5
147
330
1F
100
AcDbEntity
  8
0
  6
Continuous
 62
     7
100
AcDbLine
 10
8400.5795656292
 20
5212.5336705869
 30
0.0
 11
8400.5795656292
 21
5062.5336669547
 31
0.0
  0
LINE
  5
148
330
1F
100
AcDbEntity
  8
0
  6
Continuous
 62
     7
100
AcDbLine
 10
8400.5795656292
 20
5212.5336705869
 30
0.0
 11
8410.5795656292
 21
5212.5336703634
 31
0.0
  0
LINE
  5
149
330
1F
100
AcDbEntity
  8
0
  6
Continuous
 62
     7
100
AcDbLine
 10
8400.5795656292
 20
5062.5336669547
 30
0.0
 11
8410.5795656292
 21
5062.5336764915
 31
0.0
  0
LINE
  5
14A
330
1F
100
AcDbEntity
  8
0
  6
Continuous
 62
     7
100
AcDbLine
 10
8468.2471840231
 20
5155.3184144361
 30
0.0
 11
8473.1308980433
 21
5139.087905751
 31
0.0
  0
LINE
  5
14B
330
1F
100
AcDbEntity
  8
0
  6
Continuous
 62
     7
100
AcDbLine
 10
8473.1308980433
 20
5139.087905751
 30
0.0
 11
8472.757258877
 21
5138.9754839403
 31
0.0
  0
LINE
  5
14C
330
1F
100
AcDbEntity
  8
0
  6
Continuous
 62
     7
100
AcDbLine
 10
8472.757258877
 20
5138.9754839403
 30
0.0
 11
8472.39798443
 21
5138.8673760159
 31
0.0
  0
LINE
  5
14D
330
1F
100
AcDbEntity
  8
0
  6
Continuous
 62
     7
100
AcDbLine
 10
8472.39798443
 20
5138.8673760159
 30
0.0
 11
8472.0668806283
 21
5138.7677468521
 31
0.0
  0
LINE
  5
14E
330
1F
100
AcDbEntity
  8
0
  6
Continuous
 62
     7
100
AcDbLine
 10
8472.0668806283
 20
5138.7677468521
 30
0.0
 11
8471.7766581623
 21
5138.6804260475
 31
0.0
  0
LINE
  5
14F
330
1F
100
AcDbEntity
  8
0
  6
Continuous
 62
     7
100
AcDbLine
 10
8471.7766581623
 20
5138.6804260475
 30
0.0
 11
8471.5384780018
 21
5138.6087589128
 31
0.0
  0
LINE
  5
150
330
1F
100
AcDbEntity
  8
0
  6
Continuous
 62
     7
100
AcDbLine
 10
8471.5384780018
 20
5138.6087589128
 30
0.0
 11
8471.3614969103
 21
5138.5555021627
 31
0.0
  0
LINE
  5
151
330
1F
100
AcDbEntity
  8
0
  6
Continuous
 62
     7
100
AcDbLine
 10
8471.3614969103
 20
5138.5555021627
 30
0.0
 11
8471.2525172679
 21
5138.5227121575
 31
0.0
  0
LINE
  5
152
330
1F
100
AcDbEntity
  8
0
  6
Continuous
 62
     7
100
AcDbLine
 10
8471.2525172679
 20
5138.5227121575
 30
0.0
 11
8471.2157188503
 21
5138.5116331441
 31
0.0
  0
LINE
  5
153
330
1F
100
AcDbEntity
  8
0
  6
Continuous
 62
     7
100
AcDbLine
 10
8471.2157188503
 20
5138.5116331441
 30
0.0
 11
8466.3320048301
 21
5154.7421455545
 31
0.0
  0
LINE
  5
154
330
1F
100
AcDbEntity
  8
0
  6
Continuous
 62
     7
100
AcDbLine
 10
8466.3320048301
 20
5154.7421455545
 30
0.0
 11
8466.3688106982
 21
5154.7532171173
 31
0.0
  0
LINE
  5
155
330
1F
100
AcDbEntity
  8
0
  6
Continuous
 62
     7
100
AcDbLine
 10
8466.3688106982
 20
5154.7532171173
 30
0.0
 11
8466.4777903406
 21
5154.7860108478
 31
0.0
  0
LINE
  5
156
330
1F
100
AcDbEntity
  8
0
  6
Continuous
 62
     7
100
AcDbLine
 10
8466.4777903406
 20
5154.7860108478
 30
0.0
 11
8466.6547714321
 21
5154.8392638726
 31
0.0
  0
LINE
  5
157
330
1F
100
AcDbEntity
  8
0
  6
Continuous
 62
     7
100
AcDbLine
 10
8466.6547714321
 20
5154.8392638726
 30
0.0
 11
8466.8929515926
 21
5154.9109310074
 31
0.0
  0
LINE
  5
158
330
1F
100
AcDbEntity
  8
0
  6
Continuous
 62
     7
100
AcDbLine
 10
8466.8929515926
 20
5154.9109310074
 30
0.0
 11
8467.1831740586
 21
5154.9982555373
 31
0.0
  0
LINE
  5
159
330
1F
100
AcDbEntity
  8
0
  6
Continuous
 62
     7
100
AcDbLine
 10
8467.1831740586
 20
5154.9982555373
 30
0.0
 11
8467.5142778603
 21
5155.0978884263
 31
0.0
  0
LINE
  5
15A
330
1F
100
AcDbEntity
  8
0
  6
Continuous
 62
     7
100
AcDbLine
 10
8467.5142778603
 20
5155.0978884263
 30
0.0
 11
8467.8735523073
 21
5155.2059926255
 31
0.0
  0
LINE
  5
15B
330
1F
100
AcDbEntity
  8
0
  6
Continuous
 62
     7
100
AcDbLine
 10
8467.8735523073
 20
5155.2059926255
 30
0.0
 11
8468.2471840231
 21
5155.3184144361
 31
0.0
  0
LINE
  5
15C
330
1F
100
AcDbEntity
  8
0
  6
Continuous
 62
     7
100
AcDbLine
 10
8498.0282275526
 20
5139.087905751
 30
0.0
 11
8498.4018592684
 21
5138.9754839403
 31
0.0
  0
LINE
  5
15D
330
1F
100
AcDbEntity
  8
0
  6
Continuous
 62
     7
100
AcDbLine
 10
8498.4018592684
 20
5138.9754839403
 30
0.0
 11
8498.7611337153
 21
5138.8673760159
 31
0.0
  0
LINE
  5
15E
330
1F
100
AcDbEntity
  8
0
  6
Continuous
 62
     7
100
AcDbLine
 10
8498.7611337153
 20
5138.8673760159
 30
0.0
 11
8499.0922449676
 21
5138.7677468521
 31
0.0
  0
LINE
  5
15F
330
1F
100
AcDbEntity
  8
0
  6
Continuous
 62
     7
100
AcDbLine
 10
8499.0922449676
 20
5138.7677468521
 30
0.0
 11
8499.382459983
 21
5138.6804260475
 31
0.0
  0
LINE
  5
160
330
1F
100
AcDbEntity
  8
0
  6
Continuous
 62
     7
100
AcDbLine
 10
8499.382459983
 20
5138.6804260475
 30
0.0
 11
8499.6206401436
 21
5138.6087589128
 31
0.0
  0
LINE
  5
161
330
1F
100
AcDbEntity
  8
0
  6
Continuous
 62
     7
100
AcDbLine
 10
8499.6206401436
 20
5138.6087589128
 30
0.0
 11
8499.7976212351
 21
5138.5555021627
 31
0.0
  0
LINE
  5
162
330
1F
100
AcDbEntity
  8
0
  6
Continuous
 62
     7
100
AcDbLine
 10
8499.7976212351
 20
5138.5555021627
 30
0.0
 11
8499.9066008775
 21
5138.5227121575
 31
0.0
  0
LINE
  5
163
330
1F
100
AcDbEntity
  8
0
  6
Continuous
 62
     7
100
AcDbLine
 10
8499.9066008775
 20
5138.5227121575
 30
0.0
 11
8499.9434067456
 21
5138.5116331441
 31
0.0
  0
LINE
  5
164
330
1F
100
AcDbEntity
  8
0
  6
Continuous
 62
     7
100
AcDbLine
 10
8498.0282275526
 20
5139.087905751
 30
0.0
 11
8502.911930397
 21
5155.3184144361
 31
0.0
  0
LINE
  5
165
330
1F
100
AcDbEntity
  8
0
  6
Continuous
 62
     7
100
AcDbLine
 10
8504.82710959
 20
5154.7421455545
 30
0.0
 11
8504.7903111724
 21
5154.7532171173
 31
0.0
  0
LINE
  5
166
330
1F
100
AcDbEntity
  8
0
  6
Continuous
 62
     7
100
AcDbLine
 10
8504.7903111724
 20
5154.7532171173
 30
0.0
 11
8504.6813278047
 21
5154.7860108478
 31
0.0
  0
LINE
  5
167
330
1F
100
AcDbEntity
  8
0
  6
Continuous
 62
     7
100
AcDbLine
 10
8504.6813278047
 20
5154.7860108478
 30
0.0
 11
8504.5043467132
 21
5154.8392638726
 31
0.0
  0
LINE
  5
168
330
1F
100
AcDbEntity
  8
0
  6
Continuous
 62
     7
100
AcDbLine
 10
8504.5043467132
 20
5154.8392638726
 30
0.0
 11
8504.2661665527
 21
5154.9109310074
 31
0.0
  0
LINE
  5
169
330
1F
100
AcDbEntity
  8
0
  6
Continuous
 62
     7
100
AcDbLine
 10
8504.2661665527
 20
5154.9109310074
 30
0.0
 11
8503.975947812
 21
5154.9982555373
 31
0.0
  0
LINE
  5
16A
330
1F
100
AcDbEntity
  8
0
  6
Continuous
 62
     7
100
AcDbLine
 10
8503.975947812
 20
5154.9982555373
 30
0.0
 11
8503.644840285
 21
5155.0978884263
 31
0.0
  0
LINE
  5
16B
330
1F
100
AcDbEntity
  8
0
  6
Continuous
 62
     7
100
AcDbLine
 10
8503.644840285
 20
5155.0978884263
 30
0.0
 11
8503.285565838
 21
5155.2059926255
 31
0.0
  0
LINE
  5
16C
330
1F
100
AcDbEntity
  8
0
  6
Continuous
 62
     7
100
AcDbLine
 10
8503.285565838
 20
5155.2059926255
 30
0.0
 11
8502.911930397
 21
5155.3184144361
 31
0.0
  0
LINE
  5
16D
330
1F
100
AcDbEntity
  8
0
  6
Continuous
 62
     7
100
AcDbLine
 10
8504.82710959
 20
5154.7421455545
 30
0.0
 11
8499.9434067456
 21
5138.5116331441
 31
0.0
  0
LINE
  5
16E
330
1F
100
AcDbEntity
  8
0
  6
Continuous
 62
     7
100
AcDbLine
 10
8502.3795677868
 20
5099.9836675986
 30
0.0
 11
8502.3795677868
 21
5087.0836727483
 31
0.0
  0
LINE
  5
16F
330
1F
100
AcDbEntity
  8
0
  6
Continuous
 62
     7
100
AcDbLine
 10
8469.8795615283
 20
5101.0836713179
 30
0.0
 11
8501.2795603421
 21
5101.0836713179
 31
0.0
  0
LINE
  5
170
330
1F
100
AcDbEntity
  8
0
  6
Continuous
 62
     7
100
AcDbLine
 10
8468.779557809
 20
5087.0836727483
 30
0.0
 11
8468.779557809
 21
5099.9836675985
 31
0.0
  0
LINE
  5
171
330
1F
100
AcDbEntity
  8
0
  6
Continuous
 62
     7
100
AcDbLine
 10
8501.2795640674
 20
5085.9836727543
 30
0.0
 11
8469.8795652536
 21
5085.9836727543
 31
0.0
  0
LINE
  5
172
330
1F
100
AcDbEntity
  8
0
  6
Continuous
 62
     7
100
AcDbLine
 10
8502.279566094
 20
5087.0836727483
 30
0.0
 11
8502.279566094
 21
5099.9836675985
 31
0.0
  0
LINE
  5
173
330
1F
100
AcDbEntity
  8
0
  6
Continuous
 62
     7
100
AcDbLine
 10
8469.8795652536
 20
5086.0836744471
 30
0.0
 11
8501.2795640674
 21
5086.0836744471
 31
0.0
  0
LINE
  5
174
330
1F
100
AcDbEntity
  8
0
  6
Continuous
 62
     7
100
AcDbLine
 10
8468.8795595018
 20
5099.9836675985
 30
0.0
 11
8468.8795595018
 21
5087.0836727483
 31
0.0
  0
LINE
  5
175
330
1F
100
AcDbEntity
  8
0
  6
Continuous
 62
     7
100
AcDbLine
 10
8501.2795603421
 20
5100.9836696251
 30
0.0
 11
8469.8795615283
 21
5100.9836696251
 31
0.0
  0
LINE
  5
176
330
1F
100
AcDbEntity
  8
0
  6
Continuous
 62
     7
100
AcDbLine
 10
8524.1357734947
 20
5072.1536778076
 30
0.0
 11
8524.1357734947
 21
5074.4607649906
 31
0.0
  0
LINE
  5
177
330
1F
100
AcDbEntity
  8
0
  6
Continuous
 62
     7
100
AcDbLine
 10
8523.8352543263
 20
5074.4607649906
 30
0.0
 11
8523.5930620281
 21
5075.1930527551
 31
0.0
  0
LINE
  5
178
330
1F
100
AcDbEntity
  8
0
  6
Continuous
 62
     7
100
AcDbLine
 10
8523.5930620281
 20
5075.1930527551
 30
0.0
 11
8524.1357734947
 21
5075.1930527551
 31
0.0
  0
LINE
  5
179
330
1F
100
AcDbEntity
  8
0
  6
Continuous
 62
     7
100
AcDbLine
 10
8525.9398384539
 20
5075.193231569
 30
0.0
 11
8525.9398384539
 21
5075.4675470455
 31
0.0
  0
LINE
  5
17A
330
1F
100
AcDbEntity
  8
0
  6
Continuous
 62
     7
100
AcDbLine
 10
8525.2452692537
 20
5077.3756556375
 30
0.0
 11
8525.5157998351
 21
5077.3756556375
 31
0.0
  0
LINE
  5
17B
330
1F
100
AcDbEntity
  8
0
  6
Continuous
 62
     7
100
AcDbLine
 10
8524.8217596261
 20
5075.4609905345
 30
0.0
 11
8524.8217596261
 21
5075.193231569
 31
0.0
  0
LINE
  5
17C
330
1F
100
AcDbEntity
  8
0
  6
Continuous
 62
     7
100
AcDbLine
 10
8524.8217596261
 20
5075.193231569
 30
0.0
 11
8525.9398384539
 21
5075.193231569
 31
0.0
  0
LINE
  5
17D
330
1F
100
AcDbEntity
  8
0
  6
Continuous
 62
     7
100
AcDbLine
 10
8525.5157998351
 20
5076.6710989339
 30
0.0
 11
8525.2452692537
 21
5076.6710989339
 31
0.0
  0
LINE
  5
17E
330
1F
100
AcDbEntity
  8
0
  6
Continuous
 62
     7
100
AcDbLine
 10
8526.6394516973
 20
5076.0790608985
 30
0.0
 11
8526.6394516973
 21
5072.1536778076
 31
0.0
  0
LINE
  5
17F
330
1F
100
AcDbEntity
  8
0
  6
Continuous
 62
     7
100
AcDbLine
 10
8526.6394516973
 20
5072.1536778076
 30
0.0
 11
8525.9398384539
 21
5072.1536778076
 31
0.0
  0
LINE
  5
180
330
1F
100
AcDbEntity
  8
0
  6
Continuous
 62
     7
100
AcDbLine
 10
8525.9398384539
 20
5072.1536778076
 30
0.0
 11
8525.9398384539
 21
5074.4607649906
 31
0.0
  0
LINE
  5
181
330
1F
100
AcDbEntity
  8
0
  6
Continuous
 62
     7
100
AcDbLine
 10
8525.9398384539
 20
5074.4607649906
 30
0.0
 11
8524.8220092205
 21
5074.4607649906
 31
0.0
  0
LINE
  5
182
330
1F
100
AcDbEntity
  8
0
  6
Continuous
 62
     7
100
AcDbLine
 10
8524.8220092205
 20
5074.4607649906
 30
0.0
 11
8524.8217596261
 21
5072.1536778076
 31
0.0
  0
LINE
  5
183
330
1F
100
AcDbEntity
  8
0
  6
Continuous
 62
     7
100
AcDbLine
 10
8524.1357734947
 20
5075.1930527551
 30
0.0
 11
8524.1357734947
 21
5076.0885231359
 31
0.0
  0
LINE
  5
184
330
1F
100
AcDbEntity
  8
0
  6
Continuous
 62
     7
100
AcDbLine
 10
8524.8217596261
 20
5072.1536778076
 30
0.0
 11
8524.1357734947
 21
5072.1536778076
 31
0.0
  0
LINE
  5
185
330
1F
100
AcDbEntity
  8
0
  6
Continuous
 62
     7
100
AcDbLine
 10
8524.1357734947
 20
5074.4607649906
 30
0.0
 11
8523.8352543263
 21
5074.4607649906
 31
0.0
  0
LINE
  5
186
330
1F
100
AcDbEntity
  8
0
  6
Continuous
 62
     7
100
AcDbLine
 10
8521.4067785589
 20
5075.6042651994
 30
0.0
 11
8522.3511135725
 21
5074.535688029
 31
0.0
  0
LINE
  5
187
330
1F
100
AcDbEntity
  8
0
  6
Continuous
 62
     7
100
AcDbLine
 10
8523.0898833422
 20
5074.8792492015
 30
0.0
 11
8522.3972475676
 21
5075.6701581342
 31
0.0
  0
LINE
  5
188
330
1F
100
AcDbEntity
  8
0
  6
Continuous
 62
     7
100
AcDbLine
 10
8522.5671766845
 20
5077.7878366573
 30
0.0
 11
8538.8747709392
 21
5077.7878366573
 31
0.0
  0
LINE
  5
189
330
1F
100
AcDbEntity
  8
0
  6
Continuous
 62
     7
100
AcDbLine
 10
8538.8747709392
 20
5078.5527877672
 30
0.0
 11
8522.5166244952
 21
5078.5527132614
 31
0.0
  0
LINE
  5
18A
330
1F
100
AcDbEntity
  8
0
  6
Continuous
 62
     7
100
AcDbLine
 10
8538.8747709392
 20
5077.7878366573
 30
0.0
 11
8538.8747709392
 21
5078.5527877672
 31
0.0
  0
LINE
  5
18B
330
1F
100
AcDbEntity
  8
0
  6
Continuous
 62
     7
100
AcDbLine
 10
8520.586633548
 20
5072.1536778076
 30
0.0
 11
8522.1487856058
 21
5072.1536778076
 31
0.0
  0
LINE
  5
18C
330
1F
100
AcDbEntity
  8
0
  6
Continuous
 62
     7
100
AcDbLine
 10
8520.586633548
 20
5072.9314737184
 30
0.0
 11
8520.586633548
 21
5072.1536778076
 31
0.0
  0
LINE
  5
18D
330
1F
100
AcDbEntity
  8
0
  6
Continuous
 62
     7
100
AcDbLine
 10
8522.0834477393
 20
5072.9314737184
 30
0.0
 11
8520.586633548
 21
5072.9314737184
 31
0.0
  0
LINE
  5
18E
330
1F
100
AcDbEntity
  8
0
  6
Continuous
 62
     7
100
AcDbLine
 10
8532.8721566645
 20
5075.193231569
 30
0.0
 11
8533.1138702629
 21
5074.4607649906
 31
0.0
  0
LINE
  5
18F
330
1F
100
AcDbEntity
  8
0
  6
Continuous
 62
     7
100
AcDbLine
 10
8533.1138702629
 20
5074.4607649906
 30
0.0
 11
8531.5417325644
 21
5074.4607649906
 31
0.0
  0
LINE
  5
190
330
1F
100
AcDbEntity
  8
0
  6
Continuous
 62
     7
100
AcDbLine
 10
8531.5417325644
 20
5074.4607649906
 30
0.0
 11
8531.5419821588
 21
5072.8139780624
 31
0.0
  0
LINE
  5
191
330
1F
100
AcDbEntity
  8
0
  6
Continuous
 62
     7
100
AcDbLine
 10
8531.5419821588
 20
5072.8139780624
 30
0.0
 11
8532.8620406387
 21
5072.8139780624
 31
0.0
  0
LINE
  5
192
330
1F
100
AcDbEntity
  8
0
  6
Continuous
 62
     7
100
AcDbLine
 10
8532.8620406387
 20
5072.8139780624
 30
0.0
 11
8532.8620406387
 21
5072.1536778076
 31
0.0
  0
LINE
  5
193
330
1F
100
AcDbEntity
  8
0
  6
Continuous
 62
     7
100
AcDbLine
 10
8532.8620406387
 20
5072.1536778076
 30
0.0
 11
8530.9009789078
 21
5072.1536778076
 31
0.0
  0
LINE
  5
194
330
1F
100
AcDbEntity
  8
0
  6
Continuous
 62
     7
100
AcDbLine
 10
8530.9009789078
 20
5072.1536778076
 30
0.0
 11
8530.9010534136
 21
5074.4607649906
 31
0.0
  0
LINE
  5
195
330
1F
100
AcDbEntity
  8
0
  6
Continuous
 62
     7
100
AcDbLine
 10
8530.9010534136
 20
5074.4607649906
 30
0.0
 11
8530.306459829
 21
5074.4607649906
 31
0.0
  0
LINE
  5
196
330
1F
100
AcDbEntity
  8
0
  6
Continuous
 62
     7
100
AcDbLine
 10
8530.306459829
 20
5074.4607649906
 30
0.0
 11
8530.306459829
 21
5072.1536778076
 31
0.0
  0
LINE
  5
197
330
1F
100
AcDbEntity
  8
0
  6
Continuous
 62
     7
100
AcDbLine
 10
8529.5153832583
 20
5072.1536778076
 30
0.0
 11
8529.5153832583
 21
5074.4607649906
 31
0.0
  0
LINE
  5
198
330
1F
100
AcDbEntity
  8
0
  6
Continuous
 62
     7
100
AcDbLine
 10
8529.5153832583
 20
5074.4607649906
 30
0.0
 11
8527.9659865944
 21
5075.6374798877
 31
0.0
  0
LINE
  5
199
330
1F
100
AcDbEntity
  8
0
  6
Continuous
 62
     7
100
AcDbLine
 10
8527.9659865944
 20
5075.6374798877
 30
0.0
 11
8527.9662622659
 21
5072.1536778076
 31
0.0
  0
LINE
  5
19A
330
1F
100
AcDbEntity
  8
0
  6
Continuous
 62
     7
100
AcDbLine
 10
8527.9662622659
 20
5072.1536778076
 30
0.0
 11
8527.2341458647
 21
5072.1536778076
 31
0.0
  0
LINE
  5
19B
330
1F
100
AcDbEntity
  8
0
  6
Continuous
 62
     7
100
AcDbLine
 10
8527.2341458647
 20
5072.1536778076
 30
0.0
 11
8527.2342203705
 21
5077.3756556375
 31
0.0
  0
LINE
  5
19C
330
1F
100
AcDbEntity
  8
0
  6
Continuous
 62
     7
100
AcDbLine
 10
8530.9009789078
 20
5077.2848181589
 30
0.0
 11
8532.8620406387
 21
5077.2848181589
 31
0.0
  0
LINE
  5
19D
330
1F
100
AcDbEntity
  8
0
  6
Continuous
 62
     7
100
AcDbLine
 10
8532.8620406387
 20
5077.2848181589
 30
0.0
 11
8532.8620406387
 21
5076.6710989339
 31
0.0
  0
LINE
  5
19E
330
1F
100
AcDbEntity
  8
0
  6
Continuous
 62
     7
100
AcDbLine
 10
8530.9009789078
 20
5075.193231569
 30
0.0
 11
8530.9009789078
 21
5077.2848181589
 31
0.0
  0
LINE
  5
19F
330
1F
100
AcDbEntity
  8
0
  6
Continuous
 62
     7
100
AcDbLine
 10
8527.2342203705
 20
5077.3756556375
 30
0.0
 11
8529.5153832583
 21
5075.5329035385
 31
0.0
  0
LINE
  5
1A0
330
1F
100
AcDbEntity
  8
0
  6
Continuous
 62
     7
100
AcDbLine
 10
8529.5153832583
 20
5075.5329035385
 30
0.0
 11
8529.5153832583
 21
5077.2847138507
 31
0.0
  0
LINE
  5
1A1
330
1F
100
AcDbEntity
  8
0
  6
Continuous
 62
     7
100
AcDbLine
 10
8529.5153832583
 20
5077.2847138507
 30
0.0
 11
8530.306459829
 21
5077.2848181589
 31
0.0
  0
LINE
  5
1A2
330
1F
100
AcDbEntity
  8
0
  6
Continuous
 62
     7
100
AcDbLine
 10
8530.306459829
 20
5077.2848181589
 30
0.0
 11
8530.306459829
 21
5075.193231569
 31
0.0
  0
LINE
  5
1A3
330
1F
100
AcDbEntity
  8
0
  6
Continuous
 62
     7
100
AcDbLine
 10
8530.306459829
 20
5075.193231569
 30
0.0
 11
8530.9009789078
 21
5075.193231569
 31
0.0
  0
LINE
  5
1A4
330
1F
100
AcDbEntity
  8
0
  6
Continuous
 62
     7
100
AcDbLine
 10
8532.8620406387
 20
5076.6710989339
 30
0.0
 11
8531.5419821588
 21
5076.6710989339
 31
0.0
  0
LINE
  5
1A5
330
1F
100
AcDbEntity
  8
0
  6
Continuous
 62
     7
100
AcDbLine
 10
8531.5419821588
 20
5076.6710989339
 30
0.0
 11
8531.5419821588
 21
5075.193231569
 31
0.0
  0
LINE
  5
1A6
330
1F
100
AcDbEntity
  8
0
  6
Continuous
 62
     7
100
AcDbLine
 10
8531.5419821588
 20
5075.193231569
 30
0.0
 11
8532.8721566645
 21
5075.193231569
 31
0.0
  0
LINE
  5
1A7
330
1F
100
AcDbEntity
  8
0
  6
Continuous
 62
     7
100
AcDbLine
 10
8530.306459829
 20
5072.1536778076
 30
0.0
 11
8529.5153832583
 21
5072.1536778076
 31
0.0
  0
LINE
  5
1A8
330
1F
100
AcDbEntity
  8
0
  6
Continuous
 62
     7
100
AcDbLine
 10
8541.6217404006
 20
5076.3972751958
 30
0.0
 11
8541.7193299679
 21
5076.3972751958
 31
0.0
  0
LINE
  5
1A9
330
1F
100
AcDbEntity
  8
0
  6
Continuous
 62
     7
100
AcDbLine
 10
8542.0298664419
 20
5076.5036992891
 30
0.0
 11
8541.6217404006
 21
5076.5036992891
 31
0.0
  0
LINE
  5
1AA
330
1F
100
AcDbEntity
  8
0
  6
Continuous
 62
     7
100
AcDbLine
 10
8540.1094662545
 20
5077.6967756612
 30
0.0
 11
8540.1626783011
 21
5077.7722351415
 31
0.0
  0
LINE
  5
1AB
330
1F
100
AcDbEntity
  8
0
  6
Continuous
 62
     7
100
AcDbLine
 10
8541.9278605429
 20
5076.3972751958
 30
0.0
 11
8542.0298664419
 21
5076.3972751958
 31
0.0
  0
LINE
  5
1AC
330
1F
100
AcDbEntity
  8
0
  6
Continuous
 62
     7
100
AcDbLine
 10
8544.8895594625
 20
5078.9925657375
 30
0.0
 11
8544.9740211068
 21
5078.9925657375
 31
0.0
  0
LINE
  5
1AD
330
1F
100
AcDbEntity
  8
0
  6
Continuous
 62
     7
100
AcDbLine
 10
8545.2732140718
 20
5078.3815138204
 30
0.0
 11
8545.0910883544
 21
5078.6839179857
 31
0.0
  0
LINE
  5
1AE
330
1F
100
AcDbEntity
  8
0
  6
Continuous
 62
     7
100
AcDbLine
 10
8545.1802680789
 20
5078.3815138204
 30
0.0
 11
8545.2732140718
 21
5078.3815138204
 31
0.0
  0
LINE
  5
1AF
330
1F
100
AcDbEntity
  8
0
  6
Continuous
 62
     7
100
AcDbLine
 10
8545.0186742989
 20
5078.6587648256
 30
0.0
 11
8545.1802680789
 21
5078.3815138204
 31
0.0
  0
LINE
  5
1B0
330
1F
100
AcDbEntity
  8
0
  6
Continuous
 62
     7
100
AcDbLine
 10
8544.8119262753
 20
5078.3815138204
 30
0.0
 11
8544.8895594625
 21
5078.3815138204
 31
0.0
  0
LINE
  5
1B1
330
1F
100
AcDbEntity
  8
0
  6
Continuous
 62
     7
100
AcDbLine
 10
8544.9740211068
 20
5079.0587268932
 30
0.0
 11
8544.8119262753
 21
5079.0587268932
 31
0.0
  0
LINE
  5
1B2
330
1F
100
AcDbEntity
  8
0
  6
Continuous
 62
     7
100
AcDbLine
 10
8544.8895594625
 20
5078.7201278074
 30
0.0
 11
8544.8895594625
 21
5078.9925657375
 31
0.0
  0
LINE
  5
1B3
330
1F
100
AcDbEntity
  8
0
  6
Continuous
 62
     7
100
AcDbLine
 10
8544.9756267069
 20
5078.7201278074
 30
0.0
 11
8544.8895594625
 21
5078.7201278074
 31
0.0
  0
LINE
  5
1B4
330
1F
100
AcDbEntity
  8
0
  6
Continuous
 62
     7
100
AcDbLine
 10
8544.8895594625
 20
5078.6587648256
 30
0.0
 11
8545.0186742989
 21
5078.6587648256
 31
0.0
  0
LINE
  5
1B5
330
1F
100
AcDbEntity
  8
0
  6
Continuous
 62
     7
100
AcDbLine
 10
8544.8895594625
 20
5078.3815138204
 30
0.0
 11
8544.8895594625
 21
5078.6587648256
 31
0.0
  0
LINE
  5
1B6
330
1F
100
AcDbEntity
  8
0
  6
Continuous
 62
     7
100
AcDbLine
 10
8544.8119262753
 20
5079.0587268932
 30
0.0
 11
8544.8119262753
 21
5078.3815138204
 31
0.0
  0
LINE
  5
1B7
330
1F
100
AcDbEntity
  8
0
  6
Continuous
 62
     7
100
AcDbLine
 10
8534.2012024073
 20
5077.2848181589
 30
0.0
 11
8534.2012024073
 21
5072.8139780624
 31
0.0
  0
LINE
  5
1B8
330
1F
100
AcDbEntity
  8
0
  6
Continuous
 62
     7
100
AcDbLine
 10
8534.2012024073
 20
5072.8139780624
 30
0.0
 11
8535.7763780801
 21
5072.8139780624
 31
0.0
  0
LINE
  5
1B9
330
1F
100
AcDbEntity
  8
0
  6
Continuous
 62
     7
100
AcDbLine
 10
8535.7763780801
 20
5072.8139780624
 30
0.0
 11
8535.7763780801
 21
5072.1536778076
 31
0.0
  0
LINE
  5
1BA
330
1F
100
AcDbEntity
  8
0
  6
Continuous
 62
     7
100
AcDbLine
 10
8535.7763780801
 20
5072.1536778076
 30
0.0
 11
8533.4563585518
 21
5072.1536778076
 31
0.0
  0
LINE
  5
1BB
330
1F
100
AcDbEntity
  8
0
  6
Continuous
 62
     7
100
AcDbLine
 10
8533.4563585518
 20
5072.1536778076
 30
0.0
 11
8533.4563585518
 21
5077.2848181589
 31
0.0
  0
LINE
  5
1BC
330
1F
100
AcDbEntity
  8
0
  6
Continuous
 62
     7
100
AcDbLine
 10
8533.4563585518
 20
5077.2848181589
 30
0.0
 11
8534.2012024073
 21
5077.2848181589
 31
0.0
  0
LINE
  5
1BD
330
1F
100
AcDbEntity
  8
0
  6
Continuous
 62
     7
100
AcDbLine
 10
8537.0569782851
 20
5075.4609905345
 30
0.0
 11
8537.0569782851
 21
5075.193231569
 31
0.0
  0
LINE
  5
1BE
330
1F
100
AcDbEntity
  8
0
  6
Continuous
 62
     7
100
AcDbLine
 10
8537.0569782851
 20
5075.193231569
 30
0.0
 11
8538.1750328986
 21
5075.193231569
 31
0.0
  0
LINE
  5
1BF
330
1F
100
AcDbEntity
  8
0
  6
Continuous
 62
     7
100
AcDbLine
 10
8538.1750328986
 20
5075.193231569
 30
0.0
 11
8538.1750328986
 21
5075.4675470455
 31
0.0
  0
LINE
  5
1C0
330
1F
100
AcDbEntity
  8
0
  6
Continuous
 62
     7
100
AcDbLine
 10
8537.7509942798
 20
5076.6710989339
 30
0.0
 11
8537.480491638
 21
5076.6710989339
 31
0.0
  0
LINE
  5
1C1
330
1F
100
AcDbEntity
  8
0
  6
Continuous
 62
     7
100
AcDbLine
 10
8537.0569782851
 20
5072.1536778076
 30
0.0
 11
8536.370995879
 21
5072.1536778076
 31
0.0
  0
LINE
  5
1C2
330
1F
100
AcDbEntity
  8
0
  6
Continuous
 62
     7
100
AcDbLine
 10
8537.480491638
 20
5077.3756556375
 30
0.0
 11
8537.7509942798
 21
5077.3756556375
 31
0.0
  0
LINE
  5
1C3
330
1F
100
AcDbEntity
  8
0
  6
Continuous
 62
     7
100
AcDbLine
 10
8536.370995879
 20
5074.4607649906
 30
0.0
 11
8536.0705493538
 21
5074.4607649906
 31
0.0
  0
LINE
  5
1C4
330
1F
100
AcDbEntity
  8
0
  6
Continuous
 62
     7
100
AcDbLine
 10
8536.0705493538
 20
5074.4607649906
 30
0.0
 11
8535.8283849953
 21
5075.1930527551
 31
0.0
  0
LINE
  5
1C5
330
1F
100
AcDbEntity
  8
0
  6
Continuous
 62
     7
100
AcDbLine
 10
8535.8283849953
 20
5075.1930527551
 30
0.0
 11
8536.370995879
 21
5075.1930527551
 31
0.0
  0
LINE
  5
1C6
330
1F
100
AcDbEntity
  8
0
  6
Continuous
 62
     7
100
AcDbLine
 10
8536.370995879
 20
5075.1930527551
 30
0.0
 11
8536.370995879
 21
5076.0885231359
 31
0.0
  0
LINE
  5
1C7
330
1F
100
AcDbEntity
  8
0
  6
Continuous
 62
     7
100
AcDbLine
 10
8538.8747467248
 20
5076.0790608985
 30
0.0
 11
8538.8747467248
 21
5072.1536778076
 31
0.0
  0
LINE
  5
1C8
330
1F
100
AcDbEntity
  8
0
  6
Continuous
 62
     7
100
AcDbLine
 10
8538.8747467248
 20
5072.1536778076
 30
0.0
 11
8538.1750328986
 21
5072.1536778076
 31
0.0
  0
LINE
  5
1C9
330
1F
100
AcDbEntity
  8
0
  6
Continuous
 62
     7
100
AcDbLine
 10
8538.1750328986
 20
5072.1536778076
 30
0.0
 11
8538.1750328986
 21
5074.4607649906
 31
0.0
  0
LINE
  5
1CA
330
1F
100
AcDbEntity
  8
0
  6
Continuous
 62
     7
100
AcDbLine
 10
8538.1750328986
 20
5074.4607649906
 30
0.0
 11
8537.0572297422
 21
5074.4607649906
 31
0.0
  0
LINE
  5
1CB
330
1F
100
AcDbEntity
  8
0
  6
Continuous
 62
     7
100
AcDbLine
 10
8537.0572297422
 20
5074.4607649906
 30
0.0
 11
8537.0569782851
 21
5072.1536778076
 31
0.0
  0
LINE
  5
1CC
330
1F
100
AcDbEntity
  8
0
  6
Continuous
 62
     7
100
AcDbLine
 10
8536.370995879
 20
5072.1536778076
 30
0.0
 11
8536.370995879
 21
5074.4607649906
 31
0.0
  0
LINE
  5
1CD
330
1F
100
AcDbEntity
  8
0
  6
Continuous
 62
     7
100
AcDbLine
 10
8477.7853278963
 20
5229.5336701138
 30
0.0
 11
8493.373790249
 21
5229.5336701138
 31
0.0
  0
LINE
  5
1CE
330
1F
100
AcDbEntity
  8
0
  6
Continuous
 62
     7
100
AcDbLine
 10
8493.373790249
 20
5229.5336701138
 30
0.0
 11
8493.373790249
 21
5222.5336703634
 31
0.0
  0
LINE
  5
1CF
330
1F
100
AcDbEntity
  8
0
  6
Continuous
 62
     7
100
AcDbLine
 10
8477.7853278963
 20
5229.5336701138
 30
0.0
 11
8477.7853278963
 21
5222.5336703634
 31
0.0
  0
LINE
  5
1D0
330
1F
100
AcDbEntity
  8
0
  6
Continuous
 62
     7
100
AcDbLine
 10
8473.8590581862
 20
5238.5336697264
 30
0.0
 11
8497.3000599591
 21
5238.5336697264
 31
0.0
  0
LINE
  5
1D1
330
1F
100
AcDbEntity
  8
0
  6
Continuous
 62
     7
100
AcDbLine
 10
8501.1680177001
 20
5229.5336701138
 30
0.0
 11
8501.1680177001
 21
5222.5336703634
 31
0.0
  0
LINE
  5
1D2
330
1F
100
AcDbEntity
  8
0
  6
Continuous
 62
     7
100
AcDbLine
 10
8493.373790249
 20
5229.5336701138
 30
0.0
 11
8501.1680177001
 21
5229.5336701138
 31
0.0
  0
LINE
  5
1D3
330
1F
100
AcDbEntity
  8
0
  6
Continuous
 62
     7
100
AcDbLine
 10
8469.9911041705
 20
5229.5336701138
 30
0.0
 11
8469.9911041705
 21
5222.5336703634
 31
0.0
  0
LINE
  5
1D4
330
1F
100
AcDbEntity
  8
0
  6
Continuous
 62
     7
100
AcDbLine
 10
8469.9911041705
 20
5229.5336701138
 30
0.0
 11
8477.7853278963
 21
5229.5336701138
 31
0.0
  0
LINE
  5
1D5
330
1F
100
AcDbEntity
  8
0
  6
Continuous
 62
     7
100
AcDbLine
 10
8525.607140228
 20
5049.5336704118
 30
0.0
 11
8525.607140228
 21
5052.5336764915
 31
0.0
  0
LINE
  5
1D6
330
1F
100
AcDbEntity
  8
0
  6
Continuous
 62
     7
100
AcDbLine
 10
8541.1951406447
 20
5049.5336704118
 30
0.0
 11
8541.1951406447
 21
5052.5336764915
 31
0.0
  0
LINE
  5
1D7
330
1F
100
AcDbEntity
  8
0
  6
Continuous
 62
     7
100
AcDbLine
 10
8541.1951406447
 20
5049.5336704118
 30
0.0
 11
8536.3891324548
 21
5049.5336704118
 31
0.0
  0
LINE
  5
1D8
330
1F
100
AcDbEntity
  8
0
  6
Continuous
 62
     7
100
AcDbLine
 10
8529.6497209517
 20
5049.5336704118
 30
0.0
 11
8525.607140228
 21
5049.5336704118
 31
0.0
  0
LINE
  5
1D9
330
1F
100
AcDbEntity
  8
0
  6
Continuous
 62
     7
100
AcDbLine
 10
8546.2737152872
 20
5042.0336775644
 30
0.0
 11
8546.3000605402
 21
5042.0336775644
 31
0.0
  0
LINE
  5
1DA
330
1F
100
AcDbEntity
  8
0
  6
Continuous
 62
     7
100
AcDbLine
 10
8543.1847213356
 20
5040.533667074
 30
0.0
 11
8521.3590613155
 21
5040.533667074
 31
0.0
  0
LINE
  5
1DB
330
1F
100
AcDbEntity
  8
0
  6
Continuous
 62
     7
100
AcDbLine
 10
8544.8000593631
 20
5040.533667074
 30
0.0
 11
8543.1847213356
 21
5040.533667074
 31
0.0
  0
LINE
  5
1DC
330
1F
100
AcDbEntity
  8
0
  6
Continuous
 62
     7
100
AcDbLine
 10
8530.1945707349
 20
5049.5336704118
 30
0.0
 11
8529.6497209517
 21
5049.5336704118
 31
0.0
  0
LINE
  5
1DD
330
1F
100
AcDbEntity
  8
0
  6
Continuous
 62
     7
100
AcDbLine
 10
8536.3891324548
 20
5049.5336704118
 30
0.0
 11
8530.1945707349
 21
5049.5336704118
 31
0.0
  0
LINE
  5
1DE
330
1F
100
AcDbEntity
  8
0
  6
Continuous
 62
     7
100
AcDbLine
 10
8548.2427947743
 20
5049.5336704118
 30
0.0
 11
8548.2427947743
 21
5052.5336764915
 31
0.0
  0
LINE
  5
1DF
330
1F
100
AcDbEntity
  8
0
  6
Continuous
 62
     7
100
AcDbLine
 10
8548.2427947743
 20
5049.5336704118
 30
0.0
 11
8541.1951406447
 21
5049.5336704118
 31
0.0
  0
LINE
  5
1E0
330
1F
100
AcDbEntity
  8
0
  6
Continuous
 62
     7
100
AcDbLine
 10
8517.9163231103
 20
5049.5336704118
 30
0.0
 11
8517.9163231103
 21
5052.5336764915
 31
0.0
  0
LINE
  5
1E1
330
1F
100
AcDbEntity
  8
0
  6
Continuous
 62
     7
100
AcDbLine
 10
8521.4442549793
 20
5049.5336704118
 30
0.0
 11
8517.9163231103
 21
5049.5336704118
 31
0.0
  0
LINE
  5
1E2
330
1F
100
AcDbEntity
  8
0
  6
Continuous
 62
     7
100
AcDbLine
 10
8525.607140228
 20
5049.5336704118
 30
0.0
 11
8522.9336670188
 21
5049.5336704118
 31
0.0
  0
LINE
  5
1E3
330
1F
100
AcDbEntity
  8
0
  6
Continuous
 62
     7
100
AcDbLine
 10
8443.9542083589
 20
5042.0336775644
 30
0.0
 11
8451.3000561444
 21
5042.0336775644
 31
0.0
  0
LINE
  5
1E4
330
1F
100
AcDbEntity
  8
0
  6
Continuous
 62
     7
100
AcDbLine
 10
8437.9899738875
 20
5040.533667074
 30
0.0
 11
8426.3590662329
 21
5040.533667074
 31
0.0
  0
LINE
  5
1E5
330
1F
100
AcDbEntity
  8
0
  6
Continuous
 62
     7
100
AcDbLine
 10
8449.8000605551
 20
5040.533667074
 30
0.0
 11
8437.9899738875
 21
5040.533667074
 31
0.0
  0
LINE
  5
1E6
330
1F
100
AcDbEntity
  8
0
  6
Continuous
 62
     7
100
AcDbLine
 10
8444.9319406001
 20
5049.5336704118
 30
0.0
 11
8444.9319406001
 21
5052.5336764915
 31
0.0
  0
LINE
  5
1E7
330
1F
100
AcDbEntity
  8
0
  6
Continuous
 62
     7
100
AcDbLine
 10
8452.8291313497
 20
5049.5336704118
 30
0.0
 11
8452.8291313497
 21
5052.5336764915
 31
0.0
  0
LINE
  5
1E8
330
1F
100
AcDbEntity
  8
0
  6
Continuous
 62
     7
100
AcDbLine
 10
8452.8291313497
 20
5049.5336704118
 30
0.0
 11
8449.8009546248
 21
5049.5336704118
 31
0.0
  0
LINE
  5
1E9
330
1F
100
AcDbEntity
  8
0
  6
Continuous
 62
     7
100
AcDbLine
 10
8447.9363052694
 20
5049.5336704118
 30
0.0
 11
8444.9319406001
 21
5049.5336704118
 31
0.0
  0
LINE
  5
1EA
330
1F
100
AcDbEntity
  8
0
  6
Continuous
 62
     7
100
AcDbLine
 10
8431.0208051054
 20
5049.5336704118
 30
0.0
 11
8431.0208051054
 21
5052.5336764915
 31
0.0
  0
LINE
  5
1EB
330
1F
100
AcDbEntity
  8
0
  6
Continuous
 62
     7
100
AcDbLine
 10
8444.9319406001
 20
5049.5336704118
 30
0.0
 11
8431.0208051054
 21
5049.5336704118
 31
0.0
  0
LINE
  5
1EC
330
1F
100
AcDbEntity
  8
0
  6
Continuous
 62
     7
100
AcDbLine
 10
8423.3299879877
 20
5049.5336704118
 30
0.0
 11
8423.3299879877
 21
5052.5336764915
 31
0.0
  0
LINE
  5
1ED
330
1F
100
AcDbEntity
  8
0
  6
Continuous
 62
     7
100
AcDbLine
 10
8425.3245233146
 20
5049.5336704118
 30
0.0
 11
8423.3299879877
 21
5049.5336704118
 31
0.0
  0
LINE
  5
1EE
330
1F
100
AcDbEntity
  8
0
  6
Continuous
 62
     7
100
AcDbLine
 10
8431.0208051054
 20
5049.5336704118
 30
0.0
 11
8428.6496131269
 21
5049.5336704118
 31
0.0
  0
LINE
  5
1EF
330
1F
100
AcDbEntity
  8
0
  6
Continuous
 62
     7
100
AcDbLine
 10
8425.4637150614
 20
5049.5336704118
 30
0.0
 11
8425.3245233146
 21
5049.5336704118
 31
0.0
  0
LINE
  5
1F0
330
1F
100
AcDbEntity
  8
0
  6
Continuous
 62
     7
100
AcDbLine
 10
8428.6496131269
 20
5049.5336704118
 30
0.0
 11
8425.4637150614
 21
5049.5336704118
 31
0.0
  0
LINE
  5
1F1
330
1F
100
AcDbEntity
  8
0
  6
Continuous
 62
     7
100
AcDbLine
 10
8490.5795617549
 20
5183.60733764
 30
0.0
 11
8480.5795563905
 21
5183.60733764
 31
0.0
  0
LINE
  5
1F2
330
1F
100
AcDbEntity
  8
0
  6
Continuous
 62
     7
100
AcDbLine
 10
8480.9641750533
 20
5184.0938407475
 30
0.0
 11
8490.1949442841
 21
5184.0938407475
 31
0.0
  0
LINE
  5
1F3
330
1F
100
AcDbEntity
  8
0
  6
Continuous
 62
     7
100
AcDbLine
 10
8918.3645123823
 20
5108.9336700899
 30
0.0
 11
8918.2925397737
 21
5109.533672796
 31
0.0
  0
LINE
  5
1F4
330
1F
100
AcDbEntity
  8
0
  6
Continuous
 62
     7
100
AcDbLine
 10
8918.1220779403
 20
5111.0336683853
 30
0.0
 11
8918.0840799792
 21
5111.389783786
 31
0.0
  0
LINE
  5
1F5
330
1F
100
AcDbEntity
  8
0
  6
Continuous
 62
     7
100
AcDbLine
 10
8943.3840761168
 20
5140.4336668713
 30
0.0
 11
8976.1840725525
 21
5140.4336668713
 31
0.0
  0
LINE
  5
1F6
330
1F
100
AcDbEntity
  8
0
  6
Continuous
 62
     7
100
AcDbLine
 10
8966.3840705736
 20
5180.6336693628
 30
0.0
 11
8943.3840761168
 21
5180.6336693628
 31
0.0
  0
LINE
  5
1F7
330
1F
100
AcDbEntity
  8
0
  6
Continuous
 62
     7
100
AcDbLine
 10
8982.3840731962
 20
5180.6336693628
 30
0.0
 11
8976.3174677475
 21
5180.6336693628
 31
0.0
  0
LINE
  5
1F8
330
1F
100
AcDbEntity
  8
0
  6
Continuous
 62
     7
100
AcDbLine
 10
8979.6840721948
 20
5127.8336696489
 30
0.0
 11
8982.3840731962
 21
5127.8336696489
 31
0.0
  0
LINE
  5
1F9
330
1F
100
AcDbEntity
  8
0
  6
Continuous
 62
     7
100
AcDbLine
 10
8976.384075938
 20
5180.617233382
 30
0.0
 11
8976.384075938
 21
5183.60733764
 31
0.0
  0
LINE
  5
1FA
330
1F
100
AcDbEntity
  8
0
  6
Continuous
 62
     7
100
AcDbLine
 10
8966.3840705736
 20
5183.60733764
 30
0.0
 11
8966.3840705736
 21
5180.6336693628
 31
0.0
  0
LINE
  5
1FB
330
1F
100
AcDbEntity
  8
0
  6
Continuous
 62
     7
100
AcDbLine
 10
8930.5840755089
 20
5132.0336736901
 30
0.0
 11
8933.1840748175
 21
5132.0336736901
 31
0.0
  0
LINE
  5
1FC
330
1F
100
AcDbEntity
  8
0
  6
Continuous
 62
     7
100
AcDbLine
 10
8933.1840748175
 20
5189.0336699946
 30
0.0
 11
8930.5840755089
 21
5189.0336699946
 31
0.0
  0
LINE
  5
1FD
330
1F
100
AcDbEntity
  8
0
  6
Continuous
 62
     7
100
AcDbLine
 10
8864.8763453795
 20
5237.4619018448
 30
0.0
 11
8863.8045756353
 21
5238.5336697264
 31
0.0
  0
LINE
  5
1FE
330
1F
100
AcDbEntity
  8
0
  6
Continuous
 62
     7
100
AcDbLine
 10
8839.480744614
 20
5237.6508392556
 30
0.0
 11
8838.8635763378
 21
5237.0336704118
 31
0.0
  0
LINE
  5
1FF
330
1F
100
AcDbEntity
  8
0
  6
Continuous
 62
     7
100
AcDbLine
 10
8840.3635763072
 20
5238.5336697264
 30
0.0
 11
8839.7280676265
 21
5237.8981612785
 31
0.0
  0
LINE
  5
200
330
1F
100
AcDbEntity
  8
0
  6
Continuous
 62
     7
100
AcDbLine
 10
8865.3045768125
 20
5236.0946197225
 30
0.0
 11
8865.3045768125
 21
5236.4916686131
 31
0.0
  0
LINE
  5
201
330
1F
100
AcDbEntity
  8
0
  6
Continuous
 62
     7
100
AcDbLine
 10
8865.3045768125
 20
5234.5071189267
 30
0.0
 11
8865.3045768125
 21
5234.90416968
 31
0.0
  0
LINE
  5
202
330
1F
100
AcDbEntity
  8
0
  6
Continuous
 62
     7
100
AcDbLine
 10
8865.3045768125
 20
5232.919618131
 30
0.0
 11
8865.3045768125
 21
5233.3166688843
 31
0.0
  0
LINE
  5
203
330
1F
100
AcDbEntity
  8
0
  6
Continuous
 62
     7
100
AcDbLine
 10
8865.3045768125
 20
5231.332119198
 30
0.0
 11
8865.3045768125
 21
5231.7291699512
 31
0.0
  0
LINE
  5
204
330
1F
100
AcDbEntity
  8
0
  6
Continuous
 62
     7
100
AcDbLine
 10
8865.3045768125
 20
5229.7446184022
 30
0.0
 11
8865.3045768125
 21
5230.1416691555
 31
0.0
  0
LINE
  5
205
330
1F
100
AcDbEntity
  8
0
  6
Continuous
 62
     7
100
AcDbLine
 10
8838.8635763378
 20
5230.9353068633
 30
0.0
 11
8838.8635763378
 21
5230.5384330613
 31
0.0
  0
LINE
  5
206
330
1F
100
AcDbEntity
  8
0
  6
Continuous
 62
     7
100
AcDbLine
 10
8838.8635763378
 20
5232.522807659
 30
0.0
 11
8838.8635763378
 21
5232.1259319944
 31
0.0
  0
LINE
  5
207
330
1F
100
AcDbEntity
  8
0
  6
Continuous
 62
     7
100
AcDbLine
 10
8838.8635763378
 20
5234.1103084547
 30
0.0
 11
8838.8635763378
 21
5233.7134327901
 31
0.0
  0
LINE
  5
208
330
1F
100
AcDbEntity
  8
0
  6
Continuous
 62
     7
100
AcDbLine
 10
8838.8635763378
 20
5235.6978073878
 30
0.0
 11
8838.8635763378
 21
5235.3009317232
 31
0.0
  0
LINE
  5
209
330
1F
100
AcDbEntity
  8
0
  6
Continuous
 62
     7
100
AcDbLine
 10
8838.8635763378
 20
5237.0336704118
 30
0.0
 11
8838.8635763378
 21
5236.8884325189
 31
0.0
  0
LINE
  5
20A
330
1F
100
AcDbEntity
  8
0
  6
Continuous
 62
     7
100
AcDbLine
 10
8864.9465261234
 20
5229.5336701138
 30
0.0
 11
8865.2972324027
 21
5229.7362700267
 31
0.0
  0
LINE
  5
20B
330
1F
100
AcDbEntity
  8
0
  6
Continuous
 62
     7
100
AcDbLine
 10
8839.7306783565
 20
5237.7907090051
 30
0.0
 11
8839.5223220843
 21
5237.6703392876
 31
0.0
  0
LINE
  5
20C
330
1F
100
AcDbEntity
  8
0
  6
Continuous
 62
     7
100
AcDbLine
 10
8839.7228602527
 20
5236.393022926
 30
0.0
 11
8839.7228602527
 21
5236.1986912949
 31
0.0
  0
LINE
  5
20D
330
1F
100
AcDbEntity
  8
0
  6
Continuous
 62
     7
100
AcDbLine
 10
8839.7228602527
 20
5234.8055221302
 30
0.0
 11
8839.7228602527
 21
5234.6111923618
 31
0.0
  0
LINE
  5
20E
330
1F
100
AcDbEntity
  8
0
  6
Continuous
 62
     7
100
AcDbLine
 10
8839.7228602527
 20
5233.2180231972
 30
0.0
 11
8839.7228602527
 21
5233.0236915661
 31
0.0
  0
LINE
  5
20F
330
1F
100
AcDbEntity
  8
0
  6
Continuous
 62
     7
100
AcDbLine
 10
8839.7228602527
 20
5231.6305224014
 30
0.0
 11
8839.7228602527
 21
5231.436192633
 31
0.0
  0
LINE
  5
210
330
1F
100
AcDbEntity
  8
0
  6
Continuous
 62
     7
100
AcDbLine
 10
8839.7228602527
 20
5230.043022537
 30
0.0
 11
8839.7228602527
 21
5229.8486918373
 31
0.0
  0
LINE
  5
211
330
1F
100
AcDbEntity
  8
0
  6
Continuous
 62
     7
100
AcDbLine
 10
8864.4452920391
 20
5235.4008346958
 30
0.0
 11
8864.4452920391
 21
5235.5941027565
 31
0.0
  0
LINE
  5
212
330
1F
100
AcDbEntity
  8
0
  6
Continuous
 62
     7
100
AcDbLine
 10
8864.4452920391
 20
5233.8133339001
 30
0.0
 11
8864.4452920391
 21
5234.0066019608
 31
0.0
  0
LINE
  5
213
330
1F
100
AcDbEntity
  8
0
  6
Continuous
 62
     7
100
AcDbLine
 10
8864.4452920391
 20
5232.225834967
 30
0.0
 11
8864.4452920391
 21
5232.419101165
 31
0.0
  0
LINE
  5
214
330
1F
100
AcDbEntity
  8
0
  6
Continuous
 62
     7
100
AcDbLine
 10
8864.4452920391
 20
5230.6383351026
 30
0.0
 11
8864.4452920391
 21
5230.831602232
 31
0.0
  0
LINE
  5
215
330
1F
100
AcDbEntity
  8
0
  6
Continuous
 62
     7
100
AcDbLine
 10
8864.4452920391
 20
5236.9883354915
 30
0.0
 11
8864.4452920391
 21
5237.1816016896
 31
0.0
  0
LINE
  5
216
330
1F
100
AcDbEntity
  8
0
  6
Continuous
 62
     7
100
AcDbLine
 10
8839.7228602527
 20
5237.980521859
 30
0.0
 11
8839.7228602527
 21
5237.7861920906
 31
0.0
  0
LINE
  5
217
330
1F
100
AcDbEntity
  8
0
  6
Continuous
 62
     7
100
AcDbLine
 10
8908.9002410157
 20
5213.8265637843
 30
0.0
 11
8908.0057690127
 21
5214.0336704835
 31
0.0
  0
LINE
  5
218
330
1F
100
AcDbEntity
  8
0
  6
Continuous
 62
     7
100
AcDbLine
 10
8895.8840767129
 20
5061.1336730583
 30
0.0
 11
8895.8840767129
 21
5061.0336713655
 31
0.0
  0
LINE
  5
219
330
1F
100
AcDbEntity
  8
0
  6
Continuous
 62
     7
100
AcDbLine
 10
8903.8840780242
 20
5061.0336713655
 30
0.0
 11
8903.8840780242
 21
5061.1336730583
 31
0.0
  0
LINE
  5
21A
330
1F
100
AcDbEntity
  8
0
  6
Continuous
 62
     7
100
AcDbLine
 10
8920.3840742095
 20
5159.2219673259
 30
0.0
 11
8920.3610295637
 21
5159.2613622708
 31
0.0
  0
LINE
  5
21B
330
1F
100
AcDbEntity
  8
0
  6
Continuous
 62
     7
100
AcDbLine
 10
8919.2840763428
 20
5138.1170038639
 30
0.0
 11
8919.2840779407
 21
5146.5336732728
 31
0.0
  0
LINE
  5
21C
330
1F
100
AcDbEntity
  8
0
  6
Continuous
 62
     7
100
AcDbLine
 10
8918.0840799792
 20
5153.8336701853
 30
0.0
 11
8920.3840742095
 21
5153.8336701853
 31
0.0
  0
LINE
  5
21D
330
1F
100
AcDbEntity
  8
0
  6
Continuous
 62
     7
100
AcDbLine
 10
8920.3840742095
 20
5161.2336687906
 30
0.0
 11
8918.8543955071
 21
5161.2336687906
 31
0.0
  0
LINE
  5
21E
330
1F
100
AcDbEntity
  8
0
  6
Continuous
 62
     7
100
AcDbLine
 10
8919.7715768798
 20
5134.1382689936
 30
0.0
 11
8919.7715768798
 21
5134.1636680229
 31
0.0
  0
LINE
  5
21F
330
1F
100
AcDbEntity
  8
0
  6
Continuous
 62
     7
100
AcDbLine
 10
8919.1759476645
 20
5131.0759760601
 30
0.0
 11
8919.7715768798
 21
5131.4930446608
 31
0.0
  0
LINE
  5
220
330
1F
100
AcDbEntity
  8
0
  6
Continuous
 62
     7
100
AcDbLine
 10
8919.7715768798
 20
5131.4930446608
 30
0.0
 11
8919.1759476645
 21
5131.9101058109
 31
0.0
  0
LINE
  5
221
330
1F
100
AcDbEntity
  8
0
  6
Continuous
 62
     7
100
AcDbLine
 10
8919.7715768798
 20
5132.8156568272
 30
0.0
 11
8919.1759476645
 21
5133.2327179773
 31
0.0
  0
LINE
  5
222
330
1F
100
AcDbEntity
  8
0
  6
Continuous
 62
     7
100
AcDbLine
 10
8919.1759476645
 20
5133.7212078435
 30
0.0
 11
8919.7715768798
 21
5134.1382689936
 31
0.0
  0
LINE
  5
223
330
1F
100
AcDbEntity
  8
0
  6
Continuous
 62
     7
100
AcDbLine
 10
8919.7715768798
 20
5130.1704250438
 30
0.0
 11
8919.1759476645
 21
5130.5874936445
 31
0.0
  0
LINE
  5
224
330
1F
100
AcDbEntity
  8
0
  6
Continuous
 62
     7
100
AcDbLine
 10
8919.1759476645
 20
5132.3985882265
 30
0.0
 11
8919.7715768798
 21
5132.8156568272
 31
0.0
  0
LINE
  5
225
330
1F
100
AcDbEntity
  8
0
  6
Continuous
 62
     7
100
AcDbLine
 10
8919.7619283779
 20
5130.1636673672
 30
0.0
 11
8919.7715768798
 21
5130.1704250438
 31
0.0
  0
LINE
  5
226
330
1F
100
AcDbEntity
  8
0
  6
Continuous
 62
     7
100
AcDbLine
 10
8919.1759476645
 20
5130.5874936445
 30
0.0
 11
8919.1759476645
 21
5131.0759760601
 31
0.0
  0
LINE
  5
227
330
1F
100
AcDbEntity
  8
0
  6
Continuous
 62
     7
100
AcDbLine
 10
8919.1759476645
 20
5133.2327179773
 30
0.0
 11
8919.1759476645
 21
5133.7212078435
 31
0.0
  0
LINE
  5
228
330
1F
100
AcDbEntity
  8
0
  6
Continuous
 62
     7
100
AcDbLine
 10
8919.1759476645
 20
5131.9101058109
 30
0.0
 11
8919.1759476645
 21
5132.3985882265
 31
0.0
  0
LINE
  5
229
330
1F
100
AcDbEntity
  8
0
  6
Continuous
 62
     7
100
AcDbLine
 10
8919.0840745552
 20
5171.5123966499
 30
0.0
 11
8919.0840745552
 21
5173.6636698408
 31
0.0
  0
LINE
  5
22A
330
1F
100
AcDbEntity
  8
0
  6
Continuous
 62
     7
100
AcDbLine
 10
8919.0840745552
 20
5134.1636680229
 30
0.0
 11
8919.0840763429
 21
5138.1170038639
 31
0.0
  0
LINE
  5
22B
330
1F
100
AcDbEntity
  8
0
  6
Continuous
 62
     7
100
AcDbLine
 10
8919.0840745552
 20
5146.5336732728
 30
0.0
 11
8919.0840745552
 21
5153.8336701853
 31
0.0
  0
LINE
  5
22C
330
1F
100
AcDbEntity
  8
0
  6
Continuous
 62
     7
100
AcDbLine
 10
8919.0840745552
 20
5161.2336687906
 30
0.0
 11
8919.0840745552
 21
5163.079416023
 31
0.0
  0
LINE
  5
22D
330
1F
100
AcDbEntity
  8
0
  6
Continuous
 62
     7
100
AcDbLine
 10
8919.0840745552
 20
5170.5060020251
 30
0.0
 11
8919.0878370984
 21
5170.8038091822
 31
0.0
  0
LINE
  5
22E
330
1F
100
AcDbEntity
  8
0
  6
Continuous
 62
     7
100
AcDbLine
 10
8933.384078203
 20
5137.2836731536
 30
0.0
 11
8943.3840761168
 21
5137.2836731536
 31
0.0
  0
LINE
  5
22F
330
1F
100
AcDbEntity
  8
0
  6
Continuous
 62
     7
100
AcDbLine
 10
8943.3840761168
 20
5183.783670531
 30
0.0
 11
8933.384078203
 21
5183.783670531
 31
0.0
  0
LINE
  5
230
330
1F
100
AcDbEntity
  8
0
  6
Continuous
 62
     7
100
AcDbLine
 10
8919.8840731962
 20
5150.5336739285
 30
0.0
 11
8919.0840745552
 21
5150.5336739285
 31
0.0
  0
LINE
  5
231
330
1F
100
AcDbEntity
  8
0
  6
Continuous
 62
     7
100
AcDbLine
 10
8919.2840779407
 20
5140.5336685641
 30
0.0
 11
8919.8840731962
 21
5140.5336685641
 31
0.0
  0
LINE
  5
232
330
1F
100
AcDbEntity
  8
0
  6
Continuous
 62
     7
100
AcDbLine
 10
8919.8840731962
 20
5140.5336685641
 30
0.0
 11
8920.3840742095
 21
5141.0336695773
 31
0.0
  0
LINE
  5
233
330
1F
100
AcDbEntity
  8
0
  6
Continuous
 62
     7
100
AcDbLine
 10
8920.3840742095
 20
5150.0336729152
 30
0.0
 11
8919.8840731962
 21
5150.5336739285
 31
0.0
  0
LINE
  5
234
330
1F
100
AcDbEntity
  8
0
  6
Continuous
 62
     7
100
AcDbLine
 10
8866.1340760274
 20
5192.533669637
 30
0.0
 11
8866.1340760274
 21
5190.4295958741
 31
0.0
  0
LINE
  5
235
330
1F
100
AcDbEntity
  8
0
  6
Continuous
 62
     7
100
AcDbLine
 10
8841.5840762875
 20
5214.0336704835
 30
0.0
 11
8841.5840762875
 21
5213.3265637023
 31
0.0
  0
LINE
  5
236
330
1F
100
AcDbEntity
  8
0
  6
Continuous
 62
     7
100
AcDbLine
 10
8862.5840755387
 20
5213.3265637023
 30
0.0
 11
8862.5840755387
 21
5214.0336704835
 31
0.0
  0
LINE
  5
237
330
1F
100
AcDbEntity
  8
0
  6
Continuous
 62
     7
100
AcDbLine
 10
8918.8340777738
 20
5099.7636668546
 30
0.0
 11
8918.8340777738
 21
5106.7136727435
 31
0.0
  0
LINE
  5
238
330
1F
100
AcDbEntity
  8
0
  6
Continuous
 62
     7
100
AcDbLine
 10
8838.8635763378
 20
5042.3137150867
 30
0.0
 11
8838.8635763378
 21
5042.0336775644
 31
0.0
  0
LINE
  5
239
330
1F
100
AcDbEntity
  8
0
  6
Continuous
 62
     7
100
AcDbLine
 10
8838.8635763378
 20
5043.9012102945
 30
0.0
 11
8838.8635763378
 21
5043.6373852355
 31
0.0
  0
LINE
  5
23A
330
1F
100
AcDbEntity
  8
0
  6
Continuous
 62
     7
100
AcDbLine
 10
8838.8635763378
 20
5045.4887204034
 30
0.0
 11
8838.8635763378
 21
5045.2248804433
 31
0.0
  0
LINE
  5
23B
330
1F
100
AcDbEntity
  8
0
  6
Continuous
 62
     7
100
AcDbLine
 10
8838.8635763378
 20
5047.0762156112
 30
0.0
 11
8838.8635763378
 21
5046.8123756511
 31
0.0
  0
LINE
  5
23C
330
1F
100
AcDbEntity
  8
0
  6
Continuous
 62
     7
100
AcDbLine
 10
8838.8635763378
 20
5048.663710819
 30
0.0
 11
8838.8635763378
 21
5048.3998708589
 31
0.0
  0
LINE
  5
23D
330
1F
100
AcDbEntity
  8
0
  6
Continuous
 62
     7
100
AcDbLine
 10
8865.3045768125
 20
5049.193685518
 30
0.0
 11
8865.3045768125
 21
5049.5336704118
 31
0.0
  0
LINE
  5
23E
330
1F
100
AcDbEntity
  8
0
  6
Continuous
 62
     7
100
AcDbLine
 10
8865.3045768125
 20
5047.6061903102
 30
0.0
 11
8865.3045768125
 21
5047.8697918517
 31
0.0
  0
LINE
  5
23F
330
1F
100
AcDbEntity
  8
0
  6
Continuous
 62
     7
100
AcDbLine
 10
8865.3045768125
 20
5046.0186802013
 30
0.0
 11
8865.3045768125
 21
5046.282296644
 31
0.0
  0
LINE
  5
240
330
1F
100
AcDbEntity
  8
0
  6
Continuous
 62
     7
100
AcDbLine
 10
8865.3045768125
 20
5044.4311849935
 30
0.0
 11
8865.3045768125
 21
5044.694786535
 31
0.0
  0
LINE
  5
241
330
1F
100
AcDbEntity
  8
0
  6
Continuous
 62
     7
100
AcDbLine
 10
8865.3045768125
 20
5042.8436897857
 30
0.0
 11
8865.3045768125
 21
5043.1072913272
 31
0.0
  0
LINE
  5
242
330
1F
100
AcDbEntity
  8
0
  6
Continuous
 62
     7
100
AcDbLine
 10
8839.462074565
 20
5041.435172425
 30
0.0
 11
8840.3635763072
 21
5040.533667074
 31
0.0
  0
LINE
  5
243
330
1F
100
AcDbEntity
  8
0
  6
Continuous
 62
     7
100
AcDbLine
 10
8863.8042347713
 20
5040.533667074
 30
0.0
 11
8865.2187628879
 21
5041.9478617771
 31
0.0
  0
LINE
  5
244
330
1F
100
AcDbEntity
  8
0
  6
Continuous
 62
     7
100
AcDbLine
 10
8839.7297557651
 20
5041.6271887882
 30
0.0
 11
8839.4640277813
 21
5041.4736919267
 31
0.0
  0
LINE
  5
245
330
1F
100
AcDbEntity
  8
0
  6
Continuous
 62
     7
100
AcDbLine
 10
8838.8635763378
 20
5042.7104287011
 30
0.0
 11
8838.8635763378
 21
5042.3137150867
 31
0.0
  0
LINE
  5
246
330
1F
100
AcDbEntity
  8
0
  6
Continuous
 62
     7
100
AcDbLine
 10
8838.8635763378
 20
5044.2979239089
 30
0.0
 11
8838.8635763378
 21
5043.9012102945
 31
0.0
  0
LINE
  5
247
330
1F
100
AcDbEntity
  8
0
  6
Continuous
 62
     7
100
AcDbLine
 10
8838.8635763378
 20
5045.8854191167
 30
0.0
 11
8838.8635763378
 21
5045.4887204034
 31
0.0
  0
LINE
  5
248
330
1F
100
AcDbEntity
  8
0
  6
Continuous
 62
     7
100
AcDbLine
 10
8838.8635763378
 20
5047.4729292257
 30
0.0
 11
8838.8635763378
 21
5047.0762156112
 31
0.0
  0
LINE
  5
249
330
1F
100
AcDbEntity
  8
0
  6
Continuous
 62
     7
100
AcDbLine
 10
8838.8635763378
 20
5049.0604244335
 30
0.0
 11
8838.8635763378
 21
5048.663710819
 31
0.0
  0
LINE
  5
24A
330
1F
100
AcDbEntity
  8
0
  6
Continuous
 62
     7
100
AcDbLine
 10
8865.3045768125
 20
5047.8697918517
 30
0.0
 11
8865.3045768125
 21
5048.2669375999
 31
0.0
  0
LINE
  5
24B
330
1F
100
AcDbEntity
  8
0
  6
Continuous
 62
     7
100
AcDbLine
 10
8865.3045768125
 20
5046.282296644
 30
0.0
 11
8865.3045768125
 21
5046.6794423921
 31
0.0
  0
LINE
  5
24C
330
1F
100
AcDbEntity
  8
0
  6
Continuous
 62
     7
100
AcDbLine
 10
8865.3045768125
 20
5044.694786535
 30
0.0
 11
8865.3045768125
 21
5045.0919322831
 31
0.0
  0
LINE
  5
24D
330
1F
100
AcDbEntity
  8
0
  6
Continuous
 62
     7
100
AcDbLine
 10
8865.3045768125
 20
5043.1072913272
 30
0.0
 11
8865.3045768125
 21
5043.5044370754
 31
0.0
  0
LINE
  5
24E
330
1F
100
AcDbEntity
  8
0
  6
Continuous
 62
     7
100
AcDbLine
 10
8864.4452901764
 20
5043.9998559816
 30
0.0
 11
8864.4452901764
 21
5044.1947184665
 31
0.0
  0
LINE
  5
24F
330
1F
100
AcDbEntity
  8
0
  6
Continuous
 62
     7
100
AcDbLine
 10
8864.4452901764
 20
5045.5873511894
 30
0.0
 11
8864.4452901764
 21
5045.7822136743
 31
0.0
  0
LINE
  5
250
330
1F
100
AcDbEntity
  8
0
  6
Continuous
 62
     7
100
AcDbLine
 10
8864.4452901764
 20
5047.1748463971
 30
0.0
 11
8864.4452901764
 21
5047.3697237832
 31
0.0
  0
LINE
  5
251
330
1F
100
AcDbEntity
  8
0
  6
Continuous
 62
     7
100
AcDbLine
 10
8864.4452901764
 20
5048.7623565061
 30
0.0
 11
8864.4452901764
 21
5048.957218991
 31
0.0
  0
LINE
  5
252
330
1F
100
AcDbEntity
  8
0
  6
Continuous
 62
     7
100
AcDbLine
 10
8839.7228359801
 20
5043.4050016267
 30
0.0
 11
8839.7228359801
 21
5043.2106904847
 31
0.0
  0
LINE
  5
253
330
1F
100
AcDbEntity
  8
0
  6
Continuous
 62
     7
100
AcDbLine
 10
8839.7228359801
 20
5044.9925117357
 30
0.0
 11
8839.7228359801
 21
5044.7982005937
 31
0.0
  0
LINE
  5
254
330
1F
100
AcDbEntity
  8
0
  6
Continuous
 62
     7
100
AcDbLine
 10
8839.7228359801
 20
5046.5800069434
 30
0.0
 11
8839.7228359801
 21
5046.3856958015
 31
0.0
  0
LINE
  5
255
330
1F
100
AcDbEntity
  8
0
  6
Continuous
 62
     7
100
AcDbLine
 10
8839.7228359801
 20
5048.1675021512
 30
0.0
 11
8839.7228359801
 21
5047.9731910093
 31
0.0
  0
LINE
  5
256
330
1F
100
AcDbEntity
  8
0
  6
Continuous
 62
     7
100
AcDbLine
 10
8839.7228359801
 20
5041.8175064189
 30
0.0
 11
8839.7228359801
 21
5041.623195277
 31
0.0
  0
LINE
  5
257
330
1F
100
AcDbEntity
  8
0
  6
Continuous
 62
     7
100
AcDbLine
 10
8864.4452901764
 20
5042.4123458726
 30
0.0
 11
8864.4452901764
 21
5042.6072232587
 31
0.0
  0
LINE
  5
258
330
1F
100
AcDbEntity
  8
0
  6
Continuous
 62
     7
100
AcDbLine
 10
8913.6840800031
 20
5213.8265637843
 30
0.0
 11
8913.6840800031
 21
5214.0336704835
 31
0.0
  0
LINE
  5
259
330
1F
100
AcDbEntity
  8
0
  6
Continuous
 62
     7
100
AcDbLine
 10
8910.4840779884
 20
5214.0336704835
 30
0.0
 11
8910.4840779884
 21
5213.8265637843
 31
0.0
  0
LINE
  5
25A
330
1F
100
AcDbEntity
  8
0
  6
Continuous
 62
     7
100
AcDbLine
 10
8910.4840779884
 20
5061.2407826049
 30
0.0
 11
8910.4840779884
 21
5061.0336713655
 31
0.0
  0
LINE
  5
25B
330
1F
100
AcDbEntity
  8
0
  6
Continuous
 62
     7
100
AcDbLine
 10
8913.6840800031
 20
5061.0336713655
 30
0.0
 11
8913.6840800031
 21
5061.2407826049
 31
0.0
  0
LINE
  5
25C
330
1F
100
AcDbEntity
  8
0
  6
Continuous
 62
     7
100
AcDbLine
 10
8920.3840742095
 20
5074.8336665494
 30
0.0
 11
8920.0840765818
 21
5074.5336763723
 31
0.0
  0
LINE
  5
25D
330
1F
100
AcDbEntity
  8
0
  6
Continuous
 62
     7
100
AcDbLine
 10
8920.0840765818
 20
5067.5336770875
 30
0.0
 11
8920.3840742095
 21
5067.2336720092
 31
0.0
  0
LINE
  5
25E
330
1F
100
AcDbEntity
  8
0
  6
Continuous
 62
     7
100
AcDbLine
 10
8920.0840765818
 20
5074.5336763723
 30
0.0
 11
8919.8840731962
 21
5074.5336763723
 31
0.0
  0
LINE
  5
25F
330
1F
100
AcDbEntity
  8
0
  6
Continuous
 62
     7
100
AcDbLine
 10
8919.8840731962
 20
5067.5336770875
 30
0.0
 11
8920.0840765818
 21
5067.5336770875
 31
0.0
  0
LINE
  5
260
330
1F
100
AcDbEntity
  8
0
  6
Continuous
 62
     7
100
AcDbLine
 10
8920.3840742095
 20
5208.033670315
 30
0.0
 11
8919.8840731962
 21
5207.5336706987
 31
0.0
  0
LINE
  5
261
330
1F
100
AcDbEntity
  8
0
  6
Continuous
 62
     7
100
AcDbLine
 10
8919.8840731962
 20
5200.5336709483
 30
0.0
 11
8920.3840742095
 21
5200.0336708663
 31
0.0
  0
LINE
  5
262
330
1F
100
AcDbEntity
  8
0
  6
Continuous
 62
     7
100
AcDbLine
 10
8920.3840742095
 20
5075.033669935
 30
0.0
 11
8919.8840731962
 21
5074.5336763723
 31
0.0
  0
LINE
  5
263
330
1F
100
AcDbEntity
  8
0
  6
Continuous
 62
     7
100
AcDbLine
 10
8919.8840731962
 20
5067.5336770875
 30
0.0
 11
8920.3840742095
 21
5067.0336686237
 31
0.0
  0
LINE
  5
264
330
1F
100
AcDbEntity
  8
0
  6
Continuous
 62
     7
100
AcDbLine
 10
8920.3840795739
 20
5212.5336703634
 30
0.0
 11
8930.3840795739
 21
5212.5336705869
 31
0.0
  0
LINE
  5
265
330
1F
100
AcDbEntity
  8
0
  6
Continuous
 62
     7
100
AcDbLine
 10
8920.3840742095
 20
5222.5336703634
 30
0.0
 11
8920.3840795739
 21
5212.5336703634
 31
0.0
  0
LINE
  5
266
330
1F
100
AcDbEntity
  8
0
  6
Continuous
 62
     7
100
AcDbLine
 10
8920.3840795739
 20
5062.5336764915
 30
0.0
 11
8930.3840795739
 21
5062.5336669547
 31
0.0
  0
LINE
  5
267
330
1F
100
AcDbEntity
  8
0
  6
Continuous
 62
     7
100
AcDbLine
 10
8920.3840795739
 20
5062.5336764915
 30
0.0
 11
8920.3840742095
 21
5052.5336764915
 31
0.0
  0
LINE
  5
268
330
1F
100
AcDbEntity
  8
0
  6
Continuous
 62
     7
100
AcDbLine
 10
8930.3840795739
 20
5212.5336705869
 30
0.0
 11
8930.3840795739
 21
5062.5336669547
 31
0.0
  0
LINE
  5
269
330
1F
100
AcDbEntity
  8
0
  6
Continuous
 62
     7
100
AcDbLine
 10
8920.3840795739
 20
5212.5336703634
 30
0.0
 11
8920.3840795739
 21
5062.5336764915
 31
0.0
  0
LINE
  5
26A
330
1F
100
AcDbEntity
  8
0
  6
Continuous
 62
     7
100
AcDbLine
 10
8865.1099881364
 20
5078.5180233581
 30
0.0
 11
8864.9367341979
 21
5078.5148643119
 31
0.0
  0
LINE
  5
26B
330
1F
100
AcDbEntity
  8
0
  6
Continuous
 62
     7
100
AcDbLine
 10
8864.9367341979
 20
5078.5148643119
 30
0.0
 11
8864.3411422356
 21
5078.6228381259
 31
0.0
  0
LINE
  5
26C
330
1F
100
AcDbEntity
  8
0
  6
Continuous
 62
     7
100
AcDbLine
 10
8979.1840786322
 20
5143.1797050102
 30
0.0
 11
8979.1936898811
 21
5143.1516014201
 31
0.0
  0
LINE
  5
26D
330
1F
100
AcDbEntity
  8
0
  6
Continuous
 62
     7
100
AcDbLine
 10
8979.1936898811
 20
5143.1516014201
 30
0.0
 11
8979.2221361978
 21
5143.1245707137
 31
0.0
  0
LINE
  5
26E
330
1F
100
AcDbEntity
  8
0
  6
Continuous
 62
     7
100
AcDbLine
 10
8979.2221361978
 20
5143.1245707137
 30
0.0
 11
8979.2683446987
 21
5143.0996634228
 31
0.0
  0
LINE
  5
26F
330
1F
100
AcDbEntity
  8
0
  6
Continuous
 62
     7
100
AcDbLine
 10
8979.2683446987
 20
5143.0996634228
 30
0.0
 11
8979.3305272444
 21
5143.0778332217
 31
0.0
  0
LINE
  5
270
330
1F
100
AcDbEntity
  8
0
  6
Continuous
 62
     7
100
AcDbLine
 10
8979.3305272444
 20
5143.0778332217
 30
0.0
 11
8979.4062847479
 21
5143.0599145753
 31
0.0
  0
LINE
  5
271
330
1F
100
AcDbEntity
  8
0
  6
Continuous
 62
     7
100
AcDbLine
 10
8979.4062847479
 20
5143.0599145753
 30
0.0
 11
8979.4927412851
 21
5143.0466003878
 31
0.0
  0
LINE
  5
272
330
1F
100
AcDbEntity
  8
0
  6
Continuous
 62
     7
100
AcDbLine
 10
8979.4927412851
 20
5143.0466003878
 30
0.0
 11
8979.5865291937
 21
5143.0384047491
 31
0.0
  0
LINE
  5
273
330
1F
100
AcDbEntity
  8
0
  6
Continuous
 62
     7
100
AcDbLine
 10
8979.5865291937
 20
5143.0384047491
 30
0.0
 11
8979.6840721948
 21
5143.0356331332
 31
0.0
  0
LINE
  5
274
330
1F
100
AcDbEntity
  8
0
  6
Continuous
 62
     7
100
AcDbLine
 10
8979.6840721948
 20
5143.0356331332
 30
0.0
 11
8979.6840721948
 21
5138.5116331441
 31
0.0
  0
LINE
  5
275
330
1F
100
AcDbEntity
  8
0
  6
Continuous
 62
     7
100
AcDbLine
 10
8976.1840725524
 20
5154.7421455546
 30
0.0
 11
8982.3840731962
 21
5154.7421455545
 31
0.0
  0
LINE
  5
276
330
1F
100
AcDbEntity
  8
0
  6
Continuous
 62
     7
100
AcDbLine
 10
8982.3840731962
 20
5138.5116331441
 30
0.0
 11
8982.3840731962
 21
5154.7421455545
 31
0.0
  0
LINE
  5
277
330
1F
100
AcDbEntity
  8
0
  6
Continuous
 62
     7
100
AcDbLine
 10
8979.6840721948
 20
5138.5116331441
 30
0.0
 11
8982.3840731962
 21
5138.5116331441
 31
0.0
  0
LINE
  5
278
330
1F
100
AcDbEntity
  8
0
  6
Continuous
 62
     7
100
AcDbLine
 10
8984.3840772493
 20
5178.6336690349
 30
0.0
 11
8984.3840772493
 21
5155.3184144361
 31
0.0
  0
LINE
  5
279
330
1F
100
AcDbEntity
  8
0
  6
Continuous
 62
     7
100
AcDbLine
 10
8982.3840731962
 20
5154.7421455545
 30
0.0
 11
8982.7742601021
 21
5154.7532171173
 31
0.0
  0
LINE
  5
27A
330
1F
100
AcDbEntity
  8
0
  6
Continuous
 62
     7
100
AcDbLine
 10
8982.7742601021
 20
5154.7532171173
 30
0.0
 11
8983.1494415386
 21
5154.7860108478
 31
0.0
  0
LINE
  5
27B
330
1F
100
AcDbEntity
  8
0
  6
Continuous
 62
     7
100
AcDbLine
 10
8983.1494415386
 20
5154.7860108478
 30
0.0
 11
8983.4952229841
 21
5154.8392638726
 31
0.0
  0
LINE
  5
27C
330
1F
100
AcDbEntity
  8
0
  6
Continuous
 62
     7
100
AcDbLine
 10
8983.4952229841
 20
5154.8392638726
 30
0.0
 11
8983.7982828005
 21
5154.9109310074
 31
0.0
  0
LINE
  5
27D
330
1F
100
AcDbEntity
  8
0
  6
Continuous
 62
     7
100
AcDbLine
 10
8983.7982828005
 20
5154.9109310074
 30
0.0
 11
8984.0470129831
 21
5154.9982555373
 31
0.0
  0
LINE
  5
27E
330
1F
100
AcDbEntity
  8
0
  6
Continuous
 62
     7
100
AcDbLine
 10
8984.0470129831
 20
5154.9982555373
 30
0.0
 11
8984.2318320854
 21
5155.0978884263
 31
0.0
  0
LINE
  5
27F
330
1F
100
AcDbEntity
  8
0
  6
Continuous
 62
     7
100
AcDbLine
 10
8984.2318320854
 20
5155.0978884263
 30
0.0
 11
8984.3456471546
 21
5155.2059926255
 31
0.0
  0
LINE
  5
280
330
1F
100
AcDbEntity
  8
0
  6
Continuous
 62
     7
100
AcDbLine
 10
8984.3456471546
 20
5155.2059926255
 30
0.0
 11
8984.3840772493
 21
5155.3184144361
 31
0.0
  0
LINE
  5
281
330
1F
100
AcDbEntity
  8
0
  6
Continuous
 62
     7
100
AcDbLine
 10
8984.3840772493
 20
5155.3184144361
 30
0.0
 11
8984.3840772493
 21
5139.087905751
 31
0.0
  0
LINE
  5
282
330
1F
100
AcDbEntity
  8
0
  6
Continuous
 62
     7
100
AcDbLine
 10
8984.3840772493
 20
5139.087905751
 30
0.0
 11
8984.3456471546
 21
5138.9754839403
 31
0.0
  0
LINE
  5
283
330
1F
100
AcDbEntity
  8
0
  6
Continuous
 62
     7
100
AcDbLine
 10
8984.3456471546
 20
5138.9754839403
 30
0.0
 11
8984.2318320854
 21
5138.8673760159
 31
0.0
  0
LINE
  5
284
330
1F
100
AcDbEntity
  8
0
  6
Continuous
 62
     7
100
AcDbLine
 10
8984.2318320854
 20
5138.8673760159
 30
0.0
 11
8984.0470129831
 21
5138.7677468521
 31
0.0
  0
LINE
  5
285
330
1F
100
AcDbEntity
  8
0
  6
Continuous
 62
     7
100
AcDbLine
 10
8984.0470129831
 20
5138.7677468521
 30
0.0
 11
8983.7982828005
 21
5138.6804260475
 31
0.0
  0
LINE
  5
286
330
1F
100
AcDbEntity
  8
0
  6
Continuous
 62
     7
100
AcDbLine
 10
8983.7982828005
 20
5138.6804260475
 30
0.0
 11
8983.4952229841
 21
5138.6087589128
 31
0.0
  0
LINE
  5
287
330
1F
100
AcDbEntity
  8
0
  6
Continuous
 62
     7
100
AcDbLine
 10
8983.4952229841
 20
5138.6087589128
 30
0.0
 11
8983.1494415386
 21
5138.5555021627
 31
0.0
  0
LINE
  5
288
330
1F
100
AcDbEntity
  8
0
  6
Continuous
 62
     7
100
AcDbLine
 10
8983.1494415386
 20
5138.5555021627
 30
0.0
 11
8982.7742601021
 21
5138.5227121575
 31
0.0
  0
LINE
  5
289
330
1F
100
AcDbEntity
  8
0
  6
Continuous
 62
     7
100
AcDbLine
 10
8982.7742601021
 20
5138.5227121575
 30
0.0
 11
8982.3840731962
 21
5138.5116331441
 31
0.0
  0
LINE
  5
28A
330
1F
100
AcDbEntity
  8
0
  6
Continuous
 62
     7
100
AcDbLine
 10
8979.1840786322
 20
5138.6557050211
 30
0.0
 11
8979.1840786322
 21
5143.1797050102
 31
0.0
  0
LINE
  5
28B
330
1F
100
AcDbEntity
  8
0
  6
Continuous
 62
     7
100
AcDbLine
 10
8979.1840786322
 20
5138.6557050211
 30
0.0
 11
8979.1936898811
 21
5138.6276014311
 31
0.0
  0
LINE
  5
28C
330
1F
100
AcDbEntity
  8
0
  6
Continuous
 62
     7
100
AcDbLine
 10
8979.1936898811
 20
5138.6276014311
 30
0.0
 11
8979.2221361978
 21
5138.6005707247
 31
0.0
  0
LINE
  5
28D
330
1F
100
AcDbEntity
  8
0
  6
Continuous
 62
     7
100
AcDbLine
 10
8979.2221361978
 20
5138.6005707247
 30
0.0
 11
8979.2683446987
 21
5138.5756634338
 31
0.0
  0
LINE
  5
28E
330
1F
100
AcDbEntity
  8
0
  6
Continuous
 62
     7
100
AcDbLine
 10
8979.2683446987
 20
5138.5756634338
 30
0.0
 11
8979.3305272444
 21
5138.5538332326
 31
0.0
  0
LINE
  5
28F
330
1F
100
AcDbEntity
  8
0
  6
Continuous
 62
     7
100
AcDbLine
 10
8979.3305272444
 20
5138.5538332326
 30
0.0
 11
8979.4062847479
 21
5138.5359145863
 31
0.0
  0
LINE
  5
290
330
1F
100
AcDbEntity
  8
0
  6
Continuous
 62
     7
100
AcDbLine
 10
8979.4062847479
 20
5138.5359145863
 30
0.0
 11
8979.4927412851
 21
5138.5226003988
 31
0.0
  0
LINE
  5
291
330
1F
100
AcDbEntity
  8
0
  6
Continuous
 62
     7
100
AcDbLine
 10
8979.4927412851
 20
5138.5226003988
 30
0.0
 11
8979.5865291937
 21
5138.5144047601
 31
0.0
  0
LINE
  5
292
330
1F
100
AcDbEntity
  8
0
  6
Continuous
 62
     7
100
AcDbLine
 10
8979.5865291937
 20
5138.5144047601
 30
0.0
 11
8979.6840721948
 21
5138.5116331441
 31
0.0
  0
LINE
  5
293
330
1F
100
AcDbEntity
  8
0
  6
Continuous
 62
     7
100
AcDbLine
 10
8979.1840786322
 20
5128.3336706622
 30
0.0
 11
8979.1840786322
 21
5138.6557050211
 31
0.0
  0
LINE
  5
294
330
1F
100
AcDbEntity
  8
0
  6
Continuous
 62
     7
100
AcDbLine
 10
8984.3840772493
 20
5139.087905751
 30
0.0
 11
8984.3840772493
 21
5129.833673702
 31
0.0
  0
LINE
  5
295
330
1F
100
AcDbEntity
  8
0
  6
Continuous
 62
     7
100
AcDbLine
 10
8933.384078203
 20
5132.233669625
 30
0.0
 11
8933.384078203
 21
5188.8336703343
 31
0.0
  0
LINE
  5
296
330
1F
100
AcDbEntity
  8
0
  6
Continuous
 62
     7
100
AcDbLine
 10
8920.3840742095
 20
5077.5336675508
 30
0.0
 11
8919.8840731962
 21
5077.5336675508
 31
0.0
  0
LINE
  5
297
330
1F
100
AcDbEntity
  8
0
  6
Continuous
 62
     7
100
AcDbLine
 10
8920.3840742095
 20
5076.0336719615
 30
0.0
 11
8919.8840731962
 21
5076.0336719615
 31
0.0
  0
LINE
  5
298
330
1F
100
AcDbEntity
  8
0
  6
Continuous
 62
     7
100
AcDbLine
 10
8918.0840799792
 20
5111.0336683853
 30
0.0
 11
8920.3840742095
 21
5111.0336683853
 31
0.0
  0
LINE
  5
299
330
1F
100
AcDbEntity
  8
0
  6
Continuous
 62
     7
100
AcDbLine
 10
8918.0840799792
 20
5109.533672796
 30
0.0
 11
8920.3840742095
 21
5109.533672796
 31
0.0
  0
LINE
  5
29A
330
1F
100
AcDbEntity
  8
0
  6
Continuous
 62
     7
100
AcDbLine
 10
8920.3840742095
 20
5108.0581225617
 30
0.0
 11
8919.8576012833
 21
5108.5845954878
 31
0.0
  0
LINE
  5
29B
330
1F
100
AcDbEntity
  8
0
  6
Continuous
 62
     7
100
AcDbLine
 10
8919.8840731962
 20
5078.5092167718
 30
0.0
 11
8920.3840742095
 21
5079.0092103345
 31
0.0
  0
LINE
  5
29C
330
1F
100
AcDbEntity
  8
0
  6
Continuous
 62
     7
100
AcDbLine
 10
8919.8576012833
 20
5108.5845954878
 30
0.0
 11
8918.0840799792
 21
5108.5845954878
 31
0.0
  0
LINE
  5
29D
330
1F
100
AcDbEntity
  8
0
  6
Continuous
 62
     7
100
AcDbLine
 10
8919.8840731962
 20
5078.4188412292
 30
0.0
 11
8920.002194701
 21
5078.1336777074
 31
0.0
  0
LINE
  5
29E
330
1F
100
AcDbEntity
  8
0
  6
Continuous
 62
     7
100
AcDbLine
 10
8920.002194701
 20
5078.1336777074
 30
0.0
 11
8919.8840731962
 21
5078.1336777074
 31
0.0
  0
LINE
  5
29F
330
1F
100
AcDbEntity
  8
0
  6
Continuous
 62
     7
100
AcDbLine
 10
8920.3840742095
 20
5078.5155497653
 30
0.0
 11
8920.002194701
 21
5078.1336777074
 31
0.0
  0
LINE
  5
2A0
330
1F
100
AcDbEntity
  8
0
  6
Continuous
 62
     7
100
AcDbLine
 10
8919.8576012833
 20
5108.5845954878
 30
0.0
 11
8920.002194701
 21
5108.9336700899
 31
0.0
  0
LINE
  5
2A1
330
1F
100
AcDbEntity
  8
0
  6
Continuous
 62
     7
100
AcDbLine
 10
8920.002194701
 20
5108.9336700899
 30
0.0
 11
8918.0840799792
 21
5108.9336700899
 31
0.0
  0
LINE
  5
2A2
330
1F
100
AcDbEntity
  8
0
  6
Continuous
 62
     7
100
AcDbLine
 10
8920.3840742095
 20
5108.5517905815
 30
0.0
 11
8920.002194701
 21
5108.9336700899
 31
0.0
  0
LINE
  5
2A3
330
1F
100
AcDbEntity
  8
0
  6
Continuous
 62
     7
100
AcDbLine
 10
8930.4090762718
 20
5074.4607649906
 30
0.0
 11
8930.4090762718
 21
5074.535688029
 31
0.0
  0
LINE
  5
2A4
330
1F
100
AcDbEntity
  8
0
  6
Continuous
 62
     7
100
AcDbLine
 10
8930.4090762718
 20
5072.9314737184
 30
0.0
 11
8930.3840795739
 21
5072.9314737184
 31
0.0
  0
LINE
  5
2A5
330
1F
100
AcDbEntity
  8
0
  6
Continuous
 62
     7
100
AcDbLine
 10
8930.4090762718
 20
5072.9314737184
 30
0.0
 11
8930.4090762718
 21
5072.1536778076
 31
0.0
  0
LINE
  5
2A6
330
1F
100
AcDbEntity
  8
0
  6
Continuous
 62
     7
100
AcDbLine
 10
8930.4090762718
 20
5072.1536778076
 30
0.0
 11
8930.3840795739
 21
5072.1536778076
 31
0.0
  0
LINE
  5
2A7
330
1F
100
AcDbEntity
  8
0
  6
Continuous
 62
     7
100
AcDbLine
 10
8930.4090762718
 20
5077.1212630136
 30
0.0
 11
8930.3840795739
 21
5077.1212630136
 31
0.0
  0
LINE
  5
2A8
330
1F
100
AcDbEntity
  8
0
  6
Continuous
 62
     7
100
AcDbLine
 10
8930.4090762718
 20
5075.6042651994
 30
0.0
 11
8930.3840795739
 21
5075.6042651994
 31
0.0
  0
LINE
  5
2A9
330
1F
100
AcDbEntity
  8
0
  6
Continuous
 62
     7
100
AcDbLine
 10
8930.4090762718
 20
5078.5527132614
 30
0.0
 11
8930.3840795739
 21
5078.5527132614
 31
0.0
  0
LINE
  5
2AA
330
1F
100
AcDbEntity
  8
0
  6
Continuous
 62
     7
100
AcDbLine
 10
8930.4090762718
 20
5074.535688029
 30
0.0
 11
8930.3840795739
 21
5074.535688029
 31
0.0
  0
LINE
  5
2AB
330
1F
100
AcDbEntity
  8
0
  6
Continuous
 62
     7
100
AcDbLine
 10
8930.4090762718
 20
5075.6042651994
 30
0.0
 11
8930.4090762718
 21
5074.535688029
 31
0.0
  0
LINE
  5
2AC
330
1F
100
AcDbEntity
  8
0
  6
Continuous
 62
     7
100
AcDbLine
 10
8930.4090762718
 20
5073.5080890519
 30
0.0
 11
8930.3840795739
 21
5073.5080890519
 31
0.0
  0
LINE
  5
2AD
330
1F
100
AcDbEntity
  8
0
  6
Continuous
 62
     7
100
AcDbLine
 10
8930.4090762718
 20
5078.5527132614
 30
0.0
 11
8930.3840795739
 21
5078.5527132614
 31
0.0
  0
LINE
  5
2AE
330
1F
100
AcDbEntity
  8
0
  6
Continuous
 62
     7
100
AcDbLine
 10
8930.4090762718
 20
5079.2890541417
 30
0.0
 11
8930.3840795739
 21
5079.2890541417
 31
0.0
  0
LINE
  5
2AF
330
1F
100
AcDbEntity
  8
0
  6
Continuous
 62
     7
100
AcDbLine
 10
8930.4090762718
 20
5079.2979054315
 30
0.0
 11
8930.3840795739
 21
5079.2979054315
 31
0.0
  0
LINE
  5
2B0
330
1F
100
AcDbEntity
  8
0
  6
Continuous
 62
     7
100
AcDbLine
 10
8852.0840766116
 20
5229.5336701138
 30
0.0
 11
8865.5840760304
 21
5229.5336701138
 31
0.0
  0
LINE
  5
2B1
330
1F
100
AcDbEntity
  8
0
  6
Continuous
 62
     7
100
AcDbLine
 10
8865.5840760304
 20
5229.5336701138
 30
0.0
 11
8865.5840760304
 21
5219.033670721
 31
0.0
  0
LINE
  5
2B2
330
1F
100
AcDbEntity
  8
0
  6
Continuous
 62
     7
100
AcDbLine
 10
8852.0840766116
 20
5219.033670721
 30
0.0
 11
8865.5840760304
 21
5219.033670721
 31
0.0
  0
LINE
  5
2B3
330
1F
100
AcDbEntity
  8
0
  6
Continuous
 62
     7
100
AcDbLine
 10
8852.0840766116
 20
5229.5336701138
 30
0.0
 11
8852.0840766116
 21
5219.033670721
 31
0.0
  0
LINE
  5
2B4
330
1F
100
AcDbEntity
  8
0
  6
Continuous
 62
     7
100
AcDbLine
 10
8841.0190743135
 20
5237.0336704119
 30
0.0
 11
8838.8635763378
 21
5237.0336704118
 31
0.0
  0
LINE
  5
2B5
330
1F
100
AcDbEntity
  8
0
  6
Continuous
 62
     7
100
AcDbLine
 10
8846.2238261683
 20
5238.5336697264
 30
0.0
 11
8863.8045756353
 21
5238.5336697264
 31
0.0
  0
LINE
  5
2B6
330
1F
100
AcDbEntity
  8
0
  6
Continuous
 62
     7
100
AcDbLine
 10
8840.3635763072
 20
5238.5336697264
 30
0.0
 11
8846.2238261683
 21
5238.5336697264
 31
0.0
  0
LINE
  5
2B7
330
1F
100
AcDbEntity
  8
0
  6
Continuous
 62
     7
100
AcDbLine
 10
8838.5840763196
 20
5229.5336701138
 30
0.0
 11
8838.5840763196
 21
5219.033670721
 31
0.0
  0
LINE
  5
2B8
330
1F
100
AcDbEntity
  8
0
  6
Continuous
 62
     7
100
AcDbLine
 10
8838.5840763196
 20
5229.5336701138
 30
0.0
 11
8852.0840766116
 21
5229.5336701138
 31
0.0
  0
LINE
  5
2B9
330
1F
100
AcDbEntity
  8
0
  6
Continuous
 62
     7
100
AcDbLine
 10
8838.5840763196
 20
5219.033670721
 30
0.0
 11
8852.0840766116
 21
5219.033670721
 31
0.0
  0
LINE
  5
2BA
330
1F
100
AcDbEntity
  8
0
  6
Continuous
 62
     7
100
AcDbLine
 10
8903.8840780242
 20
5061.1336730583
 30
0.0
 11
8895.8840767129
 21
5061.1336730583
 31
0.0
  0
LINE
  5
2BB
330
1F
100
AcDbEntity
  8
0
  6
Continuous
 62
     7
100
AcDbLine
 10
8918.0840799792
 20
5186.1636709584
 30
0.0
 11
8920.3840742095
 21
5186.1636709584
 31
0.0
  0
LINE
  5
2BC
330
1F
100
AcDbEntity
  8
0
  6
Continuous
 62
     7
100
AcDbLine
 10
8918.0840799792
 20
5173.6636698408
 30
0.0
 11
8920.3840742095
 21
5173.6636698408
 31
0.0
  0
LINE
  5
2BD
330
1F
100
AcDbEntity
  8
0
  6
Continuous
 62
     7
100
AcDbLine
 10
8919.2840763428
 20
5138.1170038639
 30
0.0
 11
8919.0840763429
 21
5138.1170038639
 31
0.0
  0
LINE
  5
2BE
330
1F
100
AcDbEntity
  8
0
  6
Continuous
 62
     7
100
AcDbLine
 10
8918.8696999826
 20
5141.1170038639
 30
0.0
 11
8919.0840745552
 21
5141.1170043213
 31
0.0
  0
LINE
  5
2BF
330
1F
100
AcDbEntity
  8
0
  6
Continuous
 62
     7
100
AcDbLine
 10
8919.0840745552
 20
5141.1170043213
 30
0.0
 11
8919.0840763429
 21
5141.0563915553
 31
0.0
  0
LINE
  5
2C0
330
1F
100
AcDbEntity
  8
0
  6
Continuous
 62
     7
100
AcDbLine
 10
8919.2840779407
 20
5146.5336732728
 30
0.0
 11
8919.1784619511
 21
5146.5336705305
 31
0.0
  0
LINE
  5
2C1
330
1F
100
AcDbEntity
  8
0
  6
Continuous
 62
     7
100
AcDbLine
 10
8919.1784619511
 20
5146.5336705305
 30
0.0
 11
8918.975504769
 21
5146.5336705305
 31
0.0
  0
LINE
  5
2C2
330
1F
100
AcDbEntity
  8
0
  6
Continuous
 62
     7
100
AcDbLine
 10
8918.5840735419
 20
5163.3954473002
 30
0.0
 11
8918.6812887175
 21
5163.3401267392
 31
0.0
  0
LINE
  5
2C3
330
1F
100
AcDbEntity
  8
0
  6
Continuous
 62
     7
100
AcDbLine
 10
8918.6812887175
 20
5163.3401267392
 30
0.0
 11
8918.7735716088
 21
5163.2766030891
 31
0.0
  0
LINE
  5
2C4
330
1F
100
AcDbEntity
  8
0
  6
Continuous
 62
     7
100
AcDbLine
 10
8918.7735716088
 20
5163.2766030891
 30
0.0
 11
8918.8562581523
 21
5163.2081024511
 31
0.0
  0
LINE
  5
2C5
330
1F
100
AcDbEntity
  8
0
  6
Continuous
 62
     7
100
AcDbLine
 10
8918.8562581523
 20
5163.2081024511
 30
0.0
 11
8918.9251462205
 21
5163.1380930705
 31
0.0
  0
LINE
  5
2C6
330
1F
100
AcDbEntity
  8
0
  6
Continuous
 62
     7
100
AcDbLine
 10
8918.9251462205
 20
5163.1380930705
 30
0.0
 11
8918.9767489417
 21
5163.0701214237
 31
0.0
  0
LINE
  5
2C7
330
1F
100
AcDbEntity
  8
0
  6
Continuous
 62
     7
100
AcDbLine
 10
8918.9767489417
 20
5163.0701214237
 30
0.0
 11
8919.0084511621
 21
5163.0076371295
 31
0.0
  0
LINE
  5
2C8
330
1F
100
AcDbEntity
  8
0
  6
Continuous
 62
     7
100
AcDbLine
 10
8919.0084511621
 20
5163.0076371295
 30
0.0
 11
8919.018651007
 21
5162.9538029594
 31
0.0
  0
LINE
  5
2C9
330
1F
100
AcDbEntity
  8
0
  6
Continuous
 62
     7
100
AcDbLine
 10
8919.018651007
 20
5162.9538029594
 30
0.0
 11
8919.006819485
 21
5162.9113495512
 31
0.0
  0
LINE
  5
2CA
330
1F
100
AcDbEntity
  8
0
  6
Continuous
 62
     7
100
AcDbLine
 10
8919.006819485
 20
5162.9113495512
 30
0.0
 11
8918.7388370021
 21
5162.4870464368
 31
0.0
  0
LINE
  5
2CB
330
1F
100
AcDbEntity
  8
0
  6
Continuous
 62
     7
100
AcDbLine
 10
8918.7388370021
 20
5162.4870464368
 30
0.0
 11
8918.4666002376
 21
5162.0560042722
 31
0.0
  0
LINE
  5
2CC
330
1F
100
AcDbEntity
  8
0
  6
Continuous
 62
     7
100
AcDbLine
 10
8918.4666002376
 20
5162.0560042722
 30
0.0
 11
8918.190459369
 21
5161.6187781257
 31
0.0
  0
LINE
  5
2CD
330
1F
100
AcDbEntity
  8
0
  6
Continuous
 62
     7
100
AcDbLine
 10
8918.5840735419
 20
5163.3954473002
 30
0.0
 11
8918.5840735419
 21
5170.5247141583
 31
0.0
  0
LINE
  5
2CE
330
1F
100
AcDbEntity
  8
0
  6
Continuous
 62
     7
100
AcDbLine
 10
8918.5840735419
 20
5163.3954473002
 30
0.0
 11
8918.6816239937
 21
5163.3912787003
 31
0.0
  0
LINE
  5
2CF
330
1F
100
AcDbEntity
  8
0
  6
Continuous
 62
     7
100
AcDbLine
 10
8918.6816239937
 20
5163.3912787003
 30
0.0
 11
8918.7754193528
 21
5163.3789219124
 31
0.0
  0
LINE
  5
2D0
330
1F
100
AcDbEntity
  8
0
  6
Continuous
 62
     7
100
AcDbLine
 10
8918.7754193528
 20
5163.3789219124
 30
0.0
 11
8918.8618609889
 21
5163.3588612242
 31
0.0
  0
LINE
  5
2D1
330
1F
100
AcDbEntity
  8
0
  6
Continuous
 62
     7
100
AcDbLine
 10
8918.8618609889
 20
5163.3588612242
 30
0.0
 11
8918.9376333936
 21
5163.3318603201
 31
0.0
  0
LINE
  5
2D2
330
1F
100
AcDbEntity
  8
0
  6
Continuous
 62
     7
100
AcDbLine
 10
8918.9376333936
 20
5163.3318603201
 30
0.0
 11
8918.9998084886
 21
5163.2989622815
 31
0.0
  0
LINE
  5
2D3
330
1F
100
AcDbEntity
  8
0
  6
Continuous
 62
     7
100
AcDbLine
 10
8918.9998084886
 20
5163.2989622815
 30
0.0
 11
8919.0460169895
 21
5163.2614262564
 31
0.0
  0
LINE
  5
2D4
330
1F
100
AcDbEntity
  8
0
  6
Continuous
 62
     7
100
AcDbLine
 10
8919.0460169895
 20
5163.2614262564
 30
0.0
 11
8919.0744707568
 21
5163.2207013829
 31
0.0
  0
LINE
  5
2D5
330
1F
100
AcDbEntity
  8
0
  6
Continuous
 62
     7
100
AcDbLine
 10
8919.0744707568
 20
5163.2207013829
 30
0.0
 11
8919.0840745552
 21
5163.1783448322
 31
0.0
  0
LINE
  5
2D6
330
1F
100
AcDbEntity
  8
0
  6
Continuous
 62
     7
100
AcDbLine
 10
8919.0840745552
 20
5170.043563114
 30
0.0
 11
8919.0840745552
 21
5163.1783448322
 31
0.0
  0
LINE
  5
2D7
330
1F
100
AcDbEntity
  8
0
  6
Continuous
 62
     7
100
AcDbLine
 10
8919.7715768798
 20
5134.1382689936
 30
0.0
 11
8918.0840799792
 21
5134.1382689936
 31
0.0
  0
LINE
  5
2D8
330
1F
100
AcDbEntity
  8
0
  6
Continuous
 62
     7
100
AcDbLine
 10
8919.7715768798
 20
5134.1636680229
 30
0.0
 11
8918.0840799792
 21
5134.1636680229
 31
0.0
  0
LINE
  5
2D9
330
1F
100
AcDbEntity
  8
0
  6
Continuous
 62
     7
100
AcDbLine
 10
8918.0840799792
 20
5131.4930446608
 30
0.0
 11
8919.7715768798
 21
5131.4930446608
 31
0.0
  0
LINE
  5
2DA
330
1F
100
AcDbEntity
  8
0
  6
Continuous
 62
     7
100
AcDbLine
 10
8918.0840799792
 20
5131.0759760601
 30
0.0
 11
8919.1759476645
 21
5131.0759760601
 31
0.0
  0
LINE
  5
2DB
330
1F
100
AcDbEntity
  8
0
  6
Continuous
 62
     7
100
AcDbLine
 10
8918.0840799792
 20
5131.9101058109
 30
0.0
 11
8919.1759476645
 21
5131.9101058109
 31
0.0
  0
LINE
  5
2DC
330
1F
100
AcDbEntity
  8
0
  6
Continuous
 62
     7
100
AcDbLine
 10
8918.0840799792
 20
5133.2327179773
 30
0.0
 11
8919.1759476645
 21
5133.2327179773
 31
0.0
  0
LINE
  5
2DD
330
1F
100
AcDbEntity
  8
0
  6
Continuous
 62
     7
100
AcDbLine
 10
8918.0840799792
 20
5132.8156568272
 30
0.0
 11
8919.7715768798
 21
5132.8156568272
 31
0.0
  0
LINE
  5
2DE
330
1F
100
AcDbEntity
  8
0
  6
Continuous
 62
     7
100
AcDbLine
 10
8919.1759476645
 20
5133.7212078435
 30
0.0
 11
8918.0840799792
 21
5133.7212078435
 31
0.0
  0
LINE
  5
2DF
330
1F
100
AcDbEntity
  8
0
  6
Continuous
 62
     7
100
AcDbLine
 10
8918.0840799792
 20
5130.5874936445
 30
0.0
 11
8919.1759476645
 21
5130.5874936445
 31
0.0
  0
LINE
  5
2E0
330
1F
100
AcDbEntity
  8
0
  6
Continuous
 62
     7
100
AcDbLine
 10
8918.0840799792
 20
5130.1704250438
 30
0.0
 11
8919.7715768798
 21
5130.1704250438
 31
0.0
  0
LINE
  5
2E1
330
1F
100
AcDbEntity
  8
0
  6
Continuous
 62
     7
100
AcDbLine
 10
8918.0840799792
 20
5132.3985882265
 30
0.0
 11
8919.1759476645
 21
5132.3985882265
 31
0.0
  0
LINE
  5
2E2
330
1F
100
AcDbEntity
  8
0
  6
Continuous
 62
     7
100
AcDbLine
 10
8919.0165126903
 20
5162.8052123053
 30
0.0
 11
8918.9395332916
 21
5162.6443542702
 31
0.0
  0
LINE
  5
2E3
330
1F
100
AcDbEntity
  8
0
  6
Continuous
 62
     7
100
AcDbLine
 10
8943.3840761168
 20
5143.0621273978
 30
0.0
 11
8943.3840761168
 21
5183.783670531
 31
0.0
  0
LINE
  5
2E4
330
1F
100
AcDbEntity
  8
0
  6
Continuous
 62
     7
100
AcDbLine
 10
8943.3840761168
 20
5137.2836731536
 30
0.0
 11
8943.3840761168
 21
5143.0621273978
 31
0.0
  0
LINE
  5
2E5
330
1F
100
AcDbEntity
  8
0
  6
Continuous
 62
     7
100
AcDbLine
 10
8919.8840731962
 20
5149.8264722688
 30
0.0
 11
8919.8840731962
 21
5140.5336685641
 31
0.0
  0
LINE
  5
2E6
330
1F
100
AcDbEntity
  8
0
  6
Continuous
 62
     7
100
AcDbLine
 10
8919.8840731962
 20
5150.5336739285
 30
0.0
 11
8919.8840731962
 21
5149.8264722688
 31
0.0
  0
LINE
  5
2E7
330
1F
100
AcDbEntity
  8
0
  6
Continuous
 62
     7
100
AcDbLine
 10
8919.3840796335
 20
5138.841544853
 30
0.0
 11
8920.3840742095
 21
5138.8188354833
 31
0.0
  0
LINE
  5
2E8
330
1F
100
AcDbEntity
  8
0
  6
Continuous
 62
     7
100
AcDbLine
 10
8919.3840796335
 20
5173.6636698408
 30
0.0
 11
8919.3840796335
 21
5161.2336687906
 31
0.0
  0
LINE
  5
2E9
330
1F
100
AcDbEntity
  8
0
  6
Continuous
 62
     7
100
AcDbLine
 10
8919.3840796335
 20
5153.8336701853
 30
0.0
 11
8919.3840796335
 21
5150.5336739285
 31
0.0
  0
LINE
  5
2EA
330
1F
100
AcDbEntity
  8
0
  6
Continuous
 62
     7
100
AcDbLine
 10
8919.3840796335
 20
5140.5336685641
 30
0.0
 11
8919.3840796335
 21
5138.841544853
 31
0.0
  0
LINE
  5
2EB
330
1F
100
AcDbEntity
  8
0
  6
Continuous
 62
     7
100
AcDbLine
 10
8919.3526083811
 20
5139.1250394447
 30
0.0
 11
8919.3840796335
 21
5138.841544853
 31
0.0
  0
LINE
  5
2EC
330
1F
100
AcDbEntity
  8
0
  6
Continuous
 62
     7
100
AcDbLine
 10
8919.2840779407
 20
5139.3791191442
 30
0.0
 11
8919.3526083811
 21
5139.1250394447
 31
0.0
  0
LINE
  5
2ED
330
1F
100
AcDbEntity
  8
0
  6
Continuous
 62
     7
100
AcDbLine
 10
8920.3840742095
 20
5137.9407026036
 30
0.0
 11
8920.2880362256
 21
5137.8863357169
 31
0.0
  0
LINE
  5
2EE
330
1F
100
AcDbEntity
  8
0
  6
Continuous
 62
     7
100
AcDbLine
 10
8920.2880362256
 20
5137.8863357169
 30
0.0
 11
8919.1526347978
 21
5137.2435815794
 31
0.0
  0
LINE
  5
2EF
330
1F
100
AcDbEntity
  8
0
  6
Continuous
 62
     7
100
AcDbLine
 10
8919.1526347978
 20
5137.2435815794
 30
0.0
 11
8919.0840745552
 21
5137.2047715051
 31
0.0
  0
LINE
  5
2F0
330
1F
100
AcDbEntity
  8
0
  6
Continuous
 62
     7
100
AcDbLine
 10
8852.0840766116
 20
5215.033670531
 30
0.0
 11
8852.0840766116
 21
5219.033670721
 31
0.0
  0
LINE
  5
2F1
330
1F
100
AcDbEntity
  8
0
  6
Continuous
 62
     7
100
AcDbLine
 10
8841.5840762875
 20
5215.033670531
 30
0.0
 11
8841.5840762875
 21
5219.033670721
 31
0.0
  0
LINE
  5
2F2
330
1F
100
AcDbEntity
  8
0
  6
Continuous
 62
     7
100
AcDbLine
 10
8862.5840755387
 20
5215.033670531
 30
0.0
 11
8862.5840755387
 21
5219.033670721
 31
0.0
  0
LINE
  5
2F3
330
1F
100
AcDbEntity
  8
0
  6
Continuous
 62
     7
100
AcDbLine
 10
8867.5263548477
 20
5084.7508214576
 30
0.0
 11
8866.7217610611
 21
5084.5841221673
 31
0.0
  0
LINE
  5
2F4
330
1F
100
AcDbEntity
  8
0
  6
Continuous
 62
     7
100
AcDbLine
 10
8866.7217610611
 20
5084.5841221673
 30
0.0
 11
8865.9022586627
 21
5084.2529289586
 31
0.0
  0
LINE
  5
2F5
330
1F
100
AcDbEntity
  8
0
  6
Continuous
 62
     7
100
AcDbLine
 10
8918.0840799792
 20
5118.1636728508
 30
0.0
 11
8920.3840742095
 21
5118.1636728508
 31
0.0
  0
LINE
  5
2F6
330
1F
100
AcDbEntity
  8
0
  6
Continuous
 62
     7
100
AcDbLine
 10
8918.0840799792
 20
5130.1636673672
 30
0.0
 11
8920.3840742095
 21
5130.1636673672
 31
0.0
  0
LINE
  5
2F7
330
1F
100
AcDbEntity
  8
0
  6
Continuous
 62
     7
100
AcDbLine
 10
8918.0840799792
 20
5099.2636732919
 30
0.0
 11
8919.3340787871
 21
5099.2636732919
 31
0.0
  0
LINE
  5
2F8
330
1F
100
AcDbEntity
  8
0
  6
Continuous
 62
     7
100
AcDbLine
 10
8918.3340395077
 20
5099.242051707
 30
0.0
 11
8918.3274084909
 21
5099.2636732919
 31
0.0
  0
LINE
  5
2F9
330
1F
100
AcDbEntity
  8
0
  6
Continuous
 62
     7
100
AcDbLine
 10
8847.640802732
 20
5061.0336713655
 30
0.0
 11
8847.640802732
 21
5061.7407761676
 31
0.0
  0
LINE
  5
2FA
330
1F
100
AcDbEntity
  8
0
  6
Continuous
 62
     7
100
AcDbLine
 10
8842.3956470771
 20
5061.0336713655
 30
0.0
 11
8842.3956470771
 21
5061.7407761676
 31
0.0
  0
LINE
  5
2FB
330
1F
100
AcDbEntity
  8
0
  6
Continuous
 62
     7
100
AcDbLine
 10
8857.3292331977
 20
5061.0336713655
 30
0.0
 11
8857.3292331977
 21
5061.7407761676
 31
0.0
  0
LINE
  5
2FC
330
1F
100
AcDbEntity
  8
0
  6
Continuous
 62
     7
100
AcDbLine
 10
8861.772506146
 20
5061.0336713655
 30
0.0
 11
8861.772506146
 21
5061.7407761676
 31
0.0
  0
LINE
  5
2FD
330
1F
100
AcDbEntity
  8
0
  6
Continuous
 62
     7
100
AcDbLine
 10
8851.9713362886
 20
5049.5336704118
 30
0.0
 11
8851.9713362886
 21
5060.0336693389
 31
0.0
  0
LINE
  5
2FE
330
1F
100
AcDbEntity
  8
0
  6
Continuous
 62
     7
100
AcDbLine
 10
8865.5305156691
 20
5049.5336704118
 30
0.0
 11
8865.5305156691
 21
5060.0336693389
 31
0.0
  0
LINE
  5
2FF
330
1F
100
AcDbEntity
  8
0
  6
Continuous
 62
     7
100
AcDbLine
 10
8865.5305156691
 20
5049.5336704118
 30
0.0
 11
8861.3500228359
 21
5049.5336704118
 31
0.0
  0
LINE
  5
300
330
1F
100
AcDbEntity
  8
0
  6
Continuous
 62
     7
100
AcDbLine
 10
8855.4877625985
 20
5049.5336704118
 30
0.0
 11
8851.9713362886
 21
5049.5336704118
 31
0.0
  0
LINE
  5
301
330
1F
100
AcDbEntity
  8
0
  6
Continuous
 62
     7
100
AcDbLine
 10
8838.5313047885
 20
5049.5336704118
 30
0.0
 11
8838.5313047885
 21
5060.0336693389
 31
0.0
  0
LINE
  5
302
330
1F
100
AcDbEntity
  8
0
  6
Continuous
 62
     7
100
AcDbLine
 10
8844.6965172163
 20
5049.5336704118
 30
0.0
 11
8838.5313047885
 21
5049.5336704118
 31
0.0
  0
LINE
  5
303
330
1F
100
AcDbEntity
  8
0
  6
Continuous
 62
     7
100
AcDbLine
 10
8851.9713362886
 20
5049.5336704118
 30
0.0
 11
8847.2993267907
 21
5049.5336704118
 31
0.0
  0
LINE
  5
304
330
1F
100
AcDbEntity
  8
0
  6
Continuous
 62
     7
100
AcDbLine
 10
8839.8840763231
 20
5060.0336693389
 30
0.0
 11
8838.5313047885
 21
5060.0336693389
 31
0.0
  0
LINE
  5
305
330
1F
100
AcDbEntity
  8
0
  6
Continuous
 62
     7
100
AcDbLine
 10
8863.8042347713
 20
5040.533667074
 30
0.0
 11
8840.3635763072
 21
5040.533667074
 31
0.0
  0
LINE
  5
306
330
1F
100
AcDbEntity
  8
0
  6
Continuous
 62
     7
100
AcDbLine
 10
8856.0365407004
 20
5049.5336704118
 30
0.0
 11
8855.4877625985
 21
5049.5336704118
 31
0.0
  0
LINE
  5
307
330
1F
100
AcDbEntity
  8
0
  6
Continuous
 62
     7
100
AcDbLine
 10
8838.8852591135
 20
5042.7104287011
 30
0.0
 11
8838.8653390695
 21
5042.7144371135
 31
0.0
  0
LINE
  5
308
330
1F
100
AcDbEntity
  8
0
  6
Continuous
 62
     7
100
AcDbLine
 10
8838.8852591135
 20
5044.2979239089
 30
0.0
 11
8838.8653390695
 21
5044.3019472225
 31
0.0
  0
LINE
  5
309
330
1F
100
AcDbEntity
  8
0
  6
Continuous
 62
     7
100
AcDbLine
 10
8838.8852591135
 20
5045.8854191167
 30
0.0
 11
8838.8653390695
 21
5045.8894424302
 31
0.0
  0
LINE
  5
30A
330
1F
100
AcDbEntity
  8
0
  6
Continuous
 62
     7
100
AcDbLine
 10
8838.8852591135
 20
5047.4729292257
 30
0.0
 11
8838.8653390695
 21
5047.476937638
 31
0.0
  0
LINE
  5
30B
330
1F
100
AcDbEntity
  8
0
  6
Continuous
 62
     7
100
AcDbLine
 10
8838.8852591135
 20
5049.0604244335
 30
0.0
 11
8838.8653390695
 21
5049.064447747
 31
0.0
  0
LINE
  5
30C
330
1F
100
AcDbEntity
  8
0
  6
Continuous
 62
     7
100
AcDbLine
 10
8861.3500228359
 20
5049.5336704118
 30
0.0
 11
8856.0365407004
 21
5049.5336704118
 31
0.0
  0
LINE
  5
30D
330
1F
100
AcDbEntity
  8
0
  6
Continuous
 62
     7
100
AcDbLine
 10
8865.6368484928
 20
5049.5336704118
 30
0.0
 11
8865.6368484928
 21
5060.0336693389
 31
0.0
  0
LINE
  5
30E
330
1F
100
AcDbEntity
  8
0
  6
Continuous
 62
     7
100
AcDbLine
 10
8865.6368484928
 20
5049.5336704118
 30
0.0
 11
8865.5305156691
 21
5049.5336704118
 31
0.0
  0
LINE
  5
30F
330
1F
100
AcDbEntity
  8
0
  6
Continuous
 62
     7
100
AcDbLine
 10
8913.4068513496
 20
5216.3336705346
 30
0.0
 11
8910.5840796812
 21
5216.3336705346
 31
0.0
  0
LINE
  5
310
330
1F
100
AcDbEntity
  8
0
  6
Continuous
 62
     7
100
AcDbLine
 10
8913.5840783103
 20
5216.3336705346
 30
0.0
 11
8913.4068513496
 21
5216.3336705346
 31
0.0
  0
LINE
  5
311
330
1F
100
AcDbEntity
  8
0
  6
Continuous
 62
     7
100
AcDbLine
 10
8912.0024690612
 20
5058.7336771352
 30
0.0
 11
8913.5840783103
 21
5058.7336771352
 31
0.0
  0
LINE
  5
312
330
1F
100
AcDbEntity
  8
0
  6
Continuous
 62
     7
100
AcDbLine
 10
8910.5840796812
 20
5058.7336771352
 30
0.0
 11
8912.0024690612
 21
5058.7336771352
 31
0.0
  0
LINE
  5
313
330
1F
100
AcDbEntity
  8
0
  6
Continuous
 62
     7
100
AcDbLine
 10
8920.0840765818
 20
5074.5336763723
 30
0.0
 11
8920.0840765818
 21
5067.5336770875
 31
0.0
  0
LINE
  5
314
330
1F
100
AcDbEntity
  8
0
  6
Continuous
 62
     7
100
AcDbLine
 10
8839.8840763231
 20
5213.3265637023
 30
0.0
 11
8918.0840799792
 21
5213.3265637023
 31
0.0
  0
LINE
  5
315
330
1F
100
AcDbEntity
  8
0
  6
Continuous
 62
     7
100
AcDbLine
 10
8918.0840731962
 20
5212.0265637844
 30
0.0
 11
8918.0840799792
 21
5213.3265637023
 31
0.0
  0
LINE
  5
316
330
1F
100
AcDbEntity
  8
0
  6
Continuous
 62
     7
100
AcDbLine
 10
8918.0840799792
 20
5195.0336709781
 30
0.0
 11
8918.0840731962
 21
5212.0265637844
 31
0.0
  0
LINE
  5
317
330
1F
100
AcDbEntity
  8
0
  6
Continuous
 62
     7
100
AcDbLine
 10
8918.0840799792
 20
5195.0336709781
 30
0.0
 11
8918.0840799792
 21
5080.0336651666
 31
0.0
  0
LINE
  5
318
330
1F
100
AcDbEntity
  8
0
  6
Continuous
 62
     7
100
AcDbLine
 10
8918.0840763433
 20
5063.0407773122
 30
0.0
 11
8918.0840799792
 21
5080.0336651666
 31
0.0
  0
LINE
  5
319
330
1F
100
AcDbEntity
  8
0
  6
Continuous
 62
     7
100
AcDbLine
 10
8918.0840799792
 20
5061.7407761676
 30
0.0
 11
8918.0840763433
 21
5063.0407773122
 31
0.0
  0
LINE
  5
31A
330
1F
100
AcDbEntity
  8
0
  6
Continuous
 62
     7
100
AcDbLine
 10
8839.8840763231
 20
5061.7407761676
 30
0.0
 11
8918.0840799792
 21
5061.7407761676
 31
0.0
  0
LINE
  5
31B
330
1F
100
AcDbEntity
  8
0
  6
Continuous
 62
     7
100
AcDbLine
 10
8839.8840763231
 20
5061.7407761676
 30
0.0
 11
8839.8840763231
 21
5213.3265637023
 31
0.0
  0
LINE
  5
31C
330
1F
100
AcDbEntity
  8
0
  6
Continuous
 62
     7
100
AcDbLine
 10
8918.0840731962
 20
5212.0265637844
 30
0.0
 11
8919.8840731962
 21
5212.0265637844
 31
0.0
  0
LINE
  5
31D
330
1F
100
AcDbEntity
  8
0
  6
Continuous
 62
     7
100
AcDbLine
 10
8919.8840731962
 20
5212.0265637844
 30
0.0
 11
8919.8840731962
 21
5195.0336709781
 31
0.0
  0
LINE
  5
31E
330
1F
100
AcDbEntity
  8
0
  6
Continuous
 62
     7
100
AcDbLine
 10
8919.8840731962
 20
5195.0336709781
 30
0.0
 11
8918.0840799792
 21
5195.0336709781
 31
0.0
  0
LINE
  5
31F
330
1F
100
AcDbEntity
  8
0
  6
Continuous
 62
     7
100
AcDbLine
 10
8919.8840721234
 20
5080.0336651666
 30
0.0
 11
8919.8840721234
 21
5063.0407832725
 31
0.0
  0
LINE
  5
320
330
1F
100
AcDbEntity
  8
0
  6
Continuous
 62
     7
100
AcDbLine
 10
8919.8840721234
 20
5063.0407832725
 30
0.0
 11
8918.0840763433
 21
5063.0407773122
 31
0.0
  0
LINE
  5
321
330
1F
100
AcDbEntity
  8
0
  6
Continuous
 62
     7
100
AcDbLine
 10
8918.0840799792
 20
5080.0336651666
 30
0.0
 11
8919.8840721234
 21
5080.0336651666
 31
0.0
  0
LINE
  5
322
330
1F
100
AcDbEntity
  8
0
  6
Continuous
 62
     7
100
AcDbLine
 10
8838.0840762958
 20
5061.8336700065
 30
0.0
 11
8838.0840762958
 21
5213.233670562
 31
0.0
  0
LINE
  5
323
330
1F
100
AcDbEntity
  8
0
  6
Continuous
 62
     7
100
AcDbLine
 10
8839.8840763231
 20
5060.0336693389
 30
0.0
 11
8839.8840763231
 21
5061.0336713655
 31
0.0
  0
LINE
  5
324
330
1F
100
AcDbEntity
  8
0
  6
Continuous
 62
     7
100
AcDbLine
 10
8918.0840799792
 20
5060.0336693389
 30
0.0
 11
8918.0840799792
 21
5061.0336713655
 31
0.0
  0
LINE
  5
325
330
1F
100
AcDbEntity
  8
0
  6
Continuous
 62
     7
100
AcDbLine
 10
8839.8840763231
 20
5060.0336693389
 30
0.0
 11
8918.0840799792
 21
5060.0336693389
 31
0.0
  0
LINE
  5
326
330
1F
100
AcDbEntity
  8
0
  6
Continuous
 62
     7
100
AcDbLine
 10
8839.8840763231
 20
5061.0336713655
 30
0.0
 11
8918.0840799792
 21
5061.0336713655
 31
0.0
  0
LINE
  5
327
330
1F
100
AcDbEntity
  8
0
  6
Continuous
 62
     7
100
AcDbLine
 10
8839.8840763231
 20
5214.0336704835
 30
0.0
 11
8918.0840799792
 21
5214.0336704835
 31
0.0
  0
LINE
  5
328
330
1F
100
AcDbEntity
  8
0
  6
Continuous
 62
     7
100
AcDbLine
 10
8839.8840763231
 20
5215.033670531
 30
0.0
 11
8839.8840763231
 21
5214.0336704835
 31
0.0
  0
LINE
  5
329
330
1F
100
AcDbEntity
  8
0
  6
Continuous
 62
     7
100
AcDbLine
 10
8918.0840799792
 20
5215.033670531
 30
0.0
 11
8918.0840799792
 21
5214.0336704835
 31
0.0
  0
LINE
  5
32A
330
1F
100
AcDbEntity
  8
0
  6
Continuous
 62
     7
100
AcDbLine
 10
8839.8840763231
 20
5215.033670531
 30
0.0
 11
8918.0840799792
 21
5215.033670531
 31
0.0
  0
LINE
  5
32B
330
1F
100
AcDbEntity
  8
0
  6
Continuous
 62
     7
100
AcDbLine
 10
8899.8840773685
 20
5061.2407815321
 30
0.0
 11
8899.8840773685
 21
5061.7407750948
 31
0.0
  0
LINE
  5
32C
330
1F
100
AcDbEntity
  8
0
  6
Continuous
 62
     7
100
AcDbLine
 10
8899.8840773685
 20
5061.2407815321
 30
0.0
 11
8918.0840799792
 21
5061.2407815321
 31
0.0
  0
LINE
  5
32D
330
1F
100
AcDbEntity
  8
0
  6
Continuous
 62
     7
100
AcDbLine
 10
8899.8840773685
 20
5213.8265637843
 30
0.0
 11
8899.8840773685
 21
5213.3265637023
 31
0.0
  0
LINE
  5
32E
330
1F
100
AcDbEntity
  8
0
  6
Continuous
 62
     7
100
AcDbLine
 10
8918.0840799792
 20
5213.8265637843
 30
0.0
 11
8899.8840773685
 21
5213.8265637843
 31
0.0
  0
LINE
  5
32F
330
1F
100
AcDbEntity
  8
0
  6
Continuous
 62
     7
100
AcDbLine
 10
8976.1840725525
 20
5140.4336668713
 30
0.0
 11
8976.1840725524
 21
5154.7421455546
 31
0.0
  0
LINE
  5
330
330
1F
100
AcDbEntity
  8
0
  6
Continuous
 62
     7
100
AcDbLine
 10
8982.3840731962
 20
5154.7421455545
 30
0.0
 11
8982.3840731962
 21
5180.6336693628
 31
0.0
  0
LINE
  5
331
330
1F
100
AcDbEntity
  8
0
  6
Continuous
 62
     7
100
AcDbLine
 10
8979.6840721948
 20
5138.5116331441
 30
0.0
 11
8979.6840721948
 21
5127.8336696489
 31
0.0
  0
LINE
  5
332
330
1F
100
AcDbEntity
  8
0
  6
Continuous
 62
     7
100
AcDbLine
 10
8982.3840731962
 20
5127.8336696489
 30
0.0
 11
8982.3840731962
 21
5138.5116331441
 31
0.0
  0
LINE
  5
333
330
1F
100
AcDbEntity
  8
0
  6
Continuous
 62
     7
100
AcDbLine
 10
8976.384075938
 20
5183.60733764
 30
0.0
 11
8966.3840705736
 21
5183.60733764
 31
0.0
  0
LINE
  5
334
330
1F
100
AcDbEntity
  8
0
  6
Continuous
 62
     7
100
AcDbLine
 10
8966.7686917279
 20
5184.0938407475
 30
0.0
 11
8975.9994609587
 21
5184.0938407475
 31
0.0
  0
LINE
  5
335
330
1F
100
AcDbEntity
  8
0
  6
Continuous
 62
     7
100
AcDbLine
 10
8930.5840755089
 20
5132.0336736901
 30
0.0
 11
8930.5840755089
 21
5189.0336699946
 31
0.0
  0
LINE
  5
336
330
1F
100
AcDbEntity
  8
0
  6
Continuous
 62
     7
100
AcDbLine
 10
8933.1840748175
 20
5132.0336736901
 30
0.0
 11
8933.1840748175
 21
5189.0336699946
 31
0.0
  0
LINE
  5
337
330
1F
100
AcDbEntity
  8
0
  6
Continuous
 62
     7
100
AcDbLine
 10
8920.3840742095
 20
5185.1636707945
 30
0.0
 11
8918.0840799792
 21
5185.1636707945
 31
0.0
  0
LINE
  5
338
330
1F
100
AcDbEntity
  8
0
  6
Continuous
 62
     7
100
AcDbLine
 10
8918.8543955071
 20
5161.2336687906
 30
0.0
 11
8918.846848069
 21
5161.2231411202
 31
0.0
  0
LINE
  5
339
330
1F
100
AcDbEntity
  8
0
  6
Continuous
 62
     7
100
AcDbLine
 10
8918.846848069
 20
5161.2231411202
 30
0.0
 11
8918.7702188475
 21
5161.1162513656
 31
0.0
  0
LINE
  5
33A
330
1F
100
AcDbEntity
  8
0
  6
Continuous
 62
     7
100
AcDbLine
 10
8918.7702188475
 20
5161.1162513656
 30
0.0
 11
8918.613205312
 21
5160.8972452743
 31
0.0
  0
LINE
  5
33B
330
1F
100
AcDbEntity
  8
0
  6
Continuous
 62
     7
100
AcDbLine
 10
8918.0840799792
 20
5161.4760101004
 30
0.0
 11
8918.190459369
 21
5161.6187781257
 31
0.0
  0
LINE
  5
33C
330
1F
100
AcDbEntity
  8
0
  6
Continuous
 62
     7
100
AcDbLine
 10
8918.0840799792
 20
5162.5733316107
 30
0.0
 11
8918.5840735419
 21
5163.3954473002
 31
0.0
  0
LINE
  5
33D
330
1F
100
AcDbEntity
  8
0
  6
Continuous
 62
     7
100
AcDbLine
 10
8918.5840735419
 20
5170.5247141583
 30
0.0
 11
8918.0840799792
 21
5170.2907733781
 31
0.0
  0
LINE
  5
33E
330
1F
100
AcDbEntity
  8
0
  6
Continuous
 62
     7
100
AcDbLine
 10
8918.9395332916
 20
5162.6443542702
 30
0.0
 11
8918.6443040355
 21
5162.1446699066
 31
0.0
  0
LINE
  5
33F
330
1F
100
AcDbEntity
  8
0
  6
Continuous
 62
     7
100
AcDbLine
 10
8918.6443040355
 20
5162.1446699066
 30
0.0
 11
8918.3594757898
 21
5161.6625875397
 31
0.0
  0
LINE
  5
340
330
1F
100
AcDbEntity
  8
0
  6
Continuous
 62
     7
100
AcDbLine
 10
8872.4142039402
 20
5192.533669637
 30
0.0
 11
8866.1340760274
 21
5192.533669637
 31
0.0
  0
LINE
  5
341
330
1F
100
AcDbEntity
  8
0
  6
Continuous
 62
     7
100
AcDbLine
 10
8918.0840799792
 20
5099.7636668546
 30
0.0
 11
8918.8340777738
 21
5099.7636668546
 31
0.0
  0
LINE
  5
342
330
1F
100
AcDbEntity
  8
0
  6
Continuous
 62
     7
100
AcDbLine
 10
8918.0840799792
 20
5106.7136727435
 30
0.0
 11
8918.8340777738
 21
5106.7136727435
 31
0.0
  0
LINE
  5
343
330
1F
100
AcDbEntity
  8
0
  6
Continuous
 62
     7
100
AcDbLine
 10
8915.0101939423
 20
5215.3419507858
 30
0.0
 11
8908.765923477
 21
5215.3419507858
 31
0.0
  0
LINE
  5
344
330
1F
100
AcDbEntity
  8
0
  6
Continuous
 62
     7
100
AcDbLine
 10
8915.4022292095
 20
5215.3419507858
 30
0.0
 11
8915.0101939423
 21
5215.3419507858
 31
0.0
  0
LINE
  5
345
330
1F
100
AcDbEntity
  8
0
  6
Continuous
 62
     7
100
AcDbLine
 10
8911.9035626037
 20
5059.7253941161
 30
0.0
 11
8915.4022292095
 21
5059.7253902763
 31
0.0
  0
LINE
  5
346
330
1F
100
AcDbEntity
  8
0
  6
Continuous
 62
     7
100
AcDbLine
 10
8908.765923477
 20
5059.7253902763
 30
0.0
 11
8911.9035626037
 21
5059.7253941161
 31
0.0
  0
LINE
  5
347
330
1F
100
AcDbEntity
  8
0
  6
Continuous
 62
     7
100
AcDbLine
 10
8918.0840799792
 20
5061.7407761676
 30
0.0
 11
8918.0840799792
 21
5061.2407815321
 31
0.0
  0
LINE
  5
348
330
1F
100
AcDbEntity
  8
0
  6
Continuous
 62
     7
100
AcDbLine
 10
8918.0840799792
 20
5213.3265637023
 30
0.0
 11
8918.0840799792
 21
5213.8265637843
 31
0.0
  0
LINE
  5
349
330
1F
100
AcDbEntity
  8
0
  6
Continuous
 62
     7
100
AcDbLine
 10
8465.4795615522
 20
4740.7532297996
 30
0.0
 11
8465.4795615522
 21
4701.7532327202
 31
0.0
  0
LINE
  5
34A
330
1F
100
AcDbEntity
  8
0
  6
Continuous
 62
     7
100
AcDbLine
 10
8505.6795603184
 20
4701.7532327202
 30
0.0
 11
8505.6795603184
 21
4740.7532297996
 31
0.0
  0
LINE
  5
34B
330
1F
100
AcDbEntity
  8
0
  6
Continuous
 62
     7
100
AcDbLine
 10
8457.0795609204
 20
4753.5532304076
 30
0.0
 11
8457.0795609204
 21
4750.953231099
 31
0.0
  0
LINE
  5
34C
330
1F
100
AcDbEntity
  8
0
  6
Continuous
 62
     7
100
AcDbLine
 10
8514.0795609502
 20
4750.953231099
 30
0.0
 11
8514.0795609502
 21
4753.5532304076
 31
0.0
  0
LINE
  5
34D
330
1F
100
AcDbEntity
  8
0
  6
Continuous
 62
     7
100
AcDbLine
 10
8464.8576690404
 20
4813.5533669022
 30
0.0
 11
8464.3426774589
 21
4814.4532294002
 31
0.0
  0
LINE
  5
34E
330
1F
100
AcDbEntity
  8
0
  6
Continuous
 62
     7
100
AcDbLine
 10
8465.1756225673
 20
4811.780575755
 30
0.0
 11
8465.0407298056
 21
4813.0023219612
 31
0.0
  0
LINE
  5
34F
330
1F
100
AcDbEntity
  8
0
  6
Continuous
 62
     7
100
AcDbLine
 10
8437.3795627205
 20
4764.5022460249
 30
0.0
 11
8437.3795627205
 21
4763.7532317069
 31
0.0
  0
LINE
  5
350
330
1F
100
AcDbEntity
  8
0
  6
Continuous
 62
     7
100
AcDbLine
 10
8444.7795613257
 20
4763.7532317069
 30
0.0
 11
8444.7795613257
 21
4766.0532259372
 31
0.0
  0
LINE
  5
351
330
1F
100
AcDbEntity
  8
0
  6
Continuous
 62
     7
100
AcDbLine
 10
8423.7795560209
 20
4763.7532317069
 30
0.0
 11
8423.7795560209
 21
4764.2532327202
 31
0.0
  0
LINE
  5
352
330
1F
100
AcDbEntity
  8
0
  6
Continuous
 62
     7
100
AcDbLine
 10
8462.329560384
 20
4750.7532277134
 30
0.0
 11
8462.329560384
 21
4740.7532297996
 31
0.0
  0
LINE
  5
353
330
1F
100
AcDbEntity
  8
0
  6
Continuous
 62
     7
100
AcDbLine
 10
8508.8295614867
 20
4740.7532297996
 30
0.0
 11
8508.8295614867
 21
4750.7532277134
 31
0.0
  0
LINE
  5
354
330
1F
100
AcDbEntity
  8
0
  6
Continuous
 62
     7
100
AcDbLine
 10
8515.5795602648
 20
4764.2532327202
 30
0.0
 11
8515.5795602648
 21
4766.0532259372
 31
0.0
  0
LINE
  5
355
330
1F
100
AcDbEntity
  8
0
  6
Continuous
 62
     7
100
AcDbLine
 10
8505.5795586256
 20
4766.0532259372
 30
0.0
 11
8505.5795586256
 21
4764.2532327202
 31
0.0
  0
LINE
  5
356
330
1F
100
AcDbEntity
  8
0
  6
Continuous
 62
     7
100
AcDbLine
 10
8505.5795586256
 20
4764.2532327202
 30
0.0
 11
8506.0795596389
 21
4763.7532317069
 31
0.0
  0
LINE
  5
357
330
1F
100
AcDbEntity
  8
0
  6
Continuous
 62
     7
100
AcDbLine
 10
8515.0795592515
 20
4763.7532317069
 30
0.0
 11
8515.5795602648
 21
4764.2532327202
 31
0.0
  0
LINE
  5
358
330
1F
100
AcDbEntity
  8
0
  6
Continuous
 62
     7
100
AcDbLine
 10
8455.5795578806
 20
4766.0532259372
 30
0.0
 11
8455.5795578806
 21
4764.2532327202
 31
0.0
  0
LINE
  5
359
330
1F
100
AcDbEntity
  8
0
  6
Continuous
 62
     7
100
AcDbLine
 10
8455.5795578806
 20
4764.2532327202
 30
0.0
 11
8456.0795588938
 21
4763.7532317069
 31
0.0
  0
LINE
  5
35A
330
1F
100
AcDbEntity
  8
0
  6
Continuous
 62
     7
100
AcDbLine
 10
8463.6795608846
 20
4764.7532262829
 30
0.0
 11
8463.6795608846
 21
4763.7532317069
 31
0.0
  0
LINE
  5
35B
330
1F
100
AcDbEntity
  8
0
  6
Continuous
 62
     7
100
AcDbLine
 10
8563.0795596687
 20
4809.4532304433
 30
0.0
 11
8563.9795596533
 21
4809.4532304433
 31
0.0
  0
LINE
  5
35C
330
1F
100
AcDbEntity
  8
0
  6
Continuous
 62
     7
100
AcDbLine
 10
8563.9795596533
 20
4822.6532303718
 30
0.0
 11
8563.0795596687
 21
4822.6532303718
 31
0.0
  0
LINE
  5
35D
330
1F
100
AcDbEntity
  8
0
  6
Continuous
 62
     7
100
AcDbLine
 10
8561.37245284
 20
4811.303228232
 30
0.0
 11
8562.0795596212
 21
4811.303228232
 31
0.0
  0
LINE
  5
35E
330
1F
100
AcDbEntity
  8
0
  6
Continuous
 62
     7
100
AcDbLine
 10
8562.0795596212
 20
4820.8032288578
 30
0.0
 11
8561.37245284
 21
4820.8032288578
 31
0.0
  0
LINE
  5
35F
330
1F
100
AcDbEntity
  8
0
  6
Continuous
 62
     7
100
AcDbLine
 10
8508.1600187866
 20
4813.7714044181
 30
0.0
 11
8507.761211559
 21
4813.80222747
 31
0.0
  0
LINE
  5
360
330
1F
100
AcDbEntity
  8
0
  6
Continuous
 62
     7
100
AcDbLine
 10
8507.3624006061
 20
4813.8330523846
 30
0.0
 11
8503.4623718409
 21
4814.1344861117
 31
0.0
  0
LINE
  5
361
330
1F
100
AcDbEntity
  8
0
  6
Continuous
 62
     7
100
AcDbLine
 10
8508.9295594541
 20
4813.7119264332
 30
0.0
 11
8508.7582370786
 21
4813.7251661149
 31
0.0
  0
LINE
  5
362
330
1F
100
AcDbEntity
  8
0
  6
Continuous
 62
     7
100
AcDbLine
 10
8423.0795590727
 20
4763.7532317069
 30
0.0
 11
8422.57956551
 21
4764.2532327202
 31
0.0
  0
LINE
  5
363
330
1F
100
AcDbEntity
  8
0
  6
Continuous
 62
     7
100
AcDbLine
 10
8415.5795662252
 20
4764.2532327202
 30
0.0
 11
8415.0795577614
 21
4763.7532317069
 31
0.0
  0
LINE
  5
364
330
1F
100
AcDbEntity
  8
0
  6
Continuous
 62
     7
100
AcDbLine
 10
8556.0795594526
 20
4763.7532317069
 30
0.0
 11
8555.5795598363
 21
4764.2532327202
 31
0.0
  0
LINE
  5
365
330
1F
100
AcDbEntity
  8
0
  6
Continuous
 62
     7
100
AcDbLine
 10
8548.5795600859
 20
4764.2532327202
 30
0.0
 11
8548.079560004
 21
4763.7532317069
 31
0.0
  0
LINE
  5
366
330
1F
100
AcDbEntity
  8
0
  6
Continuous
 62
     7
100
AcDbLine
 10
8560.5795595011
 20
4763.7532263425
 30
0.0
 11
8560.5795597246
 21
4753.7532263425
 31
0.0
  0
LINE
  5
367
330
1F
100
AcDbEntity
  8
0
  6
Continuous
 62
     7
100
AcDbLine
 10
8570.5795595011
 20
4763.7532317069
 30
0.0
 11
8560.5795595011
 21
4763.7532263425
 31
0.0
  0
LINE
  5
368
330
1F
100
AcDbEntity
  8
0
  6
Continuous
 62
     7
100
AcDbLine
 10
8560.5795597246
 20
4753.7532263425
 30
0.0
 11
8410.5795560924
 21
4753.7532263425
 31
0.0
  0
LINE
  5
369
330
1F
100
AcDbEntity
  8
0
  6
Continuous
 62
     7
100
AcDbLine
 10
8410.5795656292
 20
4763.7532263425
 30
0.0
 11
8410.5795560924
 21
4753.7532263425
 31
0.0
  0
LINE
  5
36A
330
1F
100
AcDbEntity
  8
0
  6
Continuous
 62
     7
100
AcDbLine
 10
8560.5795595011
 20
4763.7532263425
 30
0.0
 11
8410.5795656292
 21
4763.7532263425
 31
0.0
  0
LINE
  5
36B
330
1F
100
AcDbEntity
  8
0
  6
Continuous
 62
     7
100
AcDbLine
 10
8410.5795656292
 20
4763.7532263425
 30
0.0
 11
8400.5795656292
 21
4763.7532317069
 31
0.0
  0
LINE
  5
36C
330
1F
100
AcDbEntity
  8
0
  6
Continuous
 62
     7
100
AcDbLine
 10
8503.6795599906
 20
4699.7532286671
 30
0.0
 11
8467.4795581548
 21
4699.7532286671
 31
0.0
  0
LINE
  5
36D
330
1F
100
AcDbEntity
  8
0
  6
Continuous
 62
     7
100
AcDbLine
 10
8457.2795568554
 20
4750.7532277134
 30
0.0
 11
8513.87956129
 21
4750.7532277134
 31
0.0
  0
LINE
  5
36E
330
1F
100
AcDbEntity
  8
0
  6
Continuous
 62
     7
100
AcDbLine
 10
8464.8576690404
 20
4813.5533669022
 30
0.0
 11
8465.0362371055
 21
4813.0385206071
 31
0.0
  0
LINE
  5
36F
330
1F
100
AcDbEntity
  8
0
  6
Continuous
 62
     7
100
AcDbLine
 10
8465.0362371055
 20
4813.0385206071
 30
0.0
 11
8464.9882032124
 21
4812.444176617
 31
0.0
  0
LINE
  5
370
330
1F
100
AcDbEntity
  8
0
  6
Continuous
 62
     7
100
AcDbLine
 10
8464.9882032124
 20
4812.444176617
 30
0.0
 11
8464.6874083726
 21
4811.856635007
 31
0.0
  0
LINE
  5
371
330
1F
100
AcDbEntity
  8
0
  6
Continuous
 62
     7
100
AcDbLine
 10
8464.6874083726
 20
4811.856635007
 30
0.0
 11
8464.1527547089
 21
4811.3128059533
 31
0.0
  0
LINE
  5
372
330
1F
100
AcDbEntity
  8
0
  6
Continuous
 62
     7
100
AcDbLine
 10
8464.1527547089
 20
4811.3128059533
 30
0.0
 11
8463.8854353277
 21
4811.1185991195
 31
0.0
  0
LINE
  5
373
330
1F
100
AcDbEntity
  8
0
  6
Continuous
 62
     7
100
AcDbLine
 10
8465.1756225673
 20
4811.780575755
 30
0.0
 11
8465.1787890641
 21
4811.5152531293
 31
0.0
  0
LINE
  5
374
330
1F
100
AcDbEntity
  8
0
  6
Continuous
 62
     7
100
AcDbLine
 10
8462.9005132763
 20
4819.0532290366
 30
0.0
 11
8462.9005132763
 21
4814.4532294002
 31
0.0
  0
LINE
  5
375
330
1F
100
AcDbEntity
  8
0
  6
Continuous
 62
     7
100
AcDbLine
 10
8462.9005132763
 20
4814.4532294002
 30
0.0
 11
8458.3424715845
 21
4814.4532294002
 31
0.0
  0
LINE
  5
376
330
1F
100
AcDbEntity
  8
0
  6
Continuous
 62
     7
100
AcDbLine
 10
8462.9005132763
 20
4819.0532290366
 30
0.0
 11
8459.0795575229
 21
4819.0532290366
 31
0.0
  0
LINE
  5
377
330
1F
100
AcDbEntity
  8
0
  6
Continuous
 62
     7
100
AcDbLine
 10
8467.8166447727
 20
4814.4532294002
 30
0.0
 11
8462.9005132763
 21
4814.4532294002
 31
0.0
  0
LINE
  5
378
330
1F
100
AcDbEntity
  8
0
  6
Continuous
 62
     7
100
AcDbLine
 10
8467.0795588342
 20
4819.0532290366
 30
0.0
 11
8462.9005132763
 21
4819.0532290366
 31
0.0
  0
LINE
  5
379
330
1F
100
AcDbEntity
  8
0
  6
Continuous
 62
     7
100
AcDbLine
 10
8538.8747709392
 20
4753.7282296446
 30
0.0
 11
8522.5166244952
 21
4753.7282296446
 31
0.0
  0
LINE
  5
37A
330
1F
100
AcDbEntity
  8
0
  6
Continuous
 62
     7
100
AcDbLine
 10
8522.5166244952
 20
4753.7282296446
 30
0.0
 11
8522.5166244952
 21
4753.7532263425
 31
0.0
  0
LINE
  5
37B
330
1F
100
AcDbEntity
  8
0
  6
Continuous
 62
     7
100
AcDbLine
 10
8538.8747709392
 20
4753.7282296446
 30
0.0
 11
8538.8747709392
 21
4753.7532263425
 31
0.0
  0
LINE
  5
37C
330
1F
100
AcDbEntity
  8
0
  6
Continuous
 62
     7
100
AcDbLine
 10
8520.854578778
 20
4753.7282296446
 30
0.0
 11
8520.854578778
 21
4753.7532263425
 31
0.0
  0
LINE
  5
37D
330
1F
100
AcDbEntity
  8
0
  6
Continuous
 62
     7
100
AcDbLine
 10
8520.586633548
 20
4753.7282296446
 30
0.0
 11
8520.586633548
 21
4753.7532263425
 31
0.0
  0
LINE
  5
37E
330
1F
100
AcDbEntity
  8
0
  6
Continuous
 62
     7
100
AcDbLine
 10
8520.7353992907
 20
4753.7282296446
 30
0.0
 11
8520.586633548
 21
4753.7282296446
 31
0.0
  0
LINE
  5
37F
330
1F
100
AcDbEntity
  8
0
  6
Continuous
 62
     7
100
AcDbLine
 10
8543.9679636208
 20
4753.7282296446
 30
0.0
 11
8543.9679636208
 21
4753.7532263425
 31
0.0
  0
LINE
  5
380
330
1F
100
AcDbEntity
  8
0
  6
Continuous
 62
     7
100
AcDbLine
 10
8542.0964317916
 20
4753.7282296446
 30
0.0
 11
8542.0964317916
 21
4753.7532263425
 31
0.0
  0
LINE
  5
381
330
1F
100
AcDbEntity
  8
0
  6
Continuous
 62
     7
100
AcDbLine
 10
8539.6260390578
 20
4753.7282296446
 30
0.0
 11
8539.6260390578
 21
4753.7532263425
 31
0.0
  0
LINE
  5
382
330
1F
100
AcDbEntity
  8
0
  6
Continuous
 62
     7
100
AcDbLine
 10
8541.3911467938
 20
4753.7282296446
 30
0.0
 11
8541.3911467938
 21
4753.7532263425
 31
0.0
  0
LINE
  5
383
330
1F
100
AcDbEntity
  8
0
  6
Continuous
 62
     7
100
AcDbLine
 10
8544.9740211068
 20
4753.7282296446
 30
0.0
 11
8544.9740211068
 21
4753.7532263425
 31
0.0
  0
LINE
  5
384
330
1F
100
AcDbEntity
  8
0
  6
Continuous
 62
     7
100
AcDbLine
 10
8544.8119262753
 20
4753.7282296446
 30
0.0
 11
8544.8119262753
 21
4753.7532263425
 31
0.0
  0
LINE
  5
385
330
1F
100
AcDbEntity
  8
0
  6
Continuous
 62
     7
100
AcDbLine
 10
8545.1449523268
 20
4753.7282296447
 30
0.0
 11
8545.1449523268
 21
4753.7532263425
 31
0.0
  0
LINE
  5
386
330
1F
100
AcDbEntity
  8
0
  6
Continuous
 62
     7
100
AcDbLine
 10
8545.2054175137
 20
4753.7282296446
 30
0.0
 11
8545.2054175137
 21
4753.7532263425
 31
0.0
  0
LINE
  5
387
330
1F
100
AcDbEntity
  8
0
  6
Continuous
 62
     7
100
AcDbLine
 10
8545.2732140718
 20
4753.7282296446
 30
0.0
 11
8545.2732140718
 21
4753.7532263425
 31
0.0
  0
LINE
  5
388
330
1F
100
AcDbEntity
  8
0
  6
Continuous
 62
     7
100
AcDbLine
 10
8544.9994983671
 20
4753.7282296446
 30
0.0
 11
8544.41805692
 21
4753.7282296446
 31
0.0
  0
LINE
  5
389
330
1F
100
AcDbEntity
  8
0
  6
Continuous
 62
     7
100
AcDbLine
 10
8544.9994983671
 20
4753.7282296446
 30
0.0
 11
8545.5809398143
 21
4753.7282296446
 31
0.0
  0
LINE
  5
38A
330
1F
100
AcDbEntity
  8
0
  6
Continuous
 62
     7
100
AcDbLine
 10
8501.1680177001
 20
4832.0532293049
 30
0.0
 11
8493.373790249
 21
4845.5532295968
 31
0.0
  0
LINE
  5
38B
330
1F
100
AcDbEntity
  8
0
  6
Continuous
 62
     7
100
AcDbLine
 10
8493.373790249
 20
4818.553229886
 30
0.0
 11
8501.1680177001
 21
4832.0532293049
 31
0.0
  0
LINE
  5
38C
330
1F
100
AcDbEntity
  8
0
  6
Continuous
 62
     7
100
AcDbLine
 10
8477.7853278963
 20
4818.553229886
 30
0.0
 11
8493.373790249
 21
4818.553229886
 31
0.0
  0
LINE
  5
38D
330
1F
100
AcDbEntity
  8
0
  6
Continuous
 62
     7
100
AcDbLine
 10
8469.9911041705
 20
4832.0532293049
 30
0.0
 11
8477.7853278963
 21
4818.553229886
 31
0.0
  0
LINE
  5
38E
330
1F
100
AcDbEntity
  8
0
  6
Continuous
 62
     7
100
AcDbLine
 10
8477.7853278963
 20
4845.5532295968
 30
0.0
 11
8469.9911041705
 21
4832.0532293049
 31
0.0
  0
LINE
  5
38F
330
1F
100
AcDbEntity
  8
0
  6
Continuous
 62
     7
100
AcDbLine
 10
8493.373790249
 20
4845.5532295968
 30
0.0
 11
8477.7853278963
 21
4845.5532295968
 31
0.0
  0
LINE
  5
390
330
1F
100
AcDbEntity
  8
0
  6
Continuous
 62
     7
100
AcDbLine
 10
8438.9409734456
 20
4766.0532259372
 30
0.0
 11
8438.8175098745
 21
4765.4863708642
 31
0.0
  0
LINE
  5
391
330
1F
100
AcDbEntity
  8
0
  6
Continuous
 62
     7
100
AcDbLine
 10
8438.8175098745
 20
4765.4863708642
 30
0.0
 11
8438.7987344114
 21
4765.490461233
 31
0.0
  0
LINE
  5
392
330
1F
100
AcDbEntity
  8
0
  6
Continuous
 62
     7
100
AcDbLine
 10
8438.7987344114
 20
4765.490461233
 30
0.0
 11
8438.7431307284
 21
4765.5025684264
 31
0.0
  0
LINE
  5
393
330
1F
100
AcDbEntity
  8
0
  6
Continuous
 62
     7
100
AcDbLine
 10
8438.7431307284
 20
4765.5025684264
 30
0.0
 11
8438.6528371422
 21
4765.5222379592
 31
0.0
  0
LINE
  5
394
330
1F
100
AcDbEntity
  8
0
  6
Continuous
 62
     7
100
AcDbLine
 10
8438.6528371422
 20
4765.5222379592
 30
0.0
 11
8438.5313256232
 21
4765.5487024215
 31
0.0
  0
LINE
  5
395
330
1F
100
AcDbEntity
  8
0
  6
Continuous
 62
     7
100
AcDbLine
 10
8438.5313256232
 20
4765.5487024215
 30
0.0
 11
8438.383260235
 21
4765.5809559849
 31
0.0
  0
LINE
  5
396
330
1F
100
AcDbEntity
  8
0
  6
Continuous
 62
     7
100
AcDbLine
 10
8438.383260235
 20
4765.5809559849
 30
0.0
 11
8438.2143332211
 21
4765.6177469519
 31
0.0
  0
LINE
  5
397
330
1F
100
AcDbEntity
  8
0
  6
Continuous
 62
     7
100
AcDbLine
 10
8438.2143332211
 20
4765.6177469519
 30
0.0
 11
8438.0310414879
 21
4765.6576746133
 31
0.0
  0
LINE
  5
398
330
1F
100
AcDbEntity
  8
0
  6
Continuous
 62
     7
100
AcDbLine
 10
8438.0310414879
 20
4765.6576746133
 30
0.0
 11
8437.8404186379
 21
4765.6991917169
 31
0.0
  0
LINE
  5
399
330
1F
100
AcDbEntity
  8
0
  6
Continuous
 62
     7
100
AcDbLine
 10
8425.8609651176
 20
4763.7532317069
 30
0.0
 11
8425.31124638
 21
4764.2532327202
 31
0.0
  0
LINE
  5
39A
330
1F
100
AcDbEntity
  8
0
  6
Continuous
 62
     7
100
AcDbLine
 10
8438.1446553914
 20
4764.7465952662
 30
0.0
 11
8438.1388066856
 21
4764.7649013427
 31
0.0
  0
LINE
  5
39B
330
1F
100
AcDbEntity
  8
0
  6
Continuous
 62
     7
100
AcDbLine
 10
8438.1388066856
 20
4764.7649013427
 30
0.0
 11
8438.1214915363
 21
4764.8191117671
 31
0.0
  0
LINE
  5
39C
330
1F
100
AcDbEntity
  8
0
  6
Continuous
 62
     7
100
AcDbLine
 10
8438.1214915363
 20
4764.8191117671
 30
0.0
 11
8438.0933804957
 21
4764.9071403769
 31
0.0
  0
LINE
  5
39D
330
1F
100
AcDbEntity
  8
0
  6
Continuous
 62
     7
100
AcDbLine
 10
8438.0933804957
 20
4764.9071403769
 30
0.0
 11
8438.0555389969
 21
4765.0256046084
 31
0.0
  0
LINE
  5
39E
330
1F
100
AcDbEntity
  8
0
  6
Continuous
 62
     7
100
AcDbLine
 10
8438.0555389969
 20
4765.0256046084
 30
0.0
 11
8438.0094348041
 21
4765.1699596074
 31
0.0
  0
LINE
  5
39F
330
1F
100
AcDbEntity
  8
0
  6
Continuous
 62
     7
100
AcDbLine
 10
8438.0094348041
 20
4765.1699596074
 30
0.0
 11
8437.9568486063
 21
4765.334647241
 31
0.0
  0
LINE
  5
3A0
330
1F
100
AcDbEntity
  8
0
  6
Continuous
 62
     7
100
AcDbLine
 10
8437.9568486063
 20
4765.334647241
 30
0.0
 11
8437.8997771589
 21
4765.5133494166
 31
0.0
  0
LINE
  5
3A1
330
1F
100
AcDbEntity
  8
0
  6
Continuous
 62
     7
100
AcDbLine
 10
8437.8997771589
 20
4765.5133494166
 30
0.0
 11
8437.8404186379
 21
4765.6991917169
 31
0.0
  0
LINE
  5
3A2
330
1F
100
AcDbEntity
  8
0
  6
Continuous
 62
     7
100
AcDbLine
 10
8438.1446553914
 20
4764.7465952662
 30
0.0
 11
8435.0343136637
 21
4763.7532317069
 31
0.0
  0
LINE
  5
3A3
330
1F
100
AcDbEntity
  8
0
  6
Continuous
 62
     7
100
AcDbLine
 10
8442.2901360441
 20
4765.0532320841
 30
0.0
 11
8438.6037824798
 21
4765.0532320841
 31
0.0
  0
LINE
  5
3A4
330
1F
100
AcDbEntity
  8
0
  6
Continuous
 62
     7
100
AcDbLine
 10
8462.329560384
 20
4740.7532297996
 30
0.0
 11
8508.8295614867
 21
4740.7532297996
 31
0.0
  0
LINE
  5
3A5
330
1F
100
AcDbEntity
  8
0
  6
Continuous
 62
     7
100
AcDbLine
 10
8506.0474103836
 20
4764.2532327202
 30
0.0
 11
8505.5795586256
 21
4764.2532327202
 31
0.0
  0
LINE
  5
3A6
330
1F
100
AcDbEntity
  8
0
  6
Continuous
 62
     7
100
AcDbLine
 10
8515.5795602648
 20
4764.2532327202
 30
0.0
 11
8506.0474103836
 21
4764.2532327202
 31
0.0
  0
LINE
  5
3A7
330
1F
100
AcDbEntity
  8
0
  6
Continuous
 62
     7
100
AcDbLine
 10
8458.0159945933
 20
4764.2532327202
 30
0.0
 11
8455.5795578806
 21
4764.2532327202
 31
0.0
  0
LINE
  5
3A8
330
1F
100
AcDbEntity
  8
0
  6
Continuous
 62
     7
100
AcDbLine
 10
8463.6795608846
 20
4764.2532327202
 30
0.0
 11
8458.0159945933
 21
4764.2532327202
 31
0.0
  0
LINE
  5
3A9
330
1F
100
AcDbEntity
  8
0
  6
Continuous
 62
     7
100
AcDbLine
 10
8505.5795586256
 20
4764.7532262829
 30
0.0
 11
8463.6795608846
 21
4764.7532262829
 31
0.0
  0
LINE
  5
3AA
330
1F
100
AcDbEntity
  8
0
  6
Continuous
 62
     7
100
AcDbLine
 10
8564.7795596912
 20
4810.2532290843
 30
0.0
 11
8564.7795596912
 21
4821.8532298681
 31
0.0
  0
LINE
  5
3AB
330
1F
100
AcDbEntity
  8
0
  6
Continuous
 62
     7
100
AcDbLine
 10
8562.0795596212
 20
4817.9032300589
 30
0.0
 11
8561.37245284
 21
4817.9032300589
 31
0.0
  0
LINE
  5
3AC
330
1F
100
AcDbEntity
  8
0
  6
Continuous
 62
     7
100
AcDbLine
 10
8561.37245284
 20
4816.6532293883
 30
0.0
 11
8562.0795596212
 21
4816.6532293883
 31
0.0
  0
LINE
  5
3AD
330
1F
100
AcDbEntity
  8
0
  6
Continuous
 62
     7
100
AcDbLine
 10
8561.37245284
 20
4814.2032288936
 30
0.0
 11
8562.0795596212
 21
4814.2032288936
 31
0.0
  0
LINE
  5
3AE
330
1F
100
AcDbEntity
  8
0
  6
Continuous
 62
     7
100
AcDbLine
 10
8562.0795596212
 20
4815.4532295641
 30
0.0
 11
8561.37245284
 21
4815.4532295641
 31
0.0
  0
LINE
  5
3AF
330
1F
100
AcDbEntity
  8
0
  6
Continuous
 62
     7
100
AcDbLine
 10
8561.37245284
 20
4818.9032302228
 30
0.0
 11
8562.0795596212
 21
4818.9032302228
 31
0.0
  0
LINE
  5
3B0
330
1F
100
AcDbEntity
  8
0
  6
Continuous
 62
     7
100
AcDbLine
 10
8562.0795596212
 20
4813.2032305923
 30
0.0
 11
8561.37245284
 21
4813.2032305923
 31
0.0
  0
LINE
  5
3B1
330
1F
100
AcDbEntity
  8
0
  6
Continuous
 62
     7
100
AcDbLine
 10
8436.5551410763
 20
4763.7532317069
 30
0.0
 11
8436.8989555685
 21
4764.3487491635
 31
0.0
  0
LINE
  5
3B2
330
1F
100
AcDbEntity
  8
0
  6
Continuous
 62
     7
100
AcDbLine
 10
8424.3153123705
 20
4764.2532327202
 30
0.0
 11
8424.6039776651
 21
4763.7532317069
 31
0.0
  0
LINE
  5
3B3
330
1F
100
AcDbEntity
  8
0
  6
Continuous
 62
     7
100
AcDbLine
 10
8507.1542239336
 20
4811.1396023062
 30
0.0
 11
8507.2227059452
 21
4812.0256551531
 31
0.0
  0
LINE
  5
3B4
330
1F
100
AcDbEntity
  8
0
  6
Continuous
 62
     7
100
AcDbLine
 10
8507.2227059452
 20
4812.0256551531
 30
0.0
 11
8507.281271234
 21
4812.7833829251
 31
0.0
  0
LINE
  5
3B5
330
1F
100
AcDbEntity
  8
0
  6
Continuous
 62
     7
100
AcDbLine
 10
8507.281271234
 20
4812.7833829251
 30
0.0
 11
8507.3255127816
 21
4813.3558222082
 31
0.0
  0
LINE
  5
3B6
330
1F
100
AcDbEntity
  8
0
  6
Continuous
 62
     7
100
AcDbLine
 10
8507.3255127816
 20
4813.3558222082
 30
0.0
 11
8507.3530538527
 21
4813.7121126977
 31
0.0
  0
LINE
  5
3B7
330
1F
100
AcDbEntity
  8
0
  6
Continuous
 62
     7
100
AcDbLine
 10
8507.3530538527
 20
4813.7121126977
 30
0.0
 11
8507.3624006061
 21
4813.8330523846
 31
0.0
  0
LINE
  5
3B8
330
1F
100
AcDbEntity
  8
0
  6
Continuous
 62
     7
100
AcDbLine
 10
8508.3516998736
 20
4811.060641053
 30
0.0
 11
8508.4002925603
 21
4811.6893769232
 31
0.0
  0
LINE
  5
3B9
330
1F
100
AcDbEntity
  8
0
  6
Continuous
 62
     7
100
AcDbLine
 10
8508.4002925603
 20
4811.6893769232
 30
0.0
 11
8508.4600871949
 21
4812.4629856077
 31
0.0
  0
LINE
  5
3BA
330
1F
100
AcDbEntity
  8
0
  6
Continuous
 62
     7
100
AcDbLine
 10
8508.4600871949
 20
4812.4629856077
 30
0.0
 11
8508.505464956
 21
4813.0500988093
 31
0.0
  0
LINE
  5
3BB
330
1F
100
AcDbEntity
  8
0
  6
Continuous
 62
     7
100
AcDbLine
 10
8508.505464956
 20
4813.0500988093
 30
0.0
 11
8508.5337920634
 21
4813.4165965942
 31
0.0
  0
LINE
  5
3BC
330
1F
100
AcDbEntity
  8
0
  6
Continuous
 62
     7
100
AcDbLine
 10
8508.5337920634
 20
4813.4165965942
 30
0.0
 11
8508.5434182135
 21
4813.541174027
 31
0.0
  0
LINE
  5
3BD
330
1F
100
AcDbEntity
  8
0
  6
Continuous
 62
     7
100
AcDbLine
 10
8508.9295594541
 20
4811.1260087219
 30
0.0
 11
8508.9295594541
 21
4817.3948490051
 31
0.0
  0
LINE
  5
3BE
330
1F
100
AcDbEntity
  8
0
  6
Continuous
 62
     7
100
AcDbLine
 10
8561.37245284
 20
4844.2532295933
 30
0.0
 11
8561.37245284
 21
4766.0532259372
 31
0.0
  0
LINE
  5
3BF
330
1F
100
AcDbEntity
  8
0
  6
Continuous
 62
     7
100
AcDbLine
 10
8409.7866653053
 20
4766.0532259372
 30
0.0
 11
8561.37245284
 21
4766.0532259372
 31
0.0
  0
LINE
  5
3C0
330
1F
100
AcDbEntity
  8
0
  6
Continuous
 62
     7
100
AcDbLine
 10
8409.7866653053
 20
4844.2532295933
 30
0.0
 11
8409.7866653053
 21
4766.0532259372
 31
0.0
  0
LINE
  5
3C1
330
1F
100
AcDbEntity
  8
0
  6
Continuous
 62
     7
100
AcDbLine
 10
8409.8795591442
 20
4846.0532296206
 30
0.0
 11
8561.2795596996
 21
4846.0532296206
 31
0.0
  0
LINE
  5
3C2
330
1F
100
AcDbEntity
  8
0
  6
Continuous
 62
     7
100
AcDbLine
 10
8409.8795565573
 20
4764.2532301334
 30
0.0
 11
8409.8795579163
 21
4766.0532295731
 31
0.0
  0
LINE
  5
3C3
330
1F
100
AcDbEntity
  8
0
  6
Continuous
 62
     7
100
AcDbLine
 10
8428.0795517174
 20
4766.0532233504
 30
0.0
 11
8428.0795517174
 21
4764.2532301334
 31
0.0
  0
LINE
  5
3C4
330
1F
100
AcDbEntity
  8
0
  6
Continuous
 62
     7
100
AcDbLine
 10
8409.8795565573
 20
4764.2532301334
 30
0.0
 11
8428.0795517174
 21
4764.2532301334
 31
0.0
  0
LINE
  5
3C5
330
1F
100
AcDbEntity
  8
0
  6
Continuous
 62
     7
100
AcDbLine
 10
8543.0795616346
 20
4764.2532311229
 30
0.0
 11
8561.2795612185
 21
4764.2532311229
 31
0.0
  0
LINE
  5
3C6
330
1F
100
AcDbEntity
  8
0
  6
Continuous
 62
     7
100
AcDbLine
 10
8543.0795616346
 20
4764.2532311229
 30
0.0
 11
8543.0795616346
 21
4766.0532243399
 31
0.0
  0
LINE
  5
3C7
330
1F
100
AcDbEntity
  8
0
  6
Continuous
 62
     7
100
AcDbLine
 10
8561.2795612185
 20
4766.0532295731
 30
0.0
 11
8561.2795612185
 21
4764.2532311229
 31
0.0
  0
LINE
  5
3C8
330
1F
100
AcDbEntity
  8
0
  6
Continuous
 62
     7
100
AcDbLine
 10
8408.0795584766
 20
4844.2532295933
 30
0.0
 11
8409.0795605032
 21
4844.2532295933
 31
0.0
  0
LINE
  5
3C9
330
1F
100
AcDbEntity
  8
0
  6
Continuous
 62
     7
100
AcDbLine
 10
8563.0795596687
 20
4844.2532295933
 30
0.0
 11
8562.0795596212
 21
4844.2532295933
 31
0.0
  0
LINE
  5
3CA
330
1F
100
AcDbEntity
  8
0
  6
Continuous
 62
     7
100
AcDbLine
 10
8562.0795596212
 20
4844.2532295933
 30
0.0
 11
8562.0795596212
 21
4766.0532259372
 31
0.0
  0
LINE
  5
3CB
330
1F
100
AcDbEntity
  8
0
  6
Continuous
 62
     7
100
AcDbLine
 10
8563.0795596687
 20
4844.2532295933
 30
0.0
 11
8563.0795596687
 21
4766.0532259372
 31
0.0
  0
LINE
  5
3CC
330
1F
100
AcDbEntity
  8
0
  6
Continuous
 62
     7
100
AcDbLine
 10
8563.0795596687
 20
4766.0532259372
 30
0.0
 11
8562.0795596212
 21
4766.0532259372
 31
0.0
  0
LINE
  5
3CD
330
1F
100
AcDbEntity
  8
0
  6
Continuous
 62
     7
100
AcDbLine
 10
8408.0795584766
 20
4766.0532259372
 30
0.0
 11
8409.0795605032
 21
4766.0532259372
 31
0.0
  0
LINE
  5
3CE
330
1F
100
AcDbEntity
  8
0
  6
Continuous
 62
     7
100
AcDbLine
 10
8408.0795584766
 20
4844.2532295933
 30
0.0
 11
8408.0795584766
 21
4766.0532259372
 31
0.0
  0
LINE
  5
3CF
330
1F
100
AcDbEntity
  8
0
  6
Continuous
 62
     7
100
AcDbLine
 10
8409.0795605032
 20
4844.2532295933
 30
0.0
 11
8409.0795605032
 21
4766.0532259372
 31
0.0
  0
LINE
  5
3D0
330
1F
100
AcDbEntity
  8
0
  6
Continuous
 62
     7
100
AcDbLine
 10
8465.4795615522
 20
4701.7532327202
 30
0.0
 11
8505.6795603184
 21
4701.7532327202
 31
0.0
  0
LINE
  5
3D1
330
1F
100
AcDbEntity
  8
0
  6
Continuous
 62
     7
100
AcDbLine
 10
8457.0795609204
 20
4753.5532304076
 30
0.0
 11
8514.0795609502
 21
4753.5532304076
 31
0.0
  0
LINE
  5
3D2
330
1F
100
AcDbEntity
  8
0
  6
Continuous
 62
     7
100
AcDbLine
 10
8457.0795609204
 20
4750.953231099
 30
0.0
 11
8514.0795609502
 21
4750.953231099
 31
0.0
  0
LINE
  5
3D3
330
1F
100
AcDbEntity
  8
0
  6
Continuous
 62
     7
100
AcDbLine
 10
8437.8404186379
 20
4765.6991917169
 30
0.0
 11
8437.9175244419
 21
4766.0532259372
 31
0.0
  0
LINE
  5
3D4
330
1F
100
AcDbEntity
  8
0
  6
Continuous
 62
     7
100
AcDbLine
 10
8431.7474006264
 20
4763.7532317069
 30
0.0
 11
8437.8404186379
 21
4765.6991917169
 31
0.0
  0
LINE
  5
3D5
330
1F
100
AcDbEntity
  8
0
  6
Continuous
 62
     7
100
AcDbLine
 10
8426.797443494
 20
4764.2532327202
 30
0.0
 11
8427.3471771328
 21
4763.7532317069
 31
0.0
  0
LINE
  5
3D6
330
1F
100
AcDbEntity
  8
0
  6
Continuous
 62
     7
100
AcDbLine
 10
8438.832069032
 20
4765.5532324103
 30
0.0
 11
8442.7405454446
 21
4765.5532296089
 31
0.0
  0
LINE
  5
3D7
330
1F
100
AcDbEntity
  8
0
  6
Continuous
 62
     7
100
AcDbLine
 10
8563.9795596533
 20
4809.4532304433
 30
0.0
 11
8563.9795596533
 21
4822.6532303718
 31
0.0
  0
LINE
  5
3D8
330
1F
100
AcDbEntity
  8
0
  6
Continuous
 62
     7
100
AcDbLine
 10
8507.9500614254
 20
4811.0549078313
 30
0.0
 11
8507.9505978672
 21
4811.0618443218
 31
0.0
  0
LINE
  5
3D9
330
1F
100
AcDbEntity
  8
0
  6
Continuous
 62
     7
100
AcDbLine
 10
8507.9505978672
 20
4811.0618443218
 30
0.0
 11
8508.020327851
 21
4811.9640090493
 31
0.0
  0
LINE
  5
3DA
330
1F
100
AcDbEntity
  8
0
  6
Continuous
 62
     7
100
AcDbLine
 10
8508.020327851
 20
4811.9640090493
 30
0.0
 11
8508.0788931398
 21
4812.721733096
 31
0.0
  0
LINE
  5
3DB
330
1F
100
AcDbEntity
  8
0
  6
Continuous
 62
     7
100
AcDbLine
 10
8508.0788931398
 20
4812.721733096
 30
0.0
 11
8508.1231346874
 21
4813.2941723791
 31
0.0
  0
LINE
  5
3DC
330
1F
100
AcDbEntity
  8
0
  6
Continuous
 62
     7
100
AcDbLine
 10
8508.1231346874
 20
4813.2941723791
 30
0.0
 11
8508.1506720332
 21
4813.6504665938
 31
0.0
  0
LINE
  5
3DD
330
1F
100
AcDbEntity
  8
0
  6
Continuous
 62
     7
100
AcDbLine
 10
8508.1506720332
 20
4813.6504665938
 30
0.0
 11
8508.1600187866
 21
4813.7714044181
 31
0.0
  0
LINE
  5
3DE
330
1F
100
AcDbEntity
  8
0
  6
Continuous
 62
     7
100
AcDbLine
 10
8507.5509040205
 20
4811.0812568096
 30
0.0
 11
8507.5517869143
 21
4811.0926673737
 31
0.0
  0
LINE
  5
3DF
330
1F
100
AcDbEntity
  8
0
  6
Continuous
 62
     7
100
AcDbLine
 10
8507.5517869143
 20
4811.0926673737
 30
0.0
 11
8507.6215168981
 21
4811.9948321012
 31
0.0
  0
LINE
  5
3E0
330
1F
100
AcDbEntity
  8
0
  6
Continuous
 62
     7
100
AcDbLine
 10
8507.6215168981
 20
4811.9948321012
 30
0.0
 11
8507.6800821869
 21
4812.7525598732
 31
0.0
  0
LINE
  5
3E1
330
1F
100
AcDbEntity
  8
0
  6
Continuous
 62
     7
100
AcDbLine
 10
8507.6800821869
 20
4812.7525598732
 30
0.0
 11
8507.7243237345
 21
4813.3249991563
 31
0.0
  0
LINE
  5
3E2
330
1F
100
AcDbEntity
  8
0
  6
Continuous
 62
     7
100
AcDbLine
 10
8507.7243237345
 20
4813.3249991563
 30
0.0
 11
8507.7518610803
 21
4813.6812896458
 31
0.0
  0
LINE
  5
3E3
330
1F
100
AcDbEntity
  8
0
  6
Continuous
 62
     7
100
AcDbLine
 10
8507.7518610803
 20
4813.6812896458
 30
0.0
 11
8507.761211559
 21
4813.80222747
 31
0.0
  0
LINE
  5
3E4
330
1F
100
AcDbEntity
  8
0
  6
Continuous
 62
     7
100
AcDbLine
 10
8508.85732235
 20
4811.1140915182
 30
0.0
 11
8508.917649701
 21
4811.8946515945
 31
0.0
  0
LINE
  5
3E5
330
1F
100
AcDbEntity
  8
0
  6
Continuous
 62
     7
100
AcDbLine
 10
8508.917649701
 20
4811.8946515945
 30
0.0
 11
8508.9295594541
 21
4812.0487370518
 31
0.0
  0
LINE
  5
3E6
330
1F
100
AcDbEntity
  8
0
  6
Continuous
 62
     7
100
AcDbLine
 10
8508.5534615962
 20
4811.0757396546
 30
0.0
 11
8508.6185424177
 21
4811.9177707461
 31
0.0
  0
LINE
  5
3E7
330
1F
100
AcDbEntity
  8
0
  6
Continuous
 62
     7
100
AcDbLine
 10
8508.6185424177
 20
4811.9177707461
 30
0.0
 11
8508.6771077065
 21
4812.6754985181
 31
0.0
  0
LINE
  5
3E8
330
1F
100
AcDbEntity
  8
0
  6
Continuous
 62
     7
100
AcDbLine
 10
8508.6771077065
 20
4812.6754985181
 30
0.0
 11
8508.7213529794
 21
4813.2479378012
 31
0.0
  0
LINE
  5
3E9
330
1F
100
AcDbEntity
  8
0
  6
Continuous
 62
     7
100
AcDbLine
 10
8508.7213529794
 20
4813.2479378012
 30
0.0
 11
8508.7488903252
 21
4813.6042282906
 31
0.0
  0
LINE
  5
3EA
330
1F
100
AcDbEntity
  8
0
  6
Continuous
 62
     7
100
AcDbLine
 10
8508.7488903252
 20
4813.6042282906
 30
0.0
 11
8508.7582370786
 21
4813.7251661149
 31
0.0
  0
LINE
  5
3EB
330
1F
100
AcDbEntity
  8
0
  6
Continuous
 62
     7
100
AcDbLine
 10
8509.4295604674
 20
4817.2062114802
 30
0.0
 11
8509.4295604674
 21
4811.2389297214
 31
0.0
  0
LINE
  5
3EC
330
1F
100
AcDbEntity
  8
0
  6
Continuous
 62
     7
100
AcDbLine
 10
8409.7866653053
 20
4844.2532295933
 30
0.0
 11
8477.0347787587
 21
4844.2532295933
 31
0.0
  0
LINE
  5
3ED
330
1F
100
AcDbEntity
  8
0
  6
Continuous
 62
     7
100
AcDbLine
 10
8494.1243468372
 20
4844.2532295933
 30
0.0
 11
8561.37245284
 21
4844.2532295933
 31
0.0
  0
LWPOLYLINE
  5
3EE
330
1F
100
AcDbEntity
  8
0
  6
Continuous
 62
     7
100
AcDbPolyline
 90
        3
 70
   128
 43
0.0
 10
8472.3663330078
 20
5235.6893956824
 10
8472.8434913991
 20
5235.4137836846
 10
8473.2183455078
 20
5235.1972270919
  0
LWPOLYLINE
  5
3EF
330
1F
100
AcDbEntity
  8
0
  6
Continuous
 62
     7
100
AcDbPolyline
 90
        3
 70
   128
 43
0.0
 10
8472.3663330078
 20
5234.1018948866
 10
8472.8434913991
 20
5233.8262828888
 10
8473.2183455078
 20
5233.6097262962
  0
LWPOLYLINE
  5
3F0
330
1F
100
AcDbEntity
  8
0
  6
Continuous
 62
     7
100
AcDbPolyline
 90
        3
 70
   128
 43
0.0
 10
8472.3663330078
 20
5232.5143959536
 10
8472.8434913991
 20
5232.2387839558
 10
8473.2183455078
 20
5232.0222273631
  0
LWPOLYLINE
  5
3F1
330
1F
100
AcDbEntity
  8
0
  6
Continuous
 62
     7
100
AcDbPolyline
 90
        3
 70
   128
 43
0.0
 10
8472.3663330078
 20
5230.9268951578
 10
8472.8434912485
 20
5230.651283421
 10
8473.2183455078
 20
5230.4347274987
  0
LWPOLYLINE
  5
3F2
330
1F
100
AcDbEntity
  8
0
  6
Continuous
 62
     7
100
AcDbPolyline
 90
        3
 70
   128
 43
0.0
 10
8497.932434082
 20
5235.9864484681
 10
8498.4144113024
 20
5236.2646010399
 10
8498.7927167264
 20
5236.4831451489
  0
LWPOLYLINE
  5
3F3
330
1F
100
AcDbEntity
  8
0
  6
Continuous
 62
     7
100
AcDbPolyline
 90
        3
 70
   128
 43
0.0
 10
8497.932434082
 20
5234.3989476724
 10
8498.4144116006
 20
5234.6771007711
 10
8498.7927167264
 20
5234.8956462158
  0
LWPOLYLINE
  5
3F4
330
1F
100
AcDbEntity
  8
0
  6
Continuous
 62
     7
100
AcDbPolyline
 90
        3
 70
   128
 43
0.0
 10
8497.932434082
 20
5232.8114487393
 10
8498.4144113024
 20
5233.0896013111
 10
8498.7927167264
 20
5233.3081454201
  0
LWPOLYLINE
  5
3F5
330
1F
100
AcDbEntity
  8
0
  6
Continuous
 62
     7
100
AcDbPolyline
 90
        3
 70
   128
 43
0.0
 10
8497.932434082
 20
5231.2239479436
 10
8498.4144113024
 20
5231.5021005154
 10
8498.7927167264
 20
5231.7206446244
  0
LWPOLYLINE
  5
3F6
330
1F
100
AcDbEntity
  8
0
  6
Continuous
 62
     7
100
AcDbPolyline
 90
        3
 70
   128
 43
0.0
 10
8497.932434082
 20
5229.6364480792
 10
8498.4144114515
 20
5229.9146009145
 10
8498.7927167264
 20
5230.1331456913
  0
LWPOLYLINE
  5
3F7
330
1F
100
AcDbEntity
  8
0
  6
Continuous
 62
     7
100
AcDbPolyline
 90
        3
 70
   128
 43
0.0
 10
8472.541809082
 20
5237.1749930246
 10
8472.9211062265
 20
5236.9564449329
 10
8473.2183455078
 20
5236.7847278877
  0
LWPOLYLINE
  5
3F8
330
1F
100
AcDbEntity
  8
0
  6
Continuous
 62
     7
100
AcDbPolyline
 90
        3
 70
   128
 43
0.0
 10
8473.2208251953
 20
5235.0125830783
 10
8472.7446896929
 20
5234.7344340374
 10
8472.3663865177
 20
5234.5158957107
  0
LWPOLYLINE
  5
3F9
330
1F
100
AcDbEntity
  8
0
  6
Continuous
 62
     7
100
AcDbPolyline
 90
        3
 70
   128
 43
0.0
 10
8473.2208251953
 20
5233.4250841452
 10
8472.7446893948
 20
5233.1469345774
 10
8472.3663865177
 20
5232.928394915
  0
LWPOLYLINE
  5
3FA
330
1F
100
AcDbEntity
  8
0
  6
Continuous
 62
     7
100
AcDbPolyline
 90
        3
 70
   128
 43
0.0
 10
8473.2208251953
 20
5231.8375833495
 10
8472.7446896929
 20
5231.5594343086
 10
8472.3663865177
 20
5231.3408959819
  0
LWPOLYLINE
  5
3FB
330
1F
100
AcDbEntity
  8
0
  6
Continuous
 62
     7
100
AcDbPolyline
 90
        3
 70
   128
 43
0.0
 10
8473.2208251953
 20
5230.2500834851
 10
8472.7446895438
 20
5229.9719341807
 10
8472.3663865177
 20
5229.7533951862
  0
LWPOLYLINE
  5
3FC
330
1F
100
AcDbEntity
  8
0
  6
Continuous
 62
     7
100
AcDbPolyline
 90
        3
 70
   128
 43
0.0
 10
8498.7869262695
 20
5235.3096451773
 10
8498.3156328567
 20
5235.5852585862
 10
8497.9407726375
 20
5235.801817493
  0
LWPOLYLINE
  5
3FD
330
1F
100
AcDbEntity
  8
0
  6
Continuous
 62
     7
100
AcDbPolyline
 90
        3
 70
   128
 43
0.0
 10
8498.7869262695
 20
5233.7221443815
 10
8498.3156328567
 20
5233.9977577904
 10
8497.9407726375
 20
5234.2143166973
  0
LWPOLYLINE
  5
3FE
330
1F
100
AcDbEntity
  8
0
  6
Continuous
 62
     7
100
AcDbPolyline
 90
        3
 70
   128
 43
0.0
 10
8498.7869262695
 20
5232.1346454485
 10
8498.3156331577
 20
5232.4102583354
 10
8497.9407726375
 20
5232.6268159015
  0
LWPOLYLINE
  5
3FF
330
1F
100
AcDbEntity
  8
0
  6
Continuous
 62
     7
100
AcDbPolyline
 90
        3
 70
   128
 43
0.0
 10
8498.7869262695
 20
5230.5471446527
 10
8498.3156328567
 20
5230.8227580616
 10
8497.9407726375
 20
5231.0393169685
  0
LWPOLYLINE
  5
400
330
1F
100
AcDbEntity
  8
0
  6
Continuous
 62
     7
100
AcDbPolyline
 90
        3
 70
   128
 43
0.0
 10
8498.7869262695
 20
5236.897145973
 10
8498.3156325611
 20
5237.1727578271
 10
8497.9407726375
 20
5237.3893164261
  0
LWPOLYLINE
  5
401
330
1F
100
AcDbEntity
  8
0
  6
Continuous
 62
     7
100
AcDbPolyline
 90
        3
 70
   128
 43
0.0
 10
8473.2208251953
 20
5236.600083874
 10
8472.7446893948
 20
5236.3219343062
 10
8472.3663865177
 20
5236.1033946438
  0
LWPOLYLINE
  5
402
330
1F
100
AcDbEntity
  8
0
  6
Continuous
 62
     7
100
AcDbPolyline
 90
        3
 70
   128
 43
0.0
 10
8545.4330444336
 20
5042.7467875345
 10
8545.9213870724
 20
5043.0247653762
 10
8546.2993788121
 20
5043.2431750162
  0
LWPOLYLINE
  5
403
330
1F
100
AcDbEntity
  8
0
  6
Continuous
 62
     7
100
AcDbPolyline
 90
        3
 70
   128
 43
0.0
 10
8545.4330444336
 20
5044.3342976434
 10
8545.9213894569
 20
5044.6122630108
 10
8546.2993788121
 20
5044.830670224
  0
LWPOLYLINE
  5
404
330
1F
100
AcDbEntity
  8
0
  6
Continuous
 62
     7
100
AcDbPolyline
 90
        3
 70
   128
 43
0.0
 10
8545.4330444336
 20
5045.9217928512
 10
8545.9213870724
 20
5046.1997706929
 10
8546.2993788121
 20
5046.4181803329
  0
LWPOLYLINE
  5
405
330
1F
100
AcDbEntity
  8
0
  6
Continuous
 62
     7
100
AcDbPolyline
 90
        3
 70
   128
 43
0.0
 10
8545.4330444336
 20
5047.509288059
 10
8545.9213870724
 20
5047.7872659007
 10
8546.2993788121
 20
5048.0056755407
  0
LWPOLYLINE
  5
406
330
1F
100
AcDbEntity
  8
0
  6
Continuous
 62
     7
100
AcDbPolyline
 90
        3
 70
   128
 43
0.0
 10
8545.4330444336
 20
5049.096798168
 10
8545.8462131696
 20
5049.3313240511
 10
8546.165128663
 20
5049.5156102045
  0
LWPOLYLINE
  5
407
330
1F
100
AcDbEntity
  8
0
  6
Continuous
 62
     7
100
AcDbPolyline
 90
        3
 70
   128
 43
0.0
 10
8519.8593139648
 20
5044.0257392986
 10
8520.3434961363
 20
5043.7501326149
 10
8520.7183449117
 20
5043.5335688455
  0
LWPOLYLINE
  5
408
330
1F
100
AcDbEntity
  8
0
  6
Continuous
 62
     7
100
AcDbPolyline
 90
        3
 70
   128
 43
0.0
 10
8519.8593139648
 20
5045.6132345064
 10
8520.3434925037
 20
5045.3376298446
 10
8520.7183449117
 20
5045.1210789545
  0
LWPOLYLINE
  5
409
330
1F
100
AcDbEntity
  8
0
  6
Continuous
 62
     7
100
AcDbPolyline
 90
        3
 70
   128
 43
0.0
 10
8519.8593139648
 20
5047.2007446153
 10
8520.3434901391
 20
5046.9251275157
 10
8520.7183449117
 20
5046.7085741623
  0
LWPOLYLINE
  5
40A
330
1F
100
AcDbEntity
  8
0
  6
Continuous
 62
     7
100
AcDbPolyline
 90
        3
 70
   128
 43
0.0
 10
8519.8593139648
 20
5048.7882398231
 10
8520.3434961363
 20
5048.5126331394
 10
8520.7183449117
 20
5048.2960693701
  0
LWPOLYLINE
  5
40B
330
1F
100
AcDbEntity
  8
0
  6
Continuous
 62
     7
100
AcDbPolyline
 90
        3
 70
   128
 43
0.0
 10
8519.8593139648
 20
5042.4382440908
 10
8520.3434901391
 20
5042.1626269912
 10
8520.7183449117
 20
5041.9460736377
  0
LWPOLYLINE
  5
40C
330
1F
100
AcDbEntity
  8
0
  6
Continuous
 62
     7
100
AcDbPolyline
 90
        3
 70
   128
 43
0.0
 10
8546.2875366211
 20
5043.6459683044
 10
8545.8112586164
 20
5043.9241094844
 10
8545.4329601077
 20
5044.1426538093
  0
LWPOLYLINE
  5
40D
330
1F
100
AcDbEntity
  8
0
  6
Continuous
 62
     7
100
AcDbPolyline
 90
        3
 70
   128
 43
0.0
 10
8546.2875366211
 20
5045.2334784134
 10
8545.8112586164
 20
5045.5116195933
 10
8545.4329601077
 20
5045.7301639183
  0
LWPOLYLINE
  5
40E
330
1F
100
AcDbEntity
  8
0
  6
Continuous
 62
     7
100
AcDbPolyline
 90
        3
 70
   128
 43
0.0
 10
8546.2875366211
 20
5046.8209736212
 10
8545.8112586164
 20
5047.0991148011
 10
8545.4329601077
 20
5047.3176591261
  0
LWPOLYLINE
  5
40F
330
1F
100
AcDbEntity
  8
0
  6
Continuous
 62
     7
100
AcDbPolyline
 90
        3
 70
   128
 43
0.0
 10
8546.2875366211
 20
5048.4084688289
 10
8545.8112586164
 20
5048.6866100089
 10
8545.4329601077
 20
5048.9051543339
  0
LWPOLYLINE
  5
410
330
1F
100
AcDbEntity
  8
0
  6
Continuous
 62
     7
100
AcDbPolyline
 90
        3
 70
   128
 43
0.0
 10
8520.7214355469
 20
5043.3488391502
 10
8520.2446885491
 20
5043.0707665878
 10
8519.8663859216
 20
5042.8522281511
  0
LWPOLYLINE
  5
411
330
1F
100
AcDbEntity
  8
0
  6
Continuous
 62
     7
100
AcDbPolyline
 90
        3
 70
   128
 43
0.0
 10
8520.7214355469
 20
5044.936334358
 10
8520.2446885491
 20
5044.6582617956
 10
8519.8663859216
 20
5044.4397233589
  0
LWPOLYLINE
  5
412
330
1F
100
AcDbEntity
  8
0
  6
Continuous
 62
     7
100
AcDbPolyline
 90
        3
 70
   128
 43
0.0
 10
8520.7214355469
 20
5046.523844467
 10
8520.2446885491
 20
5046.2457570033
 10
8519.8663859216
 20
5046.0272185667
  0
LWPOLYLINE
  5
413
330
1F
100
AcDbEntity
  8
0
  6
Continuous
 62
     7
100
AcDbPolyline
 90
        3
 70
   128
 43
0.0
 10
8520.7214355469
 20
5048.1113396747
 10
8520.2446885491
 20
5047.8332671123
 10
8519.8663859216
 20
5047.6147286756
  0
LWPOLYLINE
  5
414
330
1F
100
AcDbEntity
  8
0
  6
Continuous
 62
     7
100
AcDbPolyline
 90
        3
 70
   128
 43
0.0
 10
8520.4391479492
 20
5049.5336704119
 10
8520.1188354332
 20
5049.3480587608
 10
8519.8663859216
 20
5049.2022238834
  0
LWPOLYLINE
  5
415
330
1F
100
AcDbEntity
  8
0
  6
Continuous
 62
     7
100
AcDbPolyline
 90
        3
 70
   128
 43
0.0
 10
8546.2875366211
 20
5042.0584730966
 10
8545.8112586164
 20
5042.3366142766
 10
8545.4329601077
 20
5042.5551586015
  0
LWPOLYLINE
  5
416
330
1F
100
AcDbEntity
  8
0
  6
Continuous
 62
     7
100
AcDbPolyline
 90
        3
 70
   128
 43
0.0
 10
8450.4318237305
 20
5043.0001072748
 10
8450.9153273099
 20
5043.2782213888
 10
8451.2936039416
 20
5043.4967331751
  0
LWPOLYLINE
  5
417
330
1F
100
AcDbEntity
  8
0
  6
Continuous
 62
     7
100
AcDbPolyline
 90
        3
 70
   128
 43
0.0
 10
8450.4318237305
 20
5044.5876173837
 10
8450.9153273099
 20
5044.8657314978
 10
8451.2936039416
 20
5045.084243284
  0
LWPOLYLINE
  5
418
330
1F
100
AcDbEntity
  8
0
  6
Continuous
 62
     7
100
AcDbPolyline
 90
        3
 70
   128
 43
0.0
 10
8450.4318237305
 20
5046.1751125915
 10
8450.9153273099
 20
5046.4532267056
 10
8451.2936039416
 20
5046.6717384918
  0
LWPOLYLINE
  5
419
330
1F
100
AcDbEntity
  8
0
  6
Continuous
 62
     7
100
AcDbPolyline
 90
        3
 70
   128
 43
0.0
 10
8450.4318237305
 20
5047.7626077993
 10
8450.9153273099
 20
5048.0407219134
 10
8451.2936039416
 20
5048.2592336996
  0
LWPOLYLINE
  5
41A
330
1F
100
AcDbEntity
  8
0
  6
Continuous
 62
     7
100
AcDbPolyline
 90
        3
 70
   128
 43
0.0
 10
8424.8580932617
 20
5044.2904882295
 10
8425.3430872184
 20
5044.014614282
 10
8425.7183163015
 20
5043.7978558405
  0
LWPOLYLINE
  5
41B
330
1F
100
AcDbEntity
  8
0
  6
Continuous
 62
     7
100
AcDbPolyline
 90
        3
 70
   128
 43
0.0
 10
8424.8580932617
 20
5045.8779834373
 10
8425.3430872184
 20
5045.6021094898
 10
8425.7183163015
 20
5045.3853510483
  0
LWPOLYLINE
  5
41C
330
1F
100
AcDbEntity
  8
0
  6
Continuous
 62
     7
100
AcDbPolyline
 90
        3
 70
   128
 43
0.0
 10
8424.8580932617
 20
5047.4654935463
 10
8425.3430872184
 20
5047.1896195987
 10
8425.7183163015
 20
5046.9728611572
  0
LWPOLYLINE
  5
41D
330
1F
100
AcDbEntity
  8
0
  6
Continuous
 62
     7
100
AcDbPolyline
 90
        3
 70
   128
 43
0.0
 10
8424.8580932617
 20
5049.0529887541
 10
8425.3430872184
 20
5048.7771148065
 10
8425.7183163015
 20
5048.560356365
  0
LWPOLYLINE
  5
41E
330
1F
100
AcDbEntity
  8
0
  6
Continuous
 62
     7
100
AcDbPolyline
 90
        3
 70
   128
 43
0.0
 10
8424.8580932617
 20
5042.7029930218
 10
8425.3430872184
 20
5042.4271190742
 10
8425.7183163015
 20
5042.2103606327
  0
LWPOLYLINE
  5
41F
330
1F
100
AcDbEntity
  8
0
  6
Continuous
 62
     7
100
AcDbPolyline
 90
        3
 70
   128
 43
0.0
 10
8450.4318237305
 20
5041.412612067
 10
8450.7326595485
 20
5041.5852066383
 10
8450.9674100725
 20
5041.720812784
  0
LWPOLYLINE
  5
420
330
1F
100
AcDbEntity
  8
0
  6
Continuous
 62
     7
100
AcDbPolyline
 90
        3
 70
   128
 43
0.0
 10
8451.286315918
 20
5042.3211805685
 10
8450.816038167
 20
5042.5970591741
 10
8450.4408030359
 20
5042.8138129576
  0
LWPOLYLINE
  5
421
330
1F
100
AcDbEntity
  8
0
  6
Continuous
 62
     7
100
AcDbPolyline
 90
        3
 70
   128
 43
0.0
 10
8451.286315918
 20
5043.9086906774
 10
8450.8160333943
 20
5044.1845610208
 10
8450.4408030359
 20
5044.4013230665
  0
LWPOLYLINE
  5
422
330
1F
100
AcDbEntity
  8
0
  6
Continuous
 62
     7
100
AcDbPolyline
 90
        3
 70
   128
 43
0.0
 10
8451.286315918
 20
5045.4961858852
 10
8450.8160333943
 20
5045.7720562286
 10
8450.4408030359
 20
5045.9888182743
  0
LWPOLYLINE
  5
423
330
1F
100
AcDbEntity
  8
0
  6
Continuous
 62
     7
100
AcDbPolyline
 90
        3
 70
   128
 43
0.0
 10
8451.286315918
 20
5047.083681093
 10
8450.8160333943
 20
5047.3595514364
 10
8450.4408030359
 20
5047.5763134821
  0
LWPOLYLINE
  5
424
330
1F
100
AcDbEntity
  8
0
  6
Continuous
 62
     7
100
AcDbPolyline
 90
        3
 70
   128
 43
0.0
 10
8451.286315918
 20
5048.671191202
 10
8450.8160333943
 20
5048.9470615454
 10
8450.4408030359
 20
5049.163823591
  0
LWPOLYLINE
  5
425
330
1F
100
AcDbEntity
  8
0
  6
Continuous
 62
     7
100
AcDbPolyline
 90
        3
 70
   128
 43
0.0
 10
8425.7202148438
 20
5043.6115615232
 10
8425.2438020072
 20
5043.3334485672
 10
8424.8655228464
 20
5043.114935623
  0
LWPOLYLINE
  5
426
330
1F
100
AcDbEntity
  8
0
  6
Continuous
 62
     7
100
AcDbPolyline
 90
        3
 70
   128
 43
0.0
 10
8425.7202148438
 20
5045.1990716322
 10
8425.2437996218
 20
5044.9209544609
 10
8424.8655228464
 20
5044.7024308307
  0
LWPOLYLINE
  5
427
330
1F
100
AcDbEntity
  8
0
  6
Continuous
 62
     7
100
AcDbPolyline
 90
        3
 70
   128
 43
0.0
 10
8425.7202148438
 20
5046.78656684
 10
8425.2438020072
 20
5046.508453884
 10
8424.8655228464
 20
5046.2899409397
  0
LWPOLYLINE
  5
428
330
1F
100
AcDbEntity
  8
0
  6
Continuous
 62
     7
100
AcDbPolyline
 90
        3
 70
   128
 43
0.0
 10
8425.7202148438
 20
5048.3740620477
 10
8425.2438020072
 20
5048.0959490918
 10
8424.8655228464
 20
5047.8774361475
  0
LWPOLYLINE
  5
429
330
1F
100
AcDbEntity
  8
0
  6
Continuous
 62
     7
100
AcDbPolyline
 90
        3
 70
   128
 43
0.0
 10
8425.7202148438
 20
5042.0240663154
 10
8425.4274560001
 20
5041.8520449053
 10
8425.1934825031
 20
5041.7168788774
  0
LWPOLYLINE
  5
42A
330
1F
100
AcDbEntity
  8
0
  6
Continuous
 62
     7
100
AcDbPolyline
 90
        4
 70
   128
 43
0.0
 10
8525.9323120117
 20
5075.4675470455
 10
8525.9125748536
 20
5076.1713557882
 10
8525.8082374903
 20
5076.5049342424
 10
8525.5157998351
 20
5076.6710989339
  0
LWPOLYLINE
  5
42B
330
1F
100
AcDbEntity
  8
0
  6
Continuous
 62
     7
100
AcDbPolyline
 90
        4
 70
   128
 43
0.0
 10
8525.2380371094
 20
5076.6710989339
 10
8524.9529332801
 20
5076.5024661156
 10
8524.8490789805
 20
5076.1673509976
 10
8524.8217596261
 20
5075.4609905345
  0
LWPOLYLINE
  5
42C
330
1F
100
AcDbEntity
  8
0
  6
Continuous
 62
     7
100
AcDbPolyline
 90
        3
 70
   128
 43
0.0
 10
8525.5126953125
 20
5077.3756556375
 10
8526.4133191052
 20
5076.8737447647
 10
8526.6394516973
 20
5076.0790608985
  0
LWPOLYLINE
  5
42D
330
1F
100
AcDbEntity
  8
0
  6
Continuous
 62
     7
100
AcDbPolyline
 90
        3
 70
   128
 43
0.0
 10
8524.1317749023
 20
5076.0885231359
 10
8524.4997416255
 20
5077.0572955774
 10
8525.2452692537
 20
5077.3756556375
  0
LWPOLYLINE
  5
42E
330
1F
100
AcDbEntity
  8
0
  6
Continuous
 62
     7
100
AcDbPolyline
 90
        3
 70
   128
 43
0.0
 10
8520.8511352539
 20
5077.1212630136
 10
8520.9831007583
 20
5076.2027896592
 10
8521.4067785589
 20
5075.6042651994
  0
LWPOLYLINE
  5
42F
330
1F
100
AcDbEntity
  8
0
  6
Continuous
 62
     7
100
AcDbPolyline
 90
        3
 70
   128
 43
0.0
 10
8522.3922729492
 20
5075.6701581342
 10
8521.816733326
 20
5076.3765254699
 10
8521.6586044578
 20
5077.0690046413
  0
LWPOLYLINE
  5
430
330
1F
100
AcDbEntity
  8
0
  6
Continuous
 62
     7
100
AcDbPolyline
 90
        3
 70
   128
 43
0.0
 10
8522.346496582
 20
5074.535688029
 10
8522.7244736772
 20
5074.009772338
 10
8522.7616256622
 20
5073.508089052
  0
LWPOLYLINE
  5
431
330
1F
100
AcDbEntity
  8
0
  6
Continuous
 62
     7
100
AcDbPolyline
 90
        3
 70
   128
 43
0.0
 10
8522.5143432617
 20
5078.5527132614
 10
8521.2687144778
 20
5078.0849753387
 10
8520.8545787779
 20
5077.1212630136
  0
LWPOLYLINE
  5
432
330
1F
100
AcDbEntity
  8
0
  6
Continuous
 62
     7
100
AcDbPolyline
 90
        3
 70
   128
 43
0.0
 10
8521.6522216797
 20
5077.0690046413
 10
8522.0075996848
 20
5077.6695989447
 10
8522.5671766845
 20
5077.7878366573
  0
LWPOLYLINE
  5
433
330
1F
100
AcDbEntity
  8
0
  6
Continuous
 62
     7
100
AcDbPolyline
 90
        3
 70
   128
 43
0.0
 10
8523.5595703125
 20
5073.3563058241
 10
8523.4775190989
 20
5074.2690364797
 10
8523.0898833422
 20
5074.8792492015
  0
LWPOLYLINE
  5
434
330
1F
100
AcDbEntity
  8
0
  6
Continuous
 62
     7
100
AcDbPolyline
 90
        3
 70
   128
 43
0.0
 10
8522.1481323242
 20
5072.1536778076
 10
8523.2133699574
 20
5072.5261286784
 10
8523.5607078818
 20
5073.3563058241
  0
LWPOLYLINE
  5
435
330
1F
100
AcDbEntity
  8
0
  6
Continuous
 62
     7
100
AcDbPolyline
 90
        3
 70
   128
 43
0.0
 10
8522.7584838867
 20
5073.508089052
 10
8522.5062959776
 20
5073.0299335054
 10
8522.0834477393
 20
5072.9314737184
  0
LWPOLYLINE
  5
436
330
1F
100
AcDbEntity
  8
0
  6
Continuous
 62
     7
100
AcDbPolyline
 90
        3
 70
   128
 43
0.0
 10
8543.6248779297
 20
5076.831956969
 10
8542.8840194277
 20
5076.6673855361
 10
8542.3626168219
 20
5076.3706170185
  0
LWPOLYLINE
  5
437
330
1F
100
AcDbEntity
  8
0
  6
Continuous
 62
     7
100
AcDbPolyline
 90
        3
 70
   128
 43
0.0
 10
8540.8172607422
 20
5076.6101233824
 10
8540.3316350246
 20
5076.8189725589
 10
8539.918805897
 20
5076.8940352066
  0
LWPOLYLINE
  5
438
330
1F
100
AcDbEntity
  8
0
  6
Continuous
 62
     7
100
AcDbPolyline
 90
        7
 70
   128
 43
0.0
 10
8541.7175292969
 20
5076.3972751958
 10
8541.7424700613
 20
5076.3881160414
 10
8541.7567273802
 20
5076.3671206356
 10
8541.7658830581
 20
5076.3174484634
 10
8541.7567263723
 20
5076.2677767325
 10
8541.742468361
 20
5076.2467810671
 10
8541.7193299679
 20
5076.2376092537
  0
LWPOLYLINE
  5
439
330
1F
100
AcDbEntity
  8
0
  6
Continuous
 62
     7
100
AcDbPolyline
 90
        3
 70
   128
 43
0.0
 10
8541.5573120117
 20
5076.4504872425
 10
8541.5836254007
 20
5076.4076375294
 10
8541.6217404006
 20
5076.3972751958
  0
LWPOLYLINE
  5
43A
330
1F
100
AcDbEntity
  8
0
  6
Continuous
 62
     7
100
AcDbPolyline
 90
        3
 70
   128
 43
0.0
 10
8541.618347168
 20
5076.5036992891
 10
8541.5780070473
 20
5076.4834138438
 10
8541.559667751
 20
5076.4504872425
  0
LWPOLYLINE
  5
43B
330
1F
100
AcDbEntity
  8
0
  6
Continuous
 62
     7
100
AcDbPolyline
 90
        3
 70
   128
 43
0.0
 10
8542.0913696289
 20
5076.4504872425
 10
8542.0667708686
 20
5076.4917337027
 10
8542.0298664419
 20
5076.5036992891
  0
LWPOLYLINE
  5
43C
330
1F
100
AcDbEntity
  8
0
  6
Continuous
 62
     7
100
AcDbPolyline
 90
        3
 70
   128
 43
0.0
 10
8542.0227050781
 20
5076.3972751958
 10
8542.0753400491
 20
5076.4159309982
 10
8542.0920135973
 20
5076.4504872425
  0
LWPOLYLINE
  5
43D
330
1F
100
AcDbEntity
  8
0
  6
Continuous
 62
     7
100
AcDbPolyline
 90
        6
 70
   128
 43
0.0
 10
8541.9082641602
 20
5076.23319851
 10
8541.8886345354
 20
5076.2461595392
 10
8541.8778497674
 20
5076.2696255899
 10
8541.8726598423
 20
5076.321043679
 10
8541.8859309661
 20
5076.3708459203
 10
8541.9278605429
 20
5076.3972751958
  0
LWPOLYLINE
  5
43E
330
1F
100
AcDbEntity
  8
0
  6
Continuous
 62
     7
100
AcDbPolyline
 90
        3
 70
   128
 43
0.0
 10
8542.3583984375
 20
5076.3706170185
 10
8542.1223897498
 20
5076.2451111662
 10
8541.9100648312
 20
5076.23319851
  0
LWPOLYLINE
  5
43F
330
1F
100
AcDbEntity
  8
0
  6
Continuous
 62
     7
100
AcDbPolyline
 90
        3
 70
   128
 43
0.0
 10
8543.7850952148
 20
5074.777325259
 10
8543.8688097794
 20
5074.4604151721
 10
8543.9069452284
 20
5074.2061935528
  0
LWPOLYLINE
  5
440
330
1F
100
AcDbEntity
  8
0
  6
Continuous
 62
     7
100
AcDbPolyline
 90
        3
 70
   128
 43
0.0
 10
8543.7622070312
 20
5076.7628900869
 10
8543.0833113232
 20
5076.6391003917
 10
8542.6408252267
 20
5076.3195209368
  0
LWPOLYLINE
  5
441
330
1F
100
AcDbEntity
  8
0
  6
Continuous
 62
     7
100
AcDbPolyline
 90
        3
 70
   128
 43
0.0
 10
8540.9164428711
 20
5076.4771007164
 10
8541.4507402189
 20
5073.8153630407
 10
8541.4355746058
 20
5071.6515384777
  0
LWPOLYLINE
  5
442
330
1F
100
AcDbEntity
  8
0
  6
Continuous
 62
     7
100
AcDbPolyline
 90
        3
 70
   128
 43
0.0
 10
8541.3589477539
 20
5071.6649495228
 10
8541.3499273934
 20
5074.1820573133
 10
8541.040826082
 20
5076.1356108053
  0
LWPOLYLINE
  5
443
330
1F
100
AcDbEntity
  8
0
  6
Continuous
 62
     7
100
AcDbPolyline
 90
        3
 70
   128
 43
0.0
 10
8541.3513183594
 20
5077.0182065828
 10
8541.4706703734
 20
5077.0741938844
 10
8541.5064557044
 20
5077.1690063341
  0
LWPOLYLINE
  5
444
330
1F
100
AcDbEntity
  8
0
  6
Continuous
 62
     7
100
AcDbPolyline
 90
        3
 70
   128
 43
0.0
 10
8542.350769043
 20
5077.0182065828
 10
8542.474728606
 20
5077.0726704441
 10
8542.5088251529
 20
5077.1690063341
  0
LWPOLYLINE
  5
445
330
1F
100
AcDbEntity
  8
0
  6
Continuous
 62
     7
100
AcDbPolyline
 90
        3
 70
   128
 43
0.0
 10
8542.350769043
 20
5077.3197762831
 10
8542.244409235
 20
5077.2641001838
 10
8542.2116661964
 20
5077.1690063341
  0
LWPOLYLINE
  5
446
330
1F
100
AcDbEntity
  8
0
  6
Continuous
 62
     7
100
AcDbPolyline
 90
        3
 70
   128
 43
0.0
 10
8542.4728393555
 20
5078.4419231279
 10
8542.5552850033
 20
5078.4082118006
 10
8542.6152995376
 20
5078.3797703846
  0
ARC
  5
447
330
1F
100
AcDbEntity
  8
0
  6
Continuous
 62
     7
100
AcDbCircle
 10
8542.2253596553
 20
5076.2678062299
 30
0.0
 40
1.59771466597327
100
AcDbArc
 50
20.2770924841
 51
78.6461596603
  0
LWPOLYLINE
  5
448
330
1F
100
AcDbEntity
  8
0
  6
Continuous
 62
     7
100
AcDbPolyline
 90
        3
 70
   128
 43
0.0
 10
8541.0995483398
 20
5077.883114682
 10
8540.3396444937
 20
5077.4026182424
 10
8539.8437319843
 20
5076.9098155363
  0
LWPOLYLINE
  5
449
330
1F
100
AcDbEntity
  8
0
  6
Continuous
 62
     7
100
AcDbPolyline
 90
        3
 70
   128
 43
0.0
 10
8539.8406982422
 20
5076.9098155363
 10
8540.9176356148
 20
5077.3462998877
 10
8541.8257782755
 20
5077.4351559742
  0
LWPOLYLINE
  5
44A
330
1F
100
AcDbEntity
  8
0
  6
Continuous
 62
     7
100
AcDbPolyline
 90
        3
 70
   128
 43
0.0
 10
8542.6025390625
 20
5076.2754731043
 10
8542.4094305501
 20
5075.951914118
 10
8542.318114504
 20
5075.6698750122
  0
LWPOLYLINE
  5
44B
330
1F
100
AcDbEntity
  8
0
  6
Continuous
 62
     7
100
AcDbPolyline
 90
        3
 70
   128
 43
0.0
 10
8543.2205200195
 20
5075.8262328966
 10
8543.3937123553
 20
5075.5910014045
 10
8543.5143312959
 20
5075.3963343961
  0
LWPOLYLINE
  5
44C
330
1F
100
AcDbEntity
  8
0
  6
Continuous
 62
     7
100
AcDbPolyline
 90
        3
 70
   128
 43
0.0
 10
8540.1229858398
 20
5079.1293881996
 10
8540.8296271529
 20
5078.8443486811
 10
8541.3380595443
 20
5078.5306297405
  0
LWPOLYLINE
  5
44D
330
1F
100
AcDbEntity
  8
0
  6
Continuous
 62
     7
100
AcDbPolyline
 90
        3
 70
   128
 43
0.0
 10
8541.7633056641
 20
5078.5084419115
 10
8542.9892913027
 20
5078.0863953776
 10
8543.5820756999
 20
5077.2576980455
  0
LWPOLYLINE
  5
44E
330
1F
100
AcDbEntity
  8
0
  6
Continuous
 62
     7
100
AcDbPolyline
 90
        3
 70
   128
 43
0.0
 10
8542.1676635742
 20
5078.5395108326
 10
8542.7260933521
 20
5078.9055744069
 10
8543.2184761909
 20
5079.0762059553
  0
LWPOLYLINE
  5
44F
330
1F
100
AcDbEntity
  8
0
  6
Continuous
 62
     7
100
AcDbPolyline
 90
       11
 70
   128
 43
0.0
 10
8542.5338745117
 20
5077.8342537744
 10
8542.009866545
 20
5077.5704663689
 10
8541.4261515479
 20
5077.6550368401
 10
8541.2533210953
 20
5077.7538677908
 10
8541.174070419
 20
5077.8139372776
 10
8541.1360569109
 20
5077.8464558269
 10
8541.1176365899
 20
5077.8634814421
 10
8541.1093156206
 20
5077.872732511
 10
8541.1055925654
 20
5077.8777007676
 10
8541.1038675767
 20
5077.8802905577
 10
8541.1028726546
 20
5077.883114682
  0
LWPOLYLINE
  5
450
330
1F
100
AcDbEntity
  8
0
  6
Continuous
 62
     7
100
AcDbPolyline
 90
        3
 70
   128
 43
0.0
 10
8541.8243408203
 20
5077.4351559742
 10
8542.9476289263
 20
5077.2472326045
 10
8543.7245941309
 20
5076.8215112551
  0
LWPOLYLINE
  5
451
330
1F
100
AcDbEntity
  8
0
  6
Continuous
 62
     7
100
AcDbPolyline
 90
        3
 70
   128
 43
0.0
 10
8542.610168457
 20
5078.3797703846
 10
8543.2130616223
 20
5078.8384807498
 10
8543.7641008345
 20
5079.0539585216
  0
LWPOLYLINE
  5
452
330
1F
100
AcDbEntity
  8
0
  6
Continuous
 62
     7
100
AcDbPolyline
 90
        3
 70
   128
 43
0.0
 10
8543.342590332
 20
5077.8564714058
 10
8543.3957526985
 20
5077.7841714084
 10
8543.4313243774
 20
5077.7233593328
  0
LWPOLYLINE
  5
453
330
1F
100
AcDbEntity
  8
0
  6
Continuous
 62
     7
100
AcDbPolyline
 90
        3
 70
   128
 43
0.0
 10
8543.4265136719
 20
5077.7233593328
 10
8543.8099093758
 20
5078.5289210705
 10
8543.9192442743
 20
5079.2180352075
  0
LWPOLYLINE
  5
454
330
1F
100
AcDbEntity
  8
0
  6
Continuous
 62
     7
100
AcDbPolyline
 90
        3
 70
   128
 43
0.0
 10
8543.9147949219
 20
5079.2180352075
 10
8543.0484929963
 20
5078.8955501419
 10
8542.4777767209
 20
5078.4419231279
  0
LWPOLYLINE
  5
455
330
1F
100
AcDbEntity
  8
0
  6
Continuous
 62
     7
100
AcDbPolyline
 90
        3
 70
   128
 43
0.0
 10
8540.1611328125
 20
5077.7722351415
 10
8539.8851027142
 20
5078.4839146678
 10
8539.8211418239
 20
5079.0805868967
  0
LWPOLYLINE
  5
456
330
1F
100
AcDbEntity
  8
0
  6
Continuous
 62
     7
100
AcDbPolyline
 90
        3
 70
   128
 43
0.0
 10
8541.7175292969
 20
5076.2376092537
 10
8541.2016324713
 20
5076.4052839499
 10
8540.8234851954
 20
5076.6101233824
  0
LWPOLYLINE
  5
457
330
1F
100
AcDbEntity
  8
0
  6
Continuous
 62
     7
100
AcDbPolyline
 90
        3
 70
   128
 43
0.0
 10
8540.8554077148
 20
5078.3620231016
 10
8540.9399356251
 20
5078.4014011444
 10
8541.0052849499
 20
5078.428616391
  0
LWPOLYLINE
  5
458
330
1F
100
AcDbEntity
  8
0
  6
Continuous
 62
     7
100
AcDbPolyline
 90
        3
 70
   128
 43
0.0
 10
8541.0003662109
 20
5078.428616391
 10
8540.3421216627
 20
5078.9793255264
 10
8539.7057826219
 20
5079.2047433718
  0
LWPOLYLINE
  5
459
330
1F
100
AcDbEntity
  8
0
  6
Continuous
 62
     7
100
AcDbPolyline
 90
        3
 70
   128
 43
0.0
 10
8539.7033691406
 20
5079.2047433718
 10
8539.8308109237
 20
5078.3324450392
 10
8540.1094662545
 20
5077.6967756612
  0
LWPOLYLINE
  5
45A
330
1F
100
AcDbEntity
  8
0
  6
Continuous
 62
     7
100
AcDbPolyline
 90
        3
 70
   128
 43
0.0
 10
8542.5033569336
 20
5077.1690063341
 10
8542.4543488007
 20
5077.2856907458
 10
8542.358023539
 20
5077.3197762831
  0
LWPOLYLINE
  5
45B
330
1F
100
AcDbEntity
  8
0
  6
Continuous
 62
     7
100
AcDbPolyline
 90
        3
 70
   128
 43
0.0
 10
8542.2058105469
 20
5077.1690063341
 10
8542.2639992643
 20
5077.0534402213
 10
8542.358023539
 20
5077.0182065828
  0
LWPOLYLINE
  5
45C
330
1F
100
AcDbEntity
  8
0
  6
Continuous
 62
     7
100
AcDbPolyline
 90
        3
 70
   128
 43
0.0
 10
8541.50390625
 20
5077.1690063341
 10
8541.4500372602
 20
5077.2817353754
 10
8541.3556801675
 20
5077.3153655393
  0
LWPOLYLINE
  5
45D
330
1F
100
AcDbEntity
  8
0
  6
Continuous
 62
     7
100
AcDbPolyline
 90
        3
 70
   128
 43
0.0
 10
8541.3513183594
 20
5077.3153655393
 10
8541.2409226977
 20
5077.2622557389
 10
8541.2048804162
 20
5077.1690063341
  0
LWPOLYLINE
  5
45E
330
1F
100
AcDbEntity
  8
0
  6
Continuous
 62
     7
100
AcDbPolyline
 90
        3
 70
   128
 43
0.0
 10
8541.1987304688
 20
5077.1690063341
 10
8541.2608765349
 20
5077.0540170828
 10
8541.3556801675
 20
5077.0182065828
  0
LWPOLYLINE
  5
45F
330
1F
100
AcDbEntity
  8
0
  6
Continuous
 62
     7
100
AcDbPolyline
 90
        3
 70
   128
 43
0.0
 10
8541.0385131836
 20
5076.1356108053
 10
8540.9754970502
 20
5075.7575591494
 10
8540.854509413
 20
5075.4791997535
  0
LWPOLYLINE
  5
460
330
1F
100
AcDbEntity
  8
0
  6
Continuous
 62
     7
100
AcDbPolyline
 90
        3
 70
   128
 43
0.0
 10
8543.7622070312
 20
5079.0539585216
 10
8543.6061061858
 20
5078.3549739355
 10
8543.342695996
 20
5077.8564714058
  0
LWPOLYLINE
  5
461
330
1F
100
AcDbEntity
  8
0
  6
Continuous
 62
     7
100
AcDbPolyline
 90
        3
 70
   128
 43
0.0
 10
8542.7627563477
 20
5076.2088500126
 10
8542.8148280027
 20
5076.2880957151
 10
8542.8548282532
 20
5076.3484887941
  0
LWPOLYLINE
  5
462
330
1F
100
AcDbEntity
  8
0
  6
Continuous
 62
     7
100
AcDbPolyline
 90
        3
 70
   128
 43
0.0
 10
8542.854309082
 20
5076.3484887941
 10
8543.8372727885
 20
5074.9714016489
 10
8544.0061143188
 20
5073.6511551006
  0
LWPOLYLINE
  5
463
330
1F
100
AcDbEntity
  8
0
  6
Continuous
 62
     7
100
AcDbPolyline
 90
        3
 70
   128
 43
0.0
 10
8543.9987182617
 20
5073.6511551006
 10
8543.1827644855
 20
5072.0193572086
 10
8541.8258285669
 20
5071.5289317234
  0
LWPOLYLINE
  5
464
330
1F
100
AcDbEntity
  8
0
  6
Continuous
 62
     7
100
AcDbPolyline
 90
        3
 70
   128
 43
0.0
 10
8541.8243408203
 20
5071.5289317234
 10
8540.246843925
 20
5072.3619295152
 10
8540.056127548
 20
5073.7849377258
  0
LWPOLYLINE
  5
465
330
1F
100
AcDbEntity
  8
0
  6
Continuous
 62
     7
100
AcDbPolyline
 90
        3
 70
   128
 43
0.0
 10
8540.0543212891
 20
5073.7849377258
 10
8540.4779301603
 20
5074.9376744928
 10
8540.8900505451
 20
5075.8118979795
  0
LWPOLYLINE
  5
466
330
1F
100
AcDbEntity
  8
0
  6
Continuous
 62
     7
100
AcDbPolyline
 90
        4
 70
   128
 43
0.0
 10
8540.885925293
 20
5075.8118979795
 10
8540.9168995996
 20
5076.2567835583
 10
8540.6375805392
 20
5076.6026427036
 10
8539.7767643032
 20
5076.8763177259
  0
LWPOLYLINE
  5
467
330
1F
100
AcDbEntity
  8
0
  6
Continuous
 62
     7
100
AcDbPolyline
 90
        3
 70
   128
 43
0.0
 10
8539.7720336914
 20
5076.8763177259
 10
8539.9144892985
 20
5077.3137771087
 10
8540.0695069281
 20
5077.6391528709
  0
LWPOLYLINE
  5
468
330
1F
100
AcDbEntity
  8
0
  6
Continuous
 62
     7
100
AcDbPolyline
 90
        3
 70
   128
 43
0.0
 10
8540.0619506836
 20
5077.6391528709
 10
8539.6989577201
 20
5078.5308002037
 10
8539.6260390578
 20
5079.2890541418
  0
LWPOLYLINE
  5
469
330
1F
100
AcDbEntity
  8
0
  6
Continuous
 62
     7
100
AcDbPolyline
 90
        3
 70
   128
 43
0.0
 10
8539.6194458008
 20
5079.2890541418
 10
8540.6621597776
 20
5078.9839541348
 10
8541.3911467937
 20
5078.5483472212
  0
LWPOLYLINE
  5
46A
330
1F
100
AcDbEntity
  8
0
  6
Continuous
 62
     7
100
AcDbPolyline
 90
        3
 70
   128
 43
0.0
 10
8541.389465332
 20
5078.5483472212
 10
8541.7861376644
 20
5078.5824569167
 10
8542.0964317916
 20
5078.5527579649
  0
LWPOLYLINE
  5
46B
330
1F
100
AcDbEntity
  8
0
  6
Continuous
 62
     7
100
AcDbPolyline
 90
        3
 70
   128
 43
0.0
 10
8542.0913696289
 20
5078.5527579649
 10
8543.0867346445
 20
5079.1139656509
 10
8543.9679636208
 20
5079.2979054315
  0
LWPOLYLINE
  5
46C
330
1F
100
AcDbEntity
  8
0
  6
Continuous
 62
     7
100
AcDbPolyline
 90
        3
 70
   128
 43
0.0
 10
8543.9605712891
 20
5079.2979054315
 10
8543.8057027798
 20
5078.3348494441
 10
8543.4713842867
 20
5077.6435636146
  0
LWPOLYLINE
  5
46D
330
1F
100
AcDbEntity
  8
0
  6
Continuous
 62
     7
100
AcDbPolyline
 90
        3
 70
   128
 43
0.0
 10
8543.4646606445
 20
5077.6435636146
 10
8543.7197564201
 20
5077.1727300126
 10
8543.7652798889
 20
5076.7628900869
  0
LWPOLYLINE
  5
46E
330
1F
100
AcDbEntity
  8
0
  6
Continuous
 62
     7
100
AcDbPolyline
 90
        3
 70
   128
 43
0.0
 10
8542.4346923828
 20
5074.7232340439
 10
8543.201547645
 20
5074.6334004056
 10
8543.7874937949
 20
5074.777325259
  0
LWPOLYLINE
  5
46F
330
1F
100
AcDbEntity
  8
0
  6
Continuous
 62
     7
100
AcDbPolyline
 90
        3
 70
   128
 43
0.0
 10
8542.366027832
 20
5074.167942272
 10
8542.4045242314
 20
5074.4794874685
 10
8542.4377671031
 20
5074.7232340439
  0
LWPOLYLINE
  5
470
330
1F
100
AcDbEntity
  8
0
  6
Continuous
 62
     7
100
AcDbPolyline
 90
        3
 70
   128
 43
0.0
 10
8543.8995361328
 20
5074.2061935528
 10
8543.0468761319
 20
5074.0381523364
 10
8542.3733847735
 20
5074.167942272
  0
LWPOLYLINE
  5
471
330
1F
100
AcDbEntity
  8
0
  6
Continuous
 62
     7
100
AcDbPolyline
 90
        3
 70
   128
 43
0.0
 10
8542.6940917969
 20
5075.7777147157
 10
8542.9929416333
 20
5075.7744289893
 10
8543.221614748
 20
5075.8262328966
  0
LWPOLYLINE
  5
472
330
1F
100
AcDbEntity
  8
0
  6
Continuous
 62
     7
100
AcDbPolyline
 90
        3
 70
   128
 43
0.0
 10
8542.5491333008
 20
5075.3164641722
 10
8542.6287049919
 20
5075.5763300826
 10
8542.6945904789
 20
5075.7777147157
  0
LWPOLYLINE
  5
473
330
1F
100
AcDbEntity
  8
0
  6
Continuous
 62
     7
100
AcDbPolyline
 90
        3
 70
   128
 43
0.0
 10
8543.5104370117
 20
5075.3963343961
 10
8542.982757274
 20
5075.2655483557
 10
8542.5566150395
 20
5075.3164641722
  0
LWPOLYLINE
  5
474
330
1F
100
AcDbEntity
  8
0
  6
Continuous
 62
     7
100
AcDbPolyline
 90
        3
 70
   128
 43
0.0
 10
8541.0461425781
 20
5078.4507595165
 10
8540.5768995682
 20
5078.8920230679
 10
8540.1271613834
 20
5079.1293881996
  0
LWPOLYLINE
  5
475
330
1F
100
AcDbEntity
  8
0
  6
Continuous
 62
     7
100
AcDbPolyline
 90
        3
 70
   128
 43
0.0
 10
8541.3360595703
 20
5078.5306297405
 10
8541.1742080897
 20
5078.494087995
 10
8541.049660608
 20
5078.4507595165
  0
LWPOLYLINE
  5
476
330
1F
100
AcDbEntity
  8
0
  6
Continuous
 62
     7
100
AcDbPolyline
 90
        3
 70
   128
 43
0.0
 10
8539.924621582
 20
5077.1424226625
 10
8540.7321322814
 20
5078.2308210142
 10
8541.7681238202
 20
5078.5084419115
  0
LWPOLYLINE
  5
477
330
1F
100
AcDbEntity
  8
0
  6
Continuous
 62
     7
100
AcDbPolyline
 90
        3
 70
   128
 43
0.0
 10
8541.1224365234
 20
5077.9584698541
 10
8540.4240567218
 20
5077.5489906362
 10
8539.9274895487
 20
5077.1424226625
  0
LWPOLYLINE
  5
478
330
1F
100
AcDbEntity
  8
0
  6
Continuous
 62
     7
100
AcDbPolyline
 90
        3
 70
   128
 43
0.0
 10
8542.5262451172
 20
5077.9141239984
 10
8541.7244484522
 20
5077.6324585417
 10
8541.1294283865
 20
5077.9584698541
  0
LWPOLYLINE
  5
479
330
1F
100
AcDbEntity
  8
0
  6
Continuous
 62
     7
100
AcDbPolyline
 90
        3
 70
   128
 43
0.0
 10
8543.5791015625
 20
5077.2576980455
 10
8543.0244775495
 20
5077.6740497834
 10
8542.5309626905
 20
5077.9141239984
  0
LWPOLYLINE
  5
47A
330
1F
100
AcDbEntity
  8
0
  6
Continuous
 62
     7
100
AcDbPolyline
 90
        3
 70
   128
 43
0.0
 10
8542.4194335938
 20
5078.4641556604
 10
8542.2835877492
 20
5078.5083646827
 10
8542.1717571614
 20
5078.5395108326
  0
LWPOLYLINE
  5
47B
330
1F
100
AcDbEntity
  8
0
  6
Continuous
 62
     7
100
AcDbPolyline
 90
        3
 70
   128
 43
0.0
 10
8543.212890625
 20
5079.0762059553
 10
8542.7441382316
 20
5078.7708239184
 10
8542.4245646743
 20
5078.4641556604
  0
LWPOLYLINE
  5
47C
330
1F
100
AcDbEntity
  8
0
  6
Continuous
 62
     7
100
AcDbPolyline
 90
        3
 70
   128
 43
0.0
 10
8542.4270629883
 20
5076.6544990404
 10
8543.0906823936
 20
5076.8576758099
 10
8543.631070718
 20
5076.831956969
  0
LWPOLYLINE
  5
47D
330
1F
100
AcDbEntity
  8
0
  6
Continuous
 62
     7
100
AcDbPolyline
 90
        3
 70
   128
 43
0.0
 10
8541.2445068359
 20
5076.6012869938
 10
8541.9115258022
 20
5077.0551281326
 10
8542.4333749858
 20
5076.6544990404
  0
LWPOLYLINE
  5
47E
330
1F
100
AcDbEntity
  8
0
  6
Continuous
 62
     7
100
AcDbPolyline
 90
        3
 70
   128
 43
0.0
 10
8539.9169921875
 20
5076.8940352066
 10
8540.6815394631
 20
5076.8189770148
 10
8541.2492057828
 20
5076.6012869938
  0
LWPOLYLINE
  5
47F
330
1F
100
AcDbEntity
  8
0
  6
Continuous
 62
     7
100
AcDbPolyline
 90
        3
 70
   128
 43
0.0
 10
8539.8178100586
 20
5079.0805868967
 10
8540.4413825812
 20
5078.7333052652
 10
8540.8589015303
 20
5078.3620231016
  0
LWPOLYLINE
  5
480
330
1F
100
AcDbEntity
  8
0
  6
Continuous
 62
     7
100
AcDbPolyline
 90
        4
 70
   128
 43
0.0
 10
8540.8477783203
 20
5075.4791997535
 10
8540.0995295853
 20
5073.3528622265
 10
8540.4207221727
 20
5072.2830482031
 10
8541.3601225761
 20
5071.6649495228
  0
LWPOLYLINE
  5
481
330
1F
100
AcDbEntity
  8
0
  6
Continuous
 62
     7
100
AcDbPolyline
 90
        3
 70
   128
 43
0.0
 10
8541.4352416992
 20
5071.6515384777
 10
8541.6086760857
 20
5071.6241664019
 10
8541.7461110798
 20
5071.6161333187
  0
LWPOLYLINE
  5
482
330
1F
100
AcDbEntity
  8
0
  6
Continuous
 62
     7
100
AcDbPolyline
 90
        3
 70
   128
 43
0.0
 10
8542.3126220703
 20
5075.6698750122
 10
8542.1336687873
 20
5073.4273796355
 10
8542.1982123105
 20
5071.660628186
  0
LWPOLYLINE
  5
483
330
1F
100
AcDbEntity
  8
0
  6
Continuous
 62
     7
100
AcDbPolyline
 90
        3
 70
   128
 43
0.0
 10
8542.1981811523
 20
5071.660628186
 10
8542.2137545897
 20
5071.662170452
 10
8542.2259470967
 20
5071.6635637148
  0
LWPOLYLINE
  5
484
330
1F
100
AcDbEntity
  8
0
  6
Continuous
 62
     7
100
AcDbPolyline
 90
        3
 70
   128
 43
0.0
 10
8542.3965454102
 20
5072.2193770273
 10
8542.2944081508
 20
5074.4564986433
 10
8542.7395938484
 20
5076.1575900181
  0
LWPOLYLINE
  5
485
330
1F
100
AcDbEntity
  8
0
  6
Continuous
 62
     7
100
AcDbPolyline
 90
        3
 70
   128
 43
0.0
 10
8542.7322387695
 20
5076.1575900181
 10
8542.6629047128
 20
5076.2231015244
 10
8542.6034270374
 20
5076.2754731043
  0
LWPOLYLINE
  5
486
330
1F
100
AcDbEntity
  8
0
  6
Continuous
 62
     7
100
AcDbPolyline
 90
        3
 70
   128
 43
0.0
 10
8542.6406860352
 20
5076.3195209368
 10
8542.7115240609
 20
5076.2571372809
 10
8542.7677067516
 20
5076.2088500126
  0
LWPOLYLINE
  5
487
330
1F
100
AcDbEntity
  8
0
  6
Continuous
 62
     7
100
AcDbPolyline
 90
        3
 70
   128
 43
0.0
 10
8541.7404174805
 20
5071.6161333187
 10
8541.7126924
 20
5072.6211362473
 10
8541.7814510463
 20
5073.4079681499
  0
LWPOLYLINE
  5
488
330
1F
100
AcDbEntity
  8
0
  6
Continuous
 62
     7
100
AcDbPolyline
 90
        3
 70
   128
 43
0.0
 10
8542.1371459961
 20
5071.6472022398
 10
8542.0779365922
 20
5074.410075627
 10
8542.6552327869
 20
5076.4593981369
  0
LWPOLYLINE
  5
489
330
1F
100
AcDbEntity
  8
0
  6
Continuous
 62
     7
100
AcDbPolyline
 90
        3
 70
   128
 43
0.0
 10
8541.8167114258
 20
5071.6117076738
 10
8542.0013596297
 20
5071.622316257
 10
8542.1406826524
 20
5071.6472022398
  0
LWPOLYLINE
  5
48A
330
1F
100
AcDbEntity
  8
0
  6
Continuous
 62
     7
100
AcDbPolyline
 90
        3
 70
   128
 43
0.0
 10
8541.7785644531
 20
5073.4079681499
 10
8541.7982776597
 20
5072.4019351708
 10
8541.8213861583
 20
5071.6117076738
  0
LWPOLYLINE
  5
48B
330
1F
100
AcDbEntity
  8
0
  6
Continuous
 62
     7
100
AcDbPolyline
 90
        3
 70
   128
 43
0.0
 10
8542.3431396484
 20
5073.5158972605
 10
8542.3716954216
 20
5072.7896050236
 10
8542.4023246912
 20
5072.2193770273
  0
LWPOLYLINE
  5
48C
330
1F
100
AcDbEntity
  8
0
  6
Continuous
 62
     7
100
AcDbPolyline
 90
        3
 70
   128
 43
0.0
 10
8542.6483154297
 20
5076.4593981369
 10
8542.2030207712
 20
5076.1724210582
 10
8541.808107361
 20
5076.0379932983
  0
LWPOLYLINE
  5
48D
330
1F
100
AcDbEntity
  8
0
  6
Continuous
 62
     7
100
AcDbPolyline
 90
        3
 70
   128
 43
0.0
 10
8542.2210693359
 20
5071.6635637148
 10
8543.4458589857
 20
5072.4588111118
 10
8543.8889483509
 20
5073.5284738405
  0
LWPOLYLINE
  5
48E
330
1F
100
AcDbEntity
  8
0
  6
Continuous
 62
     7
100
AcDbPolyline
 90
        3
 70
   128
 43
0.0
 10
8543.8842773438
 20
5073.5284738405
 10
8543.0220965524
 20
5073.3996049459
 10
8542.344344273
 20
5073.5158972605
  0
LWPOLYLINE
  5
48F
330
1F
100
AcDbEntity
  8
0
  6
Continuous
 62
     7
100
AcDbPolyline
 90
        3
 70
   128
 43
0.0
 10
8541.8014526367
 20
5076.0379932983
 10
8541.2961543047
 20
5076.2542192707
 10
8540.916606277
 20
5076.4771007164
  0
LWPOLYLINE
  5
490
330
1F
100
AcDbEntity
  8
0
  6
Continuous
 62
     7
100
AcDbPolyline
 90
        3
 70
   128
 43
0.0
 10
8542.3583984375
 20
5077.1086864336
 10
8542.4060223943
 20
5077.130469353
 10
8542.4196193514
 20
5077.1689765318
  0
LWPOLYLINE
  5
491
330
1F
100
AcDbEntity
  8
0
  6
Continuous
 62
     7
100
AcDbPolyline
 90
        3
 70
   128
 43
0.0
 10
8542.2973632812
 20
5077.1689765318
 10
8542.3217712991
 20
5077.1227683769
 10
8542.359403759
 20
5077.1086864336
  0
LWPOLYLINE
  5
492
330
1F
100
AcDbEntity
  8
0
  6
Continuous
 62
     7
100
AcDbPolyline
 90
        3
 70
   128
 43
0.0
 10
8542.4194335938
 20
5077.1689765318
 10
8542.3979056038
 20
5077.2156455034
 10
8542.359403759
 20
5077.22926663
  0
LWPOLYLINE
  5
493
330
1F
100
AcDbEntity
  8
0
  6
Continuous
 62
     7
100
AcDbPolyline
 90
        3
 70
   128
 43
0.0
 10
8542.3583984375
 20
5077.22926663
 10
8542.3139010023
 20
5077.2070276611
 10
8542.300771415
 20
5077.1689765318
  0
LWPOLYLINE
  5
494
330
1F
100
AcDbEntity
  8
0
  6
Continuous
 62
     7
100
AcDbPolyline
 90
        3
 70
   128
 43
0.0
 10
8545.1736450195
 20
5078.75660585
 10
8545.2000959662
 20
5078.8146986774
 10
8545.2054175136
 20
5078.8639240129
  0
LWPOLYLINE
  5
495
330
1F
100
AcDbEntity
  8
0
  6
Continuous
 62
     7
100
AcDbPolyline
 90
        3
 70
   128
 43
0.0
 10
8545.0897216797
 20
5078.6839179857
 10
8545.1438581684
 20
5078.7186948718
 10
8545.1758498845
 20
5078.75660585
  0
LWPOLYLINE
  5
496
330
1F
100
AcDbEntity
  8
0
  6
Continuous
 62
     7
100
AcDbPolyline
 90
        3
 70
   128
 43
0.0
 10
8545.1431274414
 20
5079.0109835727
 10
8545.0530263589
 20
5079.0515165959
 10
8544.9740211068
 20
5079.0587268932
  0
LWPOLYLINE
  5
497
330
1F
100
AcDbEntity
  8
0
  6
Continuous
 62
     7
100
AcDbPolyline
 90
        3
 70
   128
 43
0.0
 10
8545.0820922852
 20
5078.7558011873
 10
8545.0271878483
 20
5078.7257966633
 10
8544.9756267069
 20
5078.7201278074
  0
LWPOLYLINE
  5
498
330
1F
100
AcDbEntity
  8
0
  6
Continuous
 62
     7
100
AcDbPolyline
 90
        3
 70
   128
 43
0.0
 10
8545.2041625977
 20
5078.8639240129
 10
8545.1889432654
 20
5078.953930565
 10
8545.1449523268
 20
5079.0109835727
  0
LWPOLYLINE
  5
499
330
1F
100
AcDbEntity
  8
0
  6
Continuous
 62
     7
100
AcDbPolyline
 90
        3
 70
   128
 43
0.0
 10
8545.1202392578
 20
5078.8602881296
 10
8545.1144866132
 20
5078.796907716
 10
8545.0856159029
 20
5078.7558011873
  0
LWPOLYLINE
  5
49A
330
1F
100
AcDbEntity
  8
0
  6
Continuous
 62
     7
100
AcDbPolyline
 90
        3
 70
   128
 43
0.0
 10
8544.9676513672
 20
5078.9925657375
 10
8545.0934782749
 20
5078.9539547643
 10
8545.1254485694
 20
5078.8602881296
  0
LWPOLYLINE
  5
49B
330
1F
100
AcDbEntity
  8
0
  6
Continuous
 62
     7
100
AcDbPolyline
 90
        4
 70
   128
 43
0.0
 10
8538.1698608398
 20
5075.4675470455
 10
8538.1477736968
 20
5076.1713575633
 10
8538.0434328378
 20
5076.5049354378
 10
8537.7509942798
 20
5076.6710989339
  0
LWPOLYLINE
  5
49C
330
1F
100
AcDbEntity
  8
0
  6
Continuous
 62
     7
100
AcDbPolyline
 90
        3
 70
   128
 43
0.0
 10
8536.3693237305
 20
5076.0885231359
 10
8536.7349779032
 20
5077.0572797846
 10
8537.480491638
 20
5077.3756556375
  0
LWPOLYLINE
  5
49D
330
1F
100
AcDbEntity
  8
0
  6
Continuous
 62
     7
100
AcDbPolyline
 90
        4
 70
   128
 43
0.0
 10
8537.4755859375
 20
5076.6710989339
 10
8537.188154247
 20
5076.5024672799
 10
8537.0843023315
 20
5076.167351026
 10
8537.0569782851
 20
5075.4609905345
  0
LWPOLYLINE
  5
49E
330
1F
100
AcDbEntity
  8
0
  6
Continuous
 62
     7
100
AcDbPolyline
 90
        3
 70
   128
 43
0.0
 10
8537.7502441406
 20
5077.3756556375
 10
8538.6485643977
 20
5076.8737540388
 10
8538.8747467248
 20
5076.0790608985
  0
LWPOLYLINE
  5
49F
330
1F
100
AcDbEntity
  8
0
  6
Continuous
 62
     7
100
AcDbPolyline
 90
        3
 70
   128
 43
0.0
 10
8541.2902832031
 20
5077.1676652296
 10
8541.3177588638
 20
5077.1216801237
 10
8541.3556801675
 20
5077.1073751314
  0
LWPOLYLINE
  5
4A0
330
1F
100
AcDbEntity
  8
0
  6
Continuous
 62
     7
100
AcDbPolyline
 90
        3
 70
   128
 43
0.0
 10
8541.3513183594
 20
5077.2262118919
 10
8541.3097834651
 20
5077.20496157
 10
8541.2953658549
 20
5077.1676652296
  0
LWPOLYLINE
  5
4A1
330
1F
100
AcDbEntity
  8
0
  6
Continuous
 62
     7
100
AcDbPolyline
 90
        3
 70
   128
 43
0.0
 10
8541.4123535156
 20
5077.1676652296
 10
8541.3934408043
 20
5077.2127495669
 10
8541.3556801675
 20
5077.2262118919
  0
LWPOLYLINE
  5
4A2
330
1F
100
AcDbEntity
  8
0
  6
Continuous
 62
     7
100
AcDbPolyline
 90
        3
 70
   128
 43
0.0
 10
8541.3513183594
 20
5077.1073751314
 10
8541.4017153731
 20
5077.1297433894
 10
8541.4160708485
 20
5077.1676652296
  0
LWPOLYLINE
  5
4A3
330
1F
100
AcDbEntity
  8
0
  6
Continuous
 62
     7
100
AcDbPolyline
 90
       18
 70
   128
 43
0.0
 10
8472.5189208984
 20
5237.1935654594
 10
8472.5189800407
 20
5237.1933969942
 10
8472.518525284
 20
5237.193434966
 10
8472.5165988757
 20
5237.1938033845
 10
8472.510625274
 20
5237.1952760676
 10
8472.507333293
 20
5237.1967470273
 10
8472.5065522303
 20
5237.1978490052
 10
8472.5079725795
 20
5237.19949979
 10
8472.5123520102
 20
5237.2011477234
 10
8472.7956544973
 20
5237.2241242705
 10
8476.3276206977
 20
5237.3172604442
 10
8485.3823269451
 20
5237.4424186563
 10
8497.2071162536
 20
5237.6314342895
 10
8498.0939367777
 20
5237.6801522567
 10
8498.105965938
 20
5237.6842408782
 10
8498.1074775472
 20
5237.6857718579
 10
8498.1076458362
 20
5237.6873018254
 10
8498.0911924092
 20
5237.6964684738
  0
LWPOLYLINE
  5
4A4
330
1F
100
AcDbEntity
  8
0
  6
Continuous
 62
     7
100
AcDbPolyline
 90
        8
 70
   128
 43
0.0
 10
8498.7716674805
 20
5236.8885889812
 10
8485.5804683095
 20
5236.4918042567
 10
8473.3740715467
 20
5236.1924837941
 10
8472.4022126868
 20
5236.1198966234
 10
8472.3897266189
 20
5236.113697576
 10
8472.3890881645
 20
5236.1113540923
 10
8472.3906185386
 20
5236.1090001455
 10
8472.4282635895
 20
5236.0947389318
  0
LWPOLYLINE
  5
4A5
330
1F
100
AcDbEntity
  8
0
  6
Continuous
 62
     7
100
AcDbPolyline
 90
        8
 70
   128
 43
0.0
 10
8498.7716674805
 20
5235.3010881855
 10
8485.5804682713
 20
5234.9043054626
 10
8473.3740715468
 20
5234.6049829848
 10
8472.4022126868
 20
5234.5323958284
 10
8472.3897266188
 20
5234.5261967804
 10
8472.3890881645
 20
5234.5238532966
 10
8472.3906185386
 20
5234.5214993497
 10
8472.4282635895
 20
5234.5072381361
  0
LWPOLYLINE
  5
4A6
330
1F
100
AcDbEntity
  8
0
  6
Continuous
 62
     7
100
AcDbPolyline
 90
        8
 70
   128
 43
0.0
 10
8498.7716674805
 20
5233.7135873897
 10
8485.5804682891
 20
5233.3168046777
 10
8473.374071545
 20
5233.0174840649
 10
8472.4022126867
 20
5232.9448968946
 10
8472.3897266188
 20
5232.9386978472
 10
8472.3890881645
 20
5232.9363543635
 10
8472.3906185386
 20
5232.9340004167
 10
8472.4282635895
 20
5232.919739203
  0
LWPOLYLINE
  5
4A7
330
1F
100
AcDbEntity
  8
0
  6
Continuous
 62
     7
100
AcDbPolyline
 90
        8
 70
   128
 43
0.0
 10
8498.7716674805
 20
5232.1260884567
 10
8485.5804682713
 20
5231.7293057338
 10
8473.3740715468
 20
5231.429983256
 10
8472.4022126868
 20
5231.3573960996
 10
8472.3897266188
 20
5231.3511970516
 10
8472.3890881645
 20
5231.3488535678
 10
8472.3906185386
 20
5231.3464996209
 10
8472.4282635895
 20
5231.3322384073
  0
LWPOLYLINE
  5
4A8
330
1F
100
AcDbEntity
  8
0
  6
Continuous
 62
     7
100
AcDbPolyline
 90
        8
 70
   128
 43
0.0
 10
8498.7716674805
 20
5230.5385885923
 10
8485.5804682884
 20
5230.141804971
 10
8473.3740715467
 20
5229.8424833982
 10
8472.4022126868
 20
5229.7698962349
 10
8472.3897266188
 20
5229.7636971871
 10
8472.3890881645
 20
5229.7613537034
 10
8472.3906185386
 20
5229.7589997565
 10
8472.4282635895
 20
5229.7447385429
  0
LWPOLYLINE
  5
4A9
330
1F
100
AcDbEntity
  8
0
  6
Continuous
 62
     7
100
AcDbPolyline
 90
       10
 70
   128
 43
0.0
 10
8498.7182617188
 20
5236.4829458459
 10
8498.7293079333
 20
5236.4767338976
 10
8498.732648625
 20
5236.4705120618
 10
8498.7256622799
 20
5236.4642704509
 10
8498.7042615021
 20
5236.4580024736
 10
8497.6321912813
 20
5236.3837079506
 10
8485.3580211789
 20
5236.090594037
 10
8473.3445397383
 20
5235.7943938701
 10
8472.4563403485
 20
5235.7226444421
 10
8472.4204479305
 20
5235.6977589591
  0
LWPOLYLINE
  5
4AA
330
1F
100
AcDbEntity
  8
0
  6
Continuous
 62
     7
100
AcDbPolyline
 90
       10
 70
   128
 43
0.0
 10
8498.7182617188
 20
5234.8954469128
 10
8498.7293079333
 20
5234.8892349645
 10
8498.732648625
 20
5234.8830131286
 10
8498.7256622799
 20
5234.8767715178
 10
8498.704261502
 20
5234.8705035406
 10
8497.6321912796
 20
5234.7962090143
 10
8485.3580211988
 20
5234.503093107
 10
8473.3445397265
 20
5234.2068949649
 10
8472.4563403496
 20
5234.1351434823
 10
8472.4204479305
 20
5234.1102581634
  0
LWPOLYLINE
  5
4AB
330
1F
100
AcDbEntity
  8
0
  6
Continuous
 62
     7
100
AcDbPolyline
 90
       10
 70
   128
 43
0.0
 10
8498.7182617188
 20
5233.3079461171
 10
8498.7293079333
 20
5233.3017341688
 10
8498.732648625
 20
5233.295512333
 10
8498.7256622799
 20
5233.2892707221
 10
8498.7042615021
 20
5233.2830027448
 10
8497.6321912812
 20
5233.2087082216
 10
8485.3580211748
 20
5232.9155944843
 10
8473.3445397384
 20
5232.6193941391
 10
8472.4563403485
 20
5232.5476447104
 10
8472.4204479305
 20
5232.5227592303
  0
LWPOLYLINE
  5
4AC
330
1F
100
AcDbEntity
  8
0
  6
Continuous
 62
     7
100
AcDbPolyline
 90
       10
 70
   128
 43
0.0
 10
8498.7182617188
 20
5231.7204453213
 10
8498.7293079332
 20
5231.7142340597
 10
8498.7326486245
 20
5231.7080128623
 10
8498.7256622783
 20
5231.7017717932
 10
8498.7042614988
 20
5231.6955042233
 10
8497.6321912763
 20
5231.6212081231
 10
8485.3580211814
 20
5231.3280933354
 10
8473.3445397247
 20
5231.031895236
 10
8472.4563403496
 20
5230.9601437535
 10
8472.4204479305
 20
5230.9352584346
  0
LWPOLYLINE
  5
4AD
330
1F
100
AcDbEntity
  8
0
  6
Continuous
 62
     7
100
AcDbPolyline
 90
        8
 70
   128
 43
0.0
 10
8498.7182617188
 20
5230.1329463883
 10
8498.730233831
 20
5230.1258338858
 10
8498.7325274543
 20
5230.1222729978
 10
8498.7319153602
 20
5230.1187065458
 10
8498.724905418
 20
5230.1139394162
 10
8498.0865757777
 20
5230.0566125367
 10
8490.1273451597
 20
5229.8320127756
 10
8475.7805778233
 20
5229.5336701138
  0
LWPOLYLINE
  5
4AE
330
1F
100
AcDbEntity
  8
0
  6
Continuous
 62
     7
100
AcDbPolyline
 90
        8
 70
   128
 43
0.0
 10
8497.8713989258
 20
5237.5739678903
 10
8485.373960182
 20
5237.1820502156
 10
8474.154912061
 20
5236.8863434018
 10
8473.2589968034
 20
5236.8146340476
 10
8473.2471180233
 20
5236.8085102154
 10
8473.2463720332
 20
5236.8061953829
 10
8473.2476446957
 20
5236.8038701608
 10
8473.2819436637
 20
5236.7897812439
  0
LWPOLYLINE
  5
4AF
330
1F
100
AcDbEntity
  8
0
  6
Continuous
 62
     7
100
AcDbPolyline
 90
        8
 70
   128
 43
0.0
 10
8497.8713989258
 20
5235.9864689572
 10
8485.3739602235
 20
5235.5945492708
 10
8474.1549120647
 20
5235.2988434891
 10
8473.2589968047
 20
5235.2271349176
 10
8473.2471180235
 20
5235.2210112496
 10
8473.2463720332
 20
5235.2186964557
 10
8473.2476446955
 20
5235.2163712587
 10
8473.2819436637
 20
5235.2022823109
  0
LWPOLYLINE
  5
4B0
330
1F
100
AcDbEntity
  8
0
  6
Continuous
 62
     7
100
AcDbPolyline
 90
        8
 70
   128
 43
0.0
 10
8497.8713989258
 20
5234.3989681615
 10
8485.3739601819
 20
5234.0070504972
 10
8474.1549120648
 20
5233.7113426801
 10
8473.2589968047
 20
5233.6396341226
 10
8473.2471180235
 20
5233.633510454
 10
8473.2463720332
 20
5233.63119566
 10
8473.2476446955
 20
5233.6288704629
 10
8473.2819436637
 20
5233.6147815151
  0
LWPOLYLINE
  5
4B1
330
1F
100
AcDbEntity
  8
0
  6
Continuous
 62
     7
100
AcDbPolyline
 90
        8
 70
   128
 43
0.0
 10
8497.8713989258
 20
5232.8114692284
 10
8485.3739602188
 20
5232.4195497837
 10
8474.1549120647
 20
5232.12384376
 10
8473.2589968047
 20
5232.0521351888
 10
8473.2471180235
 20
5232.0460115208
 10
8473.2463720332
 20
5232.0436967269
 10
8473.2476446955
 20
5232.0413715299
 10
8473.2819436637
 20
5232.0272825821
  0
LWPOLYLINE
  5
4B2
330
1F
100
AcDbEntity
  8
0
  6
Continuous
 62
     7
100
AcDbPolyline
 90
        8
 70
   128
 43
0.0
 10
8497.8713989258
 20
5231.2239684327
 10
8485.3739601821
 20
5230.8320507632
 10
8474.1549120664
 20
5230.5363428401
 10
8473.2589968046
 20
5230.4646344001
 10
8473.2471180235
 20
5230.4585107262
 10
8473.2463720332
 20
5230.456195931
 10
8473.2476446955
 20
5230.4538707331
 10
8473.2819436637
 20
5230.4397817863
  0
LWPOLYLINE
  5
4B3
330
1F
100
AcDbEntity
  8
0
  6
Continuous
 62
     7
100
AcDbPolyline
 90
        9
 70
   128
 43
0.0
 10
8497.917175293
 20
5237.3852148814
 10
8485.8139605513
 20
5236.992729966
 10
8474.3223445005
 20
5236.6964667902
 10
8473.2891387282
 20
5236.6246888407
 10
8473.2578107833
 20
5236.617871767
 10
8473.2454946965
 20
5236.6109676381
 10
8473.2459680352
 20
5236.6086437079
 10
8473.2487910105
 20
5236.6063077216
 10
8473.2635556308
 20
5236.6000410332
  0
LWPOLYLINE
  5
4B4
330
1F
100
AcDbEntity
  8
0
  6
Continuous
 62
     7
100
AcDbPolyline
 90
        9
 70
   128
 43
0.0
 10
8497.917175293
 20
5235.7977159484
 10
8485.8139605707
 20
5235.4052291737
 10
8474.3223445003
 20
5235.1089666509
 10
8473.2891387252
 20
5235.0371885112
 10
8473.257810782
 20
5235.0303711751
 10
8473.2454946963
 20
5235.0234668761
 10
8473.2459680351
 20
5235.0211429163
 10
8473.2487910106
 20
5235.0188069157
 10
8473.2635556308
 20
5235.0125402375
  0
LWPOLYLINE
  5
4B5
330
1F
100
AcDbEntity
  8
0
  6
Continuous
 62
     7
100
AcDbPolyline
 90
        9
 70
   128
 43
0.0
 10
8497.917175293
 20
5234.2102151526
 10
8485.8139605539
 20
5233.8177301025
 10
8474.3223445005
 20
5233.5214670748
 10
8473.2891387282
 20
5233.4496891104
 10
8473.2578107833
 20
5233.4428720375
 10
8473.2454946965
 20
5233.4359679092
 10
8473.2459680352
 20
5233.4336439791
 10
8473.2487910105
 20
5233.4313079928
 10
8473.2635556308
 20
5233.4250413044
  0
LWPOLYLINE
  5
4B6
330
1F
100
AcDbEntity
  8
0
  6
Continuous
 62
     7
100
AcDbPolyline
 90
        9
 70
   128
 43
0.0
 10
8497.917175293
 20
5232.6227162196
 10
8485.8139605703
 20
5232.2302294385
 10
8474.322344506
 20
5231.9339660192
 10
8473.289138728
 20
5231.8621883438
 10
8473.2578107832
 20
5231.8553712554
 10
8473.2454946965
 20
5231.8484671159
 10
8473.2459680352
 20
5231.8461431837
 10
8473.2487910105
 20
5231.8438071964
 10
8473.2635556308
 20
5231.8375405087
  0
LWPOLYLINE
  5
4B7
330
1F
100
AcDbEntity
  8
0
  6
Continuous
 62
     7
100
AcDbPolyline
 90
        9
 70
   128
 43
0.0
 10
8497.917175293
 20
5231.0352154238
 10
8485.8139605638
 20
5230.6427294371
 10
8474.3223445005
 20
5230.3464667272
 10
8473.2891387267
 20
5230.2746886851
 10
8473.2578107826
 20
5230.2678714801
 10
8473.2454946964
 20
5230.2609672661
 10
8473.2459680352
 20
5230.2586433211
 10
8473.2487910106
 20
5230.2563073276
 10
8473.2635556308
 20
5230.2500406443
  0
LWPOLYLINE
  5
4B8
330
1F
100
AcDbEntity
  8
0
  6
Continuous
 62
     7
100
AcDbPolyline
 90
        9
 70
   128
 43
0.0
 10
8546.272277832
 20
5042.0336775644
 10
8532.8595344554
 20
5041.7896092131
 10
8521.2569060602
 20
5041.6023245308
 10
8520.3804839559
 20
5041.5565960677
 10
8520.3641959936
 20
5041.5526702206
 10
8520.3617105212
 20
5041.5511883864
 10
8520.3612496126
 20
5041.5504453909
 10
8520.3613229971
 20
5041.5497009759
 10
8520.3924974946
 20
5041.5406875475
  0
LWPOLYLINE
  5
4B9
330
1F
100
AcDbEntity
  8
0
  6
Continuous
 62
     7
100
AcDbPolyline
 90
       15
 70
   128
 43
0.0
 10
8520.751953125
 20
5041.9511996372
 10
8520.7296031363
 20
5041.9583487582
 10
8520.7216373501
 20
5041.9618993735
 10
8520.7190611794
 20
5041.9654278622
 10
8520.7202225158
 20
5041.9677686442
 10
8520.7235966581
 20
5041.9701007565
 10
8520.7428244254
 20
5041.9762810223
 10
8521.6809337685
 20
5042.0490696398
 10
8533.1488610267
 20
5042.3490523658
 10
8544.5358028853
 20
5042.6455596358
 10
8545.4053258392
 20
5042.7215022314
 10
8545.4398239821
 20
5042.7357737126
 10
8545.4405294518
 20
5042.7381386097
 10
8545.4397225392
 20
5042.7404986877
 10
8545.4317139981
 20
5042.7467726333
  0
LWPOLYLINE
  5
4BA
330
1F
100
AcDbEntity
  8
0
  6
Continuous
 62
     7
100
AcDbPolyline
 90
       15
 70
   128
 43
0.0
 10
8520.751953125
 20
5043.538694845
 10
8520.7296031363
 20
5043.545843966
 10
8520.7216373501
 20
5043.5493945813
 10
8520.7190611794
 20
5043.5529230699
 10
8520.7202225158
 20
5043.5552638519
 10
8520.7235966581
 20
5043.5575959641
 10
8520.7428244255
 20
5043.5637762298
 10
8521.6809337693
 20
5043.6365648504
 10
8533.1488610405
 20
5043.9365473263
 10
8544.5358029093
 20
5044.2330528566
 10
8545.405325836
 20
5044.3089976958
 10
8545.4398239817
 20
5044.3232689555
 10
8545.4405294516
 20
5044.3256338317
 10
8545.4397225392
 20
5044.3279938965
 10
8545.4317139981
 20
5044.3342678411
  0
LWPOLYLINE
  5
4BB
330
1F
100
AcDbEntity
  8
0
  6
Continuous
 62
     7
100
AcDbPolyline
 90
       15
 70
   128
 43
0.0
 10
8520.751953125
 20
5045.1261900528
 10
8520.7296031508
 20
5045.1333519998
 10
8520.7216373668
 20
5045.1369076191
 10
8520.7190611971
 20
5045.1404398199
 10
8520.7202225337
 20
5045.1427824111
 10
8520.7235966759
 20
5045.1451158392
 10
8520.7428244418
 20
5045.1512974573
 10
8521.6809338016
 20
5045.2240540455
 10
8533.1488611717
 20
5045.5240428619
 10
8544.5358029099
 20
5045.8205635879
 10
8545.4053258534
 20
5045.8964707199
 10
8545.4398239792
 20
5045.9107545952
 10
8545.4405294477
 20
5045.9131236088
 10
8545.4397225345
 20
5045.9154884846
 10
8545.4317139981
 20
5045.9217779501
  0
LWPOLYLINE
  5
4BC
330
1F
100
AcDbEntity
  8
0
  6
Continuous
 62
     7
100
AcDbPolyline
 90
       15
 70
   128
 43
0.0
 10
8520.751953125
 20
5046.7137001617
 10
8520.7296031363
 20
5046.7208492828
 10
8520.7216373501
 20
5046.7243998979
 10
8520.7190611794
 20
5046.7279283865
 10
8520.7202225158
 20
5046.7302691683
 10
8520.7235966581
 20
5046.7326012804
 10
8520.7428244254
 20
5046.7387815456
 10
8521.6809337678
 20
5046.8115701744
 10
8533.1488613341
 20
5047.1115380039
 10
8544.5358028856
 20
5047.4080601706
 10
8545.4053258393
 20
5047.4840027546
 10
8545.4398239821
 20
5047.4982742369
 10
8545.4405294518
 20
5047.5006391342
 10
8545.4397225392
 20
5047.5029992122
 10
8545.4317139981
 20
5047.5092731579
  0
LWPOLYLINE
  5
4BD
330
1F
100
AcDbEntity
  8
0
  6
Continuous
 62
     7
100
AcDbPolyline
 90
       15
 70
   128
 43
0.0
 10
8520.751953125
 20
5048.3011953695
 10
8520.7296031363
 20
5048.3083444905
 10
8520.7216373501
 20
5048.3118951058
 10
8520.7190611794
 20
5048.3154235944
 10
8520.7202225158
 20
5048.3177643764
 10
8520.7235966581
 20
5048.3200964886
 10
8520.7428244255
 20
5048.3262767543
 10
8521.6809337693
 20
5048.3990653749
 10
8533.1488610405
 20
5048.6990478509
 10
8544.5358029093
 20
5048.9955533811
 10
8545.405325836
 20
5049.0714982203
 10
8545.4398239817
 20
5049.08576948
 10
8545.4405294516
 20
5049.0881343562
 10
8545.4397225392
 20
5049.090494421
 10
8545.4317139981
 20
5049.0967683656
  0
LWPOLYLINE
  5
4BE
330
1F
100
AcDbEntity
  8
0
  6
Continuous
 62
     7
100
AcDbPolyline
 90
       17
 70
   128
 43
0.0
 10
8519.8974609375
 20
5042.446767555
 10
8519.8726795077
 20
5042.4539252494
 10
8519.8635799693
 20
5042.4574814682
 10
8519.8602070367
 20
5042.4610156617
 10
8519.8610389789
 20
5042.4633602105
 10
8519.864240078
 20
5042.4656960557
 10
8519.8837377092
 20
5042.4718860785
 10
8520.8803116073
 20
5042.5447523119
 10
8533.1474821666
 20
5042.8450218284
 10
8545.3301266898
 20
5043.1418016993
 10
8546.2931735788
 20
5043.2179587519
 10
8546.3116351725
 20
5043.2243065104
 10
8546.3144996527
 20
5043.2266760908
 10
8546.3150196424
 20
5043.2290389135
 10
8546.3112199119
 20
5043.2325692808
 10
8546.3016724608
 20
5043.2360813668
 10
8546.2676616905
 20
5043.2430558069
  0
LWPOLYLINE
  5
4BF
330
1F
100
AcDbEntity
  8
0
  6
Continuous
 62
     7
100
AcDbPolyline
 90
       17
 70
   128
 43
0.0
 10
8519.8974609375
 20
5044.0342627628
 10
8519.8726795207
 20
5044.0414326578
 10
8519.8635799843
 20
5044.0449937092
 10
8519.8602070522
 20
5044.0485315092
 10
8519.8610389944
 20
5044.0508778259
 10
8519.8642400932
 20
5044.0532149666
 10
8519.8837377224
 20
5044.0594063767
 10
8520.8803116241
 20
5044.1322416114
 10
8533.1474821442
 20
5044.4325173932
 10
8545.3301265955
 20
5044.7293085527
 10
8546.2931735863
 20
5044.8054530213
 10
8546.3116351767
 20
5044.8118011906
 10
8546.3144996558
 20
5044.8141709116
 10
8546.3150196445
 20
5044.8165338608
 10
8546.3112199128
 20
5044.820064381
 10
8546.3016724609
 20
5044.8235765625
 10
8546.2676616905
 20
5044.8305510147
  0
LWPOLYLINE
  5
4C0
330
1F
100
AcDbEntity
  8
0
  6
Continuous
 62
     7
100
AcDbPolyline
 90
       17
 70
   128
 43
0.0
 10
8519.8974609375
 20
5045.6217728718
 10
8519.8726795077
 20
5045.6289305662
 10
8519.8635799693
 20
5045.6324867848
 10
8519.8602070367
 20
5045.6360209782
 10
8519.8610389789
 20
5045.638365527
 10
8519.864240078
 20
5045.640701372
 10
8519.8837377092
 20
5045.6468913944
 10
8520.8803116059
 20
5045.719757636
 10
8533.1474824406
 20
5046.020012531
 10
8545.3301266675
 20
5046.3168090164
 10
8546.2931735818
 20
5046.3929638139
 10
8546.3116351742
 20
5046.3993116839
 10
8546.3144996539
 20
5046.4016813025
 10
8546.3150196433
 20
5046.4040441595
 10
8546.3112199123
 20
5046.4075745683
 10
8546.3016724608
 20
5046.4110866802
 10
8546.2676616905
 20
5046.4180611236
  0
LWPOLYLINE
  5
4C1
330
1F
100
AcDbEntity
  8
0
  6
Continuous
 62
     7
100
AcDbPolyline
 90
       17
 70
   128
 43
0.0
 10
8519.8974609375
 20
5047.2092680795
 10
8519.8727561834
 20
5047.2164026035
 10
8519.863640874
 20
5047.2199474471
 10
8519.8602149053
 20
5047.2234704041
 10
8519.8609934325
 20
5047.2258075258
 10
8519.864127596
 20
5047.2281359893
 10
8519.8833866653
 20
5047.2343065153
 10
8520.8739477364
 20
5047.3069338758
 10
8533.079810839
 20
5047.6062134869
 10
8545.2856634443
 20
5047.9020521862
 10
8546.2853878151
 20
5047.9779093369
 10
8546.3095266797
 20
5047.9842500626
 10
8546.3157207457
 20
5047.9874051863
 10
8546.3177130424
 20
5047.9905483423
 10
8546.3152899259
 20
5047.9936781745
 10
8546.3082377523
 20
5047.9967933267
 10
8546.2805903105
 20
5048.0029784305
  0
LWPOLYLINE
  5
4C2
330
1F
100
AcDbEntity
  8
0
  6
Continuous
 62
     7
100
AcDbPolyline
 90
        8
 70
   128
 43
0.0
 10
8519.8974609375
 20
5048.7967632873
 10
8519.8606098212
 20
5048.8099813728
 10
8519.8603126039
 20
5048.8121587312
 10
8519.8620870613
 20
5048.8143284041
 10
8519.876452338
 20
5048.8200795284
 10
8520.7416210804
 20
5048.8875935089
 10
8531.629095376
 20
5049.1653519192
 10
8545.9814383236
 20
5049.5336704119
  0
LINE
  5
4C3
330
1F
100
AcDbEntity
  8
0
  6
Continuous
 62
     7
100
AcDbLine
 10
8522.9263305664
 20
5049.5336704118
 30
0.0
 11
8521.4442549793
 21
5049.5336704118
 31
0.0
  0
LWPOLYLINE
  5
4C4
330
1F
100
AcDbEntity
  8
0
  6
Continuous
 62
     7
100
AcDbPolyline
 90
        9
 70
   128
 43
0.0
 10
8546.272277832
 20
5042.0336775644
 10
8546.2942611089
 20
5042.0399335135
 10
8546.2987117067
 20
5042.0422686543
 10
8546.2998334971
 20
5042.0434325487
 10
8546.300079487
 20
5042.0445935257
 10
8546.2985764579
 20
5042.046328755
 10
8546.2946471758
 20
5042.048055902
 10
8546.2806422611
 20
5042.0514897213
 10
8546.2381704298
 20
5042.0583091839
  0
LWPOLYLINE
  5
4C5
330
1F
100
AcDbEntity
  8
0
  6
Continuous
 62
     7
100
AcDbPolyline
 90
       12
 70
   128
 43
0.0
 10
8519.9432373047
 20
5042.8520046337
 10
8519.9893016873
 20
5042.876800477
 10
8521.0240439672
 20
5042.9484681442
 10
8533.3039184685
 20
5043.2449922177
 10
8545.3154016202
 20
5043.5377125589
 10
8546.2293794699
 20
5043.6123721898
 10
8546.2767638691
 20
5043.6218152176
 10
8546.3020006144
 20
5043.6288848044
 10
8546.3033471496
 20
5043.6300543237
 10
8546.303569056
 20
5043.6306375951
 10
8546.3034642814
 20
5043.6312197762
 10
8546.2805903105
 20
5043.6373554333
  0
LWPOLYLINE
  5
4C6
330
1F
100
AcDbEntity
  8
0
  6
Continuous
 62
     7
100
AcDbPolyline
 90
       12
 70
   128
 43
0.0
 10
8519.9432373047
 20
5044.4394998415
 10
8519.9893016873
 20
5044.4642956848
 10
8521.0240439674
 20
5044.535963352
 10
8533.30391847
 20
5044.8324874623
 10
8545.3154015874
 20
5045.1252110728
 10
8546.229379469
 20
5045.1998674954
 10
8546.2767638691
 20
5045.209310422
 10
8546.3020006145
 20
5045.2163800039
 10
8546.3033471496
 20
5045.2175495254
 10
8546.3035690561
 20
5045.2181327979
 10
8546.3034642814
 20
5045.2187149803
 10
8546.2805903105
 20
5045.224850641
  0
LWPOLYLINE
  5
4C7
330
1F
100
AcDbEntity
  8
0
  6
Continuous
 62
     7
100
AcDbPolyline
 90
       12
 70
   128
 43
0.0
 10
8519.9432373047
 20
5046.0270099504
 10
8519.9893016898
 20
5046.0518055692
 10
8521.024044005
 20
5046.123470047
 10
8533.3039185565
 20
5046.4199923831
 10
8545.31540161
 20
5046.7127169965
 10
8546.2293794966
 20
5046.7873584201
 10
8546.2767638958
 20
5046.796806371
 10
8546.3020006245
 20
5046.8038857442
 10
8546.3033471565
 20
5046.8050567021
 10
8546.3035690615
 20
5046.8056406193
 10
8546.3034642855
 20
5046.8062233877
 10
8546.2805903105
 20
5046.81236075
  0
LWPOLYLINE
  5
4C8
330
1F
100
AcDbEntity
  8
0
  6
Continuous
 62
     7
100
AcDbPolyline
 90
       12
 70
   128
 43
0.0
 10
8519.9432373047
 20
5047.6145051582
 10
8519.9893016873
 20
5047.6393010015
 10
8521.0240439672
 20
5047.7109686687
 10
8533.3039184685
 20
5048.0074927423
 10
8545.3154016202
 20
5048.3002130834
 10
8546.2293794699
 20
5048.3748727144
 10
8546.2767638691
 20
5048.3843157421
 10
8546.3020006144
 20
5048.391385329
 10
8546.3033471496
 20
5048.3925548482
 10
8546.303569056
 20
5048.3931381196
 10
8546.3034642814
 20
5048.3937203008
 10
8546.2805903105
 20
5048.3998559578
  0
ARC
  5
4C9
330
1F
100
AcDbEntity
  8
0
  6
Continuous
 62
     7
100
AcDbCircle
 10
8526.2598116352
 20
5012.5589911665
 30
0.0
 40
37.18345377272506
100
AcDbArc
 50
83.9255783552
 51
99.7806062905
  0
LWPOLYLINE
  5
4CA
330
1F
100
AcDbEntity
  8
0
  6
Continuous
 62
     7
100
AcDbPolyline
 90
        8
 70
   128
 43
0.0
 10
8520.7214355469
 20
5041.761403547
 10
8542.1225058634
 20
5042.3567359158
 10
8545.3046995029
 20
5042.5044953736
 10
8545.4494857575
 20
5042.5331084035
 10
8545.4500560675
 20
5042.5354636431
 10
8545.4485581413
 20
5042.5378120533
 10
8545.439100677
 20
5042.5424863798
 10
8545.3808991758
 20
5042.554830776
  0
LWPOLYLINE
  5
4CB
330
1F
100
AcDbEntity
  8
0
  6
Continuous
 62
     7
100
AcDbPolyline
 90
        8
 70
   128
 43
0.0
 10
8520.7214355469
 20
5043.3488391502
 10
8542.1225060253
 20
5043.9442296258
 10
8545.3046995554
 20
5044.0919824949
 10
8545.4494857482
 20
5044.1205968164
 10
8545.4500560549
 20
5044.1229534077
 10
8545.4485581262
 20
5044.1253034171
 10
8545.4391006591
 20
5044.1299817324
 10
8545.3808991758
 20
5044.1423408849
  0
LWPOLYLINE
  5
4CC
330
1F
100
AcDbEntity
  8
0
  6
Continuous
 62
     7
100
AcDbPolyline
 90
        8
 70
   128
 43
0.0
 10
8520.7214355469
 20
5044.936334358
 10
8542.1225060523
 20
5045.5317237365
 10
8545.304699504
 20
5045.6795003202
 10
8545.4494857584
 20
5045.7081136375
 10
8545.4500560682
 20
5045.7104689042
 10
8545.4485581418
 20
5045.7128173379
 10
8545.4391006773
 20
5045.7174916972
 10
8545.3808991758
 20
5045.7298360927
  0
LWPOLYLINE
  5
4CD
330
1F
100
AcDbEntity
  8
0
  6
Continuous
 62
     7
100
AcDbPolyline
 90
        8
 70
   128
 43
0.0
 10
8520.7214355469
 20
5046.523844467
 10
8542.1225060127
 20
5047.1192244057
 10
8545.3046995094
 20
5047.2669954009
 10
8545.449485759
 20
5047.2956088169
 10
8545.4500560685
 20
5047.297964093
 10
8545.4485581419
 20
5047.3003125348
 10
8545.439100677
 20
5047.3049869053
 10
8545.3808991758
 20
5047.3173313005
  0
LWPOLYLINE
  5
4CE
330
1F
100
AcDbEntity
  8
0
  6
Continuous
 62
     7
100
AcDbPolyline
 90
        8
 70
   128
 43
0.0
 10
8520.7214355469
 20
5048.1113396747
 10
8542.1225060117
 20
5048.7067321933
 10
8545.304699539
 20
5048.8544848602
 10
8545.4494857446
 20
5048.8830977521
 10
8545.4500560525
 20
5048.8854542085
 10
8545.4485581248
 20
5048.887804101
 10
8545.4391006591
 20
5048.8924822536
 10
8545.3808991758
 20
5048.9048414095
  0
LWPOLYLINE
  5
4CF
330
1F
100
AcDbEntity
  8
0
  6
Continuous
 62
     7
100
AcDbPolyline
 90
        9
 70
   128
 43
0.0
 10
8443.9468383789
 20
5042.0336775644
 10
8426.7696177931
 20
5041.7905761363
 10
8425.2528514982
 20
5041.7280000616
 10
8425.1766511216
 20
5041.7166415876
 10
8425.1757969224
 20
5041.7157004557
 10
8425.175801783
 20
5041.7149950367
 10
8425.1763740638
 20
5041.7142899682
 10
8425.1792717403
 20
5041.7128808174
 10
8425.2068935482
 20
5041.7078785761
  0
LWPOLYLINE
  5
4D0
330
1F
100
AcDbEntity
  8
0
  6
Continuous
 62
     7
100
AcDbPolyline
 90
        5
 70
   128
 43
0.0
 10
8450.4241943359
 20
5041.204800473
 10
8450.444098337
 20
5041.199207422
 10
8450.4446027042
 20
5041.1982719552
 10
8450.4443052068
 20
5041.1973349692
 10
8450.2100436536
 20
5041.1744170053
  0
LWPOLYLINE
  5
4D1
330
1F
100
AcDbEntity
  8
0
  6
Continuous
 62
     7
100
AcDbPolyline
 90
        3
 70
   128
 43
0.0
 10
8444.9691772461
 20
5041.1744170053
 10
8449.6383763702
 20
5041.5027269939
 10
8450.9977041332
 20
5041.7567543848
  0
LINE
  5
4D2
330
1F
100
AcDbEntity
  8
0
  6
Continuous
 62
     7
100
AcDbLine
 10
8450.2029418945
 20
5041.1744170053
 30
0.0
 11
8444.9761001913
 21
5041.1744170053
 31
0.0
  0
LINE
  5
4D3
330
1F
100
AcDbEntity
  8
0
  6
Continuous
 62
     7
100
AcDbLine
 10
8449.7985839844
 20
5049.5336704118
 30
0.0
 11
8447.9363052694
 21
5049.5336704118
 31
0.0
  0
LWPOLYLINE
  5
4D4
330
1F
100
AcDbEntity
  8
0
  6
Continuous
 62
     7
100
AcDbPolyline
 90
        7
 70
   128
 43
0.0
 10
8444.9691772461
 20
5041.1744170053
 10
8450.0027099073
 20
5041.3533383725
 10
8450.3984853808
 20
5041.3981196582
 10
8450.4014444756
 20
5041.4017640881
 10
8450.4000584282
 20
5041.4044874309
 10
8450.3963090754
 20
5041.4072042399
 10
8450.3848715273
 20
5041.4126269682
  0
LWPOLYLINE
  5
4D5
330
1F
100
AcDbEntity
  8
0
  6
Continuous
 62
     7
100
AcDbPolyline
 90
       15
 70
   128
 43
0.0
 10
8425.78125
 20
5042.214369045
 10
8425.7697142706
 20
5042.2232391765
 10
8425.7640085788
 20
5042.22768883
 10
8425.7627989411
 20
5042.2299198565
 10
8425.7629425337
 20
5042.2321559888
 10
8425.7713823949
 20
5042.2381494016
 10
8426.6460847056
 20
5042.3127135874
 10
8437.8720911212
 20
5042.6070860685
 10
8449.3473759042
 20
5042.9014425595
 10
8450.3655427683
 20
5042.9761753482
 10
8450.401181345
 20
5042.9882264333
 10
8450.4014152472
 20
5042.989720176
 10
8450.4007409286
 20
5042.9912112112
 10
8450.3971835077
 20
5042.9941866971
 10
8450.3848715273
 20
5043.000122176
  0
LWPOLYLINE
  5
4D6
330
1F
100
AcDbEntity
  8
0
  6
Continuous
 62
     7
100
AcDbPolyline
 90
       15
 70
   128
 43
0.0
 10
8425.78125
 20
5043.801879154
 10
8425.7697142715
 20
5043.8107423453
 10
8425.7640085814
 20
5043.8151888463
 10
8425.762798945
 20
5043.8174184315
 10
8425.7629425393
 20
5043.8196532335
 10
8425.7713824076
 20
5043.8256437604
 10
8426.6460848256
 20
5043.9002085452
 10
8437.872091131
 20
5044.1945876053
 10
8449.3473759463
 20
5044.4889357654
 10
8450.3655427669
 20
5044.5636707282
 10
8450.401181345
 20
5044.5757216449
 10
8450.4014152472
 20
5044.5772153787
 10
8450.4007409287
 20
5044.5787064084
 10
8450.3971835078
 20
5044.5816818915
 10
8450.3848715273
 20
5044.5876173837
  0
LWPOLYLINE
  5
4D7
330
1F
100
AcDbEntity
  8
0
  6
Continuous
 62
     7
100
AcDbPolyline
 90
       15
 70
   128
 43
0.0
 10
8425.78125
 20
5045.3893743618
 10
8425.7697142749
 20
5045.3982370459
 10
8425.7640085852
 20
5045.4026834849
 10
8425.7627989485
 20
5045.4049131205
 10
8425.7629425421
 20
5045.40714804
 10
8425.7713824055
 20
5045.4131392786
 10
8426.6460847427
 20
5045.4877160182
 10
8437.8720909163
 20
5045.7820940165
 10
8449.3473757836
 20
5046.0764499179
 10
8450.3655427569
 20
5046.1511677823
 10
8450.4011813448
 20
5046.1632168885
 10
8450.4014152475
 20
5046.1647105369
 10
8450.4007409293
 20
5046.1662015135
 10
8450.3971835085
 20
5046.169176969
 10
8450.3848715273
 20
5046.1751125915
  0
LWPOLYLINE
  5
4D8
330
1F
100
AcDbEntity
  8
0
  6
Continuous
 62
     7
100
AcDbPolyline
 90
       15
 70
   128
 43
0.0
 10
8425.78125
 20
5046.9768695696
 10
8425.7697142721
 20
5046.9857395628
 10
8425.7640085804
 20
5046.9901891994
 10
8425.7627989426
 20
5046.9924202397
 10
8425.7629425348
 20
5046.9946564039
 10
8425.7713823941
 20
5047.0006500105
 10
8426.6460847669
 20
5047.0752081921
 10
8437.8720911266
 20
5047.3695865645
 10
8449.3473759047
 20
5047.6639430841
 10
8450.3655427684
 20
5047.7386758727
 10
8450.401181345
 20
5047.7507269578
 10
8450.4014152472
 20
5047.7522207005
 10
8450.4007409286
 20
5047.7537117357
 10
8450.3971835077
 20
5047.7566872216
 10
8450.3848715273
 20
5047.7626227005
  0
LWPOLYLINE
  5
4D9
330
1F
100
AcDbEntity
  8
0
  6
Continuous
 62
     7
100
AcDbPolyline
 90
       15
 70
   128
 43
0.0
 10
8425.78125
 20
5048.5643796785
 10
8425.7697142715
 20
5048.5732428699
 10
8425.7640085814
 20
5048.5776893708
 10
8425.762798945
 20
5048.579918956
 10
8425.7629425393
 20
5048.582153758
 10
8425.7713824076
 20
5048.5881442849
 10
8426.6460848256
 20
5048.6627090697
 10
8437.872091131
 20
5048.9570881298
 10
8449.3473759463
 20
5049.25143629
 10
8450.3655427669
 20
5049.3261712527
 10
8450.401181345
 20
5049.3382221694
 10
8450.4014152472
 20
5049.3397159033
 10
8450.4007409287
 20
5049.341206933
 10
8450.3971835078
 20
5049.344182416
 10
8450.3848715273
 20
5049.3501179083
  0
LWPOLYLINE
  5
4DA
330
1F
100
AcDbEntity
  8
0
  6
Continuous
 62
     7
100
AcDbPolyline
 90
       10
 70
   128
 43
0.0
 10
8424.934387207
 20
5042.7104883058
 10
8424.9078056776
 20
5042.7239503262
 10
8424.9066048006
 20
5042.7262054936
 10
8424.9069008143
 20
5042.7284659676
 10
8424.9165883512
 20
5042.7345254342
 10
8425.872977679
 20
5042.8099172046
 10
8438.0803527384
 20
5043.1072848843
 10
8450.2948494973
 20
5043.4052094197
 10
8451.2012070266
 20
5043.4801911473
 10
8451.2528194634
 20
5043.5041390522
  0
LWPOLYLINE
  5
4DB
330
1F
100
AcDbEntity
  8
0
  6
Continuous
 62
     7
100
AcDbPolyline
 90
       10
 70
   128
 43
0.0
 10
8424.934387207
 20
5044.2979984148
 10
8424.9078056831
 20
5044.3114497103
 10
8424.9066048071
 20
5044.313703479
 10
8424.9069008218
 20
5044.3159627335
 10
8424.9165883614
 20
5044.3220200131
 10
8425.8729776971
 20
5044.3974255533
 10
8438.0803526438
 20
5044.6947928391
 10
8450.2948493969
 20
5044.9927194793
 10
8451.201207041
 20
5045.067684601
 10
8451.2528194634
 20
5045.09163426
  0
LWPOLYLINE
  5
4DC
330
1F
100
AcDbEntity
  8
0
  6
Continuous
 62
     7
100
AcDbPolyline
 90
       10
 70
   128
 43
0.0
 10
8424.934387207
 20
5045.8854936226
 10
8424.9078056787
 20
5045.8989555298
 10
8424.9066048015
 20
5045.9012107084
 10
8424.9069008149
 20
5045.9034712073
 10
8424.9165883501
 20
5045.9095308224
 10
8425.8729777068
 20
5045.984917706
 10
8438.0803527027
 20
5046.2822853378
 10
8450.2948493958
 20
5046.5802147734
 10
8451.2012070424
 20
5046.6551797044
 10
8451.2528194634
 20
5046.6791294678
  0
LWPOLYLINE
  5
4DD
330
1F
100
AcDbEntity
  8
0
  6
Continuous
 62
     7
100
AcDbPolyline
 90
       10
 70
   128
 43
0.0
 10
8424.934387207
 20
5047.4729888304
 10
8424.9078056776
 20
5047.4864508507
 10
8424.9066048006
 20
5047.4887060182
 10
8424.9069008143
 20
5047.4909664921
 10
8424.9165883512
 20
5047.4970259588
 10
8425.872977679
 20
5047.5724177291
 10
8438.0803527384
 20
5047.8697854088
 10
8450.2948494973
 20
5048.1677099442
 10
8451.2012070266
 20
5048.2426916718
 10
8451.2528194634
 20
5048.2666395767
  0
LWPOLYLINE
  5
4DE
330
1F
100
AcDbEntity
  8
0
  6
Continuous
 62
     7
100
AcDbPolyline
 90
        8
 70
   128
 43
0.0
 10
8424.934387207
 20
5049.0604989393
 10
8424.9156033333
 20
5049.0685135909
 10
8424.9065461288
 20
5049.0765641946
 10
8424.907402609
 20
5049.0792619325
 10
8424.9108024176
 20
5049.0819689913
 10
8424.9337775733
 20
5049.08923852
 10
8426.2887913455
 20
5049.179582398
 10
8442.0320256201
 20
5049.5336704119
  0
ARC
  5
4DF
330
1F
100
AcDbEntity
  8
0
  6
Continuous
 62
     7
100
AcDbCircle
 10
8446.8119813923
 20
5062.7433009309
 30
0.0
 40
20.90687792252149
100
AcDbArc
 50
262.1232218602
 51
282.2636447094
  0
LWPOLYLINE
  5
4E0
330
1F
100
AcDbEntity
  8
0
  6
Continuous
 62
     7
100
AcDbPolyline
 90
        5
 70
   128
 43
0.0
 10
8424.9114990234
 20
5043.1152634485
 10
8438.2913192635
 20
5043.5083266328
 10
8450.3147570015
 20
5043.8030950941
 10
8451.2020303301
 20
5043.8772900725
 10
8451.2528194634
 20
5043.9010016783
  0
LWPOLYLINE
  5
4E1
330
1F
100
AcDbEntity
  8
0
  6
Continuous
 62
     7
100
AcDbPolyline
 90
        5
 70
   128
 43
0.0
 10
8424.9114990234
 20
5044.7027586563
 10
8438.2913191575
 20
5045.0958351453
 10
8450.3147570975
 20
5045.3905908463
 10
8451.2020303196
 20
5045.4648015644
 10
8451.2528194634
 20
5045.4885117872
  0
LWPOLYLINE
  5
4E2
330
1F
100
AcDbEntity
  8
0
  6
Continuous
 62
     7
100
AcDbPolyline
 90
        5
 70
   128
 43
0.0
 10
8424.9114990234
 20
5046.2902687652
 10
8438.2913192474
 20
5046.6833329165
 10
8450.3147569982
 20
5046.9781007601
 10
8451.2020303326
 20
5047.0522950994
 10
8451.2528194634
 20
5047.076006995
  0
LWPOLYLINE
  5
4E3
330
1F
100
AcDbEntity
  8
0
  6
Continuous
 62
     7
100
AcDbPolyline
 90
        5
 70
   128
 43
0.0
 10
8424.9114990234
 20
5047.877763973
 10
8438.2913192635
 20
5048.2708271573
 10
8450.3147570015
 20
5048.5655956186
 10
8451.2020303301
 20
5048.6397905971
 10
8451.2528194634
 20
5048.6635022028
  0
LWPOLYLINE
  5
4E4
330
1F
100
AcDbEntity
  8
0
  6
Continuous
 62
     7
100
AcDbPolyline
 90
        3
 70
   128
 43
0.0
 10
8424.9114990234
 20
5049.4652591808
 10
8425.0879136974
 20
5049.5030310029
 10
8425.4637150614
 20
5049.5336704118
  0
LWPOLYLINE
  5
4E5
330
1F
100
AcDbEntity
  8
0
  6
Continuous
 62
     7
100
AcDbPolyline
 90
       14
 70
   128
 43
0.0
 10
8425.7736206055
 20
5042.0241557224
 10
8425.770017996
 20
5042.030078042
 10
8425.7668032477
 20
5042.0330470628
 10
8425.7660997786
 20
5042.0360255168
 10
8425.775083146
 20
5042.0420214057
 10
8425.7984689839
 20
5042.0480708309
 10
8426.8114502928
 20
5042.1230102438
 10
8438.2873670602
 20
5042.4168413558
 10
8449.5191694892
 20
5042.711761465
 10
8450.3899604848
 20
5042.786044667
 10
8450.4035568782
 20
5042.7920366232
 10
8450.4045319255
 20
5042.7942749766
 10
8450.403587385
 20
5042.796509365
 10
8450.3729654995
 20
5042.8098641498
  0
LWPOLYLINE
  5
4E6
330
1F
100
AcDbEntity
  8
0
  6
Continuous
 62
     7
100
AcDbPolyline
 90
       14
 70
   128
 43
0.0
 10
8425.7736206055
 20
5043.6116658314
 10
8425.7700179977
 20
5043.6175807679
 10
8425.7668032506
 20
5043.620546475
 10
8425.766099783
 20
5043.6235220685
 10
8425.775083153
 20
5043.6295140953
 10
8425.7984689895
 20
5043.6355620682
 10
8426.8114503684
 20
5043.7105147609
 10
8438.2873669364
 20
5044.0043499684
 10
8449.5191695036
 20
5044.2992566707
 10
8450.3899604855
 20
5044.3735398752
 10
8450.4035568783
 20
5044.3795318311
 10
8450.4045319255
 20
5044.3817701844
 10
8450.4035873849
 20
5044.3840045727
 10
8450.3729654995
 20
5044.3973593576
  0
LWPOLYLINE
  5
4E7
330
1F
100
AcDbEntity
  8
0
  6
Continuous
 62
     7
100
AcDbPolyline
 90
       14
 70
   128
 43
0.0
 10
8425.7736206055
 20
5045.1991610391
 10
8425.7700179966
 20
5045.2050832964
 10
8425.7668032484
 20
5045.208052314
 10
8425.766099779
 20
5045.2110307982
 10
8425.7750831443
 20
5045.2170268819
 10
8425.7984689787
 20
5045.2230766482
 10
8426.8114503826
 20
5045.2980067609
 10
8438.2873671265
 20
5045.5918441746
 10
8449.5191694857
 20
5045.8867671779
 10
8450.3899604853
 20
5045.9610499461
 10
8450.4035568781
 20
5045.9670419503
 10
8450.4045319253
 20
5045.9692803132
 10
8450.4035873847
 20
5045.9715147067
 10
8450.3729654995
 20
5045.9848694666
  0
LWPOLYLINE
  5
4E8
330
1F
100
AcDbEntity
  8
0
  6
Continuous
 62
     7
100
AcDbPolyline
 90
       14
 70
   128
 43
0.0
 10
8425.7736206055
 20
5046.7866562469
 10
8425.770017996
 20
5046.7925785662
 10
8425.7668032477
 20
5046.7955475869
 10
8425.7660997786
 20
5046.7985260412
 10
8425.7750831459
 20
5046.8045219311
 10
8425.7984689838
 20
5046.8105713581
 10
8426.8114502928
 20
5046.8855107317
 10
8438.2873671351
 20
5047.1793384559
 10
8449.5191694898
 20
5047.4742619888
 10
8450.3899604849
 20
5047.5485451916
 10
8450.4035568782
 20
5047.5545371477
 10
8450.4045319255
 20
5047.5567755011
 10
8450.403587385
 20
5047.5590098895
 10
8450.3729654995
 20
5047.5723646744
  0
LWPOLYLINE
  5
4E9
330
1F
100
AcDbEntity
  8
0
  6
Continuous
 62
     7
100
AcDbPolyline
 90
       14
 70
   128
 43
0.0
 10
8425.7736206055
 20
5048.3741663559
 10
8425.770017996
 20
5048.3800815288
 10
8425.7668032489
 20
5048.3830472482
 10
8425.7660997821
 20
5048.3860227271
 10
8425.7750831574
 20
5048.3920140072
 10
8425.7984690038
 20
5048.398060593
 10
8426.8114504272
 20
5048.4730060461
 10
8438.287367207
 20
5048.7668370269
 10
8449.5191695028
 20
5049.0617571981
 10
8450.3899604855
 20
5049.1360403995
 10
8450.4035568783
 20
5049.1420323557
 10
8450.4045319255
 20
5049.1442707091
 10
8450.4035873849
 20
5049.1465050974
 10
8450.3729654995
 20
5049.1598598821
  0
LWPOLYLINE
  5
4EA
330
1F
100
AcDbEntity
  8
0
  6
Continuous
 62
     7
100
AcDbPolyline
 90
        3
 70
   128
 43
0.0
 10
8863.28125
 20
5081.1104975803
 10
8867.2706567405
 20
5078.3077890691
 10
8868.7929200215
 20
5078.0319027765
  0
LWPOLYLINE
  5
4EB
330
1F
100
AcDbEntity
  8
0
  6
Continuous
 62
     7
100
AcDbPolyline
 90
        3
 70
   128
 43
0.0
 10
8867.9885864258
 20
5082.5411729677
 10
8867.7424894688
 20
5082.5570532922
 10
8867.5380801989
 20
5082.5634055002
  0
LWPOLYLINE
  5
4EC
330
1F
100
AcDbEntity
  8
0
  6
Continuous
 62
     7
100
AcDbPolyline
 90
        3
 70
   128
 43
0.0
 10
8865.104675293
 20
5078.5180680616
 10
8865.9599400113
 20
5078.5613015906
 10
8866.5674278719
 20
5078.5761676891
  0
LWPOLYLINE
  5
4ED
330
1F
100
AcDbEntity
  8
0
  6
Continuous
 62
     7
100
AcDbPolyline
 90
        3
 70
   128
 43
0.0
 10
8868.034362793
 20
5082.294931279
 10
8866.9406017147
 20
5083.0225175449
 10
8865.7774986906
 20
5084.4186596735
  0
LWPOLYLINE
  5
4EE
330
1F
100
AcDbEntity
  8
0
  6
Continuous
 62
     7
100
AcDbPolyline
 90
        3
 70
   128
 43
0.0
 10
8838.8595581055
 20
5235.3046123101
 10
8839.3458443974
 20
5235.0266416457
 10
8839.7238087465
 20
5234.8082341416
  0
LWPOLYLINE
  5
4EF
330
1F
100
AcDbEntity
  8
0
  6
Continuous
 62
     7
100
AcDbPolyline
 90
        3
 70
   128
 43
0.0
 10
8838.8595581055
 20
5233.717113377
 10
8839.3458438014
 20
5233.4391416802
 10
8839.7238087465
 20
5233.2207352085
  0
LWPOLYLINE
  5
4F0
330
1F
100
AcDbEntity
  8
0
  6
Continuous
 62
     7
100
AcDbPolyline
 90
        3
 70
   128
 43
0.0
 10
8838.8595581055
 20
5232.1296125813
 10
8839.3458443974
 20
5231.8516419169
 10
8839.7238087465
 20
5231.6332344128
  0
LWPOLYLINE
  5
4F1
330
1F
100
AcDbEntity
  8
0
  6
Continuous
 62
     7
100
AcDbPolyline
 90
        3
 70
   128
 43
0.0
 10
8838.8595581055
 20
5230.5421127169
 10
8839.3458440994
 20
5230.2641415363
 10
8839.7238087465
 20
5230.0457345484
  0
LWPOLYLINE
  5
4F2
330
1F
100
AcDbEntity
  8
0
  6
Continuous
 62
     7
100
AcDbPolyline
 90
        3
 70
   128
 43
0.0
 10
8864.4332885742
 20
5235.5895728035
 10
8864.918928275
 20
5235.8677259727
 10
8865.2972324027
 20
5236.0862694843
  0
LWPOLYLINE
  5
4F3
330
1F
100
AcDbEntity
  8
0
  6
Continuous
 62
     7
100
AcDbPolyline
 90
        3
 70
   128
 43
0.0
 10
8864.4332885742
 20
5234.0020738704
 10
8864.918928275
 20
5234.2802270396
 10
8865.2972324027
 20
5234.4987705512
  0
LWPOLYLINE
  5
4F4
330
1F
100
AcDbEntity
  8
0
  6
Continuous
 62
     7
100
AcDbPolyline
 90
        3
 70
   128
 43
0.0
 10
8864.4332885742
 20
5232.4145730747
 10
8864.918928275
 20
5232.6927262439
 10
8865.2972324027
 20
5232.9112697555
  0
LWPOLYLINE
  5
4F5
330
1F
100
AcDbEntity
  8
0
  6
Continuous
 62
     7
100
AcDbPolyline
 90
        3
 70
   128
 43
0.0
 10
8864.4332885742
 20
5230.8270741416
 10
8864.918928275
 20
5231.1052273108
 10
8865.2972324027
 20
5231.3237708224
  0
LWPOLYLINE
  5
4F6
330
1F
100
AcDbEntity
  8
0
  6
Continuous
 62
     7
100
AcDbPolyline
 90
        3
 70
   128
 43
0.0
 10
8864.4332885742
 20
5237.1770735992
 10
8864.6879596809
 20
5237.3217962281
 10
8864.8847868873
 20
5237.4355044378
  0
LWPOLYLINE
  5
4F7
330
1F
100
AcDbEntity
  8
0
  6
Continuous
 62
     7
100
AcDbPolyline
 90
        3
 70
   128
 43
0.0
 10
8838.8595581055
 20
5236.8921131058
 10
8839.3458438014
 20
5236.614141409
 10
8839.7238087465
 20
5236.3957349373
  0
LWPOLYLINE
  5
4F8
330
1F
100
AcDbEntity
  8
0
  6
Continuous
 62
     7
100
AcDbPolyline
 90
        3
 70
   128
 43
0.0
 10
8839.729309082
 20
5236.2032082094
 10
8839.2492071885
 20
5235.9250599932
 10
8838.8709051043
 20
5235.7065208419
  0
LWPOLYLINE
  5
4F9
330
1F
100
AcDbEntity
  8
0
  6
Continuous
 62
     7
100
AcDbPolyline
 90
        3
 70
   128
 43
0.0
 10
8839.729309082
 20
5234.6157074137
 10
8839.2492065921
 20
5234.3375602298
 10
8838.8709051043
 20
5234.1190200461
  0
LWPOLYLINE
  5
4FA
330
1F
100
AcDbEntity
  8
0
  6
Continuous
 62
     7
100
AcDbPolyline
 90
        3
 70
   128
 43
0.0
 10
8839.729309082
 20
5233.0282084806
 10
8839.2492068903
 20
5232.7500597375
 10
8838.8709051043
 20
5232.5315192504
  0
LWPOLYLINE
  5
4FB
330
1F
100
AcDbEntity
  8
0
  6
Continuous
 62
     7
100
AcDbPolyline
 90
        3
 70
   128
 43
0.0
 10
8839.729309082
 20
5231.4407076849
 10
8839.2492065921
 20
5231.162560501
 10
8838.8709051043
 20
5230.9440203173
  0
LWPOLYLINE
  5
4FC
330
1F
100
AcDbEntity
  8
0
  6
Continuous
 62
     7
100
AcDbPolyline
 90
        3
 70
   128
 43
0.0
 10
8839.729309082
 20
5229.8532087518
 10
8839.4363099804
 20
5229.6831483283
 10
8839.2050188678
 20
5229.5495323999
  0
LWPOLYLINE
  5
4FD
330
1F
100
AcDbEntity
  8
0
  6
Continuous
 62
     7
100
AcDbPolyline
 90
        3
 70
   128
 43
0.0
 10
8865.2954101562
 20
5234.9127695127
 10
8864.8201509608
 20
5235.1883835126
 10
8864.445292039
 20
5235.4049418284
  0
LWPOLYLINE
  5
4FE
330
1F
100
AcDbEntity
  8
0
  6
Continuous
 62
     7
100
AcDbPolyline
 90
        3
 70
   128
 43
0.0
 10
8865.2954101562
 20
5233.3252705796
 10
8864.8201512618
 20
5233.6008840576
 10
8864.445292039
 20
5233.8174410327
  0
LWPOLYLINE
  5
4FF
330
1F
100
AcDbEntity
  8
0
  6
Continuous
 62
     7
100
AcDbPolyline
 90
        3
 70
   128
 43
0.0
 10
8865.2954101562
 20
5231.7377697839
 10
8864.8201509608
 20
5232.0133837838
 10
8864.445292039
 20
5232.2299420996
  0
LWPOLYLINE
  5
500
330
1F
100
AcDbEntity
  8
0
  6
Continuous
 62
     7
100
AcDbPolyline
 90
        3
 70
   128
 43
0.0
 10
8865.2954101562
 20
5230.1502699195
 10
8864.8201511113
 20
5230.4258836585
 10
8864.445292039
 20
5230.6424413039
  0
LWPOLYLINE
  5
501
330
1F
100
AcDbEntity
  8
0
  6
Continuous
 62
     7
100
AcDbPolyline
 90
        3
 70
   128
 43
0.0
 10
8865.2954101562
 20
5236.5002703084
 10
8864.8201509608
 20
5236.7758843083
 10
8864.445292039
 20
5236.9924426241
  0
LWPOLYLINE
  5
502
330
1F
100
AcDbEntity
  8
0
  6
Continuous
 62
     7
100
AcDbPolyline
 90
        3
 70
   128
 43
0.0
 10
8918.830871582
 20
5186.1624621017
 10
8918.7135353854
 20
5191.129795972
 10
8918.4448147399
 20
5195.0336709781
  0
LWPOLYLINE
  5
503
330
1F
100
AcDbEntity
  8
0
  6
Continuous
 62
     7
100
AcDbPolyline
 90
        3
 70
   128
 43
0.0
 10
8905.0827026367
 20
5214.0336704836
 10
8904.5064995618
 20
5213.9306183653
 10
8904.099034725
 20
5213.8265637843
  0
LWPOLYLINE
  5
504
330
1F
100
AcDbEntity
  8
0
  6
Continuous
 62
     7
100
AcDbPolyline
 90
        3
 70
   128
 43
0.0
 10
8867.4926757812
 20
5199.929507093
 10
8866.3971691838
 20
5195.8748780154
 10
8866.1340760274
 20
5192.533669637
  0
LWPOLYLINE
  5
505
330
1F
100
AcDbEntity
  8
0
  6
Continuous
 62
     7
100
AcDbPolyline
 90
        3
 70
   128
 43
0.0
 10
8918.083190918
 20
5095.2409185632
 10
8918.2865739519
 20
5097.4692684814
 10
8918.3340395077
 20
5099.242051707
  0
LWPOLYLINE
  5
506
330
1F
100
AcDbEntity
  8
0
  6
Continuous
 62
     7
100
AcDbPolyline
 90
        3
 70
   128
 43
0.0
 10
8867.6376342773
 20
5084.6789680584
 10
8868.2765519987
 20
5080.9104354317
 10
8868.7865590884
 20
5078.1624369486
  0
LWPOLYLINE
  5
507
330
1F
100
AcDbEntity
  8
0
  6
Continuous
 62
     7
100
AcDbPolyline
 90
        3
 70
   128
 43
0.0
 10
8868.6294555664
 20
5084.5336668356
 10
8868.7541859482
 20
5078.7854306227
 10
8869.0073477311
 20
5075.1924567087
  0
LWPOLYLINE
  5
508
330
1F
100
AcDbEntity
  8
0
  6
Continuous
 62
     7
100
AcDbPolyline
 90
        3
 70
   128
 43
0.0
 10
8866.7678833008
 20
5084.7585402591
 10
8868.6696435306
 20
5084.586932088
 10
8870.1725701077
 20
5084.5144890411
  0
LWPOLYLINE
  5
509
330
1F
100
AcDbEntity
  8
0
  6
Continuous
 62
     7
100
AcDbPolyline
 90
        3
 70
   128
 43
0.0
 10
8864.501953125
 20
5043.9674608572
 10
8864.9505603192
 20
5044.2223519013
 10
8865.29723054
 20
5044.4226168258
  0
LWPOLYLINE
  5
50A
330
1F
100
AcDbEntity
  8
0
  6
Continuous
 62
     7
100
AcDbPolyline
 90
        3
 70
   128
 43
0.0
 10
8864.501953125
 20
5045.554956065
 10
8864.9505603192
 20
5045.8098471091
 10
8865.29723054
 20
5046.0101120336
  0
LWPOLYLINE
  5
50B
330
1F
100
AcDbEntity
  8
0
  6
Continuous
 62
     7
100
AcDbPolyline
 90
        3
 70
   128
 43
0.0
 10
8864.501953125
 20
5047.1424512728
 10
8864.9505624972
 20
5047.3973468914
 10
8865.29723054
 20
5047.5976221426
  0
LWPOLYLINE
  5
50C
330
1F
100
AcDbEntity
  8
0
  6
Continuous
 62
     7
100
AcDbPolyline
 90
        3
 70
   128
 43
0.0
 10
8864.501953125
 20
5048.7299613817
 10
8864.9505603192
 20
5048.9848524258
 10
8865.29723054
 20
5049.1851173504
  0
LWPOLYLINE
  5
50D
330
1F
100
AcDbEntity
  8
0
  6
Continuous
 62
     7
100
AcDbPolyline
 90
        3
 70
   128
 43
0.0
 10
8838.8671875
 20
5043.6288617714
 10
8839.3121385891
 20
5043.3739780815
 10
8839.6588047009
 20
5043.1737058027
  0
LWPOLYLINE
  5
50E
330
1F
100
AcDbEntity
  8
0
  6
Continuous
 62
     7
100
AcDbPolyline
 90
        3
 70
   128
 43
0.0
 10
8838.8671875
 20
5045.2163718803
 10
8839.3121363951
 20
5044.961476048
 10
8839.6588047009
 20
5044.7612010105
  0
LWPOLYLINE
  5
50F
330
1F
100
AcDbEntity
  8
0
  6
Continuous
 62
     7
100
AcDbPolyline
 90
        3
 70
   128
 43
0.0
 10
8838.8671875
 20
5046.8038670881
 10
8839.3121385891
 20
5046.5489833982
 10
8839.6588047009
 20
5046.3487111194
  0
LWPOLYLINE
  5
510
330
1F
100
AcDbEntity
  8
0
  6
Continuous
 62
     7
100
AcDbPolyline
 90
        3
 70
   128
 43
0.0
 10
8838.8671875
 20
5048.3913622959
 10
8839.3121385891
 20
5048.136478606
 10
8839.6588047009
 20
5047.9362063272
  0
LWPOLYLINE
  5
511
330
1F
100
AcDbEntity
  8
0
  6
Continuous
 62
     7
100
AcDbPolyline
 90
        3
 70
   128
 43
0.0
 10
8838.8671875
 20
5042.0413665636
 10
8839.3121385891
 20
5041.7864828737
 10
8839.6588047009
 20
5041.5862105949
  0
LWPOLYLINE
  5
512
330
1F
100
AcDbEntity
  8
0
  6
Continuous
 62
     7
100
AcDbPolyline
 90
        3
 70
   128
 43
0.0
 10
8864.501953125
 20
5042.3799507482
 10
8864.9505624972
 20
5042.6348463669
 10
8865.29723054
 20
5042.8351216181
  0
LWPOLYLINE
  5
513
330
1F
100
AcDbEntity
  8
0
  6
Continuous
 62
     7
100
AcDbPolyline
 90
        3
 70
   128
 43
0.0
 10
8864.4332885742
 20
5044.1907398565
 10
8864.9198430775
 20
5044.4688527769
 10
8865.2981190218
 20
5044.6873657568
  0
LWPOLYLINE
  5
514
330
1F
100
AcDbEntity
  8
0
  6
Continuous
 62
     7
100
AcDbPolyline
 90
        3
 70
   128
 43
0.0
 10
8864.4332885742
 20
5045.7782350643
 10
8864.9198430775
 20
5046.0563479847
 10
8865.2981190218
 20
5046.2748609646
  0
LWPOLYLINE
  5
515
330
1F
100
AcDbEntity
  8
0
  6
Continuous
 62
     7
100
AcDbPolyline
 90
        3
 70
   128
 43
0.0
 10
8864.4332885742
 20
5047.3657451732
 10
8864.9198454629
 20
5047.6438456194
 10
8865.2981190218
 20
5047.8623561723
  0
LWPOLYLINE
  5
516
330
1F
100
AcDbEntity
  8
0
  6
Continuous
 62
     7
100
AcDbPolyline
 90
        3
 70
   128
 43
0.0
 10
8864.4332885742
 20
5048.953240381
 10
8864.9198430775
 20
5049.2313533014
 10
8865.2981190218
 20
5049.4498662813
  0
LWPOLYLINE
  5
517
330
1F
100
AcDbEntity
  8
0
  6
Continuous
 62
     7
100
AcDbPolyline
 90
        3
 70
   128
 43
0.0
 10
8838.8671875
 20
5043.8936107023
 10
8839.3476045314
 20
5043.6177389762
 10
8839.7228359801
 20
5043.4009783132
  0
LWPOLYLINE
  5
518
330
1F
100
AcDbEntity
  8
0
  6
Continuous
 62
     7
100
AcDbPolyline
 90
        3
 70
   128
 43
0.0
 10
8838.8671875
 20
5045.4811059101
 10
8839.3476080984
 20
5045.2052487444
 10
8839.7228359801
 20
5044.9884884222
  0
LWPOLYLINE
  5
519
330
1F
100
AcDbEntity
  8
0
  6
Continuous
 62
     7
100
AcDbPolyline
 90
        3
 70
   128
 43
0.0
 10
8838.8671875
 20
5047.068616019
 10
8839.3476045314
 20
5046.792744293
 10
8839.7228359801
 20
5046.57598363
  0
LWPOLYLINE
  5
51A
330
1F
100
AcDbEntity
  8
0
  6
Continuous
 62
     7
100
AcDbPolyline
 90
        3
 70
   128
 43
0.0
 10
8838.8671875
 20
5048.6561112268
 10
8839.3476045314
 20
5048.3802395008
 10
8839.7228359801
 20
5048.1634788378
  0
LWPOLYLINE
  5
51B
330
1F
100
AcDbEntity
  8
0
  6
Continuous
 62
     7
100
AcDbPolyline
 90
        3
 70
   128
 43
0.0
 10
8838.8671875
 20
5042.3061154945
 10
8839.3476045314
 20
5042.0302437684
 10
8839.7228359801
 20
5041.8134831054
  0
LWPOLYLINE
  5
51C
330
1F
100
AcDbEntity
  8
0
  6
Continuous
 62
     7
100
AcDbPolyline
 90
        3
 70
   128
 43
0.0
 10
8864.4332885742
 20
5042.6032446487
 10
8864.9198394872
 20
5042.8813554797
 10
8865.2981190218
 20
5043.0998556478
  0
LWPOLYLINE
  5
51D
330
1F
100
AcDbEntity
  8
0
  6
Continuous
 62
     7
100
AcDbPolyline
 90
        3
 70
   128
 43
0.0
 10
8865.2954101562
 20
5043.5118131502
 10
8864.8205330268
 20
5043.7876921853
 10
8864.4452901764
 20
5044.0044604404
  0
LWPOLYLINE
  5
51E
330
1F
100
AcDbEntity
  8
0
  6
Continuous
 62
     7
100
AcDbPolyline
 90
        3
 70
   128
 43
0.0
 10
8865.2954101562
 20
5045.099308358
 10
8864.8205330268
 20
5045.375187393
 10
8864.4452901764
 20
5045.5919556482
  0
LWPOLYLINE
  5
51F
330
1F
100
AcDbEntity
  8
0
  6
Continuous
 62
     7
100
AcDbPolyline
 90
        3
 70
   128
 43
0.0
 10
8865.2954101562
 20
5046.6868184669
 10
8864.8205330268
 20
5046.962697502
 10
8864.4452901764
 20
5047.1794657572
  0
LWPOLYLINE
  5
520
330
1F
100
AcDbEntity
  8
0
  6
Continuous
 62
     7
100
AcDbPolyline
 90
        3
 70
   128
 43
0.0
 10
8865.2954101562
 20
5048.2743136747
 10
8864.8205330268
 20
5048.5501927098
 10
8864.4452901764
 20
5048.7669609649
  0
LWPOLYLINE
  5
521
330
1F
100
AcDbEntity
  8
0
  6
Continuous
 62
     7
100
AcDbPolyline
 90
        3
 70
   128
 43
0.0
 10
8839.729309082
 20
5043.2146988971
 10
8839.2483166442
 20
5042.9365713098
 10
8838.8700343904
 20
5042.7180580957
  0
LWPOLYLINE
  5
522
330
1F
100
AcDbEntity
  8
0
  6
Continuous
 62
     7
100
AcDbPolyline
 90
        3
 70
   128
 43
0.0
 10
8839.729309082
 20
5044.8021941049
 10
8839.2483130699
 20
5044.5240811339
 10
8838.8700343904
 20
5044.3055682047
  0
LWPOLYLINE
  5
523
330
1F
100
AcDbEntity
  8
0
  6
Continuous
 62
     7
100
AcDbPolyline
 90
        3
 70
   128
 43
0.0
 10
8839.729309082
 20
5046.3896893127
 10
8839.2483130699
 20
5046.1115763417
 10
8838.8700343904
 20
5045.8930634125
  0
LWPOLYLINE
  5
524
330
1F
100
AcDbEntity
  8
0
  6
Continuous
 62
     7
100
AcDbPolyline
 90
        3
 70
   128
 43
0.0
 10
8839.729309082
 20
5047.9771845205
 10
8839.2483130699
 20
5047.6990715495
 10
8838.8700343904
 20
5047.4805586202
  0
LWPOLYLINE
  5
525
330
1F
100
AcDbEntity
  8
0
  6
Continuous
 62
     7
100
AcDbPolyline
 90
        3
 70
   128
 43
0.0
 10
8839.6759033203
 20
5049.5336704119
 10
8839.2246844661
 20
5049.2729321927
 10
8838.8700343904
 20
5049.0680687292
  0
LWPOLYLINE
  5
526
330
1F
100
AcDbEntity
  8
0
  6
Continuous
 62
     7
100
AcDbPolyline
 90
        3
 70
   128
 43
0.0
 10
8865.2954101562
 20
5041.9243179424
 10
8864.8205330268
 20
5042.2001969775
 10
8864.4452901764
 20
5042.4169652326
  0
LWPOLYLINE
  5
527
330
1F
100
AcDbEntity
  8
0
  6
Continuous
 62
     7
100
AcDbPolyline
 90
        3
 70
   128
 43
0.0
 10
8979.1793823242
 20
5143.1797050102
 10
8977.9519456754
 20
5149.7187243083
 10
8976.1840725524
 20
5154.7421455546
  0
LWPOLYLINE
  5
528
330
1F
100
AcDbEntity
  8
0
  6
Continuous
 62
     7
100
AcDbPolyline
 90
        3
 70
   128
 43
0.0
 10
8976.1810302734
 20
5154.7421455546
 10
8978.7409616311
 20
5148.3358092009
 10
8979.6840721948
 20
5143.0356331332
  0
LWPOLYLINE
  5
529
330
1F
100
AcDbEntity
  8
0
  6
Continuous
 62
     7
100
AcDbPolyline
 90
       11
 70
   128
 43
0.0
 10
8966.3772583008
 20
5180.6336693628
 10
8971.3851506063
 20
5180.0020273852
 10
8976.0132036894
 20
5180.5447295431
 10
8976.3225839554
 20
5180.6184466506
 10
8976.3416810815
 20
5180.6231744415
 10
8976.3422996311
 20
5180.6233299248
 10
8976.3423678743
 20
5180.6233477645
 10
8976.3423716135
 20
5180.6233490126
 10
8976.3423660226
 20
5180.6233479544
 10
8976.3422943134
 20
5180.6233312008
 10
8976.3174677475
 20
5180.6172222061
  0
LWPOLYLINE
  5
52A
330
1F
100
AcDbEntity
  8
0
  6
Continuous
 62
     7
100
AcDbPolyline
 90
        8
 70
   128
 43
0.0
 10
8841.0186767578
 20
5237.0336704118
 10
8862.3774031677
 20
5237.34116411
 10
8864.7630591859
 20
5237.4183003061
 10
8864.8866390803
 20
5237.4333158092
 10
8864.8900837533
 20
5237.4358028013
 10
8864.889626206
 20
5237.4370436235
 10
8864.8876564055
 20
5237.4382824876
 10
8864.8593077643
 20
5237.4448660923
  0
LWPOLYLINE
  5
52B
330
1F
100
AcDbEntity
  8
0
  6
Continuous
 62
     7
100
AcDbPolyline
 90
        3
 70
   128
 43
0.0
 10
8840.934753418
 20
5237.8929309709
 10
8839.8019849056
 20
5237.7459287673
 10
8839.5022214655
 20
5237.6293610944
  0
LINE
  5
52C
330
1F
100
AcDbEntity
  8
0
  6
Continuous
 62
     7
100
AcDbLine
 10
8839.729309082
 20
5237.8929309709
 30
0.0
 11
8840.9409930438
 21
5237.8929309709
 31
0.0
  0
LWPOLYLINE
  5
52D
330
1F
100
AcDbEntity
  8
0
  6
Continuous
 62
     7
100
AcDbPolyline
 90
       11
 70
   128
 43
0.0
 10
8865.2496337891
 20
5236.4916686131
 10
8865.2031441294
 20
5236.4663269045
 10
8864.2995934324
 20
5236.3907905339
 10
8852.0849459347
 20
5236.094966297
 10
8839.8774272162
 20
5235.7955367986
 10
8838.9230200298
 20
5235.7230243086
 10
8838.914182023
 20
5235.7167952
 10
8838.9141364587
 20
5235.7144415501
 10
8838.9155519598
 20
5235.7120799696
 10
8838.9219312637
 20
5235.7073375483
 10
8838.9430388171
 20
5235.6978073879
  0
LWPOLYLINE
  5
52E
330
1F
100
AcDbEntity
  8
0
  6
Continuous
 62
     7
100
AcDbPolyline
 90
       11
 70
   128
 43
0.0
 10
8865.2496337891
 20
5234.90416968
 10
8865.2031441299
 20
5234.8788279223
 10
8864.2995934321
 20
5234.8032916517
 10
8852.0849459742
 20
5234.5074653446
 10
8839.8774272222
 20
5234.2080375599
 10
8838.9230200313
 20
5234.1355234634
 10
8838.9141820241
 20
5234.1292946285
 10
8838.9141364596
 20
5234.1269411295
 10
8838.9155519605
 20
5234.1245797214
 10
8838.9219312642
 20
5234.1198376974
 10
8838.9430388171
 20
5234.1103084548
  0
LWPOLYLINE
  5
52F
330
1F
100
AcDbEntity
  8
0
  6
Continuous
 62
     7
100
AcDbPolyline
 90
       11
 70
   128
 43
0.0
 10
8865.2496337891
 20
5233.3166688843
 10
8865.2031441294
 20
5233.2913271757
 10
8864.2995934325
 20
5233.2157908051
 10
8852.0849459349
 20
5232.9199665793
 10
8839.8774272137
 20
5232.6205372555
 10
8838.9230200299
 20
5232.5480245777
 10
8838.914182023
 20
5232.5417954753
 10
8838.9141364586
 20
5232.5394418264
 10
8838.9155519597
 20
5232.5370802463
 10
8838.9219312637
 20
5232.5323378244
 10
8838.9430388171
 20
5232.5228076591
  0
LWPOLYLINE
  5
530
330
1F
100
AcDbEntity
  8
0
  6
Continuous
 62
     7
100
AcDbPolyline
 90
       11
 70
   128
 43
0.0
 10
8865.2496337891
 20
5231.7291699512
 10
8865.2031441298
 20
5231.7038281935
 10
8864.2995934303
 20
5231.6282919228
 10
8852.0849459556
 20
5231.3324656164
 10
8839.877427218
 20
5231.0330362604
 10
8838.9230200299
 20
5230.9605237843
 10
8838.914182023
 20
5230.9542946752
 10
8838.9141364587
 20
5230.9519410252
 10
8838.9155519598
 20
5230.9495794446
 10
8838.9219312637
 20
5230.9448370235
 10
8838.9430388171
 20
5230.9353068633
  0
LWPOLYLINE
  5
531
330
1F
100
AcDbEntity
  8
0
  6
Continuous
 62
     7
100
AcDbPolyline
 90
        5
 70
   128
 43
0.0
 10
8865.2496337891
 20
5230.1416691555
 10
8861.1240888742
 20
5229.9349397263
 10
8855.0162253995
 20
5229.800757822
 10
8848.1060406834
 20
5229.6658490176
 10
8842.2850976905
 20
5229.5336701138
  0
LWPOLYLINE
  5
532
330
1F
100
AcDbEntity
  8
0
  6
Continuous
 62
     7
100
AcDbPolyline
 90
        9
 70
   128
 43
0.0
 10
8841.0186767578
 20
5237.0336704118
 10
8838.9787618234
 20
5236.9252828596
 10
8838.9311739618
 20
5236.9162698548
 10
8838.9187412742
 20
5236.911707826
 10
8838.9140249141
 20
5236.9071045083
 10
8838.9141604498
 20
5236.9047893745
 10
8838.9156924664
 20
5236.9024666948
 10
8838.9221479531
 20
5236.8978030095
 10
8838.9430388171
 20
5236.888432519
  0
LWPOLYLINE
  5
533
330
1F
100
AcDbEntity
  8
0
  6
Continuous
 62
     7
100
AcDbPolyline
 90
       16
 70
   128
 43
0.0
 10
8865.2420043945
 20
5236.0861111595
 10
8865.255910462
 20
5236.0799180662
 10
8865.2600651283
 20
5236.0768153244
 10
8865.260994047
 20
5236.0752613205
 10
8865.2609772633
 20
5236.0737051485
 10
8865.2505700675
 20
5236.067457967
 10
8865.2244901659
 20
5236.0611816981
 10
8864.1360948298
 20
5235.986816985
 10
8851.8608165853
 20
5235.6936510545
 10
8839.8561115457
 20
5235.3976355916
 10
8838.9223680904
 20
5235.3258884095
 10
8838.9141043277
 20
5235.3197221436
 10
8838.9141780474
 20
5235.3173925754
 10
8838.9156690037
 20
5235.3150553135
 10
8838.9220927766
 20
5235.3103621048
 10
8838.9430388171
 20
5235.3009317233
  0
LWPOLYLINE
  5
534
330
1F
100
AcDbEntity
  8
0
  6
Continuous
 62
     7
100
AcDbPolyline
 90
       16
 70
   128
 43
0.0
 10
8865.2420043945
 20
5234.4986122264
 10
8865.2559104618
 20
5234.4924181163
 10
8865.2600651282
 20
5234.4893149124
 10
8865.2609940471
 20
5234.4877606972
 10
8865.2609772635
 20
5234.4862043301
 10
8865.2505700687
 20
5234.4799565417
 10
8865.2244901682
 20
5234.4736799148
 10
8864.1360948472
 20
5234.399316269
 10
8851.8608166222
 20
5234.1061501856
 10
8839.8561115541
 20
5233.8101352492
 10
8838.9223680906
 20
5233.7383894504
 10
8838.9141043273
 20
5233.7322232725
 10
8838.914178047
 20
5233.7298937181
 10
8838.9156690033
 20
5233.7275564613
 10
8838.9220927762
 20
5233.7228632421
 10
8838.9430388171
 20
5233.7134327902
  0
LWPOLYLINE
  5
535
330
1F
100
AcDbEntity
  8
0
  6
Continuous
 62
     7
100
AcDbPolyline
 90
       16
 70
   128
 43
0.0
 10
8865.2420043945
 20
5232.9111114307
 10
8865.2559104619
 20
5232.9049183549
 10
8865.2600651282
 20
5232.9018156105
 10
8865.260994047
 20
5232.9002616004
 10
8865.2609772633
 20
5232.8987054182
 10
8865.250570068
 20
5232.8924581534
 10
8865.2244901672
 20
5232.8861817421
 10
8864.1360948474
 20
5232.811815001
 10
8851.8608165858
 20
5232.518651317
 10
8839.8561115544
 20
5232.2226344399
 10
8838.9223680906
 20
5232.1508886549
 10
8838.9141043273
 20
5232.1447224765
 10
8838.914178047
 20
5232.142392922
 10
8838.9156690033
 20
5232.1400556652
 10
8838.9220927762
 20
5232.135362446
 10
8838.9430388171
 20
5232.1259319945
  0
LWPOLYLINE
  5
536
330
1F
100
AcDbEntity
  8
0
  6
Continuous
 62
     7
100
AcDbPolyline
 90
       16
 70
   128
 43
0.0
 10
8865.2420043945
 20
5231.3236106349
 10
8865.2559104621
 20
5231.3174175403
 10
8865.2600651283
 20
5231.3143147987
 10
8865.260994047
 20
5231.3127607953
 10
8865.2609772633
 20
5231.3112046241
 10
8865.2505700675
 20
5231.3049574491
 10
8865.2244901658
 20
5231.2986811904
 10
8864.136094834
 20
5231.2243162651
 10
8851.8608166042
 20
5230.9311504551
 10
8839.8561115684
 20
5230.6351340404
 10
8838.9223680911
 20
5230.5633887822
 10
8838.9141043281
 20
5230.5572226992
 10
8838.9141780478
 20
5230.5548932134
 10
8838.915669004
 20
5230.5525560401
 10
8838.9220927768
 20
5230.5478630235
 10
8838.9430388171
 20
5230.5384330614
  0
LWPOLYLINE
  5
537
330
1F
100
AcDbEntity
  8
0
  6
Continuous
 62
     7
100
AcDbPolyline
 90
        7
 70
   128
 43
0.0
 10
8865.2420043945
 20
5229.7361117019
 10
8865.2603028884
 20
5229.7265214991
 10
8865.2610743709
 20
5229.7249180181
 10
8865.2608105344
 20
5229.7233121808
 10
8865.1765619264
 20
5229.703893138
 10
8864.9692619158
 20
5229.6843951997
 10
8860.9588505907
 20
5229.5336701138
  0
LWPOLYLINE
  5
538
330
1F
100
AcDbEntity
  8
0
  6
Continuous
 62
     7
100
AcDbPolyline
 90
        8
 70
   128
 43
0.0
 10
8864.3646240234
 20
5237.1770214452
 10
8851.9435674564
 20
5236.7865596782
 10
8840.7031862129
 20
5236.4917311303
 10
8839.7855638798
 20
5236.4203727088
 10
8839.7729207453
 20
5236.4142647416
 10
8839.7716055646
 20
5236.4119545293
 10
8839.7718747974
 20
5236.409635113
 10
8839.7940875704
 20
5236.3955989642
  0
LWPOLYLINE
  5
539
330
1F
100
AcDbEntity
  8
0
  6
Continuous
 62
     7
100
AcDbPolyline
 90
        8
 70
   128
 43
0.0
 10
8864.3646240234
 20
5235.5895206495
 10
8851.94356743
 20
5235.1990611573
 10
8840.7031862202
 20
5234.9042311795
 10
8839.785563882
 20
5234.832871646
 10
8839.7729207462
 20
5234.8267640684
 10
8839.7716055651
 20
5234.8244540353
 10
8839.7718747977
 20
5234.8221348135
 10
8839.7940875704
 20
5234.8081000312
  0
LWPOLYLINE
  5
53A
330
1F
100
AcDbEntity
  8
0
  6
Continuous
 62
     7
100
AcDbPolyline
 90
        8
 70
   128
 43
0.0
 10
8864.3646240234
 20
5234.0020217164
 10
8851.9435674524
 20
5233.6115601788
 10
8840.7031862137
 20
5233.3167313471
 10
8839.7855638797
 20
5233.2453729818
 10
8839.7729207453
 20
5233.2392650124
 10
8839.7716055646
 20
5233.2369547996
 10
8839.7718747974
 20
5233.2346353831
 10
8839.7940875704
 20
5233.2205992354
  0
LWPOLYLINE
  5
53B
330
1F
100
AcDbEntity
  8
0
  6
Continuous
 62
     7
100
AcDbPolyline
 90
        8
 70
   128
 43
0.0
 10
8864.3646240234
 20
5232.4145209207
 10
8851.9435674302
 20
5232.0240614415
 10
8840.7031862174
 20
5231.7292316492
 10
8839.7855638821
 20
5231.6578719108
 10
8839.7729207461
 20
5231.6517643413
 10
8839.771605565
 20
5231.6494543097
 10
8839.7718747976
 20
5231.6471350888
 10
8839.7940875704
 20
5231.6331003024
  0
LWPOLYLINE
  5
53C
330
1F
100
AcDbEntity
  8
0
  6
Continuous
 62
     7
100
AcDbPolyline
 90
        8
 70
   128
 43
0.0
 10
8864.3646240234
 20
5230.8270219876
 10
8851.9435674522
 20
5230.436560466
 10
8840.7031862176
 20
5230.1417311564
 10
8839.7855638809
 20
5230.0703721866
 10
8839.7729207457
 20
5230.0642644139
 10
8839.7716055648
 20
5230.0619542911
 10
8839.7718747975
 20
5230.0596349721
 10
8839.7940875704
 20
5230.0455995066
  0
LWPOLYLINE
  5
53D
330
1F
100
AcDbEntity
  8
0
  6
Continuous
 62
     7
100
AcDbPolyline
 90
        3
 70
   128
 43
0.0
 10
8840.934753418
 20
5237.8929309709
 10
8840.0114327322
 20
5237.8360623561
 10
8839.7766072277
 20
5237.7904035313
  0
LWPOLYLINE
  5
53E
330
1F
100
AcDbEntity
  8
0
  6
Continuous
 62
     7
100
AcDbPolyline
 90
        5
 70
   128
 43
0.0
 10
8864.3951416016
 20
5236.988296376
 10
8864.3535890638
 20
5236.9632222882
 10
8863.5353521668
 20
5236.8884332618
 10
8852.3146786226
 20
5236.5958181407
 10
8839.7766072277
 20
5236.2029045983
  0
LWPOLYLINE
  5
53F
330
1F
100
AcDbEntity
  8
0
  6
Continuous
 62
     7
100
AcDbPolyline
 90
        5
 70
   128
 43
0.0
 10
8864.3951416016
 20
5235.4007974429
 10
8864.3535890657
 20
5235.3757222375
 10
8863.5353521805
 20
5235.300932371
 10
8852.3146786375
 20
5235.0083175691
 10
8839.7766072277
 20
5234.6154038025
  0
LWPOLYLINE
  5
540
330
1F
100
AcDbEntity
  8
0
  6
Continuous
 62
     7
100
AcDbPolyline
 90
        5
 70
   128
 43
0.0
 10
8864.3951416016
 20
5233.8132966472
 10
8864.3535890656
 20
5233.7882214465
 10
8863.5353521808
 20
5233.7134315679
 10
8852.314678605
 20
5233.4208184123
 10
8839.7766072277
 20
5233.0279030068
  0
LWPOLYLINE
  5
541
330
1F
100
AcDbEntity
  8
0
  6
Continuous
 62
     7
100
AcDbPolyline
 90
        5
 70
   128
 43
0.0
 10
8864.3951416016
 20
5232.2257977141
 10
8864.3535890664
 20
5232.2007224472
 10
8863.5353521795
 20
5232.1259327386
 10
8852.3146786415
 20
5231.8333176312
 10
8839.7766072277
 20
5231.4404040737
  0
LWPOLYLINE
  5
542
330
1F
100
AcDbEntity
  8
0
  6
Continuous
 62
     7
100
AcDbPolyline
 90
        5
 70
   128
 43
0.0
 10
8864.3951416016
 20
5230.6382969184
 10
8864.3535890666
 20
5230.6132216
 10
8863.535352173
 20
5230.5384327643
 10
8852.3146786206
 20
5230.2458178635
 10
8839.7766072277
 20
5229.852903278
  0
LWPOLYLINE
  5
543
330
1F
100
AcDbEntity
  8
0
  6
Continuous
 62
     7
100
AcDbPolyline
 90
        3
 70
   128
 43
0.0
 10
8918.5791015625
 20
5170.5247141583
 10
8918.7924202991
 20
5170.4939293996
 10
8918.9376110418
 20
5170.3930139704
  0
LWPOLYLINE
  5
544
330
1F
100
AcDbEntity
  8
0
  6
Continuous
 62
     7
100
AcDbPolyline
 90
        3
 70
   128
 43
0.0
 10
8918.9300537109
 20
5170.3930139704
 10
8919.0545880023
 20
5170.2105284839
 10
8919.0840745552
 20
5170.043563114
  0
LWPOLYLINE
  5
545
330
1F
100
AcDbEntity
  8
0
  6
Continuous
 62
     7
100
AcDbPolyline
 90
        3
 70
   128
 43
0.0
 10
8918.1442260742
 20
5171.0058652027
 10
8918.2143197583
 20
5170.8202565377
 10
8918.3091992719
 20
5170.69348471
  0
LWPOLYLINE
  5
546
330
1F
100
AcDbEntity
  8
0
  6
Continuous
 62
     7
100
AcDbPolyline
 90
        3
 70
   128
 43
0.0
 10
8918.3044433594
 20
5170.69348471
 10
8918.4722518138
 20
5170.5760016813
 10
8918.5840735419
 20
5170.5247141583
  0
LWPOLYLINE
  5
547
330
1F
100
AcDbEntity
  8
0
  6
Continuous
 62
     7
100
AcDbPolyline
 90
        3
 70
   128
 43
0.0
 10
8919.0826416016
 20
5171.5123966499
 10
8918.7810018726
 20
5171.3461357503
 10
8918.1485945566
 20
5171.0058652027
  0
LWPOLYLINE
  5
548
330
1F
100
AcDbEntity
  8
0
  6
Continuous
 62
     7
100
AcDbPolyline
 90
        3
 70
   128
 43
0.0
 10
8919.0826416016
 20
5163.0336694582
 10
8919.0617284085
 20
5162.9340021853
 10
8919.0165126903
 20
5162.8052123053
  0
LWPOLYLINE
  5
549
330
1F
100
AcDbEntity
  8
0
  6
Continuous
 62
     7
100
AcDbPolyline
 90
        3
 70
   128
 43
0.0
 10
8918.9300537109
 20
5170.3930139704
 10
8919.0282197817
 20
5170.8405158333
 10
8919.0832996948
 20
5171.073419617
  0
LWPOLYLINE
  5
54A
330
1F
100
AcDbEntity
  8
0
  6
Continuous
 62
     7
100
AcDbPolyline
 90
        5
 70
   128
 43
0.0
 10
8918.3044433594
 20
5170.69348471
 10
8918.9488669111
 20
5171.0726432158
 10
8919.0204457301
 20
5171.0966312871
 10
8919.0529061818
 20
5171.0962868697
 10
8919.0832996948
 20
5171.073419617
  0
LWPOLYLINE
  5
54B
330
1F
100
AcDbEntity
  8
0
  6
Continuous
 62
     7
100
AcDbPolyline
 90
        3
 70
   128
 43
0.0
 10
8919.0826416016
 20
5170.043563114
 10
8919.0840745552
 20
5170.3742552075
 10
8919.0840745552
 20
5170.4753056331
  0
LWPOLYLINE
  5
54C
330
1F
100
AcDbEntity
  8
0
  6
Continuous
 62
     7
100
AcDbPolyline
 90
        3
 70
   128
 43
0.0
 10
8919.0826416016
 20
5171.5123966499
 10
8919.0811112393
 20
5171.2665729591
 10
8919.0832996948
 20
5171.073419617
  0
LWPOLYLINE
  5
54D
330
1F
100
AcDbEntity
  8
0
  6
Continuous
 62
     7
100
AcDbPolyline
 90
        5
 70
   128
 43
0.0
 10
8919.0444946289
 20
5162.9917785687
 10
8919.07674946
 20
5163.046153324
 10
8919.0795894986
 20
5163.0477822231
 10
8919.0816974287
 20
5163.0467742788
 10
8919.0840745552
 20
5163.0336694582
  0
LWPOLYLINE
  5
54E
330
1F
100
AcDbEntity
  8
0
  6
Continuous
 62
     7
100
AcDbPolyline
 90
        3
 70
   128
 43
0.0
 10
8866.2338256836
 20
5084.631329046
 10
8866.2340758575
 20
5084.5072751227
 10
8866.2340758575
 20
5084.4086013897
  0
LWPOLYLINE
  5
54F
330
1F
100
AcDbEntity
  8
0
  6
Continuous
 62
     7
100
AcDbPolyline
 90
        3
 70
   128
 43
0.0
 10
8868.6828613281
 20
5075.3217242821
 10
8868.6840763522
 20
5075.1940507968
 10
8868.6840763522
 20
5075.0938706262
  0
LWPOLYLINE
  5
550
330
1F
100
AcDbEntity
  8
0
  6
Continuous
 62
     7
100
AcDbPolyline
 90
        3
 70
   128
 43
0.0
 10
8867.4774169922
 20
5075.1697324379
 10
8867.4840765281
 20
5075.2548059757
 10
8867.4840765281
 20
5075.3217242821
  0
LWPOLYLINE
  5
551
330
1F
100
AcDbEntity
  8
0
  6
Continuous
 62
     7
100
AcDbPolyline
 90
        6
 70
   128
 43
0.0
 10
8838.8824462891
 20
5042.0498751266
 10
8838.8824522372
 20
5042.0549705404
 10
8838.8807202756
 20
5042.0575127329
 10
8838.8805343306
 20
5042.0600483082
 10
8838.8835820275
 20
5042.0634149692
 10
8839.2224702231
 20
5042.1025209291
  0
LWPOLYLINE
  5
552
330
1F
100
AcDbEntity
  8
0
  6
Continuous
 62
     7
100
AcDbPolyline
 90
        3
 70
   128
 43
0.0
 10
8864.7232055664
 20
5042.7719108923
 10
8865.216241696
 20
5042.8118453278
 10
8865.2900779827
 20
5042.8436897857
  0
LWPOLYLINE
  5
553
330
1F
100
AcDbEntity
  8
0
  6
Continuous
 62
     7
100
AcDbPolyline
 90
        6
 70
   128
 43
0.0
 10
8838.8824462891
 20
5043.6373852356
 10
8838.8824522404
 20
5043.6424748548
 10
8838.8807202806
 20
5043.6450143499
 10
8838.8805343378
 20
5043.6475474676
 10
8838.8835820384
 20
5043.6509113632
 10
8839.2224702231
 20
5043.6900310381
  0
LWPOLYLINE
  5
554
330
1F
100
AcDbEntity
  8
0
  6
Continuous
 62
     7
100
AcDbPolyline
 90
        3
 70
   128
 43
0.0
 10
8864.7232055664
 20
5044.3594210012
 10
8865.2162416762
 20
5044.3993512994
 10
8865.2900779827
 20
5044.4311849935
  0
LWPOLYLINE
  5
555
330
1F
100
AcDbEntity
  8
0
  6
Continuous
 62
     7
100
AcDbPolyline
 90
        6
 70
   128
 43
0.0
 10
8838.8824462891
 20
5045.2248804434
 10
8838.8824522372
 20
5045.2299758572
 10
8838.8807202756
 20
5045.2325180497
 10
8838.8805343306
 20
5045.2350536249
 10
8838.8835820275
 20
5045.238420286
 10
8839.2224702231
 20
5045.2775262459
  0
LWPOLYLINE
  5
556
330
1F
100
AcDbEntity
  8
0
  6
Continuous
 62
     7
100
AcDbPolyline
 90
        3
 70
   128
 43
0.0
 10
8864.7232055664
 20
5045.946916209
 10
8865.2162416762
 20
5045.9868465072
 10
8865.2900779827
 20
5046.0186802013
  0
LWPOLYLINE
  5
557
330
1F
100
AcDbEntity
  8
0
  6
Continuous
 62
     7
100
AcDbPolyline
 90
        6
 70
   128
 43
0.0
 10
8838.8824462891
 20
5046.8123756511
 10
8838.8824522372
 20
5046.8174710649
 10
8838.8807202756
 20
5046.8200132575
 10
8838.8805343306
 20
5046.8225488327
 10
8838.8835820275
 20
5046.8259154938
 10
8839.2224702231
 20
5046.8650214536
  0
LWPOLYLINE
  5
558
330
1F
100
AcDbEntity
  8
0
  6
Continuous
 62
     7
100
AcDbPolyline
 90
        3
 70
   128
 43
0.0
 10
8864.7232055664
 20
5047.5344114168
 10
8865.216241696
 20
5047.5743458523
 10
8865.2900779827
 20
5047.6061903103
  0
LWPOLYLINE
  5
559
330
1F
100
AcDbEntity
  8
0
  6
Continuous
 62
     7
100
AcDbPolyline
 90
        6
 70
   128
 43
0.0
 10
8838.8824462891
 20
5048.3998708589
 10
8838.8824522381
 20
5048.4049660272
 10
8838.880720277
 20
5048.4075081537
 10
8838.8805343326
 20
5048.4100437308
 10
8838.8835820306
 20
5048.4134105393
 10
8839.2224702231
 20
5048.4525315626
  0
LWPOLYLINE
  5
55A
330
1F
100
AcDbEntity
  8
0
  6
Continuous
 62
     7
100
AcDbPolyline
 90
        3
 70
   128
 43
0.0
 10
8864.7232055664
 20
5049.1219215257
 10
8865.2162416762
 20
5049.1618518239
 10
8865.2900779827
 20
5049.1936855181
  0
LWPOLYLINE
  5
55B
330
1F
100
AcDbEntity
  8
0
  6
Continuous
 62
     7
100
AcDbPolyline
 90
       15
 70
   128
 43
0.0
 10
8865.2038574219
 20
5041.9596336944
 10
8865.2216376459
 20
5041.9558890473
 10
8865.2238587651
 20
5041.9544837985
 10
8865.2240675815
 20
5041.9537808509
 10
8865.2236909753
 20
5041.953077658
 10
8865.1778868549
 20
5041.9446120847
 10
8864.2064998494
 20
5041.8978267155
 10
8852.2813710067
 20
5041.7102699685
 10
8840.377460242
 20
5041.5204349615
 10
8839.4763293157
 20
5041.471841541
 10
8839.4607719659
 20
5041.4679170429
 10
8839.4585357145
 20
5041.4664543503
 10
8839.4581759075
 20
5041.4657249143
 10
8839.4582878017
 20
5041.4649966675
 10
8839.4832155874
 20
5041.4563171728
  0
LWPOLYLINE
  5
55C
330
1F
100
AcDbEntity
  8
0
  6
Continuous
 62
     7
100
AcDbPolyline
 90
       10
 70
   128
 43
0.0
 10
8839.7903442383
 20
5041.8175809248
 10
8839.7847751363
 20
5041.8264280355
 10
8839.7821215975
 20
5041.8308640717
 10
8839.7828092077
 20
5041.8353150849
 10
8839.7908483059
 20
5041.8412816955
 10
8840.6483420953
 20
5041.9158276816
 10
8851.8769018461
 20
5042.2103165279
 10
8863.3570576641
 20
5042.5046005365
 10
8864.3267254419
 20
5042.5792893041
 10
8864.3661743237
 20
5042.6030211313
  0
LWPOLYLINE
  5
55D
330
1F
100
AcDbEntity
  8
0
  6
Continuous
 62
     7
100
AcDbPolyline
 90
       10
 70
   128
 43
0.0
 10
8839.7903442383
 20
5043.4050761326
 10
8839.7847751363
 20
5043.4139232433
 10
8839.7821215975
 20
5043.4183592795
 10
8839.7828092077
 20
5043.4228102927
 10
8839.7908483059
 20
5043.4287769033
 10
8840.6483420962
 20
5043.5033228895
 10
8851.876901857
 20
5043.7978116023
 10
8863.3570576872
 20
5044.0920928538
 10
8864.3267254152
 20
5044.1667978823
 10
8864.3661743237
 20
5044.1905163391
  0
LWPOLYLINE
  5
55E
330
1F
100
AcDbEntity
  8
0
  6
Continuous
 62
     7
100
AcDbPolyline
 90
       10
 70
   128
 43
0.0
 10
8839.7903442383
 20
5044.9925713403
 10
8839.7847751282
 20
5045.0014247166
 10
8839.7821215858
 20
5045.005863566
 10
8839.7828091927
 20
5045.0103170089
 10
8839.7908482873
 20
5045.0162860417
 10
8840.6483420653
 20
5045.0908195336
 10
8851.8769019182
 20
5045.3853032045
 10
8863.357057652
 20
5045.6795912273
 10
8864.3267254132
 20
5045.7542932704
 10
8864.3661743237
 20
5045.7780115469
  0
LWPOLYLINE
  5
55F
330
1F
100
AcDbEntity
  8
0
  6
Continuous
 62
     7
100
AcDbPolyline
 90
       10
 70
   128
 43
0.0
 10
8839.7903442383
 20
5046.5800814493
 10
8839.7847751363
 20
5046.58892856
 10
8839.7821215975
 20
5046.5933645962
 10
8839.7828092077
 20
5046.5978156094
 10
8839.7908483059
 20
5046.60378222
 10
8840.6483420948
 20
5046.6783282064
 10
8851.87690185
 20
5046.9728165519
 10
8863.3570576686
 20
5047.2671008377
 10
8864.3267254422
 20
5047.3417898154
 10
8864.3661743237
 20
5047.3655216558
  0
LWPOLYLINE
  5
560
330
1F
100
AcDbEntity
  8
0
  6
Continuous
 62
     7
100
AcDbPolyline
 90
       10
 70
   128
 43
0.0
 10
8839.7903442383
 20
5048.1675766571
 10
8839.7847751363
 20
5048.1764237678
 10
8839.7821215975
 20
5048.180859804
 10
8839.7828092077
 20
5048.1853108172
 10
8839.7908483059
 20
5048.1912774278
 10
8840.6483420962
 20
5048.265823414
 10
8851.876901857
 20
5048.5603121268
 10
8863.3570576872
 20
5048.8545933783
 10
8864.3267254152
 20
5048.9292984068
 10
8864.3661743237
 20
5048.9530168636
  0
LWPOLYLINE
  5
561
330
1F
100
AcDbEntity
  8
0
  6
Continuous
 62
     7
100
AcDbPolyline
 90
       10
 70
   128
 43
0.0
 10
8838.9358520508
 20
5042.3137150867
 10
8838.9297621023
 20
5042.3226572544
 10
8838.9269924539
 20
5042.3271412448
 10
8838.9279203362
 20
5042.3316407232
 10
8838.937039492
 20
5042.3376730433
 10
8839.8754578643
 20
5042.4130452997
 10
8852.0845004779
 20
5042.7104851493
 10
8864.2968435293
 20
5043.0083072484
 10
8865.2112644959
 20
5043.0833832315
 10
8865.2393991335
 20
5043.1072913273
  0
LWPOLYLINE
  5
562
330
1F
100
AcDbEntity
  8
0
  6
Continuous
 62
     7
100
AcDbPolyline
 90
       10
 70
   128
 43
0.0
 10
8838.9358520508
 20
5043.9012102945
 10
8838.9297620947
 20
5043.9101587984
 10
8838.9269924428
 20
5043.914645626
 10
8838.927920322
 20
5043.9191475444
 10
8838.9370394745
 20
5043.9251822712
 10
8839.875457832
 20
5044.0005422238
 10
8852.0845005329
 20
5044.2979768684
 10
8864.2968435192
 20
5044.5958034733
 10
8865.2112644921
 20
5044.6708788029
 10
8865.2393991335
 20
5044.6947865351
  0
LWPOLYLINE
  5
563
330
1F
100
AcDbEntity
  8
0
  6
Continuous
 62
     7
100
AcDbPolyline
 90
       10
 70
   128
 43
0.0
 10
8838.9358520508
 20
5045.4887204035
 10
8838.9297621023
 20
5045.4976625711
 10
8838.9269924539
 20
5045.5021465616
 10
8838.9279203362
 20
5045.50664604
 10
8838.937039492
 20
5045.51267836
 10
8839.8754578631
 20
5045.5880506167
 10
8852.0845004716
 20
5045.8854900803
 10
8864.2968435205
 20
5046.1833136432
 10
8865.211264519
 20
5046.2583767375
 10
8865.2393991335
 20
5046.282296644
  0
LWPOLYLINE
  5
564
330
1F
100
AcDbEntity
  8
0
  6
Continuous
 62
     7
100
AcDbPolyline
 90
       10
 70
   128
 43
0.0
 10
8838.9358520508
 20
5047.0762156112
 10
8838.9297621023
 20
5047.0851577789
 10
8838.9269924539
 20
5047.0896417693
 10
8838.9279203362
 20
5047.0941412478
 10
8838.937039492
 20
5047.1001735678
 10
8839.8754578643
 20
5047.1755458242
 10
8852.0845004779
 20
5047.4729856738
 10
8864.2968435293
 20
5047.770807773
 10
8865.2112644959
 20
5047.845883756
 10
8865.2393991335
 20
5047.8697918518
  0
LWPOLYLINE
  5
565
330
1F
100
AcDbEntity
  8
0
  6
Continuous
 62
     7
100
AcDbPolyline
 90
       10
 70
   128
 43
0.0
 10
8838.9358520508
 20
5048.663710819
 10
8838.9298471148
 20
5048.6725630373
 10
8838.9270280624
 20
5048.6770016688
 10
8838.9277962484
 20
5048.6814553272
 10
8838.936467367
 20
5048.6874255708
 10
8839.8554212895
 20
5048.7620154755
 10
8851.8759476942
 20
5049.0566450356
 10
8864.1496993989
 20
5049.3511137541
 10
8865.1797538827
 20
5049.4258334698
 10
8865.2210092379
 20
5049.4495682581
  0
LINE
  5
566
330
1F
100
AcDbEntity
  8
0
  6
Continuous
 62
     7
100
AcDbLine
 10
8847.297668457
 20
5049.5336704118
 30
0.0
 11
8844.6965172163
 21
5049.5336704118
 31
0.0
  0
LWPOLYLINE
  5
567
330
1F
100
AcDbEntity
  8
0
  6
Continuous
 62
     7
100
AcDbPolyline
 90
       10
 70
   128
 43
0.0
 10
8838.8900756836
 20
5042.7182071073
 10
8852.2909130272
 20
5043.1112758176
 10
8864.3088051947
 20
5043.4062325484
 10
8865.282225035
 20
5043.4803863407
 10
8865.3016977677
 20
5043.4864120495
 10
8865.3050342768
 20
5043.4886686657
 10
8865.3060863744
 20
5043.4909239149
 10
8865.3032107179
 20
5043.4943046236
 10
8865.2947700273
 20
5043.4976832799
 10
8865.2657127215
 20
5043.5044370754
  0
LWPOLYLINE
  5
568
330
1F
100
AcDbEntity
  8
0
  6
Continuous
 62
     7
100
AcDbPolyline
 90
       10
 70
   128
 43
0.0
 10
8838.8900756836
 20
5044.3057023151
 10
8852.2909130291
 20
5044.698771027
 10
8864.3088051929
 20
5044.9937230796
 10
8865.2822250541
 20
5045.0679081573
 10
8865.3016977868
 20
5045.0739324996
 10
8865.3050342955
 20
5045.0761877787
 10
8865.3060863924
 20
5045.0784411873
 10
8865.3032107342
 20
5045.0818181151
 10
8865.294770041
 20
5045.0851916669
 10
8865.2657127215
 20
5045.0919322832
  0
LWPOLYLINE
  5
569
330
1F
100
AcDbEntity
  8
0
  6
Continuous
 62
     7
100
AcDbPolyline
 90
       10
 70
   128
 43
0.0
 10
8838.8900756836
 20
5045.8931975229
 10
8852.2909131946
 20
5046.2862647655
 10
8864.3088051963
 20
5046.5812323277
 10
8865.2822250558
 20
5046.6553879695
 10
8865.301697778
 20
5046.6614155545
 10
8865.305034284
 20
5046.6636727432
 10
8865.3060863789
 20
5046.6659284764
 10
8865.3032107193
 20
5046.6693097205
 10
8865.2947700271
 20
5046.6726886516
 10
8865.2657127215
 20
5046.6794423921
  0
LWPOLYLINE
  5
56A
330
1F
100
AcDbEntity
  8
0
  6
Continuous
 62
     7
100
AcDbPolyline
 90
       10
 70
   128
 43
0.0
 10
8838.8900756836
 20
5047.4807076319
 10
8852.2909130296
 20
5047.8737763475
 10
8864.3088051949
 20
5048.1687330729
 10
8865.282225035
 20
5048.2428868652
 10
8865.3016977677
 20
5048.248912574
 10
8865.3050342768
 20
5048.2511691902
 10
8865.3060863744
 20
5048.2534244395
 10
8865.3032107179
 20
5048.2568051481
 10
8865.2947700273
 20
5048.2601838044
 10
8865.2657127215
 20
5048.2669375999
  0
LWPOLYLINE
  5
56B
330
1F
100
AcDbEntity
  8
0
  6
Continuous
 62
     7
100
AcDbPolyline
 90
        3
 70
   128
 43
0.0
 10
8838.8900756836
 20
5049.0682028396
 10
8845.6620869919
 20
5049.3286196378
 10
8856.0365407004
 20
5049.5336704118
  0
LWPOLYLINE
  5
56C
330
1F
100
AcDbEntity
  8
0
  6
Continuous
 62
     7
100
AcDbPolyline
 90
        9
 70
   128
 43
0.0
 10
8839.7903442383
 20
5041.6273676021
 10
8839.7920178855
 20
5041.6332719608
 10
8839.7907090275
 20
5041.6391949876
 10
8839.8172505868
 20
5041.6511702235
 10
8840.8134220805
 20
5041.7260739067
 10
8852.2792007373
 20
5042.0197869743
 10
8863.5148083428
 20
5042.3144167315
 10
8864.3570259843
 20
5042.3886362934
 10
8864.3832938953
 20
5042.4122713669
  0
LWPOLYLINE
  5
56D
330
1F
100
AcDbEntity
  8
0
  6
Continuous
 62
     7
100
AcDbPolyline
 90
        9
 70
   128
 43
0.0
 10
8839.7903442383
 20
5043.2148777111
 10
8839.7920178879
 20
5043.220776935
 10
8839.7907090338
 20
5043.226695196
 10
8839.8172506099
 20
5043.2386634497
 10
8840.8134221875
 20
5043.3135704663
 10
8852.2792009253
 20
5043.6072800857
 10
8863.514808361
 20
5043.9019116855
 10
8864.3570259864
 20
5043.9761313952
 10
8864.3832938953
 20
5043.9997665746
  0
LWPOLYLINE
  5
56E
330
1F
100
AcDbEntity
  8
0
  6
Continuous
 62
     7
100
AcDbPolyline
 90
        9
 70
   128
 43
0.0
 10
8839.7903442383
 20
5044.8023729189
 10
8839.7920178831
 20
5044.8082776176
 10
8839.7907090241
 20
5044.8142007764
 10
8839.8172505918
 20
5044.8261748411
 10
8840.8134221647
 20
5044.901067512
 10
8852.2792008513
 20
5045.194785759
 10
8863.5148084524
 20
5045.4894079721
 10
8864.3570259995
 20
5045.5636310632
 10
8864.3832938953
 20
5045.5872766836
  0
LWPOLYLINE
  5
56F
330
1F
100
AcDbEntity
  8
0
  6
Continuous
 62
     7
100
AcDbPolyline
 90
        9
 70
   128
 43
0.0
 10
8839.7903442383
 20
5046.3898681267
 10
8839.7920178855
 20
5046.3957724853
 10
8839.7907090275
 20
5046.4016955122
 10
8839.8172505867
 20
5046.413670748
 10
8840.8134220797
 20
5046.4885744311
 10
8852.2792007304
 20
5046.7822874958
 10
8863.5148083358
 20
5047.0769180225
 10
8864.3570260098
 20
5047.1511249495
 10
8864.3832938953
 20
5047.1747718914
  0
LWPOLYLINE
  5
570
330
1F
100
AcDbEntity
  8
0
  6
Continuous
 62
     7
100
AcDbPolyline
 90
        9
 70
   128
 43
0.0
 10
8839.7903442383
 20
5047.9773782356
 10
8839.7920178879
 20
5047.9832774595
 10
8839.7907090338
 20
5047.9891957205
 10
8839.8172506099
 20
5048.0011639743
 10
8840.8134221878
 20
5048.0760709887
 10
8852.2792008893
 20
5048.3697825656
 10
8863.5148083604
 20
5048.6644122267
 10
8864.3570259863
 20
5048.7386319267
 10
8864.3832938953
 20
5048.7622670992
  0
LWPOLYLINE
  5
571
330
1F
100
AcDbEntity
  8
0
  6
Continuous
 62
     7
100
AcDbPolyline
 90
        3
 70
   128
 43
0.0
 10
8838.0813598633
 20
5213.233670562
 10
8838.7376243818
 20
5213.2856906387
 10
8839.8840763231
 20
5213.3265637023
  0
LWPOLYLINE
  5
572
330
1F
100
AcDbEntity
  8
0
  6
Continuous
 62
     7
100
AcDbPolyline
 90
        3
 70
   128
 43
0.0
 10
8839.8818969727
 20
5061.7407761676
 10
8838.4954414325
 20
5061.792797808
 10
8838.0840762958
 20
5061.8336700065
  0
LWPOLYLINE
  5
573
330
1F
100
AcDbEntity
  8
0
  6
Continuous
 62
     7
100
AcDbPolyline
 90
        3
 70
   128
 43
0.0
 10
8839.0808105469
 20
5061.8336700065
 10
8839.3745464047
 20
5061.2165053107
 10
8839.8840763231
 20
5061.0336713655
  0
LWPOLYLINE
  5
574
330
1F
100
AcDbEntity
  8
0
  6
Continuous
 62
     7
100
AcDbPolyline
 90
        3
 70
   128
 43
0.0
 10
8838.0813598633
 20
5061.8336700065
 10
8838.7376244259
 20
5060.4450355975
 10
8839.8840763231
 20
5060.0336693389
  0
LWPOLYLINE
  5
575
330
1F
100
AcDbEntity
  8
0
  6
Continuous
 62
     7
100
AcDbPolyline
 90
        3
 70
   128
 43
0.0
 10
8839.8818969727
 20
5215.033670531
 10
8838.4954443019
 20
5214.3801200845
 10
8838.0840762958
 20
5213.233670562
  0
LWPOLYLINE
  5
576
330
1F
100
AcDbEntity
  8
0
  6
Continuous
 62
     7
100
AcDbPolyline
 90
        3
 70
   128
 43
0.0
 10
8839.8818969727
 20
5214.0336704835
 10
8839.2669065386
 20
5213.7432037718
 10
8839.0840763433
 20
5213.233670562
  0
LWPOLYLINE
  5
577
330
1F
100
AcDbEntity
  8
0
  6
Continuous
 62
     7
100
AcDbPolyline
 90
        3
 70
   128
 43
0.0
 10
8918.6096191406
 20
5160.8972452743
 10
8918.3715083025
 20
5160.6729484214
 10
8918.0840799792
 20
5160.4898326261
  0
LWPOLYLINE
  5
578
330
1F
100
AcDbEntity
  8
0
  6
Continuous
 62
     7
100
AcDbPolyline
 90
        3
 70
   128
 43
0.0
 10
8919.0826416016
 20
5170.8038240834
 10
8919.0856569286
 20
5170.9548007047
 10
8919.0832996948
 20
5171.073419617
  0
LWPOLYLINE
  5
579
330
1F
100
AcDbEntity
  8
0
  6
Continuous
 62
     7
100
AcDbPolyline
 90
        3
 70
   128
 43
0.0
 10
8561.3708496094
 20
4813.4006225494
 10
8561.767421979
 20
4813.335429908
 10
8562.0795596212
 20
4813.2990636853
  0
LWPOLYLINE
  5
57A
330
1F
100
AcDbEntity
  8
0
  6
Continuous
 62
     7
100
AcDbPolyline
 90
        3
 70
   128
 43
0.0
 10
8462.3794555664
 20
4819.0532290367
 10
8462.865948065
 20
4820.1482805315
 10
8464.0817804781
 20
4820.8497204808
  0
LWPOLYLINE
  5
57B
330
1F
100
AcDbEntity
  8
0
  6
Continuous
 62
     7
100
AcDbPolyline
 90
        3
 70
   128
 43
0.0
 10
8428.0776977539
 20
4765.9815737036
 10
8429.8123315745
 20
4765.3812486771
 10
8430.6320636121
 20
4765.3034293083
  0
LWPOLYLINE
  5
57C
330
1F
100
AcDbEntity
  8
0
  6
Continuous
 62
     7
100
AcDbPolyline
 90
        3
 70
   128
 43
0.0
 10
8442.6803588867
 20
4765.2498827083
 10
8443.0051296854
 20
4765.6929349519
 10
8443.2017145801
 20
4766.0532266601
  0
LWPOLYLINE
  5
57D
330
1F
100
AcDbEntity
  8
0
  6
Continuous
 62
     7
100
AcDbPolyline
 90
        3
 70
   128
 43
0.0
 10
8504.2572021484
 20
4819.1291728047
 10
8509.2079668381
 20
4817.2914545273
 10
8513.0630298106
 20
4815.8346862522
  0
LINE
  5
57E
330
1F
100
AcDbEntity
  8
0
  6
Continuous
 62
     7
100
AcDbLine
 10
8541.389465332
 20
4753.7282296446
 30
0.0
 11
8542.0964317916
 21
4753.7282296446
 31
0.0
  0
LINE
  5
57F
330
1F
100
AcDbEntity
  8
0
  6
Continuous
 62
     7
100
AcDbLine
 10
8545.1431274414
 20
4753.7282296447
 30
0.0
 11
8544.9740211068
 21
4753.7282296446
 31
0.0
  0
LINE
  5
580
330
1F
100
AcDbEntity
  8
0
  6
Continuous
 62
     7
100
AcDbLine
 10
8545.2041625977
 20
4753.7282296446
 30
0.0
 11
8545.1449523268
 21
4753.7282296447
 31
0.0
  0
LWPOLYLINE
  5
581
330
1F
100
AcDbEntity
  8
0
  6
Continuous
 62
     7
100
AcDbPolyline
 90
        9
 70
   128
 43
0.0
 10
8478.3401489258
 20
4843.1182316365
 10
8473.2160123205
 20
4836.4291465997
 10
8473.2167663977
 20
4828.0025274328
 10
8478.3792133568
 20
4821.3459437619
 10
8486.5463647266
 20
4819.2937562551
 10
8494.2181817323
 20
4822.759674393
 10
8498.0314892813
 20
4830.2620996209
 10
8496.2622765532
 20
4838.4872007431
 10
8489.6752624361
 20
4843.716225679
  0
LWPOLYLINE
  5
582
330
1F
100
AcDbEntity
  8
0
  6
Continuous
 62
     7
100
AcDbPolyline
 90
        3
 70
   128
 43
0.0
 10
8480.224609375
 20
4843.1963128726
 10
8490.2258713593
 20
4844.033988687
 10
8496.6445578782
 20
4839.2883768295
  0
LWPOLYLINE
  5
583
330
1F
100
AcDbEntity
  8
0
  6
Continuous
 62
     7
100
AcDbPolyline
 90
        3
 70
   128
 43
0.0
 10
8489.6697998047
 20
4843.716225679
 10
8484.3199044741
 20
4844.348708977
 10
8480.2286787478
 20
4843.1963128726
  0
ARC
  5
584
330
1F
100
AcDbEntity
  8
0
  6
Continuous
 62
     7
100
AcDbCircle
 10
8485.617929998
 20
4832.023149537
 30
0.0
 40
13.20367980651216
100
AcDbArc
 50
142.2735261773
 51
33.3836589016
  0
LWPOLYLINE
  5
585
330
1F
100
AcDbEntity
  8
0
  6
Continuous
 62
     7
100
AcDbPolyline
 90
        3
 70
   128
 43
0.0
 10
8480.224609375
 20
4843.1963128726
 10
8485.8093286902
 20
4844.4130732758
 10
8490.1974885313
 20
4843.4510222626
  0
LWPOLYLINE
  5
586
330
1F
100
AcDbEntity
  8
0
  6
Continuous
 62
     7
100
AcDbPolyline
 90
        3
 70
   128
 43
0.0
 10
8409.782409668
 20
4844.2532295933
 10
8409.8386867954
 20
4845.6418616145
 10
8409.8795591442
 20
4846.0532296206
  0
LWPOLYLINE
  5
587
330
1F
100
AcDbEntity
  8
0
  6
Continuous
 62
     7
100
AcDbPolyline
 90
        3
 70
   128
 43
0.0
 10
8561.279296875
 20
4846.0532296206
 10
8561.3315798789
 20
4845.3996790858
 10
8561.37245284
 20
4844.2532295933
  0
LWPOLYLINE
  5
588
330
1F
100
AcDbEntity
  8
0
  6
Continuous
 62
     7
100
AcDbPolyline
 90
        3
 70
   128
 43
0.0
 10
8409.8739624023
 20
4846.0532296206
 10
8408.4909247328
 20
4845.3996815346
 10
8408.0795584766
 20
4844.2532295933
  0
LWPOLYLINE
  5
589
330
1F
100
AcDbEntity
  8
0
  6
Continuous
 62
     7
100
AcDbPolyline
 90
        3
 70
   128
 43
0.0
 10
8409.8739624023
 20
4845.0532295731
 10
8409.2623944431
 20
4844.7627596104
 10
8409.0795605032
 20
4844.2532295933
  0
LWPOLYLINE
  5
58A
330
1F
100
AcDbEntity
  8
0
  6
Continuous
 62
     7
100
AcDbPolyline
 90
        3
 70
   128
 43
0.0
 10
8562.0727539062
 20
4844.2532295933
 10
8561.789092813
 20
4844.8703993709
 10
8561.2795596996
 20
4845.0532295731
  0
LWPOLYLINE
  5
58B
330
1F
100
AcDbEntity
  8
0
  6
Continuous
 62
     7
100
AcDbPolyline
 90
        3
 70
   128
 43
0.0
 10
8563.0722045898
 20
4844.2532295933
 10
8562.4260091791
 20
4845.6418616114
 10
8561.2795596996
 20
4846.0532296206
  0
LWPOLYLINE
  5
58C
330
1F
100
AcDbEntity
  8
0
  6
Continuous
 62
     7
100
AcDbPolyline
 90
        3
 70
   128
 43
0.0
 10
8443.2678222656
 20
4766.0532259372
 10
8443.1695143136
 20
4765.8889193727
 10
8443.0621130911
 20
4765.7890059975
  0
ENDSEC
  0
SECTION
  2
OBJECTS
  0
DICTIONARY
  5
C
330
0
100
AcDbDictionary
281
     1
  3
ACAD_GROUP
350
D
  3
ACAD_LAYOUT
350
1A
  3
ACAD_MLINESTYLE
350
17
  3
ACAD_PLOTSETTINGS
350
19
  3
ACAD_PLOTSTYLENAME
350
E
  3
ACAD_SCALELIST
350
47
  3
DWGPROPS
350
58D
  0
DICTIONARY
  5
D
102
{ACAD_REACTORS
330
C
102
}
330
C
100
AcDbDictionary
281
     1
  0
DICTIONARY
  5
1A
102
{ACAD_REACTORS
330
C
102
}
330
C
100
AcDbDictionary
281
     1
  3
Layout1
350
1E
  3
Layout2
350
26
  3
Model
350
22
  0
DICTIONARY
  5
17
102
{ACAD_REACTORS
330
C
102
}
330
C
100
AcDbDictionary
281
     1
  3
Standard
350
18
  0
DICTIONARY
  5
19
102
{ACAD_REACTORS
330
C
102
}
330
C
100
AcDbDictionary
281
     1
  0
ACDBDICTIONARYWDFLT
  5
E
102
{ACAD_REACTORS
330
C
102
}
330
C
100
AcDbDictionary
281
     1
  3
Normal
350
F
100
AcDbDictionaryWithDefault
340
F
  0
DICTIONARY
  5
47
102
{ACAD_REACTORS
330
C
102
}
330
C
100
AcDbDictionary
281
     1
  3
A0
350
48
  3
A1
350
49
  3
A2
350
4A
  3
A3
350
4B
  3
A4
350
4C
  3
A5
350
4D
  3
A6
350
4E
  3
A7
350
4F
  3
A8
350
50
  3
A9
350
51
  3
B0
350
52
  3
B1
350
53
  3
B2
350
54
  3
B3
350
55
  3
B4
350
56
  3
B5
350
57
  3
B6
350
58
  3
B7
350
59
  3
B8
350
5A
  3
B9
350
5B
  3
C0
350
5C
  3
C1
350
5D
  3
C2
350
5E
  3
C3
350
5F
  3
C4
350
60
  3
C5
350
61
  3
C6
350
62
  3
C7
350
63
  3
C8
350
64
  3
C9
350
65
  3
D0
350
66
  3
D1
350
67
  3
D2
350
68
  0
XRECORD
  5
58D
102
{ACAD_REACTORS
330
C
102
}
330
C
100
AcDbXrecord
280
     1
  1
DWGPROPS COOKIE
  2

  3

  4

  6

  7

  8
radek.stransky
  9

300
=
301
=
302
=
303
=
304
=
305
=
306
=
307
=
308
=
309
=
 40
0.0
 41
2459095.47628184
 42
2459095.476332431
  1

 90
        0
  0
LAYOUT
  5
1E
102
{ACAD_REACTORS
330
1A
102
}
330
1A
100
AcDbPlotSettings
  1

  2
none_device
  4

  6

 40
0.0
 41
0.0
 42
0.0
 43
0.0
 44
0.0
 45
0.0
 46
0.0
 47
0.0
 48
0.0
 49
0.0
140
0.0
141
0.0
142
1.0
143
1.0
 70
   688
 72
     1
 73
     0
 74
     5
  7

 75
    16
147
1.0
148
0.0
149
0.0
100
AcDbLayout
  1
Layout1
 70
     1
 71
     1
 10
0.0
 20
0.0
 11
420.0
 21
297.0
 12
0.0
 22
0.0
 32
0.0
 14
1.0000000000E+20
 24
1.0000000000E+20
 34
1.0000000000E+20
 15
-1.0000000000E+20
 25
-1.0000000000E+20
 35
-1.0000000000E+20
146
0.0
 13
0.0
 23
0.0
 33
0.0
 16
1.0
 26
0.0
 36
0.0
 17
0.0
 27
1.0
 37
0.0
 76
     0
330
1B
  0
LAYOUT
  5
26
102
{ACAD_REACTORS
330
1A
102
}
330
1A
100
AcDbPlotSettings
  1

  2
none_device
  4

  6

 40
0.0
 41
0.0
 42
0.0
 43
0.0
 44
0.0
 45
0.0
 46
0.0
 47
0.0
 48
0.0
 49
0.0
140
0.0
141
0.0
142
1.0
143
1.0
 70
   688
 72
     1
 73
     0
 74
     5
  7

 75
    16
147
1.0
148
0.0
149
0.0
100
AcDbLayout
  1
Layout2
 70
     1
 71
     2
 10
0.0
 20
0.0
 11
0.0
 21
0.0
 12
0.0
 22
0.0
 32
0.0
 14
0.0
 24
0.0
 34
0.0
 15
0.0
 25
0.0
 35
0.0
146
0.0
 13
0.0
 23
0.0
 33
0.0
 16
1.0
 26
0.0
 36
0.0
 17
0.0
 27
1.0
 37
0.0
 76
     0
330
23
  0
LAYOUT
  5
22
102
{ACAD_REACTORS
330
1A
102
}
330
1A
100
AcDbPlotSettings
  1

  2
none_device
  4
ANSI_A_(11.00_x_8.50_Inches)
  6

 40
6.35
 41
19.05
 42
6.35000508
 43
19.05000254
 44
279.4
 45
215.9
 46
-3315.0672341368
 47
-1882.421914676
 48
0.0
 49
0.0
140
0.0
141
0.0
142
0.0156186071
143
1.0
 70
  1696
 72
     0
 73
     0
 74
     0
  7

 75
     0
147
0.0179189148
148
-1300.4909072572
149
0.0
100
AcDbLayout
  1
Model
 70
     1
 71
     0
 10
0.0
 20
0.0
 11
420.0
 21
297.0
 12
0.0
 22
0.0
 32
0.0
 14
8400.5795656292
 24
4699.7532286671
 34
0.0
 15
8984.3840772493
 25
5238.5336697264
 35
0.0
146
0.0
 13
0.0
 23
0.0
 33
0.0
 16
1.0
 26
0.0
 36
0.0
 17
0.0
 27
1.0
 37
0.0
 76
     0
330
1F
331
29
  0
MLINESTYLE
  5
18
102
{ACAD_REACTORS
330
17
102
}
330
17
100
AcDbMlineStyle
  2
Standard
 70
     0
  3

 62
   256
 51
90.0
 52
90.0
 71
     2
 49
0.5
 62
   256
  6
BYLAYER
 49
-0.5
 62
   256
  6
BYLAYER
  0
ACDBPLACEHOLDER
  5
F
102
{ACAD_REACTORS
330
E
102
}
330
E
  0
SCALE
  5
48
102
{ACAD_REACTORS
330
47
102
}
330
47
100
AcDbScale
 70
     0
300
1:1
140
1.0
141
1.0
290
     1
  0
SCALE
  5
49
102
{ACAD_REACTORS
330
47
102
}
330
47
100
AcDbScale
 70
     0
300
1:2
140
1.0
141
2.0
290
     0
  0
SCALE
  5
4A
102
{ACAD_REACTORS
330
47
102
}
330
47
100
AcDbScale
 70
     0
300
1:4
140
1.0
141
4.0
290
     0
  0
SCALE
  5
4B
102
{ACAD_REACTORS
330
47
102
}
330
47
100
AcDbScale
 70
     0
300
1:5
140
1.0
141
5.0
290
     0
  0
SCALE
  5
4C
102
{ACAD_REACTORS
330
47
102
}
330
47
100
AcDbScale
 70
     0
300
1:8
140
1.0
141
8.0
290
     0
  0
SCALE
  5
4D
102
{ACAD_REACTORS
330
47
102
}
330
47
100
AcDbScale
 70
     0
300
1:10
140
1.0
141
10.0
290
     0
  0
SCALE
  5
4E
102
{ACAD_REACTORS
330
47
102
}
330
47
100
AcDbScale
 70
     0
300
1:16
140
1.0
141
16.0
290
     0
  0
SCALE
  5
4F
102
{ACAD_REACTORS
330
47
102
}
330
47
100
AcDbScale
 70
     0
300
1:20
140
1.0
141
20.0
290
     0
  0
SCALE
  5
50
102
{ACAD_REACTORS
330
47
102
}
330
47
100
AcDbScale
 70
     0
300
1:30
140
1.0
141
30.0
290
     0
  0
SCALE
  5
51
102
{ACAD_REACTORS
330
47
102
}
330
47
100
AcDbScale
 70
     0
300
1:40
140
1.0
141
40.0
290
     0
  0
SCALE
  5
52
102
{ACAD_REACTORS
330
47
102
}
330
47
100
AcDbScale
 70
     0
300
1:50
140
1.0
141
50.0
290
     0
  0
SCALE
  5
53
102
{ACAD_REACTORS
330
47
102
}
330
47
100
AcDbScale
 70
     0
300
1:100
140
1.0
141
100.0
290
     0
  0
SCALE
  5
54
102
{ACAD_REACTORS
330
47
102
}
330
47
100
AcDbScale
 70
     0
300
2:1
140
2.0
141
1.0
290
     0
  0
SCALE
  5
55
102
{ACAD_REACTORS
330
47
102
}
330
47
100
AcDbScale
 70
     0
300
4:1
140
4.0
141
1.0
290
     0
  0
SCALE
  5
56
102
{ACAD_REACTORS
330
47
102
}
330
47
100
AcDbScale
 70
     0
300
8:1
140
8.0
141
1.0
290
     0
  0
SCALE
  5
57
102
{ACAD_REACTORS
330
47
102
}
330
47
100
AcDbScale
 70
     0
300
10:1
140
10.0
141
1.0
290
     0
  0
SCALE
  5
58
102
{ACAD_REACTORS
330
47
102
}
330
47
100
AcDbScale
 70
     0
300
100:1
140
100.0
141
1.0
290
     0
  0
SCALE
  5
59
102
{ACAD_REACTORS
330
47
102
}
330
47
100
AcDbScale
 70
     0
300
1/128" = 1'-0"
140
0.0078125
141
12.0
290
     0
  0
SCALE
  5
5A
102
{ACAD_REACTORS
330
47
102
}
330
47
100
AcDbScale
 70
     0
300
1/64" = 1'-0"
140
0.015625
141
12.0
290
     0
  0
SCALE
  5
5B
102
{ACAD_REACTORS
330
47
102
}
330
47
100
AcDbScale
 70
     0
300
1/32" = 1'-0"
140
0.03125
141
12.0
290
     0
  0
SCALE
  5
5C
102
{ACAD_REACTORS
330
47
102
}
330
47
100
AcDbScale
 70
     0
300
1/16" = 1'-0"
140
0.0625
141
12.0
290
     0
  0
SCALE
  5
5D
102
{ACAD_REACTORS
330
47
102
}
330
47
100
AcDbScale
 70
     0
300
3/32" = 1'-0"
140
0.09375
141
12.0
290
     0
  0
SCALE
  5
5E
102
{ACAD_REACTORS
330
47
102
}
330
47
100
AcDbScale
 70
     0
300
1/8" = 1'-0"
140
0.125
141
12.0
290
     0
  0
SCALE
  5
5F
102
{ACAD_REACTORS
330
47
102
}
330
47
100
AcDbScale
 70
     0
300
3/16" = 1'-0"
140
0.1875
141
12.0
290
     0
  0
SCALE
  5
60
102
{ACAD_REACTORS
330
47
102
}
330
47
100
AcDbScale
 70
     0
300
1/4" = 1'-0"
140
0.25
141
12.0
290
     0
  0
SCALE
  5
61
102
{ACAD_REACTORS
330
47
102
}
330
47
100
AcDbScale
 70
     0
300
3/8" = 1'-0"
140
0.375
141
12.0
290
     0
  0
SCALE
  5
62
102
{ACAD_REACTORS
330
47
102
}
330
47
100
AcDbScale
 70
     0
300
1/2" = 1'-0"
140
0.5
141
12.0
290
     0
  0
SCALE
  5
63
102
{ACAD_REACTORS
330
47
102
}
330
47
100
AcDbScale
 70
     0
300
3/4" = 1'-0"
140
0.75
141
12.0
290
     0
  0
SCALE
  5
64
102
{ACAD_REACTORS
330
47
102
}
330
47
100
AcDbScale
 70
     0
300
1" = 1'-0"
140
1.0
141
12.0
290
     0
  0
SCALE
  5
65
102
{ACAD_REACTORS
330
47
102
}
330
47
100
AcDbScale
 70
     0
300
1-1/2" = 1'-0"
140
1.5
141
12.0
290
     0
  0
SCALE
  5
66
102
{ACAD_REACTORS
330
47
102
}
330
47
100
AcDbScale
 70
     0
300
3" = 1'-0"
140
3.0
141
12.0
290
     0
  0
SCALE
  5
67
102
{ACAD_REACTORS
330
47
102
}
330
47
100
AcDbScale
 70
     0
300
6" = 1'-0"
140
6.0
141
12.0
290
     0
  0
SCALE
  5
68
102
{ACAD_REACTORS
330
47
102
}
330
47
100
AcDbScale
 70
     0
300
1'-0" = 1'-0"
140
12.0
141
12.0
290
     0
  0
ENDSEC
  0
EOF
