  0
SECTION
  2
HEADER
  9
$ACADVER
  1
AC1015
  9
$ACADMAINTVER
 70
     6
  9
$DWGCODEPAGE
  3
ANSI_1250
  9
$INSBASE
 10
0.0
 20
0.0
 30
0.0
  9
$EXTMIN
 10
0.0
 20
0.0
 30
0.0
  9
$EXTMAX
 10
20000.0
 20
10000.0
 30
0.0
  9
$LIMMIN
 10
0.0
 20
0.0
  9
$LIMMAX
 10
20000.0
 20
10000.0
  9
$ORTHOMODE
 70
     0
  9
$REGENMODE
 70
     1
  9
$FILLMODE
 70
     1
  9
$QTEXTMODE
 70
     0
  9
$MIRRTEXT
 70
     1
  9
$LTSCALE
 40
1.0
  9
$ATTMODE
 70
     1
  9
$TEXTSIZE
 40
2.0
  9
$TRACEWID
 40
1.0
  9
$TEXTSTYLE
  7
Standard
  9
$CLAYER
  8
0
  9
$CELTYPE
  6
ByLayer
  9
$CECOLOR
 62
   256
  9
$CELTSCALE
 40
1.0
  9
$DISPSILH
 70
     0
  9
$DIMSCALE
 40
1.0
  9
$DIMASZ
 40
2.0
  9
$DIMEXO
 40
1.0
  9
$DIMDLI
 40
3.75
  9
$DIMRND
 40
0.0
  9
$DIMDLE
 40
0.0
  9
$DIMEXE
 40
1.0
  9
$DIMTP
 40
0.0
  9
$DIMTM
 40
0.0
  9
$DIMTXT
 40
2.0
  9
$DIMCEN
 40
2.5
  9
$DIMTSZ
 40
0.0
  9
$DIMTOL
 70
     0
  9
$DIMLIM
 70
     0
  9
$DIMTIH
 70
     1
  9
$DIMTOH
 70
     1
  9
$DIMSE1
 70
     0
  9
$DIMSE2
 70
     0
  9
$DIMTAD
 70
     1
  9
$DIMZIN
 70
     0
  9
$DIMBLK
  1

  9
$DIMASO
 70
     1
  9
$DIMSHO
 70
     1
  9
$DIMPOST
  1

  9
$DIMAPOST
  1

  9
$DIMALT
 70
     0
  9
$DIMALTD
 70
     3
  9
$DIMALTF
 40
0.0393700787
  9
$DIMLFAC
 40
1.0
  9
$DIMTOFL
 70
     1
  9
$DIMTVP
 40
0.0
  9
$DIMTIX
 70
     0
  9
$DIMSOXD
 70
     0
  9
$DIMSAH
 70
     0
  9
$DIMBLK1
  1

  9
$DIMBLK2
  1

  9
$DIMSTYLE
  2
ISO-25
  9
$DIMCLRD
 70
     0
  9
$DIMCLRE
 70
     0
  9
$DIMCLRT
 70
     0
  9
$DIMTFAC
 40
1.0
  9
$DIMGAP
 40
1.524
  9
$DIMJUST
 70
     0
  9
$DIMSD1
 70
     0
  9
$DIMSD2
 70
     0
  9
$DIMTOLJ
 70
     0
  9
$DIMTZIN
 70
     0
  9
$DIMALTZ
 70
     0
  9
$DIMALTTZ
 70
     0
  9
$DIMUPT
 70
     0
  9
$DIMDEC
 70
     2
  9
$DIMTDEC
 70
     0
  9
$DIMALTU
 70
     2
  9
$DIMALTTD
 70
     3
  9
$DIMTXSTY
  7
Standard
  9
$DIMAUNIT
 70
     0
  9
$DIMADEC
 70
     2
  9
$DIMALTRND
 40
0.0
  9
$DIMAZIN
 70
     0
  9
$DIMDSEP
 70
    44
  9
$DIMATFIT
 70
     3
  9
$DIMFRAC
 70
     0
  9
$DIMLDRBLK
  1

  9
$DIMLUNIT
 70
     2
  9
$DIMLWD
 70
    -2
  9
$DIMLWE
 70
    -2
  9
$DIMTMOVE
 70
     0
  9
$LUNITS
 70
     2
  9
$LUPREC
 70
     3
  9
$SKETCHINC
 40
1.0
  9
$FILLETRAD
 40
10.0
  9
$AUNITS
 70
     0
  9
$AUPREC
 70
     2
  9
$MENU
  1
.
  9
$ELEVATION
 40
0.0
  9
$PELEVATION
 40
0.0
  9
$THICKNESS
 40
0.0
  9
$LIMCHECK
 70
     0
  9
$CHAMFERA
 40
0.0
  9
$CHAMFERB
 40
0.0
  9
$CHAMFERC
 40
0.0
  9
$CHAMFERD
 40
0.0
  9
$SKPOLY
 70
     0
  9
$TDCREATE
 40
2459139.353592685
  9
$TDUCREATE
 40
2459139.270259352
  9
$TDUPDATE
 40
2459139.353593067
  9
$TDUUPDATE
 40
2459139.270259734
  9
$TDINDWG
 40
0.0000000116
  9
$TDUSRTIMER
 40
0.0000000116
  9
$USRTIMER
 70
     1
  9
$ANGBASE
 50
0.0
  9
$ANGDIR
 70
     0
  9
$PDMODE
 70
     0
  9
$PDSIZE
 40
-1.0
  9
$PLINEWID
 40
0.0
  9
$SPLFRAME
 70
     0
  9
$SPLINETYPE
 70
     6
  9
$SPLINESEGS
 70
     8
  9
$HANDSEED
  5
169
  9
$SURFTAB1
 70
     6
  9
$SURFTAB2
 70
     6
  9
$SURFTYPE
 70
     6
  9
$SURFU
 70
     6
  9
$SURFV
 70
     6
  9
$UCSBASE
  2

  9
$UCSNAME
  2

  9
$UCSORG
 10
0.0
 20
0.0
 30
0.0
  9
$UCSXDIR
 10
1.0
 20
0.0
 30
0.0
  9
$UCSYDIR
 10
0.0
 20
1.0
 30
0.0
  9
$UCSORTHOREF
  2

  9
$UCSORTHOVIEW
 70
     0
  9
$UCSORGTOP
 10
0.0
 20
0.0
 30
0.0
  9
$UCSORGBOTTOM
 10
0.0
 20
0.0
 30
0.0
  9
$UCSORGLEFT
 10
0.0
 20
0.0
 30
0.0
  9
$UCSORGRIGHT
 10
0.0
 20
0.0
 30
0.0
  9
$UCSORGFRONT
 10
0.0
 20
0.0
 30
0.0
  9
$UCSORGBACK
 10
0.0
 20
0.0
 30
0.0
  9
$PUCSBASE
  2

  9
$PUCSNAME
  2

  9
$PUCSORG
 10
0.0
 20
0.0
 30
0.0
  9
$PUCSXDIR
 10
1.0
 20
0.0
 30
0.0
  9
$PUCSYDIR
 10
0.0
 20
1.0
 30
0.0
  9
$PUCSORTHOREF
  2

  9
$PUCSORTHOVIEW
 70
     0
  9
$PUCSORGTOP
 10
0.0
 20
0.0
 30
0.0
  9
$PUCSORGBOTTOM
 10
0.0
 20
0.0
 30
0.0
  9
$PUCSORGLEFT
 10
0.0
 20
0.0
 30
0.0
  9
$PUCSORGRIGHT
 10
0.0
 20
0.0
 30
0.0
  9
$PUCSORGFRONT
 10
0.0
 20
0.0
 30
0.0
  9
$PUCSORGBACK
 10
0.0
 20
0.0
 30
0.0
  9
$USERI1
 70
     0
  9
$USERI2
 70
     0
  9
$USERI3
 70
     0
  9
$USERI4
 70
     0
  9
$USERI5
 70
     0
  9
$USERR1
 40
0.0
  9
$USERR2
 40
0.0
  9
$USERR3
 40
0.0
  9
$USERR4
 40
0.0
  9
$USERR5
 40
0.0
  9
$WORLDVIEW
 70
     1
  9
$SHADEDGE
 70
     3
  9
$SHADEDIF
 70
    70
  9
$TILEMODE
 70
     1
  9
$MAXACTVP
 70
    64
  9
$PINSBASE
 10
0.0
 20
0.0
 30
0.0
  9
$PLIMCHECK
 70
     0
  9
$PEXTMIN
 10
1.0000000000E+20
 20
1.0000000000E+20
 30
1.0000000000E+20
  9
$PEXTMAX
 10
-1.0000000000E+20
 20
-1.0000000000E+20
 30
-1.0000000000E+20
  9
$PLIMMIN
 10
0.0
 20
0.0
  9
$PLIMMAX
 10
420.0
 20
297.0
  9
$UNITMODE
 70
     0
  9
$VISRETAIN
 70
     1
  9
$PLINEGEN
 70
     0
  9
$PSLTSCALE
 70
     1
  9
$TREEDEPTH
 70
  3020
  9
$CMLSTYLE
  2
Standard
  9
$CMLJUST
 70
     0
  9
$CMLSCALE
 40
20.0
  9
$PROXYGRAPHICS
 70
     1
  9
$MEASUREMENT
 70
     1
  9
$CELWEIGHT
370
    -1
  9
$ENDCAPS
280
     0
  9
$JOINSTYLE
280
     0
  9
$LWDISPLAY
290
     1
  9
$INSUNITS
 70
     4
  9
$HYPERLINKBASE
  1

  9
$STYLESHEET
  1

  9
$XEDIT
290
     1
  9
$CEPSNTYPE
380
     0
  9
$PSTYLEMODE
290
     1
  9
$FINGERPRINTGUID
  2
{3c85928a-1278-4ea5-89f3-35169b714a54}
  9
$VERSIONGUID
  2
{FAEB1C32-E019-11D5-929B-00C0DF256EC4}
  9
$EXTNAMES
290
     1
  9
$PSVPSCALE
 40
0.0
  9
$OLESTARTUP
290
     0
  0
ENDSEC
  0
SECTION
  2
CLASSES
  0
CLASS
  1
ACDBDICTIONARYWDFLT
  2
AcDbDictionaryWithDefault
  3
ObjectDBX Classes
 90
        0
280
     0
281
     0
  0
CLASS
  1
VISUALSTYLE
  2
AcDbVisualStyle
  3
ObjectDBX Classes
 90
     4095
280
     0
281
     0
  0
CLASS
  1
MATERIAL
  2
AcDbMaterial
  3
ObjectDBX Classes
 90
     1153
280
     0
281
     0
  0
CLASS
  1
SCALE
  2
AcDbScale
  3
ObjectDBX Classes
 90
     1153
280
     0
281
     0
  0
CLASS
  1
TABLESTYLE
  2
AcDbTableStyle
  3
ObjectDBX Classes
 90
     4095
280
     0
281
     0
  0
CLASS
  1
MLEADERSTYLE
  2
AcDbMLeaderStyle
  3
ACDB_MLEADERSTYLE_CLASS
 90
     4095
280
     0
281
     0
  0
CLASS
  1
SUN
  2
AcDbSun
  3
SCENEOE
 90
     1153
280
     0
281
     0
  0
CLASS
  1
ACDBPLACEHOLDER
  2
AcDbPlaceHolder
  3
ObjectDBX Classes
 90
        0
280
     0
281
     0
  0
CLASS
  1
LAYOUT
  2
AcDbLayout
  3
ObjectDBX Classes
 90
        0
280
     0
281
     0
  0
ENDSEC
  0
SECTION
  2
TABLES
  0
TABLE
  2
VPORT
  5
8
330
0
100
AcDbSymbolTable
 70
     1
  0
VPORT
  5
29
330
8
100
AcDbSymbolTableRecord
100
AcDbViewportTableRecord
  2
*Active
 70
     0
 10
0.0
 20
0.0
 11
1.0
 21
1.0
 12
10000.0
 22
5000.0
 13
0.0
 23
0.0
 14
10.0
 24
10.0
 15
10.0
 25
10.0
 16
0.0
 26
0.0
 36
1.0
 17
0.0
 27
0.0
 37
0.0
 40
10000.0
 41
2.0
 42
50.0
 43
0.0
 44
0.0
 50
0.0
 51
0.0
 71
     0
 72
  2000
 73
     1
 74
     3
 75
     0
 76
     0
 77
     0
 78
     0
281
     0
 65
     1
110
0.0
120
0.0
130
0.0
111
1.0
121
0.0
131
0.0
112
0.0
122
1.0
132
0.0
 79
     0
146
0.0
  0
ENDTAB
  0
TABLE
  2
LTYPE
  5
5
330
0
100
AcDbSymbolTable
 70
     6
  0
LTYPE
  5
14
330
5
100
AcDbSymbolTableRecord
100
AcDbLinetypeTableRecord
  2
ByBlock
 70
     0
  3

 72
    65
 73
     0
 40
0.0
  0
LTYPE
  5
15
330
5
100
AcDbSymbolTableRecord
100
AcDbLinetypeTableRecord
  2
ByLayer
 70
     0
  3

 72
    65
 73
     0
 40
0.0
  0
LTYPE
  5
16
330
5
100
AcDbSymbolTableRecord
100
AcDbLinetypeTableRecord
  2
Continuous
 70
     0
  3
Solid line
 72
    65
 73
     0
 40
0.0
  0
LTYPE
  5
6E
330
5
100
AcDbSymbolTableRecord
100
AcDbLinetypeTableRecord
  2
HIDDEN
 70
     0
  3
Hidden __ __ __ __ __ __ __ __ __ __ __ __ __ __
 72
    65
 73
     2
 40
1.905
 49
1.27
 74
     0
 49
-0.635
 74
     0
  0
LTYPE
  5
6F
330
5
100
AcDbSymbolTableRecord
100
AcDbLinetypeTableRecord
  2
PHANTOM
 70
     0
  3
Phantom ______  __  __  ______  __  __  ______
 72
    65
 73
     6
 40
12.7
 49
6.35
 74
     0
 49
-1.27
 74
     0
 49
1.27
 74
     0
 49
-1.27
 74
     0
 49
1.27
 74
     0
 49
-1.27
 74
     0
  0
LTYPE
  5
70
330
5
100
AcDbSymbolTableRecord
100
AcDbLinetypeTableRecord
  2
CENTER
 70
     0
  3
Center ____ _ ____ _ ____ _ ____ _ ____ _ ____
 72
    65
 73
     4
 40
10.16
 49
6.35
 74
     0
 49
-1.27
 74
     0
 49
1.27
 74
     0
 49
-1.27
 74
     0
  0
LTYPE
  5
71
330
5
100
AcDbSymbolTableRecord
100
AcDbLinetypeTableRecord
  2
CENTERX2
 70
     0
  3
Center (2x) ________  __  ________  __  _____
 72
    65
 73
     4
 40
20.32
 49
12.7
 74
     0
 49
-2.54
 74
     0
 49
2.54
 74
     0
 49
-2.54
 74
     0
  0
LTYPE
  5
72
330
5
100
AcDbSymbolTableRecord
100
AcDbLinetypeTableRecord
  2
DOT2
 70
     0
  3
Dot (.5x) ........................................
 72
    65
 73
     2
 40
0.635
 49
0.0
 74
     0
 49
-0.635
 74
     0
  0
ENDTAB
  0
TABLE
  2
LAYER
  5
2
330
0
100
AcDbSymbolTable
 70
    13
  0
LAYER
  5
10
330
2
100
AcDbSymbolTableRecord
100
AcDbLayerTableRecord
  2
0
 70
     0
 62
     7
  6
Continuous
370
    -3
390
F
  0
LAYER
  5
73
330
2
100
AcDbSymbolTableRecord
100
AcDbLayerTableRecord
  2
FORMAT
 70
     0
 62
     7
  6
Continuous
370
    -3
390
F
  0
LAYER
  5
74
330
2
100
AcDbSymbolTableRecord
100
AcDbLayerTableRecord
  2
OSA
 70
     0
 62
     7
  6
CENTER
370
    -3
390
F
  0
LAYER
  5
75
330
2
100
AcDbSymbolTableRecord
100
AcDbLayerTableRecord
  2
0_35
 70
     0
 62
     7
  6
Continuous
370
    35
390
F
  0
LAYER
  5
76
330
2
100
AcDbSymbolTableRecord
100
AcDbLayerTableRecord
  2
0_5
 70
     0
 62
     7
  6
Continuous
370
    50
390
F
  0
LAYER
  5
77
330
2
100
AcDbSymbolTableRecord
100
AcDbLayerTableRecord
  2
0_25
 70
     0
 62
     7
  6
Continuous
370
    25
390
F
  0
LAYER
  5
78
330
2
100
AcDbSymbolTableRecord
100
AcDbLayerTableRecord
  2
0_18
 70
     0
 62
     7
  6
Continuous
370
    -3
390
F
  0
LAYER
  5
79
330
2
100
AcDbSymbolTableRecord
100
AcDbLayerTableRecord
  2
SLD-0
 70
     0
 62
   179
  6
Continuous
370
    -3
390
F
  0
LAYER
  5
7A
330
2
100
AcDbSymbolTableRecord
100
AcDbLayerTableRecord
  2
KOTY
 70
     0
 62
     7
  6
Continuous
370
    -3
390
F
  0
LAYER
  5
7B
330
2
100
AcDbSymbolTableRecord
100
AcDbLayerTableRecord
  2
SILNA
 70
     0
 62
   179
  6
Continuous
370
    -3
390
F
  0
LAYER
  5
7C
330
2
100
AcDbSymbolTableRecord
100
AcDbLayerTableRecord
  2
0_18_1
 70
     0
 62
   179
  6
Continuous
370
    -3
390
F
  0
LAYER
  5
7D
330
2
100
AcDbSymbolTableRecord
100
AcDbLayerTableRecord
  2
0_35_1
 70
     0
 62
   179
  6
Continuous
370
    35
390
F
  0
LAYER
  5
7E
330
2
100
AcDbSymbolTableRecord
100
AcDbLayerTableRecord
  2
0_5_1
 70
     0
 62
   179
  6
Continuous
370
    50
390
F
  0
ENDTAB
  0
TABLE
  2
STYLE
  5
3
330
0
100
AcDbSymbolTable
 70
     1
  0
STYLE
  5
11
330
3
100
AcDbSymbolTableRecord
100
AcDbTextStyleTableRecord
  2
Standard
 70
     0
 40
0.0
 41
1.0
 50
0.0
 71
     0
 42
2.0
  3
txt
  4

  0
ENDTAB
  0
TABLE
  2
VIEW
  5
6
330
0
100
AcDbSymbolTable
 70
     0
  0
ENDTAB
  0
TABLE
  2
UCS
  5
7
330
0
100
AcDbSymbolTable
 70
     0
  0
ENDTAB
  0
TABLE
  2
APPID
  5
9
330
0
100
AcDbSymbolTable
 70
     1
  0
APPID
  5
12
330
9
100
AcDbSymbolTableRecord
100
AcDbRegAppTableRecord
  2
ACAD
 70
     0
  0
ENDTAB
  0
TABLE
  2
DIMSTYLE
  5
A
330
0
100
AcDbSymbolTable
 70
     1
100
AcDbDimStyleTable
  0
DIMSTYLE
105
27
330
A
100
AcDbSymbolTableRecord
100
AcDbDimStyleTableRecord
  2
ISO-25
 70
     0
 41
2.5
 42
0.625
 43
3.75
 44
1.25
 73
     0
 74
     0
 77
     1
 78
     8
140
2.5
141
2.5
143
0.0393700787
147
0.625
171
     3
172
     1
178
     0
271
     2
272
     2
274
     3
278
    44
283
     0
284
     8
340
11
  0
ENDTAB
  0
TABLE
  2
BLOCK_RECORD
  5
1
330
0
100
AcDbSymbolTable
 70
     1
  0
BLOCK_RECORD
  5
1F
330
1
100
AcDbSymbolTableRecord
100
AcDbBlockTableRecord
  2
*Model_Space
340
22
  0
BLOCK_RECORD
  5
1B
330
1
100
AcDbSymbolTableRecord
100
AcDbBlockTableRecord
  2
*Paper_Space
340
1E
  0
BLOCK_RECORD
  5
23
330
1
100
AcDbSymbolTableRecord
100
AcDbBlockTableRecord
  2
*Paper_Space0
340
26
  0
ENDTAB
  0
ENDSEC
  0
SECTION
  2
BLOCKS
  0
BLOCK
  5
20
330
1F
100
AcDbEntity
  8
0
100
AcDbBlockBegin
  2
*Model_Space
 70
     0
 10
0.0
 20
0.0
 30
0.0
  3
*Model_Space
  1

  0
ENDBLK
  5
21
330
1F
100
AcDbEntity
  8
0
100
AcDbBlockEnd
  0
BLOCK
  5
1C
330
1B
100
AcDbEntity
 67
     1
  8
0
100
AcDbBlockBegin
  2
*Paper_Space
 70
     0
 10
0.0
 20
0.0
 30
0.0
  3
*Paper_Space
  1

  0
ENDBLK
  5
1D
330
1B
100
AcDbEntity
 67
     1
  8
0
100
AcDbBlockEnd
  0
BLOCK
  5
24
330
23
100
AcDbEntity
  8
0
100
AcDbBlockBegin
  2
*Paper_Space0
 70
     0
 10
0.0
 20
0.0
 30
0.0
  3
*Paper_Space0
  1

  0
ENDBLK
  5
25
330
23
100
AcDbEntity
  8
0
100
AcDbBlockEnd
  0
ENDSEC
  0
SECTION
  2
ENTITIES
  0
ARC
  5
7F
330
1F
100
AcDbEntity
  8
0
  6
Continuous
 62
     7
370
    25
100
AcDbCircle
 10
6211.7436306994
 20
4949.3660868842
 30
0.0
 40
75.0179746249746
100
AcDbArc
 50
129.5006679622
 51
180.000122612
  0
LINE
  5
80
330
1F
100
AcDbEntity
  8
0
  6
Continuous
 62
     7
370
    25
100
AcDbLine
 10
6183.2256560746
 20
4949.3659263471
 30
0.0
 11
6184.3649656579
 21
4951.6867270743
 31
0.0
  0
ARC
  5
81
330
1F
100
AcDbEntity
  8
0
  6
Continuous
 62
     7
370
    25
100
AcDbCircle
 10
6172.1131689319
 20
5038.7855610432
 30
0.0
 40
1.684948033159283
100
AcDbArc
 50
87.8933425024
 51
172.0439896512
  0
ARC
  5
82
330
1F
100
AcDbEntity
  8
0
  6
Continuous
 62
     7
370
    25
100
AcDbCircle
 10
6208.116684246
 20
5025.8084186298
 30
0.0
 40
1.684948033160552
100
AcDbArc
 50
328.3135287928
 51
52.4641759416
  0
LINE
  5
83
330
1F
100
AcDbEntity
  8
0
  6
Continuous
 62
     7
370
    25
100
AcDbLine
 10
6170.4444391487
 20
5039.0187793637
 30
0.0
 11
6167.606977413
 21
5018.7160994692
 31
0.0
  0
LINE
  5
84
330
1F
100
AcDbEntity
  8
0
  6
Continuous
 62
     7
370
    25
100
AcDbLine
 10
6198.782415577
 20
5007.4791939247
 30
0.0
 11
6209.5504657721
 21
5024.9233647275
 31
0.0
  0
ARC
  5
85
330
1F
100
AcDbEntity
  8
0
  6
Continuous
 62
     7
370
    25
100
AcDbCircle
 10
6170.0395800181
 20
4982.4145800157
 30
0.0
 40
58.0940543280023
100
AcDbArc
 50
76.996019055
 51
87.8933425024
  0
ARC
  5
86
330
1F
100
AcDbEntity
  8
0
  6
Continuous
 62
     7
370
    25
100
AcDbCircle
 10
6173.7490214941
 20
4981.0775452876
 30
0.0
 40
58.09405432800229
100
AcDbArc
 50
52.4641759416
 51
63.361499389
  0
LINE
  5
87
330
1F
100
AcDbEntity
  8
0
  6
Continuous
 62
     7
370
    25
100
AcDbLine
 10
6167.6122653178
 20
5009.6788985915
 30
0.0
 11
6166.4254618619
 21
5006.3862556475
 31
0.0
  0
LINE
  5
88
330
1F
100
AcDbEntity
  8
0
  6
Continuous
 62
     7
370
    25
100
AcDbLine
 10
6191.8258502873
 20
4997.2309147015
 30
0.0
 11
6193.0126537433
 21
5000.5235576456
 31
0.0
  0
ARC
  5
89
330
1F
100
AcDbEntity
  8
0
  6
Continuous
 62
     7
370
    25
100
AcDbCircle
 10
6274.4252441241
 20
4989.3276177298
 30
0.0
 40
2.500000000000135
100
AcDbArc
 50
293.0694956747
 51
23.0694956747
  0
ARC
  5
8A
330
1F
100
AcDbEntity
  8
0
  6
Continuous
 62
     7
370
    25
100
AcDbCircle
 10
6257.8646996675
 20
4982.2743654799
 30
0.0
 40
2.500000000000492
100
AcDbArc
 50
203.0694956747
 51
293.0694956747
  0
LINE
  5
8B
330
1F
100
AcDbEntity
  8
0
  6
Continuous
 62
     7
370
    25
100
AcDbLine
 10
6250.9068369043
 20
4992.2309065371
 30
0.0
 11
6255.5646240486
 21
4981.2947471118
 31
0.0
  0
LINE
  5
8C
330
1F
100
AcDbEntity
  8
0
  6
Continuous
 62
     7
370
    25
100
AcDbLine
 10
6276.7253197431
 20
4990.3072360979
 30
0.0
 11
6271.2002721473
 21
5003.2796625889
 31
0.0
  0
ARC
  5
8D
330
1F
100
AcDbEntity
  8
0
  6
Continuous
 62
     7
370
    25
100
AcDbCircle
 10
6183.7714189532
 20
5038.2743489468
 30
0.0
 40
0.9946014125276825
100
AcDbArc
 50
81.5411599762
 51
131.541886836
  0
ARC
  5
8E
330
1F
100
AcDbEntity
  8
0
  6
Continuous
 62
     7
370
    25
100
AcDbCircle
 10
6198.8132097171
 20
5032.8526711136
 30
0.0
 40
0.9946014125273439
100
AcDbArc
 50
8.8156316081
 51
58.8163584679
  0
ARC
  5
8F
330
1F
100
AcDbEntity
  8
0
  6
Continuous
 62
     7
370
    25
100
AcDbCircle
 10
6199.1333545384
 20
4997.3221479797
 30
0.0
 40
4.999998674835058
100
AcDbArc
 50
190.7203328589
 51
288.7498039927
  0
ARC
  5
90
330
1F
100
AcDbEntity
  8
0
  6
Continuous
 62
     7
370
    25
100
AcDbCircle
 10
6178.86243907
 20
5005.2654045335
 30
0.0
 40
34.36657310696024
100
AcDbArc
 50
70.178759222
 51
81.5411599762
  0
ARC
  5
91
330
1F
100
AcDbEntity
  8
0
  6
Continuous
 62
     7
370
    25
100
AcDbCircle
 10
6181.5337776406
 20
5004.302544636
 30
0.0
 40
34.36657310695978
100
AcDbArc
 50
58.8163584679
 51
70.178759222
  0
LINE
  5
92
330
1F
100
AcDbEntity
  8
0
  6
Continuous
 62
     7
370
    25
100
AcDbLine
 10
6193.1870255642
 20
5036.6330744793
 30
0.0
 11
6190.5156869936
 21
5037.5959343768
 31
0.0
  0
LWPOLYLINE
  5
93
330
1F
100
AcDbEntity
  8
0
  6
Continuous
 62
     7
370
    25
100
AcDbPolyline
 90
       19
 70
   128
 43
0.0
 10
6184.3774093688
 20
4951.6806111637
 10
6184.3623906052
 20
4951.7085893302
 10
6184.2097676963
 20
4951.7780309419
 10
6183.8990363081
 20
4951.8773915511
 10
6183.4154577906
 20
4952.0151013927
 10
6182.7679676995
 20
4952.1908658767
 10
6182.0057970047
 20
4952.3949804456
 10
6181.1045758248
 20
4952.6392691325
 10
6180.0346297018
 20
4952.9373244816
 10
6178.8308496049
 20
4953.2826407298
 10
6177.7437017453
 20
4953.6016387566
 10
6176.5699576859
 20
4953.9530720314
 10
6174.2207246433
 20
4954.6740143194
 10
6171.6245800992
 20
4955.4816685431
 10
6169.6358755785
 20
4956.0759310662
 10
6167.5545946705
 20
4956.6298648685
 10
6166.1223793449
 20
4956.9227217561
 10
6164.6390068312
 20
4957.0598006518
 10
6164.2999567605
 20
4957.0514255263
  0
LINE
  5
94
330
1F
100
AcDbEntity
  8
0
  6
Continuous
 62
     7
370
    25
100
AcDbLine
 10
6192.9348761559
 20
4996.8311763285
 30
0.0
 11
6164.0256561975
 21
5007.2512439576
 31
0.0
  0
LWPOLYLINE
  5
95
330
1F
100
AcDbEntity
  8
0
  6
Continuous
 62
     7
370
    25
100
AcDbPolyline
 90
       16
 70
   128
 43
0.0
 10
6173.7205157251
 20
4988.2872247901
 10
6175.4247357385
 20
4989.0438811433
 10
6177.1202376431
 20
4989.8016763219
 10
6178.4811870012
 20
4990.414213241
 10
6179.8306493525
 20
4991.0258587131
 10
6181.8254202009
 20
4991.9386827906
 10
6183.7970957911
 20
4992.8495154534
 10
6185.1082647584
 20
4993.455771089
 10
6186.7961635554
 20
4994.2334808153
 10
6188.005356498
 20
4994.7854099874
 10
6189.171251994
 20
4995.3092911048
 10
6189.9295947214
 20
4995.6424451004
 10
6191.0771572695
 20
4996.1257312333
 10
6191.8376457984
 20
4996.427892854
 10
6192.9352984521
 20
4996.8310078508
 10
6192.9353214524
 20
4996.8310158254
  0
LINE
  5
96
330
1F
100
AcDbEntity
  8
0
  6
Continuous
 62
     7
370
    25
100
AcDbLine
 10
6162.4236253114
 20
4956.9453658464
 30
0.0
 11
6162.4259928211
 21
4956.9519342166
 31
0.0
  0
LINE
  5
97
330
1F
100
AcDbEntity
  8
0
  6
Continuous
 62
     7
370
    25
100
AcDbLine
 10
6162.4236253113
 20
4956.9453658464
 30
0.0
 11
6162.4889177543
 21
4956.9733477147
 31
0.0
  0
LINE
  5
98
330
1F
100
AcDbEntity
  8
0
  6
Continuous
 62
     7
370
    25
100
AcDbLine
 10
6162.5132287671
 20
4956.895711712
 30
0.0
 11
6162.4889177543
 21
4956.9733477147
 31
0.0
  0
ARC
  5
99
330
1F
100
AcDbEntity
  8
0
  6
Continuous
 62
     7
370
    25
100
AcDbCircle
 10
6164.2419338214
 20
4947.3885022031
 30
0.0
 40
9.66309752669279
100
AcDbArc
 50
89.6559602658
 51
100.3055553052
  0
LINE
  5
9A
330
1F
100
AcDbEntity
  8
0
  6
Continuous
 62
     7
370
    25
100
AcDbLine
 10
6159.9756560746
 20
4949.3659263471
 30
0.0
 11
6183.2256559993
 21
4949.3659263471
 31
0.0
  0
LINE
  5
9B
330
1F
100
AcDbEntity
  8
0
  6
Continuous
 62
     7
370
    25
100
AcDbLine
 10
6136.7256560751
 20
4949.3659263471
 30
0.0
 11
6159.9756560746
 21
4949.3659263471
 31
0.0
  0
LWPOLYLINE
  5
9C
330
1F
100
AcDbEntity
  8
0
  6
Continuous
 62
     7
370
    25
100
AcDbPolyline
 90
       26
 70
   128
 43
0.0
 10
6164.2953845328
 20
4957.748119766
 10
6164.2954436893
 20
4957.7481279023
 10
6164.6699919829
 20
4957.7923864401
 10
6165.6186966205
 20
4957.8492506626
 10
6167.2024440861
 20
4957.8228935665
 10
6169.3868307985
 20
4957.6476860186
 10
6170.3104765118
 20
4957.5441554693
 10
6172.2844717113
 20
4957.279415711
 10
6173.7035952304
 20
4957.0558713772
 10
6175.7551326324
 20
4956.6923588291
 10
6177.7447416717
 20
4956.2926335744
 10
6179.0472352727
 20
4956.00429697
 10
6179.6661628532
 20
4955.8596713057
 10
6180.2712138198
 20
4955.7124664239
 10
6181.1481477356
 20
4955.4894914654
 10
6181.9648143696
 20
4955.2728991362
 10
6183.0657093254
 20
4954.9666707596
 10
6183.7147158905
 20
4954.7772303059
 10
6184.6323085206
 20
4954.4971700805
 10
6185.1054602683
 20
4954.343869956
 10
6185.5036710407
 20
4954.2088928998
 10
6185.9587101045
 20
4954.0433747698
 10
6186.1682787738
 20
4953.9578929679
 10
6186.3495707907
 20
4953.8614580136
 10
6186.3651804587
 20
4953.8321527674
 10
6186.365179917
 20
4953.8321515175
  0
LINE
  5
9D
330
1F
100
AcDbEntity
  8
0
  6
Continuous
 62
     7
370
    25
100
AcDbLine
 10
6164.2953845328
 20
4957.748119766
 30
0.0
 11
6260.6199242954
 21
4998.7734180938
 31
0.0
  0
ARC
  5
9E
330
1F
100
AcDbEntity
  8
0
  6
Continuous
 62
     7
370
    25
100
AcDbCircle
 10
6271.788188948
 20
4971.6922540907
 30
0.0
 40
29.29367814246332
100
AcDbArc
 50
112.411237537
 51
139.8788205986
  0
LINE
  5
9F
330
1F
100
AcDbEntity
  8
0
  6
Continuous
 62
     7
370
    25
100
AcDbLine
 10
6186.365179917
 20
4953.8321515175
 30
0.0
 11
6249.3878039949
 21
4990.5692859832
 31
0.0
  0
ARC
  5
A0
330
1F
100
AcDbEntity
  8
0
  6
Continuous
 62
     7
370
    25
100
AcDbCircle
 10
6212.5451300755
 20
4957.7164084936
 30
0.0
 40
48.24975596358087
100
AcDbArc
 50
179.9623433909
 51
180.7896811704
  0
ARC
  5
A1
330
1F
100
AcDbEntity
  8
0
  6
Continuous
 62
     7
370
    25
100
AcDbCircle
 10
6188.8845892346
 20
4949.5105098402
 30
0.0
 40
5.002400433480911
100
AcDbArc
 50
120.2411188986
 51
154.2902765119
  0
ARC
  5
A2
330
1F
100
AcDbEntity
  8
0
  6
Continuous
 62
     7
370
    25
100
AcDbCircle
 10
6227.432124723
 20
4977.2223401203
 30
0.0
 40
68.02672176860787
100
AcDbArc
 50
197.3130392905
 51
197.3857578979
  0
LINE
  5
A3
330
1F
100
AcDbEntity
  8
0
  6
Continuous
 62
     7
370
    25
100
AcDbLine
 10
6162.4874829277
 20
4956.9781217688
 30
0.0
 11
6164.2953845328
 21
4957.748119766
 31
0.0
  0
LINE
  5
A4
330
1F
100
AcDbEntity
  8
0
  6
Continuous
 62
     7
370
    25
100
AcDbLine
 10
6162.4259921755
 20
4956.9519324254
 30
0.0
 11
6162.4874829277
 21
4956.9781217688
 31
0.0
  0
LINE
  5
A5
330
1F
100
AcDbEntity
  8
0
  6
Continuous
 62
     7
370
    25
100
AcDbLine
 10
6162.4260008604
 20
4956.9519565204
 30
0.0
 11
6171.7196749739
 21
4982.7361336229
 31
0.0
  0
LINE
  5
A6
330
1F
100
AcDbEntity
  8
0
  6
Continuous
 62
     7
370
    25
100
AcDbLine
 10
6171.7196749739
 20
4982.7361336229
 30
0.0
 11
6173.4636778126
 21
4987.5746590016
 31
0.0
  0
LWPOLYLINE
  5
A7
330
1F
100
AcDbEntity
  8
0
  6
Continuous
 62
     7
370
    25
100
AcDbPolyline
 90
       11
 70
   128
 43
0.0
 10
6193.4017572555
 20
4989.1417561814
 10
6191.0747970045
 20
4988.4893517203
 10
6188.689724213
 20
4988.0477941964
 10
6186.2728545233
 20
4987.7649707367
 10
6183.8505035778
 20
4987.5887684685
 10
6180.0269125436
 20
4987.4383734768
 10
6176.199675246
 20
4987.4235506749
 10
6173.9159216721
 20
4987.5145251525
 10
6173.5499467638
 20
4987.559795486
 10
6173.4637368018
 20
4987.5746480375
 10
6173.4636778126
 20
4987.5746590016
  0
LWPOLYLINE
  5
A8
330
1F
100
AcDbEntity
  8
0
  6
Continuous
 62
     7
370
    25
100
AcDbPolyline
 90
        5
 70
   128
 43
0.0
 10
6255.0953340907
 20
5010.0125370119
 10
6239.6706559035
 20
5004.7995009664
 10
6224.2469231915
 20
4999.5828248109
 10
6208.8240455073
 20
4994.3633865284
 10
6193.4017572555
 20
4989.1417561814
  0
LWPOLYLINE
  5
A9
330
1F
100
AcDbEntity
  8
0
  6
Continuous
 62
     7
370
    25
100
AcDbPolyline
 90
        5
 70
   128
 43
0.0
 10
6260.6199242954
 20
4998.7734180938
 10
6259.5776730503
 20
5000.902946191
 10
6257.9781649144
 20
5004.1630986949
 10
6256.4087473636
 20
5007.3519414599
 10
6255.0953340907
 20
5010.0125370119
  0
LINE
  5
AA
330
1F
100
AcDbEntity
  8
0
  6
Continuous
 62
     7
370
    25
100
AcDbLine
 10
6162.4889177543
 20
4956.9733477147
 30
0.0
 11
6162.4874829277
 21
4956.9781217688
 31
0.0
  0
LINE
  5
AB
330
1F
100
AcDbEntity
  8
0
  6
Continuous
 62
     7
370
    25
100
AcDbLine
 10
6167.606977413
 20
5018.7160994692
 30
0.0
 11
6198.782415577
 21
5007.4791939247
 31
0.0
  0
LWPOLYLINE
  5
AC
330
1F
100
AcDbEntity
  8
0
  6
Continuous
 62
     7
370
    25
100
AcDbPolyline
 90
        9
 70
   128
 43
0.0
 10
6173.4909316394
 20
4987.6502714547
 10
6173.5633261395
 20
4987.6438361224
 10
6173.9264338885
 20
4987.6261589972
 10
6176.2014577835
 20
4987.6784525979
 10
6180.0077234159
 20
4987.904437827
 10
6183.8011332928
 20
4988.2377550969
 10
6186.9331834136
 20
4988.6084671005
 10
6190.0339449158
 20
4989.1514424602
 10
6193.0520597858
 20
4989.9775795131
  0
ARC
  5
AD
330
1F
100
AcDbEntity
  8
0
  6
Continuous
 62
     7
370
    25
100
AcDbCircle
 10
6189.998970246
 20
4988.2091410023
 30
0.0
 40
3.528275854387532
100
AcDbArc
 50
15.3269097465
 51
30.080673995
  0
LINE
  5
AE
330
1F
100
AcDbEntity
  8
0
  6
Continuous
 62
     7
370
    25
100
AcDbLine
 10
6173.4636778126
 20
4987.5746590016
 30
0.0
 11
6173.4909316394
 21
4987.6502714547
 31
0.0
  0
LINE
  5
AF
330
1F
100
AcDbEntity
  8
0
  6
Continuous
 62
     7
370
    25
100
AcDbLine
 10
6183.1118317154
 20
5039.0187793637
 30
0.0
 11
6199.7960615119
 21
5033.0050991928
 31
0.0
  0
ARC
  5
B0
330
1F
100
AcDbEntity
  8
0
  6
Continuous
 62
     7
370
    25
100
AcDbCircle
 10
6197.8715144273
 20
4996.8157505494
 30
0.0
 40
4.936216578956516
100
AcDbArc
 50
179.8228122153
 51
285.0786648572
  0
LINE
  5
B1
330
1F
100
AcDbEntity
  8
0
  6
Continuous
 62
     7
370
    25
100
AcDbLine
 10
6173.4909316394
 20
4987.6502714547
 30
0.0
 11
6173.7205157251
 21
4988.2872247901
 31
0.0
  0
LINE
  5
B2
330
1F
100
AcDbEntity
  8
0
  6
Continuous
 62
     7
370
    25
100
AcDbLine
 10
6193.0520597858
 20
4989.9775795131
 30
0.0
 11
6254.7228574277
 21
5010.9122167806
 31
0.0
  0
ARC
  5
B3
330
1F
100
AcDbEntity
  8
0
  6
Continuous
 62
     7
370
    25
100
AcDbCircle
 10
6251.389073787
 20
5009.005051653
 30
0.0
 40
3.840754116995501
100
AcDbArc
 50
15.2074387014
 51
29.7726757335
  0
LINE
  5
B4
330
1F
100
AcDbEntity
  8
0
  6
Continuous
 62
     7
370
    25
100
AcDbLine
 10
6272.448714025
 20
5003.811382757
 30
0.0
 11
6260.6199242954
 21
4998.7734180938
 31
0.0
  0
LWPOLYLINE
  5
B5
330
1F
100
AcDbEntity
  8
0
  6
Continuous
 62
     7
370
    25
100
AcDbPolyline
 90
       18
 70
   128
 43
0.0
 10
6267.5033418984
 20
5014.3136640142
 10
6267.3609228135
 20
5014.2663917258
 10
6267.0585626606
 20
5014.1633874521
 10
6266.7292950559
 20
5014.0503889257
 10
6266.4620709878
 20
5013.958411327
 10
6265.9548191101
 20
5013.7834440693
 10
6265.1920528698
 20
5013.5197967625
 10
6264.5312896912
 20
5013.2910774743
 10
6264.0509039863
 20
5013.1246594074
 10
6263.2157217427
 20
5012.8351226902
 10
6262.0756812247
 20
5012.4395679797
 10
6261.1566484861
 20
5012.1204751376
 10
6260.5167944676
 20
5011.8982168064
 10
6259.4480740028
 20
5011.5268308973
 10
6258.0645841894
 20
5011.0458001684
 10
6256.9953119001
 20
5010.6738379318
 10
6256.2712146302
 20
5010.4218646981
 10
6255.0953340907
 20
5010.0125370119
  0
LWPOLYLINE
  5
B6
330
1F
100
AcDbEntity
  8
0
  6
Continuous
 62
     7
370
    25
100
AcDbPolyline
 90
        3
 70
   128
 43
0.0
 10
6267.5033418984
 20
5014.3136640142
 10
6269.9766120451
 20
5009.0627986008
 10
6272.448714025
 20
5003.811382757
  0
ARC
  5
B7
330
1F
100
AcDbEntity
  8
0
  6
Continuous
 62
     7
370
    25
100
AcDbCircle
 10
6266.598289887
 20
5013.8865769873
 30
0.0
 40
1.000760946409837
100
AcDbArc
 50
25.2622613071
 51
108.7691041207
  0
LWPOLYLINE
  5
B8
330
1F
100
AcDbEntity
  8
0
  6
Continuous
 62
     7
370
    25
100
AcDbPolyline
 90
       10
 70
   128
 43
0.0
 10
6254.7228574277
 20
5010.9122167806
 10
6256.7908420247
 20
5011.614210417
 10
6258.7785115999
 20
5012.2889404904
 10
6260.6281079449
 20
5012.9168005224
 10
6262.2880846535
 20
5013.48029268
 10
6263.7015779496
 20
5013.9601141068
 10
6264.8385016204
 20
5014.3460518011
 10
6265.6572040828
 20
5014.6239668049
 10
6266.146290549
 20
5014.7899910675
 10
6266.2762898664
 20
5014.8341203681
  0
LINE
  5
B9
330
1F
100
AcDbEntity
  8
0
  6
Continuous
 62
     7
370
    25
100
AcDbLine
 10
6170.2784778305
 20
5008.7178863354
 30
0.0
 11
6178.5870021448
 21
5005.723153673
 31
0.0
  0
LINE
  5
BA
330
1F
100
AcDbEntity
  8
0
  6
Continuous
 62
     7
370
    25
100
AcDbLine
 10
6178.5870021448
 20
5005.723153673
 30
0.0
 11
6181.4692391092
 21
5013.7195722514
 31
0.0
  0
LINE
  5
BB
330
1F
100
AcDbEntity
  8
0
  6
Continuous
 62
     7
370
    25
100
AcDbLine
 10
6184.9201538808
 20
5012.4757211425
 30
0.0
 11
6182.0379169164
 21
5004.4793025641
 31
0.0
  0
LINE
  5
BC
330
1F
100
AcDbEntity
  8
0
  6
Continuous
 62
     7
370
    25
100
AcDbLine
 10
6182.0379169164
 20
5004.4793025641
 30
0.0
 11
6190.3464412306
 21
5001.4845699017
 31
0.0
  0
LINE
  5
BD
330
1F
100
AcDbEntity
  8
0
  6
Continuous
 62
     7
370
    25
100
AcDbLine
 10
6190.3464412306
 20
5001.4845699017
 30
0.0
 11
6193.2286781951
 21
5009.4809884801
 31
0.0
  0
LINE
  5
BE
330
1F
100
AcDbEntity
  8
0
  6
Continuous
 62
     7
370
    25
100
AcDbLine
 10
6194.9541355809
 20
5008.8590629257
 30
0.0
 11
6192.0718986164
 21
5000.8626443473
 31
0.0
  0
LINE
  5
BF
330
1F
100
AcDbEntity
  8
0
  6
Continuous
 62
     7
370
    25
100
AcDbLine
 10
6192.0718986164
 20
5000.8626443473
 30
0.0
 11
6193.0126537433
 21
5000.5235576456
 31
0.0
  0
LINE
  5
C0
330
1F
100
AcDbEntity
  8
0
  6
Continuous
 62
     7
370
    25
100
AcDbLine
 10
6167.6122653178
 20
5009.6788985915
 30
0.0
 11
6168.5530204447
 21
5009.3398118898
 31
0.0
  0
LINE
  5
C1
330
1F
100
AcDbEntity
  8
0
  6
Continuous
 62
     7
370
    25
100
AcDbLine
 10
6168.5530204447
 20
5009.3398118898
 30
0.0
 11
6171.4352574092
 21
5017.3362304682
 31
0.0
  0
LINE
  5
C2
330
1F
100
AcDbEntity
  8
0
  6
Continuous
 62
     7
370
    25
100
AcDbLine
 10
6173.160714795
 20
5016.7143049138
 30
0.0
 11
6170.2784778305
 21
5008.7178863354
 31
0.0
  0
LINE
  5
C3
330
1F
100
AcDbEntity
  8
0
  6
Continuous
 62
     7
370
    25
100
AcDbLine
 10
6275.4048624922
 20
4987.0275421108
 30
0.0
 11
6258.8443180356
 21
4979.9742898609
 31
0.0
  0
LINE
  5
C4
330
1F
100
AcDbEntity
  8
0
  6
Continuous
 62
     7
370
    25
100
AcDbLine
 10
6194.2256435807
 20
4996.3659308504
 30
0.0
 11
6192.9348761559
 21
4996.8311763285
 31
0.0
  0
LINE
  5
C5
330
1F
100
AcDbEntity
  8
0
  6
Continuous
 62
     8
370
    25
100
AcDbLine
 10
6172.1751073279
 20
5040.4693702692
 30
0.0
 11
6209.1432512236
 21
5027.1445361826
 31
0.0
  0
LINE
  5
C6
330
1F
100
AcDbEntity
  8
0
  6
Continuous
 62
     8
370
    25
100
AcDbLine
 10
6170.4444391487
 20
5039.0187793637
 30
0.0
 11
6209.5504657721
 21
5024.9233647275
 31
0.0
  0
LINE
  5
C7
330
1F
100
AcDbEntity
  8
0
  6
Continuous
 62
     8
370
    25
100
AcDbLine
 10
6255.5646240486
 20
4981.2947471118
 30
0.0
 11
6276.7253197431
 21
4990.3072360979
 31
0.0
  0
LINE
  5
C8
330
1F
100
AcDbEntity
  8
0
  6
Continuous
 62
     8
370
    25
100
AcDbLine
 10
6183.9177237137
 20
5039.2581308774
 30
0.0
 11
6199.3281971955
 21
5033.7035646833
 31
0.0
  0
LWPOLYLINE
  5
C9
330
1F
100
AcDbEntity
  8
0
  6
Continuous
 62
     7
370
    25
100
AcDbPolyline
 90
       35
 70
   128
 43
0.0
 10
6007.8312674708
 20
4985.8008410558
 10
6007.8274188318
 20
4985.7469257132
 10
6007.889593933
 20
4985.1060708695
 10
6008.0509127036
 20
4984.4957918586
 10
6008.3021201314
 20
4983.9207491672
 10
6008.63816133
 20
4983.3801124856
 10
6009.0597970581
 20
4982.8701686056
 10
6009.574337548
 20
4982.3862175355
 10
6010.1930625349
 20
4981.9260248217
 10
6010.9219715459
 20
4981.4941429944
 10
6011.7500069651
 20
4981.1021700193
 10
6012.6485998299
 20
4980.7620169689
 10
6013.5971518042
 20
4980.475811231
 10
6014.5854360276
 20
4980.2410650393
 10
6015.6062801988
 20
4980.0553666809
 10
6016.6529689443
 20
4979.9171335715
 10
6017.7183912028
 20
4979.8254753095
 10
6018.794926071
 20
4979.7799279705
 10
6019.8745804789
 20
4979.7802552959
 10
6020.9492006915
 20
4979.8263425214
 10
6022.0099293589
 20
4979.9180925903
 10
6023.0490504137
 20
4980.0555614814
 10
6024.0594257888
 20
4980.2391425477
 10
6025.0347434084
 20
4980.4698778365
 10
6025.9697067554
 20
4980.7499782704
 10
6026.8599993181
 20
4981.0836272887
 10
6027.701521811
 20
4981.4780125037
 10
6028.4875843483
 20
4981.9437422751
 10
6029.1196431791
 20
4982.4198495111
 10
6029.6445732112
 20
4982.9244107084
 10
6030.0674963185
 20
4983.4530704526
 10
6030.3959100715
 20
4984.0063362841
 10
6030.632757989
 20
4984.5834843156
 10
6030.7771972859
 20
4985.1803015844
 10
6030.8226897382
 20
4985.7853621814
  0
LINE
  5
CA
330
1F
100
AcDbEntity
  8
0
  6
Continuous
 62
     7
370
    25
100
AcDbLine
 10
6007.8270423125
 20
4998.7734180958
 30
0.0
 11
6007.8270423125
 21
4985.8009916048
 31
0.0
  0
LINE
  5
CB
330
1F
100
AcDbEntity
  8
0
  6
Continuous
 62
     7
370
    25
100
AcDbLine
 10
6030.8270423125
 20
4985.8009916048
 30
0.0
 11
6030.8270423125
 21
4998.7734180958
 31
0.0
  0
LWPOLYLINE
  5
CC
330
1F
100
AcDbEntity
  8
0
  6
Continuous
 62
     7
370
    25
100
AcDbPolyline
 90
       19
 70
   128
 43
0.0
 10
6032.6284918796
 20
5010.1702631265
 10
6032.6113945847
 20
5010.2809969198
 10
6032.4401900446
 20
5010.7471744302
 10
6032.1761031658
 20
5011.1954983826
 10
6031.8123271186
 20
5011.6331137967
 10
6031.3379807545
 20
5012.0624908741
 10
6030.749923849
 20
5012.4771929913
 10
6030.0596840104
 20
5012.8656601965
 10
6029.288406575
 20
5013.2183808064
 10
6028.4473628023
 20
5013.5345436108
 10
6027.5461155263
 20
5013.8143046011
 10
6026.5892931842
 20
5014.0599715319
 10
6025.5680429962
 20
5014.2760421394
 10
6024.4893208432
 20
5014.4615866493
 10
6023.3613397665
 20
5014.6154071471
 10
6022.1939686776
 20
5014.7361744032
 10
6020.999139421
 20
5014.8226147051
 10
6019.7891618125
 20
5014.8738227232
 10
6019.3271129709
 20
5014.879717485
  0
LWPOLYLINE
  5
CD
330
1F
100
AcDbEntity
  8
0
  6
Continuous
 62
     7
370
    25
100
AcDbPolyline
 90
       18
 70
   128
 43
0.0
 10
6019.3268083792
 20
5014.8830743701
 10
6018.1990889749
 20
5014.8500923458
 10
6017.0115450647
 20
5014.7805933594
 10
6015.8382040143
 20
5014.6764731405
 10
6014.6908472066
 20
5014.5381206127
 10
6013.5813406947
 20
5014.3662505482
 10
6012.5215574785
 20
5014.1619357035
 10
6011.5214311505
 20
5013.9262072801
 10
6010.5888925112
 20
5013.6597340684
 10
6009.7338163281
 20
5013.3643095686
 10
6008.9584410558
 20
5013.0409783928
 10
6008.2477174349
 20
5012.6810285167
 10
6007.6080744119
 20
5012.2806550053
 10
6007.0481761664
 20
5011.8340865785
 10
6006.6274868996
 20
5011.391969803
 10
6006.3144083021
 20
5010.9391459103
 10
6006.1031468685
 20
5010.4788787305
 10
6006.0270717947
 20
5010.1693054005
  0
LWPOLYLINE
  5
CE
330
1F
100
AcDbEntity
  8
0
  6
Continuous
 62
     7
370
    25
100
AcDbPolyline
 90
        3
 70
   128
 43
0.0
 10
6006.0069766186
 20
5010.1596488995
 10
6003.0218397978
 20
4995.0137542958
 10
6001.8883546939
 20
4989.2226547944
  0
LINE
  5
CF
330
1F
100
AcDbEntity
  8
0
  6
Continuous
 62
     7
370
    25
100
AcDbLine
 10
6034.6997639331
 20
4999.7142599241
 30
0.0
 11
6032.6445167743
 21
5010.1597260148
 31
0.0
  0
LWPOLYLINE
  5
D0
330
1F
100
AcDbEntity
  8
0
  6
Continuous
 62
     7
370
    25
100
AcDbPolyline
 90
       21
 70
   128
 43
0.0
 10
6040.0392765636
 20
5031.403278233
 10
6040.0583668331
 20
5031.4674840468
 10
6040.1437968659
 20
5032.1291206891
 10
6040.1176887166
 20
5032.7772130111
 10
6039.9875418654
 20
5033.4059442697
 10
6039.7597134648
 20
5034.0117616441
 10
6039.435673564
 20
5034.5980103281
 10
6039.0115065938
 20
5035.1690820074
 10
6038.4798087931
 20
5035.7277253126
 10
6037.834904414
 20
5036.2721052458
 10
6037.0789859857
 20
5036.7953076513
 10
6036.2225953579
 20
5037.2891300324
 10
6035.2804302897
 20
5037.7475658994
 10
6034.2624224066
 20
5038.1694988159
 10
6033.1749260173
 20
5038.5556061085
 10
6032.0231761212
 20
5038.906564199
 10
6030.8121757213
 20
5039.222712244
 10
6029.5471131276
 20
5039.5040512937
 10
6028.2335186508
 20
5039.7503386124
 10
6026.8772981475
 20
5039.9611889026
 10
6026.7935901851
 20
5039.971706255
  0
LWPOLYLINE
  5
D1
330
1F
100
AcDbEntity
  8
0
  6
Continuous
 62
     7
370
    25
100
AcDbPolyline
 90
       19
 70
   128
 43
0.0
 10
6010.3429089742
 20
5039.7334177575
 10
6010.0574027133
 20
5039.6865889085
 10
6008.7619130169
 20
5039.4318577965
 10
6007.5175051685
 20
5039.1428195288
 10
6006.3295917872
 20
5038.8198574509
 10
6005.2031021191
 20
5038.4630918436
 10
6004.1424671063
 20
5038.0721992725
 10
6003.1516768072
 20
5037.6461664691
 10
6002.2345036878
 20
5037.1829888112
 10
6001.3950854024
 20
5036.679418361
 10
6000.6391976723
 20
5036.1311620488
 10
5999.9780933902
 20
5035.5362606167
 10
5999.4818438036
 20
5034.9701037544
 10
5999.0919049194
 20
5034.3913041804
 10
5998.8037514868
 20
5033.8022220265
 10
5998.6131240815
 20
5033.2034436376
 10
5998.5142967752
 20
5032.5405237305
 10
5998.5279543713
 20
5031.8904983032
 10
5998.6155306271
 20
5031.4241944387
  0
LINE
  5
D2
330
1F
100
AcDbEntity
  8
0
  6
Continuous
 62
     7
370
    25
100
AcDbLine
 10
5998.6023437079
 20
5031.4373603564
 30
0.0
 11
6002.8052523063
 21
5012.6721701861
 31
0.0
  0
LINE
  5
D3
330
1F
100
AcDbEntity
  8
0
  6
Continuous
 62
     7
370
    25
100
AcDbLine
 10
6035.8488323104
 20
5012.6721701861
 30
0.0
 11
6040.0517409089
 21
5031.4373603564
 31
0.0
  0
LWPOLYLINE
  5
D4
330
1F
100
AcDbEntity
  8
0
  6
Continuous
 62
     7
370
    25
100
AcDbPolyline
 90
       14
 70
   128
 43
0.0
 10
6027.991506644
 20
5036.6320972691
 10
6027.8584083934
 20
5036.8445715723
 10
6027.526148319
 20
5037.210233517
 10
6027.088277532
 20
5037.5628893898
 10
6026.536457985
 20
5037.8982449542
 10
6025.8855158257
 20
5038.2029663757
 10
6025.1628176406
 20
5038.4676106376
 10
6024.3799924511
 20
5038.6932737944
 10
6023.5450467826
 20
5038.8814058067
 10
6022.665839833
 20
5039.0326037737
 10
6021.7510294624
 20
5039.1468449964
 10
6020.8101166488
 20
5039.223845609
 10
6019.8532563185
 20
5039.2633102751
 10
6019.3270423084
 20
5039.2689503594
  0
LWPOLYLINE
  5
D5
330
1F
100
AcDbEntity
  8
0
  6
Continuous
 62
     7
370
    25
100
AcDbPolyline
 90
       14
 70
   128
 43
0.0
 10
6019.3270423084
 20
5039.2689503594
 10
6018.8206816764
 20
5039.2637282057
 10
6017.8650029097
 20
5039.2251256439
 10
6016.9261184689
 20
5039.1492066554
 10
6016.0147194012
 20
5039.0364970498
 10
6015.140541787
 20
5038.8876003943
 10
6014.3124797321
 20
5038.703012451
 10
6013.5383128132
 20
5038.4827708908
 10
6012.8244662025
 20
5038.2258252489
 10
6012.175994796
 20
5037.9289202715
 10
6011.5975394544
 20
5037.5848539981
 10
6011.097705182
 20
5037.1815144608
 10
6010.7609763834
 20
5036.7979785447
 10
6010.6517004027
 20
5036.6130380803
  0
LINE
  5
D6
330
1F
100
AcDbEntity
  8
0
  6
Continuous
 62
     7
370
    25
100
AcDbLine
 10
6005.8270423084
 20
5009.8400487176
 30
0.0
 11
6005.8270423084
 21
5009.246703778
 31
0.0
  0
LINE
  5
D7
330
1F
100
AcDbEntity
  8
0
  6
Continuous
 62
     7
370
    25
100
AcDbLine
 10
6032.8270423084
 20
5009.2320690814
 30
0.0
 11
6032.8270423084
 21
5009.8400487176
 31
0.0
  0
LWPOLYLINE
  5
D8
330
1F
100
AcDbEntity
  8
0
  6
Continuous
 62
     7
370
    25
100
AcDbPolyline
 90
       22
 70
   128
 43
0.0
 10
6003.2991369284
 20
5002.1021367026
 10
6002.7002970692
 20
4998.2214444282
 10
6002.1503135566
 20
4994.5381495917
 10
6001.6492129489
 20
4991.0922070595
 10
6001.1970160602
 20
4987.9158396676
 10
6000.7937386328
 20
4985.0347147236
 10
6000.4393919717
 20
4982.4689975726
 10
6000.1501170294
 20
4980.3528439156
 10
5999.8931403112
 20
4978.4580290143
 10
5999.6342069243
 20
4976.5356877582
 10
5999.3709441885
 20
4974.5688511593
 10
5999.1033618157
 20
4972.5581556247
 10
5998.5215120482
 20
4968.1513897032
 10
5997.9351674084
 20
4963.6728919175
 10
5997.39737752
 20
4959.5426441306
 10
5997.0715404733
 20
4957.0338687988
 10
5996.7660626463
 20
4954.6798124797
 10
5996.6739579539
 20
4953.9699233311
 10
5996.5789010466
 20
4953.2373121961
 10
5996.4502757176
 20
4952.2461298424
 10
5996.28270965
 20
4950.9553158698
 10
5996.0762433511
 20
4949.3659263471
  0
LWPOLYLINE
  5
D9
330
1F
100
AcDbEntity
  8
0
  6
Continuous
 62
     7
370
    25
100
AcDbPolyline
 90
       24
 70
   128
 43
0.0
 10
6042.5778412657
 20
4949.3659263471
 10
6042.370815072
 20
4950.9596290635
 10
6042.1999878034
 20
4952.2755756225
 10
6042.0653916851
 20
4953.3127822212
 10
6041.9490718738
 20
4954.2092816507
 10
6041.8331852377
 20
4955.1024641237
 10
6041.7177332776
 20
4955.9922238338
 10
6041.6027174531
 20
4956.8784572714
 10
6041.2810681928
 20
4959.3552034995
 10
6040.9354944869
 20
4962.0115986101
 10
6040.4915815038
 20
4965.4129770947
 10
6040.0236432024
 20
4968.9795958078
 10
6039.5654863677
 20
4972.4469014662
 10
6039.2802201474
 20
4974.5907327581
 10
6038.9998600385
 20
4976.6847443736
 10
6038.7244177559
 20
4978.7281716216
 10
6038.4473433246
 20
4980.7685165587
 10
6038.1278855338
 20
4983.1003301446
 10
6037.759018772
 20
4985.7626677247
 10
6037.3659831429
 20
4988.5604381969
 10
6036.9290419519
 20
4991.6188429307
 10
6036.448209331
 20
4994.9151115985
 10
6035.923503581
 20
4998.4210514075
 10
6035.3549476884
 20
5002.1021367026
  0
LINE
  5
DA
330
1F
100
AcDbEntity
  8
0
  6
Continuous
 62
     7
370
    25
100
AcDbLine
 10
6036.7794853525
 20
4989.158894939
 30
0.0
 11
6036.7653188914
 21
4989.2311213068
 31
0.0
  0
ARC
  5
DB
330
1F
100
AcDbEntity
  8
0
  6
Continuous
 62
     7
370
    25
100
AcDbCircle
 10
6042.6560949338
 20
4990.0326070858
 30
0.0
 40
5.936920868808661
100
AcDbArc
 50
189.6008160415
 51
200.5739676885
  0
LWPOLYLINE
  5
DC
330
1F
100
AcDbEntity
  8
0
  6
Continuous
 62
     7
370
    25
100
AcDbPolyline
 90
        8
 70
   128
 43
0.0
 10
6001.8574580004
 20
4989.0742943679
 10
6001.8198185376
 20
4988.8897306494
 10
6001.746848931
 20
4988.5675348838
 10
6001.6777223956
 20
4988.2988490523
 10
6001.6200298407
 20
4988.1085164588
 10
6001.5770783907
 20
4987.9926197191
 10
6001.5522849605
 20
4987.9391356556
 10
6001.5546363175
 20
4987.9426908236
  0
LINE
  5
DD
330
1F
100
AcDbEntity
  8
0
  6
Continuous
 62
     7
370
    25
100
AcDbLine
 10
6001.8880160042
 20
4989.2241344136
 30
0.0
 11
6001.8574580004
 21
4989.0742943679
 31
0.0
  0
LWPOLYLINE
  5
DE
330
1F
100
AcDbEntity
  8
0
  6
Continuous
 62
     7
370
    25
100
AcDbPolyline
 90
       55
 70
   128
 43
0.0
 10
6019.3270423125
 20
4987.0275421108
 10
6018.2822060854
 20
4987.0036963266
 10
6017.2514994758
 20
4986.9324814472
 10
6016.2488610226
 20
4986.8148605318
 10
6015.2878496907
 20
4986.6524242014
 10
6014.3814615099
 20
4986.4473691287
 10
6013.5419538254
 20
4986.2024683319
 10
6012.7806795384
 20
4985.921033674
 10
6012.1079335777
 20
4985.6068710761
 10
6011.5328136785
 20
4985.2642290484
 10
6011.0630973506
 20
4984.8977412364
 10
6010.7051367017
 20
4984.5123637591
 10
6010.4637725354
 20
4984.1133081858
 10
6010.3422688881
 20
4983.7059710585
 10
6010.3422688881
 20
4983.2958609132
 10
6010.4637725354
 20
4982.888523786
 10
6010.7051367017
 20
4982.4894682127
 10
6011.0630973506
 20
4982.1040907354
 10
6011.5328136785
 20
4981.7376029234
 10
6012.1079335777
 20
4981.3949608956
 10
6012.7806795384
 20
4981.0807982977
 10
6013.5419538254
 20
4980.7993636399
 10
6014.3814615099
 20
4980.5544628431
 10
6015.2878496907
 20
4980.3494077704
 10
6016.2488610226
 20
4980.18697144
 10
6017.2514994758
 20
4980.0693505245
 10
6018.2822060854
 20
4979.9981356451
 10
6019.3270423125
 20
4979.9742898609
 10
6020.3718785397
 20
4979.9981356451
 10
6021.4025851492
 20
4980.0693505245
 10
6022.4052236025
 20
4980.18697144
 10
6023.3662349343
 20
4980.3494077704
 10
6024.2726231152
 20
4980.5544628431
 10
6025.1121307997
 20
4980.7993636399
 10
6025.8734050867
 20
4981.0807982977
 10
6026.5461510473
 20
4981.3949608956
 10
6027.1212709466
 20
4981.7376029234
 10
6027.5909872745
 20
4982.1040907354
 10
6027.9489479234
 20
4982.4894682127
 10
6028.1903120896
 20
4982.888523786
 10
6028.311815737
 20
4983.2958609132
 10
6028.311815737
 20
4983.7059710585
 10
6028.1903120896
 20
4984.1133081858
 10
6027.9489479234
 20
4984.5123637591
 10
6027.5909872745
 20
4984.8977412364
 10
6027.1212709466
 20
4985.2642290484
 10
6026.5461510473
 20
4985.6068710761
 10
6025.8734050867
 20
4985.921033674
 10
6025.1121307997
 20
4986.2024683319
 10
6024.2726231152
 20
4986.4473691287
 10
6023.3662349343
 20
4986.6524242014
 10
6022.4052236025
 20
4986.8148605318
 10
6021.4025851492
 20
4986.9324814472
 10
6020.3718785397
 20
4987.0036963266
 10
6019.3270423125
 20
4987.0275421108
  0
LWPOLYLINE
  5
DF
330
1F
100
AcDbEntity
  8
0
  6
Continuous
 62
     7
370
    25
100
AcDbPolyline
 90
       17
 70
   128
 43
0.0
 10
6019.3270423125
 20
5003.2796625889
 10
6018.1446008455
 20
5003.2557789325
 10
6016.9746935521
 20
5003.1843811363
 10
6015.8297217408
 20
5003.0662260344
 10
6014.7218223975
 20
5002.9025661005
 10
6013.6627395311
 20
5002.6951361706
 10
6012.6636996832
 20
5002.4461350534
 10
6011.7352929248
 20
5002.1582022229
 10
6010.8873605986
 20
5001.8343898385
 10
6010.128890998
 20
5001.4781303922
 10
6009.4679240897
 20
5001.0932003227
 10
6008.9114662871
 20
5000.6836799845
 10
6008.4654161815
 20
5000.253910395
 10
6008.134502015
 20
4999.8084472189
 10
6007.92223156
 20
4999.3520124766
 10
6007.8308549361
 20
4998.88944449
 10
6007.8270423125
 20
4998.7734180958
  0
LWPOLYLINE
  5
E0
330
1F
100
AcDbEntity
  8
0
  6
Continuous
 62
     7
370
    25
100
AcDbPolyline
 90
       17
 70
   128
 43
0.0
 10
6030.8270423125
 20
4998.7734180958
 10
6030.8232296889
 20
4998.88944449
 10
6030.7318530651
 20
4999.3520124766
 10
6030.5195826101
 20
4999.8084472189
 10
6030.1886684435
 20
5000.253910395
 10
6029.742618338
 20
5000.6836799845
 10
6029.1861605354
 20
5001.0932003227
 10
6028.525193627
 20
5001.4781303922
 10
6027.7667240265
 20
5001.8343898385
 10
6026.9187917002
 20
5002.1582022229
 10
6025.9903849419
 20
5002.4461350534
 10
6024.991345094
 20
5002.6951361706
 10
6023.9322622275
 20
5002.9025661005
 10
6022.8243628843
 20
5003.0662260344
 10
6021.679391073
 20
5003.1843811363
 10
6020.5094837796
 20
5003.2557789325
 10
6019.3270423125
 20
5003.2796625889
  0
LWPOLYLINE
  5
E1
330
1F
100
AcDbEntity
  8
0
  6
Continuous
 62
     7
370
    25
100
AcDbPolyline
 90
       10
 70
   128
 43
0.0
 10
6032.8757001424
 20
4998.7734180979
 10
6032.4851869043
 20
4999.6853754557
 10
6031.7122284631
 20
5000.5590678493
 10
6030.5733421095
 20
5001.3689901524
 10
6029.1056391059
 20
5002.0931220074
 10
6027.3474479835
 20
5002.7091795888
 10
6025.3516395062
 20
5003.2016833298
 10
6023.1732869276
 20
5003.5546091033
 10
6020.8752534641
 20
5003.7602742483
 10
6019.327042313
 20
5003.811382757
  0
LINE
  5
E2
330
1F
100
AcDbEntity
  8
0
  6
Continuous
 62
     7
370
    25
100
AcDbLine
 10
6019.3270423077
 20
5014.3136640142
 30
0.0
 11
6019.327042313
 21
5003.811382757
 31
0.0
  0
LWPOLYLINE
  5
E3
330
1F
100
AcDbEntity
  8
0
  6
Continuous
 62
     7
370
    25
100
AcDbPolyline
 90
       10
 70
   128
 43
0.0
 10
6032.6663348446
 20
5010.0125371676
 10
6032.3238158139
 20
5010.7742146452
 10
6031.5764846148
 20
5011.5268310418
 10
6030.4857154984
 20
5012.2074198371
 10
6029.0191565833
 20
5012.8351228053
 10
6027.3077208844
 20
5013.3546116223
 10
6025.2956342639
 20
5013.783444141
 10
6023.1664779754
 20
5014.083543865
 10
6020.846849181
 20
5014.2663917442
 10
6019.3270423077
 20
5014.3136640142
  0
LWPOLYLINE
  5
E4
330
1F
100
AcDbEntity
  8
0
  6
Continuous
 62
     7
370
    25
100
AcDbPolyline
 90
        5
 70
   128
 43
0.0
 10
6032.6663348446
 20
5010.0125371676
 10
6032.7226603959
 20
5007.3504473268
 10
6032.7841945952
 20
5004.1630987078
 10
6032.8412681821
 20
5000.9029461991
 10
6032.8757001424
 20
4998.7734180979
  0
ARC
  5
E5
330
1F
100
AcDbEntity
  8
0
  6
Continuous
 62
     7
370
    25
100
AcDbCircle
 10
6009.4236732782
 20
4999.282785593
 30
0.0
 40
3.680704504878882
100
AcDbArc
 50
187.9546114961
 51
244.2920526849
  0
ARC
  5
E6
330
1F
100
AcDbEntity
  8
0
  6
Continuous
 62
     7
370
    25
100
AcDbCircle
 10
6029.2304113507
 20
4999.2827855895
 30
0.0
 40
3.680704500067748
100
AcDbArc
 50
295.7079472854
 51
352.0453886117
  0
LWPOLYLINE
  5
E7
330
1F
100
AcDbEntity
  8
0
  6
Continuous
 62
     7
370
    25
100
AcDbPolyline
 90
       18
 70
   128
 43
0.0
 10
6019.327042313
 20
5003.811382757
 10
6017.2123096728
 20
5003.7244250748
 10
6016.1736996138
 20
5003.6339929625
 10
6015.0949426832
 20
5003.5046128904
 10
6013.6682114264
 20
5003.2731231838
 10
6012.6454250573
 20
5003.0597533896
 10
6011.9898040133
 20
5002.8993028368
 10
6010.9861773691
 20
5002.612369304
 10
6009.8354703302
 20
5002.208894455
 10
6009.0505845086
 20
5001.8749193246
 10
6008.5674395587
 20
5001.6385009616
 10
6007.8627261839
 20
5001.2376401502
 10
6007.1171967461
 20
5000.7074876606
 10
6006.6582911269
 20
5000.2903992597
 10
6006.4018352982
 20
5000.0045466283
 10
6006.0750643803
 20
4999.534736919
 10
6005.893077031
 20
4999.157290631
 10
6005.7783844826
 20
4998.7734180938
  0
LWPOLYLINE
  5
E8
330
1F
100
AcDbEntity
  8
0
  6
Continuous
 62
     7
370
    25
100
AcDbPolyline
 90
        5
 70
   128
 43
0.0
 10
6005.7783844826
 20
4998.7734180938
 10
6005.8128164412
 20
5000.902946191
 10
6005.869890025
 20
5004.1630986949
 10
6005.9314545192
 20
5007.3519414599
 10
6005.9877497661
 20
5010.0125370119
  0
LWPOLYLINE
  5
E9
330
1F
100
AcDbEntity
  8
0
  6
Continuous
 62
     7
370
    25
100
AcDbPolyline
 90
       18
 70
   128
 43
0.0
 10
6019.3270423077
 20
5014.3136640142
 10
6017.8072354142
 20
5014.2663917258
 10
6016.2988867119
 20
5014.1633874521
 10
6015.1955995995
 20
5014.0503889257
 10
6014.4774168984
 20
5013.958411327
 10
6013.358450339
 20
5013.7834440693
 10
6012.0340804018
 20
5013.5197967625
 10
6011.1038370318
 20
5013.2910774743
 10
6010.5171144645
 20
5013.1246594074
 10
6009.6349280254
 20
5012.8351226902
 10
6008.6506873508
 20
5012.4395679797
 10
6008.0034873738
 20
5012.1204751376
 10
6007.6177342717
 20
5011.8982168064
 10
6007.0775999958
 20
5011.5268308973
 10
6006.5502235891
 20
5011.0458001684
 10
6006.2623872554
 20
5010.6738379318
 10
6006.1228742957
 20
5010.4218646981
 10
6005.9877497661
 20
5010.0125370119
  0
LINE
  5
EA
330
1F
100
AcDbEntity
  8
0
  6
Continuous
 62
     7
370
    25
100
AcDbLine
 10
6019.3270423077
 20
5014.3136640142
 30
0.0
 11
6019.3270423018
 21
5014.8802406461
 31
0.0
  0
LWPOLYLINE
  5
EB
330
1F
100
AcDbEntity
  8
0
  6
Continuous
 62
     7
370
    25
100
AcDbPolyline
 90
       22
 70
   128
 43
0.0
 10
6019.3270422957
 20
4953.8321515175
 10
6019.3271022803
 20
4953.8321527674
 10
6021.2350172998
 20
4953.8910402525
 10
6023.0733451259
 20
4953.985872655
 10
6024.8996261451
 20
4954.1203595463
 10
6026.7266273631
 20
4954.2972665336
 10
6028.51302941
 20
4954.5145032628
 10
6030.1080161065
 20
4954.7469312767
 10
6031.6398006996
 20
4955.0092636542
 10
6033.1167962611
 20
4955.3013239452
 10
6034.4985682085
 20
4955.6147077232
 10
6035.5464279237
 20
4955.88008449
 10
6036.5116633268
 20
4956.1471564274
 10
6037.4004214484
 20
4956.4165747857
 10
6038.1974205079
 20
4956.6796323105
 10
6039.0278586515
 20
4956.9804910056
 10
6039.7284792869
 20
4957.2616430176
 10
6040.6628209442
 20
4957.6709725944
 10
6040.9961318166
 20
4957.8081752684
 10
6041.2489792099
 20
4957.8520733829
 10
6041.4113825754
 20
4957.7481272645
 10
6041.4113884328
 20
4957.7481191282
  0
LINE
  5
EC
330
1F
100
AcDbEntity
  8
0
  6
Continuous
 62
     7
370
    25
100
AcDbLine
 10
6019.3270422957
 20
4953.8321515175
 30
0.0
 11
6019.327042278
 21
4979.7800892954
 31
0.0
  0
ARC
  5
ED
330
1F
100
AcDbEntity
  8
0
  6
Continuous
 62
     7
370
    25
100
AcDbCircle
 10
6027.2657915488
 20
4999.6880012518
 30
0.0
 40
5.683971918897725
100
AcDbArc
 50
308.7955028099
 51
350.7405331494
  0
LINE
  5
EE
330
1F
100
AcDbEntity
  8
0
  6
Continuous
 62
     7
370
    25
100
AcDbLine
 10
6041.4113884328
 20
4957.7481191282
 30
0.0
 11
6032.8757001424
 21
4998.7734180979
 31
0.0
  0
ARC
  5
EF
330
1F
100
AcDbEntity
  8
0
  6
Continuous
 62
     7
370
    25
100
AcDbCircle
 10
6011.1018126398
 20
4999.5381464724
 30
0.0
 40
5.378075570137402
100
AcDbArc
 50
188.1748052367
 51
232.4891844286
  0
LWPOLYLINE
  5
F0
330
1F
100
AcDbEntity
  8
0
  6
Continuous
 62
     7
370
    25
100
AcDbPolyline
 90
       26
 70
   128
 43
0.0
 10
5997.2426964003
 20
4957.748119766
 10
5997.2427022577
 20
4957.7481279023
 10
5997.2807861459
 20
4957.7923864401
 10
5997.3881172545
 20
4957.8492506626
 10
5997.6131007302
 20
4957.8228935665
 10
5998.0435561233
 20
4957.6476860186
 10
5998.274713441
 20
4957.5441554693
 10
5998.8833789416
 20
4957.279415711
 10
5999.4318660051
 20
4957.0558713772
 10
6000.4197344851
 20
4956.6923588291
 10
6001.6527629932
 20
4956.2926335744
 10
6002.6476847387
 20
4956.00429697
 10
6003.1849878714
 20
4955.8596713057
 10
6003.7582961425
 20
4955.7124664239
 10
6004.6860679176
 20
4955.4894914654
 10
6005.6723913453
 20
4955.2728991362
 10
6007.2478484452
 20
4954.9666707596
 10
6008.356568947
 20
4954.7772303059
 10
6010.2713061085
 20
4954.4971700805
 10
6011.5117851111
 20
4954.343869956
 10
6012.783192638
 20
4954.2088928998
 10
6014.7307153152
 20
4954.0433747698
 10
6016.0502556265
 20
4953.9578929679
 10
6018.2246033814
 20
4953.8614580136
 10
6019.3269823112
 20
4953.8321527674
 10
6019.3270422957
 20
4953.8321515175
  0
LINE
  5
F1
330
1F
100
AcDbEntity
  8
0
  6
Continuous
 62
     7
370
    25
100
AcDbLine
 10
5997.2426964003
 20
4957.748119766
 30
0.0
 11
6005.7783844826
 21
4998.7734180938
 31
0.0
  0
LINE
  5
F2
330
1F
100
AcDbEntity
  8
0
  6
Continuous
 62
     7
370
    25
100
AcDbLine
 10
6038.0959210181
 20
4982.7361341441
 30
0.0
 11
6041.5774791418
 21
4956.9486971738
 31
0.0
  0
LINE
  5
F3
330
1F
100
AcDbEntity
  8
0
  6
Continuous
 62
     7
370
    25
100
AcDbLine
 10
6041.577042351
 20
4956.9519324254
 30
0.0
 11
6041.4113884328
 21
4957.7481191282
 31
0.0
  0
LINE
  5
F4
330
1F
100
AcDbEntity
  8
0
  6
Continuous
 62
     7
370
    25
100
AcDbLine
 10
6036.7783545792
 20
4989.1417564797
 30
0.0
 11
6034.7286778825
 21
4999.5828265728
 31
0.0
  0
LWPOLYLINE
  5
F5
330
1F
100
AcDbEntity
  8
0
  6
Continuous
 62
     7
370
    25
100
AcDbPolyline
 90
       11
 70
   128
 43
0.0
 10
6037.4426724182
 20
4987.574659453
 10
6037.4426726628
 20
4987.574648489
 10
6037.4428776061
 20
4987.5597958701
 10
6037.4414176246
 20
4987.514525531
 10
6037.4062153767
 20
4987.4235510636
 10
6037.3203781577
 20
4987.4383738463
 10
6037.21132632
 20
4987.5887688253
 10
6037.1291868672
 20
4987.7649710819
 10
6037.0325656521
 20
4988.0477945284
 10
6036.9170818357
 20
4988.489352037
 10
6036.7783545792
 20
4989.1417564797
  0
LINE
  5
F6
330
1F
100
AcDbEntity
  8
0
  6
Continuous
 62
     7
370
    25
100
AcDbLine
 10
6038.0959210181
 20
4982.7361341441
 30
0.0
 11
6037.4426724182
 21
4987.574659453
 31
0.0
  0
LINE
  5
F7
330
1F
100
AcDbEntity
  8
0
  6
Continuous
 62
     7
370
    25
100
AcDbLine
 10
5997.0824912831
 20
4956.9781217688
 30
0.0
 11
5997.2426964003
 21
4957.748119766
 31
0.0
  0
LINE
  5
F8
330
1F
100
AcDbEntity
  8
0
  6
Continuous
 62
     7
370
    25
100
AcDbLine
 10
5997.077042351
 20
4956.9519324254
 30
0.0
 11
5997.0824912831
 21
4956.9781217688
 31
0.0
  0
LINE
  5
F9
330
1F
100
AcDbEntity
  8
0
  6
Continuous
 62
     7
370
    25
100
AcDbLine
 10
5997.077045604
 20
4956.9519565204
 30
0.0
 11
6000.5581635363
 21
4982.7361336229
 31
0.0
  0
LINE
  5
FA
330
1F
100
AcDbEntity
  8
0
  6
Continuous
 62
     7
370
    25
100
AcDbLine
 10
6000.5581635363
 20
4982.7361336229
 30
0.0
 11
6001.2114121311
 21
4987.5746590016
 31
0.0
  0
LWPOLYLINE
  5
FB
330
1F
100
AcDbEntity
  8
0
  6
Continuous
 62
     7
370
    25
100
AcDbPolyline
 90
       11
 70
   128
 43
0.0
 10
6001.8757300036
 20
4989.1417561814
 10
6001.7370027434
 20
4988.4893517203
 10
6001.6215189229
 20
4988.0477941964
 10
6001.5248977034
 20
4987.7649707367
 10
6001.4427582463
 20
4987.5887684685
 10
6001.3337064047
 20
4987.4383734768
 10
6001.2478691805
 20
4987.4235506749
 10
6001.2126669248
 20
4987.5145251525
 10
6001.2112069445
 20
4987.559795486
 10
6001.2114118864
 20
4987.5746480375
 10
6001.2114121311
 20
4987.5746590016
  0
LWPOLYLINE
  5
FC
330
1F
100
AcDbEntity
  8
0
  6
Continuous
 62
     7
370
    25
100
AcDbPolyline
 90
        5
 70
   128
 43
0.0
 10
6005.9877497661
 20
5010.0125370119
 10
6004.9544621562
 20
5004.7995009664
 10
6003.9254064088
 20
4999.5828248109
 10
6002.8994256692
 20
4994.3633865284
 10
6001.8757300036
 20
4989.1417561814
  0
LINE
  5
FD
330
1F
100
AcDbEntity
  8
0
  6
Continuous
 62
     7
370
    25
100
AcDbLine
 10
6036.7646977031
 20
4989.2308546076
 30
0.0
 11
6036.7783545792
 21
4989.1417564797
 31
0.0
  0
ARC
  5
FE
330
1F
100
AcDbEntity
  8
0
  6
Continuous
 62
     7
370
    25
100
AcDbCircle
 10
6019.1490173336
 20
4987.4843461705
 30
0.0
 40
52.98532317185349
100
AcDbArc
 50
89.8074919944
 51
99.4331788447
  0
ARC
  5
FF
330
1F
100
AcDbEntity
  8
0
  6
Continuous
 62
     7
370
    25
100
AcDbCircle
 10
6019.4207041771
 20
4985.833904617
 30
0.0
 40
54.63554593458924
100
AcDbArc
 50
82.2891957625
 51
90.0982223627
  0
LINE
  5
100
330
1F
100
AcDbEntity
  8
0
  6
Continuous
 62
     7
370
    25
100
AcDbLine
 10
6040.0466446696
 20
5031.4150746919
 30
0.0
 11
6040.0517409089
 21
5031.4373603564
 31
0.0
  0
ARC
  5
101
330
1F
100
AcDbEntity
  8
0
  6
Continuous
 62
     7
370
    25
100
AcDbCircle
 10
6007.6616558401
 20
5014.8003283937
 30
0.0
 40
5.302236569550225
100
AcDbArc
 50
203.6638460555
 51
251.191873705
  0
ARC
  5
102
330
1F
100
AcDbEntity
  8
0
  6
Continuous
 62
     7
370
    25
100
AcDbCircle
 10
6031.3619548042
 20
5014.398079472
 30
0.0
 40
4.807372735637849
100
AcDbArc
 50
286.1838733055
 51
338.960406934
  0
LWPOLYLINE
  5
103
330
1F
100
AcDbEntity
  8
0
  6
Continuous
 62
     7
370
    25
100
AcDbPolyline
 90
       33
 70
   128
 43
0.0
 10
6010.6390526453
 20
5036.6138352605
 10
6010.5942922083
 20
5036.5340715796
 10
6010.4745778122
 20
5036.1867714806
 10
6010.4745778122
 20
5035.8371070759
 10
6010.5942922083
 20
5035.4898069769
 10
6010.8321020685
 20
5035.1495678215
 10
6011.1847914226
 20
5034.8209907607
 10
6011.647590752
 20
5034.5085192355
 10
6012.2142414897
 20
5034.2163788873
 10
6012.8770806566
 20
5033.9485204132
 10
6013.6271444901
 20
5033.7085661394
 10
6014.4542896634
 20
5033.499761036
 10
6015.3473304572
 20
5033.3249288336
 10
6016.2941900266
 20
5033.186433838
 10
6017.2820637203
 20
5033.0861489564
 10
6018.2975922412
 20
5033.0254303698
 10
6019.3270423084
 20
5033.0050991928
 10
6020.3564923755
 20
5033.0254303698
 10
6021.3720208965
 20
5033.0861489564
 10
6022.3598945902
 20
5033.186433838
 10
6023.3067541596
 20
5033.3249288336
 10
6024.1997949533
 20
5033.499761036
 10
6025.0269401267
 20
5033.7085661394
 10
6025.7770039601
 20
5033.9485204132
 10
6026.439843127
 20
5034.2163788873
 10
6027.0064938647
 20
5034.5085192355
 10
6027.4692931941
 20
5034.8209907607
 10
6027.8219825482
 20
5035.1495678215
 10
6028.0597924085
 20
5035.4898069769
 10
6028.1795068045
 20
5035.8371070759
 10
6028.1795068045
 20
5036.1867714806
 10
6028.0597924085
 20
5036.5340715796
 10
6028.0077509383
 20
5036.6257954142
  0
LWPOLYLINE
  5
104
330
1F
100
AcDbEntity
  8
0
  6
Continuous
 62
     7
370
    25
100
AcDbPolyline
 90
       53
 70
   128
 43
0.0
 10
6019.3270423084
 20
5039.2581308774
 10
6018.3397889511
 20
5039.2378813567
 10
6017.366931971
 20
5039.1774280781
 10
6016.4226578133
 20
5039.0776525866
 10
6015.5207361217
 20
5038.9400098336
 10
6014.6743189453
 20
5038.7665069602
 10
6013.8957489526
 20
5038.5596740292
 10
6013.1963794472
 20
5038.3225271303
 10
6012.5864088114
 20
5038.0585243995
 10
6012.0747317905
 20
5037.7715155909
 10
6011.6688097878
 20
5037.4656859393
 10
6011.3745620601
 20
5037.1454951296
 10
6011.1962794018
 20
5036.815612265
 10
6011.1365615756
 20
5036.4808477804
 10
6011.1962794018
 20
5036.1460832957
 10
6011.3745620601
 20
5035.8162004311
 10
6011.6688097878
 20
5035.4960096214
 10
6012.0747317905
 20
5035.1901799698
 10
6012.5864088114
 20
5034.9031711612
 10
6013.1963794472
 20
5034.6391684304
 10
6013.8957489526
 20
5034.4020215315
 10
6014.6743189453
 20
5034.1951886005
 10
6015.5207361217
 20
5034.0216857271
 10
6016.4226578133
 20
5033.8840429741
 10
6017.366931971
 20
5033.7842674826
 10
6018.3397889511
 20
5033.7238142041
 10
6019.3270423084
 20
5033.7035646833
 10
6020.3142956656
 20
5033.7238142041
 10
6021.2871526458
 20
5033.7842674826
 10
6022.2314268034
 20
5033.8840429741
 10
6023.1333484951
 20
5034.0216857271
 10
6023.9797656715
 20
5034.1951886005
 10
6024.7583356642
 20
5034.4020215315
 10
6025.4577051696
 20
5034.6391684304
 10
6026.0676758054
 20
5034.9031711612
 10
6026.5793528262
 20
5035.1901799698
 10
6026.9852748289
 20
5035.4960096214
 10
6027.2795225567
 20
5035.8162004311
 10
6027.4578052149
 20
5036.1460832957
 10
6027.5175230412
 20
5036.4808477804
 10
6027.4578052149
 20
5036.815612265
 10
6027.2795225567
 20
5037.1454951296
 10
6026.9852748289
 20
5037.4656859393
 10
6026.5793528262
 20
5037.7715155909
 10
6026.0676758054
 20
5038.0585243995
 10
6025.4577051696
 20
5038.3225271303
 10
6024.7583356642
 20
5038.5596740292
 10
6023.9797656715
 20
5038.7665069602
 10
6023.1333484951
 20
5038.9400098336
 10
6022.2314268034
 20
5039.0776525866
 10
6021.2871526458
 20
5039.1774280781
 10
6020.3142956656
 20
5039.2378813567
 10
6019.3270423084
 20
5039.2581308774
  0
ARC
  5
105
330
1F
100
AcDbEntity
  8
0
  6
Continuous
 62
     7
370
    25
100
AcDbCircle
 10
5993.525686492
 20
4989.358189458
 30
0.0
 40
7.886354808259011
100
AcDbArc
 50
347.4925701272
 51
352.1951344309
  0
ARC
  5
106
330
1F
100
AcDbEntity
  8
0
  6
Continuous
 62
     7
370
    25
100
AcDbCircle
 10
6045.1283968926
 20
4989.3581896281
 30
0.0
 40
7.886353610550565
100
AcDbArc
 50
187.8048652234
 51
192.5074297946
  0
LWPOLYLINE
  5
107
330
1F
100
AcDbEntity
  8
0
  6
Continuous
 62
     7
370
    25
100
AcDbPolyline
 90
       19
 70
   128
 43
0.0
 10
6019.3270422933
 20
4951.6806111637
 10
6018.2231612176
 20
4951.7085893302
 10
6016.3087946482
 20
4951.7775396204
 10
6014.4013408821
 20
4951.8773915511
 10
6012.4865116328
 20
4952.014187842
 10
6010.6088668509
 20
4952.1908658767
 10
6008.9075650647
 20
4952.3938937433
 10
6007.2684150856
 20
4952.6392691325
 10
6005.6816241862
 20
4952.9355984103
 10
6004.1907649543
 20
4953.2826407298
 10
6003.0602903034
 20
4953.6016387566
 10
6002.0153049462
 20
4953.9530720314
 10
6000.3466802263
 20
4954.6740143194
 10
5999.0099115002
 20
4955.4816685431
 10
5998.2740841401
 20
4956.0759310662
 10
5997.7254337295
 20
4956.6298648685
 10
5997.458657037
 20
4956.9227217561
 10
5997.2574868913
 20
4957.0598006518
 10
5997.219413913
 20
4957.0514255263
  0
LWPOLYLINE
  5
108
330
1F
100
AcDbEntity
  8
0
  6
Continuous
 62
     7
370
    25
100
AcDbPolyline
 90
       20
 70
   128
 43
0.0
 10
6041.4346709078
 20
4957.0514248682
 10
6041.3244186022
 20
4957.03432581
 10
6041.2697219127
 20
4956.9934200464
 10
6041.0044674629
 20
4956.7140304529
 10
6040.6457824023
 20
4956.3307315486
 10
6040.1778617526
 20
4955.8979800018
 10
6039.5972628485
 20
4955.4482169679
 10
6038.8276691547
 20
4954.9565653868
 10
6037.9155307496
 20
4954.4822278783
 10
6036.1719741341
 20
4953.7883994195
 10
6034.0611511523
 20
4953.1815597404
 10
6032.7295078537
 20
4952.8857610917
 10
6031.3052084698
 20
4952.6259191942
 10
6029.7761635785
 20
4952.3978670205
 10
6028.1707131282
 20
4952.2043122694
 10
6026.5105853329
 20
4952.043158722
 10
6024.7957450608
 20
4951.9121743293
 10
6023.0138233163
 20
4951.8087129965
 10
6021.1979025439
 20
4951.7328650672
 10
6019.3270422933
 20
4951.6806111637
  0
ARC
  5
109
330
1F
100
AcDbEntity
  8
0
  6
Continuous
 62
     7
370
    25
100
AcDbCircle
 10
6041.3684758635
 20
4956.8434357296
 30
0.0
 40
0.2182687922939806
100
AcDbArc
 50
6.8348908563
 51
72.3457028945
  0
LWPOLYLINE
  5
10A
330
1F
100
AcDbEntity
  8
0
  6
Continuous
 62
     7
370
    25
100
AcDbPolyline
 90
        3
 70
   128
 43
0.0
 10
6041.5762356068
 20
4956.9518341971
 10
6041.5805597448
 20
4956.9113991426
 10
6041.5848571865
 20
4956.8709792311
  0
LWPOLYLINE
  5
10B
330
1F
100
AcDbEntity
  8
0
  6
Continuous
 62
     7
370
    25
100
AcDbPolyline
 90
       11
 70
   128
 43
0.0
 10
6004.0233051592
 20
5000.1673157115
 10
6003.9426646257
 20
5000.2564175687
 10
6003.6046868969
 20
5000.7129585531
 10
6003.3843055547
 20
5001.1776943486
 10
6003.2831689559
 20
5001.6471489333
 10
6003.3020335582
 20
5002.1178109909
 10
6003.4407582625
 20
5002.5861601738
 10
6003.6983054684
 20
5003.0486934336
 10
6004.0727488347
 20
5003.5019512225
 10
6004.5612876878
 20
5003.9425433691
 10
6004.7733881369
 20
5004.1039713684
  0
LWPOLYLINE
  5
10C
330
1F
100
AcDbEntity
  8
0
  6
Continuous
 62
     7
370
    25
100
AcDbPolyline
 90
       11
 70
   128
 43
0.0
 10
6033.8929080869
 20
5004.0950478157
 10
6034.0927967519
 20
5003.94254351
 10
6034.5813356415
 20
5003.501951368
 10
6034.9557790454
 20
5003.0486935827
 10
6035.2133262897
 20
5002.5861603254
 10
6035.3520510329
 20
5002.1178111438
 10
6035.3709156742
 20
5001.6471490863
 10
6035.2697791143
 20
5001.1776945007
 10
6035.0493978107
 20
5000.7129587031
 10
6034.7114201198
 20
5000.2564177155
 10
6034.6507350181
 20
5000.1888656817
  0
LWPOLYLINE
  5
10D
330
1F
100
AcDbEntity
  8
0
  6
Continuous
 62
     7
370
    25
100
AcDbPolyline
 90
        9
 70
   128
 43
0.0
 10
5997.0769785574
 20
4956.9453658464
 10
5997.0769864167
 20
4956.9461868937
 10
5997.0769943095
 20
4956.9470079407
 10
5997.0770022357
 20
4956.9478289874
 10
5997.0770101954
 20
4956.9486500338
 10
5997.0770181885
 20
4956.9494710799
 10
5997.0770262151
 20
4956.9502921257
 10
5997.0770342752
 20
4956.9511131713
 10
5997.0770423686
 20
4956.9519342166
  0
LINE
  5
10E
330
1F
100
AcDbEntity
  8
0
  6
Continuous
 62
     7
370
    25
100
AcDbLine
 10
5997.0769785635
 20
4956.9453658464
 30
0.0
 11
5997.0827616437
 21
4956.9733477147
 31
0.0
  0
ARC
  5
10F
330
1F
100
AcDbEntity
  8
0
  6
Continuous
 62
     7
370
    25
100
AcDbCircle
 10
5997.267070776
 20
4956.8615317873
 30
0.0
 40
0.1957825545911955
100
AcDbArc
 50
104.0883210088
 51
169.9457210471
  0
LINE
  5
110
330
1F
100
AcDbEntity
  8
0
  6
Continuous
 62
     7
370
    25
100
AcDbLine
 10
5996.0770423084
 20
4949.3659263471
 30
0.0
 11
6042.5770423083
 21
4949.3659263471
 31
0.0
  0
ARC
  5
111
330
1F
100
AcDbEntity
  8
0
  6
Continuous
 62
     7
370
    25
100
AcDbCircle
 10
6036.5374501403
 20
4987.4524084361
 30
0.0
 40
0.9134400273004006
100
AcDbArc
 50
7.6913077785
 51
12.5102061379
  0
ARC
  5
112
330
1F
100
AcDbEntity
  8
0
  6
Continuous
 62
     7
370
    25
100
AcDbCircle
 10
6002.116633386
 20
4987.4524081707
 30
0.0
 40
0.9134389886746396
100
AcDbArc
 50
167.4897906213
 51
172.3086951978
  0
ARC
  5
113
330
1F
100
AcDbEntity
  8
0
  6
Continuous
 62
     7
370
    25
100
AcDbCircle
 10
5992.21943013
 20
4957.5672537155
 30
0.0
 40
5.026521317062507
100
AcDbArc
 50
354.1098628796
 51
2.0620819418
  0
LINE
  5
114
330
1F
100
AcDbEntity
  8
0
  6
Continuous
 62
     7
370
    25
100
AcDbLine
 10
6019.3270422933
 20
4951.6806111637
 30
0.0
 11
6019.3270422957
 21
4953.8321515175
 31
0.0
  0
ARC
  5
115
330
1F
100
AcDbEntity
  8
0
  6
Continuous
 62
     7
370
    25
100
AcDbCircle
 10
6046.4346546695
 20
4957.5672529724
 30
0.0
 40
5.026521287226619
100
AcDbArc
 50
177.9379168452
 51
185.8901361806
  0
ARC
  5
116
330
1F
100
AcDbEntity
  8
0
  6
Continuous
 62
     7
370
    25
100
AcDbCircle
 10
5992.5373199253
 20
4957.3885656408
 30
0.0
 40
4.563665943462861
100
AcDbArc
 50
353.8002406108
 51
354.8399989881
  0
LWPOLYLINE
  5
117
330
1F
100
AcDbEntity
  8
0
  6
Continuous
 62
     8
370
    25
100
AcDbPolyline
 90
       17
 70
   128
 43
0.0
 10
6019.3270423125
 20
4990.3072360979
 10
6020.5094837796
 20
4990.2833524415
 10
6021.679391073
 20
4990.2119546453
 10
6022.8243628843
 20
4990.0937995434
 10
6023.9322622275
 20
4989.9301396095
 10
6024.991345094
 20
4989.7227096796
 10
6025.9903849419
 20
4989.4737085624
 10
6026.9187917002
 20
4989.1857757319
 10
6027.7667240265
 20
4988.8619633475
 10
6028.525193627
 20
4988.5057039012
 10
6029.1861605354
 20
4988.1207738317
 10
6029.742618338
 20
4987.7112534935
 10
6030.1886684435
 20
4987.281483904
 10
6030.5195826101
 20
4986.8360207279
 10
6030.7318530651
 20
4986.3795859856
 10
6030.8232296889
 20
4985.917017999
 10
6030.8270266843
 20
4985.7935625077
  0
LWPOLYLINE
  5
118
330
1F
100
AcDbEntity
  8
0
  6
Continuous
 62
     8
370
    25
100
AcDbPolyline
 90
       17
 70
   128
 43
0.0
 10
6007.82704232
 20
4985.8008290355
 10
6007.8308549361
 20
4985.917017999
 10
6007.92223156
 20
4986.3795859856
 10
6008.134502015
 20
4986.8360207279
 10
6008.4654161815
 20
4987.281483904
 10
6008.9114662871
 20
4987.7112534935
 10
6009.4679240897
 20
4988.1207738317
 10
6010.128890998
 20
4988.5057039012
 10
6010.8873605986
 20
4988.8619633475
 10
6011.7352929248
 20
4989.1857757319
 10
6012.6636996832
 20
4989.4737085624
 10
6013.6627395311
 20
4989.7227096796
 10
6014.7218223975
 20
4989.9301396095
 10
6015.8297217408
 20
4990.0937995434
 10
6016.9746935521
 20
4990.2119546453
 10
6018.1446008455
 20
4990.2833524415
 10
6019.3270423125
 20
4990.3072360979
  0
LINE
  5
119
330
1F
100
AcDbEntity
  8
0
  6
Continuous
 62
     8
370
    25
100
AcDbLine
 10
6032.6467011303
 20
5010.1740881597
 30
0.0
 11
6032.6663348446
 21
5010.0125371676
 31
0.0
  0
LINE
  5
11A
330
1F
100
AcDbEntity
  8
0
  6
Continuous
 62
     8
370
    25
100
AcDbLine
 10
6006.0072655591
 20
5010.1735396251
 30
0.0
 11
6005.9877497661
 21
5010.0125370119
 31
0.0
  0
LINE
  5
11B
330
1F
100
AcDbEntity
  8
0
  6
Continuous
 62
     8
370
    25
100
AcDbLine
 10
6034.7286778825
 20
4999.5828265728
 30
0.0
 11
6032.6663348446
 21
5010.0125371676
 31
0.0
  0
LINE
  5
11C
330
1F
100
AcDbEntity
  8
0
  6
Continuous
 62
     8
370
    25
100
AcDbLine
 10
6001.8877465583
 20
4989.222674091
 30
0.0
 11
6001.8757300036
 21
4989.1417561814
 31
0.0
  0
LWPOLYLINE
  5
11D
330
1F
100
AcDbEntity
  8
0
  6
Continuous
 62
     8
370
    25
100
AcDbPolyline
 90
       72
 70
   128
 43
0.0
 10
6010.4648691522
 20
5039.7531709324
 10
6010.4069813688
 20
5039.7432102783
 10
6009.0609265179
 20
5039.4875975887
 10
6007.7781656847
 20
5039.1969618375
 10
6006.5666075163
 20
5038.8730948909
 10
6005.4337216716
 20
5038.5179934963
 10
6004.3864927686
 20
5038.1338469718
 10
6003.4313773218
 20
5037.7230237085
 10
6002.5742639355
 20
5037.2880565685
 10
6001.8204369987
 20
5036.8316272688
 10
6001.1745441052
 20
5036.3565498478
 10
6000.6405673994
 20
5035.8657533159
 10
6000.2217990253
 20
5035.3622635967
 10
5999.9208208292
 20
5034.8491848719
 10
5999.7394884418
 20
5034.3296804424
 10
5999.6789198374
 20
5033.8069532259
 10
5999.7394884418
 20
5033.2842260093
 10
5999.9208208292
 20
5032.7647215798
 10
6000.2217990253
 20
5032.251642855
 10
6000.6405673994
 20
5031.7481531359
 10
6001.1745441052
 20
5031.2573566039
 10
6001.8204369987
 20
5030.7822791829
 10
6002.5742639355
 20
5030.3258498832
 10
6003.4313773218
 20
5029.8908827432
 10
6004.3864927686
 20
5029.4800594799
 10
6005.4337216716
 20
5029.0959129555
 10
6006.5666075163
 20
5028.7408115608
 10
6007.7781656847
 20
5028.4169446142
 10
6009.0609265179
 20
5028.1263088631
 10
6010.4069813688
 20
5027.8706961734
 10
6011.8080313617
 20
5027.6516824825
 10
6013.2554385573
 20
5027.4706180826
 10
6014.7402792091
 20
5027.3286192958
 10
6016.2533987806
 20
5027.226561592
 10
6017.7854683865
 20
5027.1650741909
 10
6019.3270423084
 20
5027.1445361826
 10
6020.8686162302
 20
5027.1650741909
 10
6022.4006858362
 20
5027.226561592
 10
6023.9138054077
 20
5027.3286192958
 10
6025.3986460594
 20
5027.4706180826
 10
6026.8460532551
 20
5027.6516824825
 10
6028.2471032479
 20
5027.8706961734
 10
6029.5931580988
 20
5028.1263088631
 10
6030.875918932
 20
5028.4169446142
 10
6032.0874771005
 20
5028.7408115608
 10
6033.2203629452
 20
5029.0959129555
 10
6034.2675918481
 20
5029.4800594799
 10
6035.2227072949
 20
5029.8908827432
 10
6036.0798206812
 20
5030.3258498832
 10
6036.833647618
 20
5030.7822791829
 10
6037.4795405115
 20
5031.2573566039
 10
6038.0135172173
 20
5031.7481531359
 10
6038.4322855914
 20
5032.251642855
 10
6038.7332637875
 20
5032.7647215798
 10
6038.914596175
 20
5033.2842260093
 10
6038.9751647793
 20
5033.8069532259
 10
6038.914596175
 20
5034.3296804424
 10
6038.7332637875
 20
5034.8491848719
 10
6038.4322855914
 20
5035.3622635967
 10
6038.0135172173
 20
5035.8657533159
 10
6037.4795405115
 20
5036.3565498478
 10
6036.833647618
 20
5036.8316272688
 10
6036.0798206812
 20
5037.2880565685
 10
6035.2227072949
 20
5037.7230237085
 10
6034.2675918481
 20
5038.1338469718
 10
6033.2203629452
 20
5038.5179934963
 10
6032.0874771005
 20
5038.8730948909
 10
6030.875918932
 20
5039.1969618375
 10
6029.5931580988
 20
5039.4875975887
 10
6028.2471032479
 20
5039.7432102783
 10
6026.8460532551
 20
5039.9622239692
 10
6026.7513221369
 20
5039.975431377
  0
LWPOLYLINE
  5
11E
330
1F
100
AcDbEntity
  8
0
  6
Continuous
 62
     8
370
    25
100
AcDbPolyline
 90
       42
 70
   128
 43
0.0
 10
5998.604519553
 20
5031.4277329626
 10
5998.6356446126
 20
5031.3051684901
 10
5998.8434247053
 20
5030.77645088
 10
5999.1685331046
 20
5030.2545759517
 10
5999.6091076191
 20
5029.7425329575
 10
6000.1626246778
 20
5029.2432548335
 10
6000.8259137853
 20
5028.7596013994
 10
6001.5951756814
 20
5028.2943429784
 10
6002.4660041038
 20
5027.8501445285
 10
6003.4334110262
 20
5027.4295503782
 10
6004.4918552292
 20
5027.0349696528
 10
6005.6352740403
 20
5026.6686624748
 10
6006.8571180601
 20
5026.3327270187
 10
6008.1503886768
 20
5026.0290874923
 10
6009.5076781533
 20
5025.7594831153
 10
6010.9212120585
 20
5025.5254581572
 10
6012.3828937981
 20
5025.3283530917
 10
6013.8843509915
 20
5025.1692969189
 10
6015.4169834279
 20
5025.049200698
 10
6016.9720123275
 20
5024.9687523293
 10
6018.5405306255
 20
5024.9284126139
 10
6020.1135539912
 20
5024.9284126139
 10
6021.6820722893
 20
5024.9687523293
 10
6023.2371011888
 20
5025.049200698
 10
6024.7697336252
 20
5025.1692969189
 10
6026.2711908187
 20
5025.3283530917
 10
6027.7328725583
 20
5025.5254581572
 10
6029.1464064634
 20
5025.7594831153
 10
6030.5036959399
 20
5026.0290874923
 10
6031.7969665566
 20
5026.3327270187
 10
6033.0188105765
 20
5026.6686624748
 10
6034.1622293876
 20
5027.0349696528
 10
6035.2206735906
 20
5027.4295503782
 10
6036.1880805129
 20
5027.8501445285
 10
6037.0589089353
 20
5028.2943429784
 10
6037.8281708315
 20
5028.7596013994
 10
6038.4914599389
 20
5029.2432548335
 10
6039.0449769976
 20
5029.7425329575
 10
6039.4855515121
 20
5030.2545759517
 10
6039.8106599115
 20
5030.77645088
 10
6040.0184400041
 20
5031.3051684901
 10
6040.0466446696
 20
5031.4150746919
  0
ARC
  5
11F
330
1F
100
AcDbEntity
  8
0
  6
Continuous
 62
     8
370
    25
100
AcDbCircle
 10
6010.1243703872
 20
4985.8339557634
 30
0.0
 40
9.121487427578337
100
AcDbArc
 50
152.1557116007
 51
164.3979113406
  0
LWPOLYLINE
  5
120
330
1F
100
AcDbEntity
  8
0
  6
Continuous
 62
     8
370
    25
100
AcDbPolyline
 90
        6
 70
   128
 43
0.0
 10
6001.2248817912
 20
4987.6502714547
 10
6001.2259765537
 20
4987.6438361224
 10
6001.2336747559
 20
4987.6261589972
 10
6001.3149550361
 20
4987.6784525979
 10
6001.5163929493
 20
4987.904437827
 10
6001.5285163615
 20
4987.9189498765
  0
LWPOLYLINE
  5
121
330
1F
100
AcDbEntity
  8
0
  6
Continuous
 62
     8
370
    25
100
AcDbPolyline
 90
        3
 70
   128
 43
0.0
 10
6036.599989921
 20
4990.0503475279
 10
6036.7680049005
 20
4989.7519302987
 10
6037.3150999956
 20
4988.2872251699
  0
LWPOLYLINE
  5
122
330
1F
100
AcDbEntity
  8
0
  6
Continuous
 62
     8
370
    25
100
AcDbPolyline
 90
        6
 70
   128
 43
0.0
 10
6037.1276678126
 20
4987.916436953
 10
6037.1376916045
 20
4987.9044382059
 10
6037.3391295175
 20
4987.6784529931
 10
6037.4204097863
 20
4987.6261594034
 10
6037.4281079922
 20
4987.6438365267
 10
6037.4292027603
 20
4987.6502718946
  0
LWPOLYLINE
  5
123
330
1F
100
AcDbEntity
  8
0
  6
Continuous
 62
     7
370
    25
100
AcDbPolyline
 90
       57
 70
   128
 43
0.0
 10
6000.342930824
 20
4824.6911021163
 10
6000.003779285
 20
4823.9680054875
 10
5999.497330318
 20
4822.6379874883
 10
5999.0931842734
 20
4821.2773170603
 10
5998.7933527301
 20
4819.8930204233
 10
5998.5993089866
 20
4818.4922257599
 10
5998.5119861281
 20
4817.0821268334
 10
5998.5317775055
 20
4815.6699480542
 10
5998.6585379346
 20
4814.2629195518
 10
5998.8915799892
 20
4812.8682642965
 10
5999.2296871258
 20
4811.493097214
 10
5999.671121056
 20
4810.1444324147
 10
6000.2136291121
 20
4808.8291526021
 10
6000.8544527828
 20
4807.5539782281
 10
6001.5903378399
 20
4806.3254361797
 10
6002.4175465434
 20
4805.1498279627
 10
6003.3318724023
 20
4804.0331975644
 10
6004.3286578698
 20
4802.9812993548
 10
6005.4028152067
 20
4801.9995665142
 10
6006.5488505677
 20
4801.093080536
 10
6007.7608911959
 20
4800.2665423469
 10
6009.0327154656
 20
4799.5242455233
 10
6010.3577854078
 20
4798.8700519833
 10
6011.7292812993
 20
4798.307370417
 10
6013.1401378844
 20
4797.8391375998
 10
6014.58308182
 20
4797.4678026328
 10
6016.0506699871
 20
4797.1953140748
 10
6017.5353283702
 20
4797.023109878
 10
6019.0293912725
 20
4796.9521100128
 10
6020.5251406967
 20
4796.9827116606
 10
6022.0148393711
 20
4797.1147860823
 10
6023.4907684111
 20
4797.3476760849
 10
6024.9452902043
 20
4797.6802015833
 10
6026.3708726814
 20
4798.1106645459
 10
6027.7601284134
 20
4798.636856154
 10
6029.1058535003
 20
4799.2560664863
 10
6030.4010661202
 20
4799.9650968652
 10
6031.6390445554
 20
4800.7602750213
 10
6032.8133644389
 20
4801.6374732379
 10
6033.9179348851
 20
4802.592129604
 10
6034.9470330847
 20
4803.6192724545
 10
6035.8953368792
 20
4804.7135479757
 10
6036.757954788
 20
4805.869250835
 10
6037.5304529648
 20
4807.0803575432
 10
6038.2088786139
 20
4808.3405621037
 10
6038.7897795118
 20
4809.643313363
 10
6039.270219447
 20
4810.9818533796
 10
6039.6477895933
 20
4812.349256089
 10
6039.9206160456
 20
4813.7384655853
 10
6040.0873639389
 20
4815.142333459
 10
6040.1472387038
 20
4816.5536548173
 10
6040.0999850675
 20
4817.9652028432
 10
6039.9458873951
 20
4819.369741545
 10
6039.6857699069
 20
4820.7600748314
 10
6039.3209835705
 20
4822.1291107085
 10
6038.8533993028
 20
4823.4698658369
 10
6038.4621789522
 20
4824.3691441521
  0
LINE
  5
124
330
1F
100
AcDbEntity
  8
0
  6
Continuous
 62
     7
370
    25
100
AcDbLine
 10
6036.2153352198
 20
4828.1516373499
 30
0.0
 11
6032.7904385369
 21
4832.6430420911
 31
0.0
  0
LINE
  5
125
330
1F
100
AcDbEntity
  8
0
  6
Continuous
 62
     7
370
    25
100
AcDbLine
 10
6005.8636460798
 20
4832.6430420911
 30
0.0
 11
6002.438749397
 21
4828.1516373499
 31
0.0
  0
LWPOLYLINE
  5
126
330
1F
100
AcDbEntity
  8
0
  6
Continuous
 62
     7
370
    25
100
AcDbPolyline
 90
       35
 70
   128
 43
0.0
 10
6007.8392126492
 20
4740.3852441049
 10
6007.8778653548
 20
4739.5937531365
 10
6008.0351259009
 20
4738.5640813676
 10
6008.2971911259
 20
4737.5541234301
 10
6008.6615425689
 20
4736.5729671246
 10
6009.12483304
 20
4735.6294389943
 10
6009.6828964401
 20
4734.7320651367
 10
6010.3307523819
 20
4733.8890218295
 10
6011.0626132379
 20
4733.10807327
 10
6011.8719013024
 20
4732.3964974069
 10
6012.7512819471
 20
4731.7610041182
 10
6013.6927155564
 20
4731.2076519719
 10
6014.6875275991
 20
4730.7417701054
 10
6015.7264933684
 20
4730.3678904965
 10
6016.7999323661
 20
4730.089693665
 10
6017.8978071674
 20
4729.9099683997
 10
6019.0098226022
 20
4729.8305841077
 10
6019.3270423125
 20
4729.8264868432
 10
6019.9744711244
 20
4729.8435641934
 10
6021.0845779757
 20
4729.9529796863
 10
6022.1789837964
 20
4730.1628677388
 10
6023.2469965305
 20
4730.4713961111
 10
6024.2784192008
 20
4730.8757927816
 10
6025.2633558404
 20
4731.3723366193
 10
6026.1923170769
 20
4731.9563722753
 10
6027.0563317724
 20
4732.622338289
 10
6027.8470617237
 20
4733.3638128305
 10
6028.5569142823
 20
4734.1735805715
 10
6029.1791457579
 20
4735.0437219087
 10
6029.7079476873
 20
4735.9657224793
 10
6030.1385090378
 20
4736.9305973346
 10
6030.467050257
 20
4737.92902131
 10
6030.6908291834
 20
4738.9514559552
 10
6030.8081231346
 20
4739.9882643265
 10
6030.8124609472
 20
4740.436850125
  0
LWPOLYLINE
  5
127
330
1F
100
AcDbEntity
  8
0
  6
Continuous
 62
     7
370
    25
100
AcDbPolyline
 90
       81
 70
   128
 43
0.0
 10
6019.3270423084
 20
4834.5766236395
 10
6017.7854683865
 20
4834.5196434144
 10
6016.2533987806
 20
4834.3490540413
 10
6014.7402792091
 20
4834.0659072602
 10
6013.2554385573
 20
4833.6719487653
 10
6011.8080313617
 20
4833.1696074417
 10
6010.4069813688
 20
4832.5619803907
 10
6009.0609265179
 20
4831.8528138352
 10
6007.7781656847
 20
4831.0464800227
 10
6006.5666075163
 20
4830.1479502694
 10
6005.4337216716
 20
4829.1627643099
 10
6004.3864927686
 20
4828.0969961434
 10
6003.4313773218
 20
4826.9572165849
 10
6002.5742639355
 20
4825.7504527545
 10
6001.8204369987
 20
4824.4841447525
 10
6001.1745441052
 20
4823.1660997887
 10
6000.6405673994
 20
4821.8044440488
 10
6000.2217990253
 20
4820.407572593
 10
5999.9208208292
 20
4818.9840975985
 10
5999.7394884418
 20
4817.542795262
 10
5999.6789198374
 20
4816.0925516916
 10
5999.7394884418
 20
4814.6423081212
 10
5999.9208208292
 20
4813.2010057847
 10
6000.2217990253
 20
4811.7775307902
 10
6000.6405673994
 20
4810.3806593345
 10
6001.1745441052
 20
4809.0190035945
 10
6001.8204369987
 20
4807.7009586308
 10
6002.5742639355
 20
4806.4346506287
 10
6003.4313773218
 20
4805.2278867983
 10
6004.3864927686
 20
4804.0881072399
 10
6005.4337216716
 20
4803.0223390733
 10
6006.5666075163
 20
4802.0371531139
 10
6007.7781656847
 20
4801.1386233605
 10
6009.0609265179
 20
4800.332289548
 10
6010.4069813688
 20
4799.6231229925
 10
6011.8080313617
 20
4799.0154959415
 10
6013.2554385573
 20
4798.5131546179
 10
6014.7402792091
 20
4798.119196123
 10
6016.2533987806
 20
4797.836049342
 10
6017.7854683865
 20
4797.6654599688
 10
6019.3270423084
 20
4797.6084797437
 10
6020.8686162302
 20
4797.6654599688
 10
6022.4006858362
 20
4797.836049342
 10
6023.9138054077
 20
4798.119196123
 10
6025.3986460594
 20
4798.5131546179
 10
6026.8460532551
 20
4799.0154959415
 10
6028.2471032479
 20
4799.6231229925
 10
6029.5931580988
 20
4800.332289548
 10
6030.875918932
 20
4801.1386233605
 10
6032.0874771005
 20
4802.0371531139
 10
6033.2203629452
 20
4803.0223390733
 10
6034.2675918481
 20
4804.0881072399
 10
6035.2227072949
 20
4805.2278867983
 10
6036.0798206812
 20
4806.4346506287
 10
6036.833647618
 20
4807.7009586308
 10
6037.4795405115
 20
4809.0190035945
 10
6038.0135172173
 20
4810.3806593345
 10
6038.4322855914
 20
4811.7775307902
 10
6038.7332637875
 20
4813.2010057847
 10
6038.914596175
 20
4814.6423081212
 10
6038.9751647793
 20
4816.0925516916
 10
6038.914596175
 20
4817.542795262
 10
6038.7332637875
 20
4818.9840975985
 10
6038.4322855914
 20
4820.407572593
 10
6038.0135172173
 20
4821.8044440488
 10
6037.4795405115
 20
4823.1660997887
 10
6036.833647618
 20
4824.4841447525
 10
6036.0798206812
 20
4825.7504527545
 10
6035.2227072949
 20
4826.9572165849
 10
6034.2675918481
 20
4828.0969961434
 10
6033.2203629452
 20
4829.1627643099
 10
6032.0874771005
 20
4830.1479502694
 10
6030.875918932
 20
4831.0464800227
 10
6029.5931580988
 20
4831.8528138352
 10
6028.2471032479
 20
4832.5619803907
 10
6026.8460532551
 20
4833.1696074417
 10
6025.3986460594
 20
4833.6719487653
 10
6023.9138054077
 20
4834.0659072602
 10
6022.4006858362
 20
4834.3490540413
 10
6020.8686162302
 20
4834.5196434144
 10
6019.3270423084
 20
4834.5766236395
  0
ARC
  5
128
330
1F
100
AcDbEntity
  8
0
  6
Continuous
 62
     7
370
    25
100
AcDbCircle
 10
6018.2024358218
 20
4816.1734746042
 30
0.0
 40
19.7966987225255
100
AcDbArc
 50
125.2507437623
 51
154.4127439132
  0
ARC
  5
129
330
1F
100
AcDbEntity
  8
0
  6
Continuous
 62
     7
370
    25
100
AcDbCircle
 10
6020.4677008929
 20
4816.1898258502
 30
0.0
 40
19.77390217261462
100
AcDbArc
 50
24.5472681455
 51
54.6319814923
  0
LWPOLYLINE
  5
12A
330
1F
100
AcDbEntity
  8
0
  6
Continuous
 62
     7
370
    25
100
AcDbPolyline
 90
       55
 70
   128
 43
0.0
 10
6019.3270423084
 20
4823.639899252
 10
6018.2975922412
 20
4823.5834928554
 10
6017.2820637203
 20
4823.4150364653
 10
6016.2941900266
 20
4823.1368081654
 10
6015.3473304572
 20
4822.7525705161
 10
6014.4542896634
 20
4822.2675196726
 10
6013.6271444901
 20
4821.6882151154
 10
6012.8770806566
 20
4821.0224909448
 10
6012.2142414897
 20
4820.2793499382
 10
6011.647590752
 20
4819.4688418029
 10
6011.1847914226
 20
4818.6019272709
 10
6010.8321020685
 20
4817.6903298742
 10
6010.5942922083
 20
4816.7463774037
 10
6010.4745778122
 20
4815.7828351972
 10
6010.4745778122
 20
4814.8127335102
 10
6010.5942922083
 20
4813.8491913038
 10
6010.8321020685
 20
4812.9052388333
 10
6011.1847914226
 20
4811.9936414365
 10
6011.647590752
 20
4811.1267269046
 10
6012.2142414897
 20
4810.3162187693
 10
6012.8770806566
 20
4809.5730777627
 10
6013.6271444901
 20
4808.9073535921
 10
6014.4542896634
 20
4808.3280490348
 10
6015.3473304572
 20
4807.8429981913
 10
6016.2941900266
 20
4807.4587605421
 10
6017.2820637203
 20
4807.1805322422
 10
6018.2975922412
 20
4807.0120758521
 10
6019.3270423084
 20
4806.9556694555
 10
6020.3564923755
 20
4807.0120758521
 10
6021.3720208965
 20
4807.1805322422
 10
6022.3598945902
 20
4807.4587605421
 10
6023.3067541596
 20
4807.8429981913
 10
6024.1997949533
 20
4808.3280490348
 10
6025.0269401267
 20
4808.9073535921
 10
6025.7770039601
 20
4809.5730777627
 10
6026.439843127
 20
4810.3162187693
 10
6027.0064938647
 20
4811.1267269046
 10
6027.4692931941
 20
4811.9936414365
 10
6027.8219825482
 20
4812.9052388333
 10
6028.0597924085
 20
4813.8491913038
 10
6028.1795068045
 20
4814.8127335102
 10
6028.1795068045
 20
4815.7828351972
 10
6028.0597924085
 20
4816.7463774037
 10
6027.8219825482
 20
4817.6903298742
 10
6027.4692931941
 20
4818.6019272709
 10
6027.0064938647
 20
4819.4688418029
 10
6026.439843127
 20
4820.2793499382
 10
6025.7770039601
 20
4821.0224909448
 10
6025.0269401267
 20
4821.6882151154
 10
6024.1997949533
 20
4822.2675196726
 10
6023.3067541596
 20
4822.7525705161
 10
6022.3598945902
 20
4823.1368081654
 10
6021.3720208965
 20
4823.4150364653
 10
6020.3564923755
 20
4823.5834928554
 10
6019.3270423084
 20
4823.639899252
  0
LWPOLYLINE
  5
12B
330
1F
100
AcDbEntity
  8
0
  6
Continuous
 62
     7
370
    25
100
AcDbPolyline
 90
       53
 70
   128
 43
0.0
 10
6019.3270423084
 20
4822.8340072537
 10
6018.3397889511
 20
4822.7778274025
 10
6017.366931971
 20
4822.6101070777
 10
6016.4226578133
 20
4822.3332920192
 10
6015.5207361217
 20
4821.9514188141
 10
6014.6743189453
 20
4821.4700560334
 10
6013.8957489526
 20
4820.8962230305
 10
6013.1963794472
 20
4820.2382875828
 10
6012.5864088114
 20
4819.5058438705
 10
6012.0747317905
 20
4818.7095725724
 10
6011.6688097878
 20
4817.8610851169
 10
6011.3745620601
 20
4816.9727543619
 10
6011.1962794018
 20
4816.0575341701
 10
6011.1365615756
 20
4815.1287705128
 10
6011.1962794018
 20
4814.2000068554
 10
6011.3745620601
 20
4813.2847866636
 10
6011.6688097878
 20
4812.3964559086
 10
6012.0747317905
 20
4811.5479684532
 10
6012.5864088114
 20
4810.7516971551
 10
6013.1963794472
 20
4810.0192534428
 10
6013.8957489526
 20
4809.361317995
 10
6014.6743189453
 20
4808.7874849921
 10
6015.5207361217
 20
4808.3061222115
 10
6016.4226578133
 20
4807.9242490063
 10
6017.366931971
 20
4807.6474339479
 10
6018.3397889511
 20
4807.4797136231
 10
6019.3270423084
 20
4807.4235337719
 10
6020.3142956656
 20
4807.4797136231
 10
6021.2871526458
 20
4807.6474339479
 10
6022.2314268034
 20
4807.9242490063
 10
6023.1333484951
 20
4808.3061222115
 10
6023.9797656715
 20
4808.7874849921
 10
6024.7583356642
 20
4809.361317995
 10
6025.4577051696
 20
4810.0192534428
 10
6026.0676758054
 20
4810.7516971551
 10
6026.5793528262
 20
4811.5479684532
 10
6026.9852748289
 20
4812.3964559086
 10
6027.2795225567
 20
4813.2847866636
 10
6027.4578052149
 20
4814.2000068554
 10
6027.5175230412
 20
4815.1287705128
 10
6027.4578052149
 20
4816.0575341701
 10
6027.2795225567
 20
4816.9727543619
 10
6026.9852748289
 20
4817.8610851169
 10
6026.5793528262
 20
4818.7095725724
 10
6026.0676758054
 20
4819.5058438705
 10
6025.4577051696
 20
4820.2382875828
 10
6024.7583356642
 20
4820.8962230305
 10
6023.9797656715
 20
4821.4700560334
 10
6023.1333484951
 20
4821.9514188141
 10
6022.2314268034
 20
4822.3332920192
 10
6021.2871526458
 20
4822.6101070777
 10
6020.3142956656
 20
4822.7778274025
 10
6019.3270423084
 20
4822.8340072537
  0
ARC
  5
12C
330
1F
100
AcDbEntity
  8
0
  6
Continuous
 62
     7
370
    25
100
AcDbCircle
 10
6019.1758285247
 20
4822.2673829551
 30
0.0
 40
16.87804799000572
100
AcDbArc
 50
89.486668866
 51
142.0667631193
  0
ARC
  5
12D
330
1F
100
AcDbEntity
  8
0
  6
Continuous
 62
     7
370
    25
100
AcDbCircle
 10
6019.478256092
 20
4822.2673829551
 30
0.0
 40
16.87804799000845
100
AcDbArc
 50
37.9332368807
 51
90.513331134
  0
ARC
  5
12E
330
1F
100
AcDbEntity
  8
0
  6
Continuous
 62
     7
370
    25
100
AcDbCircle
 10
6019.2223152959
 20
4826.5149488156
 30
0.0
 40
13.81171734059893
100
AcDbArc
 50
89.5655519754
 51
138.7117821462
  0
ARC
  5
12F
330
1F
100
AcDbEntity
  8
0
  6
Continuous
 62
     7
370
    25
100
AcDbCircle
 10
6019.4317693208
 20
4826.5149488156
 30
0.0
 40
13.81171734060338
100
AcDbArc
 50
41.2882178538
 51
90.4344480246
  0
ARC
  5
130
330
1F
100
AcDbEntity
  8
0
  6
Continuous
 62
     7
370
    25
100
AcDbCircle
 10
6019.0332262959
 20
4753.1579098015
 30
0.0
 40
12.68587167612976
100
AcDbArc
 50
271.3271395846
 51
354.8939485475
  0
ARC
  5
131
330
1F
100
AcDbEntity
  8
0
  6
Continuous
 62
     7
370
    25
100
AcDbCircle
 10
6019.6435961909
 20
4753.1821990871
 30
0.0
 40
12.7107004088311
100
AcDbArc
 50
185.2059836882
 51
268.5729285784
  0
ARC
  5
132
330
1F
100
AcDbEntity
  8
0
  6
Continuous
 62
     7
370
    25
100
AcDbCircle
 10
6031.8128178662
 20
4750.8925925603
 30
0.0
 40
1.145376961386664
100
AcDbArc
 50
41.8250649683
 51
97.2256049578
  0
ARC
  5
133
330
1F
100
AcDbEntity
  8
0
  6
Continuous
 62
     7
370
    25
100
AcDbCircle
 10
6019.0413480987
 20
4752.9297674767
 30
0.0
 40
13.68436101227232
100
AcDbArc
 50
271.1962752041
 51
354.6607328653
  0
LINE
  5
134
330
1F
100
AcDbEntity
  8
0
  6
Continuous
 62
     7
370
    25
100
AcDbLine
 10
6019.3270423008
 20
4740.475441101
 30
0.0
 11
6019.3270423077
 21
4739.248389069
 31
0.0
  0
ARC
  5
135
330
1F
100
AcDbEntity
  8
0
  6
Continuous
 62
     7
370
    25
100
AcDbCircle
 10
6019.5744336441
 20
4752.8885897898
 30
0.0
 40
13.64244399569919
100
AcDbArc
 50
185.1820478029
 51
268.9609445022
  0
ARC
  5
136
330
1F
100
AcDbEntity
  8
0
  6
Continuous
 62
     7
370
    25
100
AcDbCircle
 10
6006.8412667366
 20
4750.8925925013
 30
0.0
 40
1.145376943537215
100
AcDbArc
 50
82.7743952306
 51
138.1749354399
  0
ARC
  5
137
330
1F
100
AcDbEntity
  8
0
  6
Continuous
 62
     7
370
    25
100
AcDbCircle
 10
6019.3967386324
 20
4747.8968764861
 30
0.0
 40
13.59403821057261
100
AcDbArc
 50
269.7062445772
 51
352.5395687708
  0
LINE
  5
138
330
1F
100
AcDbEntity
  8
0
  6
Continuous
 62
     7
370
    25
100
AcDbLine
 10
6019.3270423077
 20
4739.248389069
 30
0.0
 11
6019.327042313
 21
4734.3030169424
 31
0.0
  0
ARC
  5
139
330
1F
100
AcDbEntity
  8
0
  6
Continuous
 62
     7
370
    25
100
AcDbCircle
 10
5589.6498780605
 20
4732.1011480404
 30
0.0
 40
443.4478421884615
100
AcDbArc
 50
1.8131370482
 51
2.5274600155
  0
ARC
  5
13A
330
1F
100
AcDbEntity
  8
0
  6
Continuous
 62
     7
370
    25
100
AcDbCircle
 10
6019.1568578958
 20
4747.7817777407
 30
0.0
 40
13.4798351397238
100
AcDbArc
 50
187.0308018068
 51
270.7233848043
  0
ARC
  5
13B
330
1F
100
AcDbEntity
  8
0
  6
Continuous
 62
     7
370
    25
100
AcDbCircle
 10
6449.0014114803
 20
4732.1012548188
 30
0.0
 40
443.4450451253865
100
AcDbArc
 50
177.4725378518
 51
178.1868653136
  0
LINE
  5
13C
330
1F
100
AcDbEntity
  8
0
  6
Continuous
 62
     7
370
    25
100
AcDbLine
 10
6038.0959210181
 20
4835.0320558056
 30
0.0
 11
6041.5774791418
 21
4844.3269049091
 31
0.0
  0
LINE
  5
13D
330
1F
100
AcDbEntity
  8
0
  6
Continuous
 62
     7
370
    25
100
AcDbLine
 10
6041.577042351
 20
4844.3257387919
 30
0.0
 11
6041.4113884328
 21
4842.4563479321
 31
0.0
  0
LINE
  5
13E
330
1F
100
AcDbEntity
  8
0
  6
Continuous
 62
     7
370
    25
100
AcDbLine
 10
6041.4113884328
 20
4842.4563479321
 30
0.0
 11
6039.5379560456
 21
4821.3148173179
 31
0.0
  0
LINE
  5
13F
330
1F
100
AcDbEntity
  8
0
  6
Continuous
 62
     7
370
    25
100
AcDbLine
 10
6038.4327463539
 20
4808.8426167248
 30
0.0
 11
6032.8757001424
 21
4746.1318066626
 31
0.0
  0
LINE
  5
140
330
1F
100
AcDbEntity
  8
0
  6
Continuous
 62
     7
370
    25
100
AcDbLine
 10
6038.0959210181
 20
4835.0320558056
 30
0.0
 11
6037.4426724182
 21
4833.2880529921
 31
0.0
  0
LINE
  5
141
330
1F
100
AcDbEntity
  8
0
  6
Continuous
 62
     7
370
    25
100
AcDbLine
 10
5997.2426964003
 20
4842.4563464346
 30
0.0
 11
5999.1134157548
 21
4821.3454319878
 31
0.0
  0
LINE
  5
142
330
1F
100
AcDbEntity
  8
0
  6
Continuous
 62
     7
370
    25
100
AcDbLine
 10
6000.2244372566
 20
4808.8076454862
 30
0.0
 11
6005.7783844826
 21
4746.131806672
 31
0.0
  0
LINE
  5
143
330
1F
100
AcDbEntity
  8
0
  6
Continuous
 62
     7
370
    25
100
AcDbLine
 10
5997.0824912831
 20
4844.2642480397
 30
0.0
 11
5997.2426964003
 21
4842.4563464346
 31
0.0
  0
LINE
  5
144
330
1F
100
AcDbEntity
  8
0
  6
Continuous
 62
     7
370
    25
100
AcDbLine
 10
5997.077042351
 20
4844.3257387919
 30
0.0
 11
5997.0824912831
 21
4844.2642480397
 31
0.0
  0
LINE
  5
145
330
1F
100
AcDbEntity
  8
0
  6
Continuous
 62
     7
370
    25
100
AcDbLine
 10
5997.077045604
 20
4844.325730107
 30
0.0
 11
6000.5581635363
 21
4835.0320559935
 31
0.0
  0
LINE
  5
146
330
1F
100
AcDbEntity
  8
0
  6
Continuous
 62
     7
370
    25
100
AcDbLine
 10
6000.5581635363
 20
4835.0320559935
 30
0.0
 11
6001.2114121311
 21
4833.2880531548
 31
0.0
  0
LWPOLYLINE
  5
147
330
1F
100
AcDbEntity
  8
0
  6
Continuous
 62
     7
370
    25
100
AcDbPolyline
 90
       36
 70
   128
 43
0.0
 10
6003.3865766194
 20
4829.3946166496
 10
6003.4407582625
 20
4829.7833628768
 10
6003.6983054684
 20
4831.0666055793
 10
6004.0727488347
 20
4832.3241146073
 10
6004.5612876878
 20
4833.5464843397
 10
6005.1602679692
 20
4834.724571982
 10
6005.8652095667
 20
4835.8495659507
 10
6006.6708398236
 20
4836.9130517795
 10
6007.5711329756
 20
4837.9070750568
 10
6008.559355221
 20
4838.8242009202
 10
6009.628115087
 20
4839.6575696669
 10
6010.7694187141
 20
4840.4009480607
 10
6011.9747296472
 20
4841.0487759543
 10
6013.2350326841
 20
4841.5962078766
 10
6014.5409013058
 20
4842.0391492746
 10
6015.8825681826
 20
4842.3742871391
 10
6017.249998229
 20
4842.5991147846
 10
6018.6329636627
 20
4842.711950598
 10
6020.021120503
 20
4842.7119506163
 10
6021.40408594
 20
4842.5991148396
 10
6022.7715159931
 20
4842.3742872303
 10
6024.1131828799
 20
4842.0391494012
 10
6025.4190515149
 20
4841.5962080378
 10
6026.6793545682
 20
4841.0487761489
 10
6027.8846655206
 20
4840.4009482872
 10
6029.0259691699
 20
4839.6575699236
 10
6030.0947290608
 20
4838.8242012052
 10
6031.0829513337
 20
4837.9070753679
 10
6031.9832445154
 20
4836.9130521145
 10
6032.7888748041
 20
4835.8495663069
 10
6033.4938164353
 20
4834.724572357
 10
6034.0927967519
 20
4833.5464847305
 10
6034.5813356415
 20
4832.324115011
 10
6034.9557790454
 20
4831.0666059929
 10
6035.2133262897
 20
4829.7833632972
 10
6035.2675079973
 20
4829.3946166496
  0
ARC
  5
148
330
1F
100
AcDbEntity
  8
0
  6
Continuous
 62
     7
370
    25
100
AcDbCircle
 10
6022.8430672761
 20
4844.8972594865
 30
0.0
 40
18.75174971738624
100
AcDbArc
 50
352.50650425
 51
358.1642970097
  0
LWPOLYLINE
  5
149
330
1F
100
AcDbEntity
  8
0
  6
Continuous
 62
     7
370
    25
100
AcDbPolyline
 90
        3
 70
   128
 43
0.0
 10
6041.5762356068
 20
4844.3257673858
 10
6041.5805597448
 20
4844.309212604
 10
6041.5848571865
 20
4844.2926581432
  0
LWPOLYLINE
  5
14A
330
1F
100
AcDbEntity
  8
0
  6
Continuous
 62
     7
370
    25
100
AcDbPolyline
 90
        6
 70
   128
 43
0.0
 10
6037.3150999956
 20
4833.0312151054
 10
6038.0727622558
 20
4835.0320558056
 10
6038.9491248974
 20
4837.3554549506
 10
6039.8257474294
 20
4839.6788428121
 10
6040.7030462332
 20
4842.0022013195
 10
6041.5762226331
 20
4844.3257387919
  0
LWPOLYLINE
  5
14B
330
1F
100
AcDbEntity
  8
0
  6
Continuous
 62
     7
370
    25
100
AcDbPolyline
 90
        6
 70
   128
 43
0.0
 10
5997.0778619836
 20
4844.3257387919
 10
5997.9510378869
 20
4842.0022026358
 10
5998.8283369541
 20
4839.6788434297
 10
5999.7049596031
 20
4837.355455259
 10
6000.581322361
 20
4835.0320558056
 10
6001.3389845691
 20
4833.0312152423
  0
LINE
  5
14C
330
1F
100
AcDbEntity
  8
0
  6
Continuous
 62
     7
370
    25
100
AcDbLine
 10
5997.0769785574
 20
4844.328105656
 30
0.0
 11
5997.0770423686
 21
4844.3257381463
 31
0.0
  0
LINE
  5
14D
330
1F
100
AcDbEntity
  8
0
  6
Continuous
 62
     7
370
    25
100
AcDbLine
 10
5997.0769785635
 20
4844.3281056561
 30
0.0
 11
5997.0827616437
 21
4844.2628132131
 31
0.0
  0
ARC
  5
14E
330
1F
100
AcDbEntity
  8
0
  6
Continuous
 62
     7
370
    25
100
AcDbCircle
 10
6043.8912972784
 20
4847.1417473182
 30
0.0
 40
46.90693493146126
100
AcDbArc
 50
183.5485175429
 51
185.7382861146
  0
ARC
  5
14F
330
1F
100
AcDbEntity
  8
0
  6
Continuous
 62
     7
370
    25
100
AcDbCircle
 10
6019.3270423084
 20
4846.7760748928
 30
0.0
 40
23.25
100
AcDbArc
 50
180.0
 51
200.7925784119
  0
ARC
  5
150
330
1F
100
AcDbEntity
  8
0
  6
Continuous
 62
     7
370
    25
100
AcDbCircle
 10
6019.3270423084
 20
4846.7760748928
 30
0.0
 40
23.25000000000062
100
AcDbArc
 50
339.2074223186
 51
180.0
  0
ARC
  5
151
330
1F
100
AcDbEntity
  8
0
  6
Continuous
 62
     7
370
    25
100
AcDbCircle
 10
6038.5902262154
 20
4832.5406266762
 30
0.0
 40
1.366244444926747
100
AcDbArc
 50
148.1890418881
 51
158.9564115736
  0
ARC
  5
152
330
1F
100
AcDbEntity
  8
0
  6
Continuous
 62
     7
370
    25
100
AcDbCircle
 10
6000.0637935711
 20
4832.5405946197
 30
0.0
 40
1.366316462887123
100
AcDbArc
 50
21.0438729908
 51
31.8106745212
  0
ARC
  5
153
330
1F
100
AcDbEntity
  8
0
  6
Continuous
 62
     7
370
    25
100
AcDbCircle
 10
6037.2954319344
 20
4833.3438681961
 30
0.0
 40
0.1574645898910009
100
AcDbArc
 50
328.160540035
 51
339.239528455
  0
ARC
  5
154
330
1F
100
AcDbEntity
  8
0
  6
Continuous
 62
     7
370
    25
100
AcDbCircle
 10
6001.3586457383
 20
4833.3438649585
 30
0.0
 40
0.1574569545323094
100
AcDbArc
 50
200.7602015253
 51
211.8397305842
  0
ARC
  5
155
330
1F
100
AcDbEntity
  8
0
  6
Continuous
 62
     7
370
    25
100
AcDbCircle
 10
5996.5831252331
 20
4844.4090475485
 30
0.0
 40
0.5199359091893879
100
AcDbArc
 50
340.8518284221
 51
343.8296027148
  0
ARC
  5
156
330
1F
100
AcDbEntity
  8
0
  6
Continuous
 62
     8
370
    25
100
AcDbCircle
 10
6019.2592140334
 20
4814.686277553
 30
0.0
 40
21.62112065902193
100
AcDbArc
 50
89.8202553732
 51
125.2630839616
  0
ARC
  5
157
330
1F
100
AcDbEntity
  8
0
  6
Continuous
 62
     8
370
    25
100
AcDbCircle
 10
6019.3892637982
 20
4814.6695017095
 30
0.0
 40
21.63787957088082
100
AcDbArc
 50
54.6335455228
 51
90.1647589202
  0
LWPOLYLINE
  5
158
330
1F
100
AcDbEntity
  8
0
  6
Continuous
 62
     8
370
    25
100
AcDbPolyline
 90
        5
 70
   128
 43
0.0
 10
6031.6687562601
 20
4752.0288736159
 10
6032.7028810439
 20
4767.4462668853
 10
6033.7329859072
 20
4782.8639025114
 10
6034.7601044209
 20
4798.2817187208
 10
6035.128840905
 20
4803.8290658229
  0
LWPOLYLINE
  5
159
330
1F
100
AcDbEntity
  8
0
  6
Continuous
 62
     8
370
    25
100
AcDbPolyline
 90
        5
 70
   128
 43
0.0
 10
6003.5252387514
 20
4803.829139898
 10
6003.8939799818
 20
4798.2817213923
 10
6004.92109837
 20
4782.8639070872
 10
6005.9512033281
 20
4767.4462700848
 10
6006.9853283368
 20
4752.0288735397
  0
LWPOLYLINE
  5
15A
330
1F
100
AcDbEntity
  8
0
  6
Continuous
 62
     8
370
    25
100
AcDbPolyline
 90
        3
 70
   128
 43
0.0
 10
6036.2346699605
 20
4805.1681736081
 10
6034.7286778825
 20
4782.5048031994
 10
6032.6663348446
 20
4751.6563969537
  0
LWPOLYLINE
  5
15B
330
1F
100
AcDbEntity
  8
0
  6
Continuous
 62
     8
370
    25
100
AcDbPolyline
 90
        5
 70
   128
 43
0.0
 10
6005.9877497661
 20
4751.6563968767
 10
6004.9544621562
 20
4767.0810750639
 10
6003.9254064088
 20
4782.5048077759
 10
6002.8994256692
 20
4797.9276854601
 10
6002.4202562924
 20
4805.1465186522
  0
ARC
  5
15C
330
1F
100
AcDbEntity
  8
0
  6
Continuous
 62
     8
370
    25
100
AcDbCircle
 10
5807.3649171578
 20
4834.2459807488
 30
0.0
 40
230.0797494158441
100
AcDbArc
 50
358.0577793187
 51
359.7614506438
  0
LWPOLYLINE
  5
15D
330
1F
100
AcDbEntity
  8
0
  6
Continuous
 62
     8
370
    25
100
AcDbPolyline
 90
        8
 70
   128
 43
0.0
 10
6001.3395191144
 20
4826.5210123768
 10
6001.3337064047
 20
4826.7248184238
 10
6001.2478691805
 20
4830.5520557213
 10
6001.2126669248
 20
4832.8358092953
 10
6001.2112069445
 20
4833.2017842036
 10
6001.2114118864
 20
4833.2879941656
 10
6001.2114121311
 20
4833.2880531548
 10
6001.2114121311
 20
4833.2880531548
  0
LWPOLYLINE
  5
15E
330
1F
100
AcDbEntity
  8
0
  6
Continuous
 62
     8
370
    25
100
AcDbPolyline
 90
        3
 70
   128
 43
0.0
 10
5997.3026681541
 20
4841.7795701126
 10
5997.2574868913
 20
4842.1127241362
 10
5997.219413913
 20
4842.4517742069
  0
LINE
  5
15F
330
1F
100
AcDbEntity
  8
0
  6
Continuous
 62
     8
370
    25
100
AcDbLine
 10
6041.4346709078
 20
4842.4517755123
 30
0.0
 11
6041.3416944214
 21
4841.6698567377
 31
0.0
  0
LWPOLYLINE
  5
160
330
1F
100
AcDbEntity
  8
0
  6
Continuous
 62
     8
370
    25
100
AcDbPolyline
 90
        3
 70
   128
 43
0.0
 10
6036.3133397344
 20
4827.9558493853
 10
6036.7680049005
 20
4829.7424122342
 10
6037.3150999956
 20
4833.0312151054
  0
ARC
  5
161
330
1F
100
AcDbEntity
  8
0
  6
Continuous
 62
     8
370
    25
100
AcDbCircle
 10
6038.0642200395
 20
4837.4112439984
 30
0.0
 40
36.9855048939711
100
AcDbArc
 50
186.8012452969
 51
194.8927756062
  0
ARC
  5
162
330
1F
100
AcDbEntity
  8
0
  6
Continuous
 62
     8
370
    25
100
AcDbCircle
 10
6019.784052459
 20
4741.080325903
 30
0.0
 40
11.06335789890461
100
AcDbArc
 50
267.6325266304
 51
356.264110404
  0
ARC
  5
163
330
1F
100
AcDbEntity
  8
0
  6
Continuous
 62
     8
370
    25
100
AcDbCircle
 10
6018.9311308515
 20
4741.1504279697
 30
0.0
 40
11.13105989727599
100
AcDbArc
 50
184.2985300374
 51
272.0383361175
  0
ARC
  5
164
330
1F
100
AcDbEntity
  8
0
  6
Continuous
 62
     8
370
    25
100
AcDbCircle
 10
5904.4438037591
 20
4835.9455873223
 30
0.0
 40
133.0124972885078
100
AcDbArc
 50
356.0344470169
 51
358.8434359154
  0
ARC
  5
165
330
1F
100
AcDbEntity
  8
0
  6
Continuous
 62
     8
370
    25
100
AcDbCircle
 10
6133.8341370124
 20
4835.9360359717
 30
0.0
 40
132.6362373615211
100
AcDbArc
 50
181.1557185778
 51
183.9632556916
  0
ARC
  5
166
330
1F
100
AcDbEntity
  8
0
  6
Continuous
 62
     8
370
    25
100
AcDbCircle
 10
5997.1549190479
 20
4842.9664683401
 30
0.0
 40
0.5187192288555011
100
AcDbArc
 50
277.142344456
 51
279.7533586746
  0
ARC
  5
167
330
1F
100
AcDbEntity
  8
0
  6
Continuous
 62
     8
370
    25
100
AcDbCircle
 10
6041.4991610079
 20
4842.9664237267
 30
0.0
 40
0.5186730738662977
100
AcDbArc
 50
260.2462994145
 51
262.8575471328
  0
ENDSEC
  0
SECTION
  2
OBJECTS
  0
DICTIONARY
  5
C
330
0
100
AcDbDictionary
281
     1
  3
ACAD_GROUP
350
D
  3
ACAD_LAYOUT
350
1A
  3
ACAD_MLINESTYLE
350
17
  3
ACAD_PLOTSETTINGS
350
19
  3
ACAD_PLOTSTYLENAME
350
E
  3
ACAD_SCALELIST
350
47
  3
DWGPROPS
350
168
  0
DICTIONARY
  5
D
102
{ACAD_REACTORS
330
C
102
}
330
C
100
AcDbDictionary
281
     1
  0
DICTIONARY
  5
1A
102
{ACAD_REACTORS
330
C
102
}
330
C
100
AcDbDictionary
281
     1
  3
Layout1
350
1E
  3
Layout2
350
26
  3
Model
350
22
  0
DICTIONARY
  5
17
102
{ACAD_REACTORS
330
C
102
}
330
C
100
AcDbDictionary
281
     1
  3
Standard
350
18
  0
DICTIONARY
  5
19
102
{ACAD_REACTORS
330
C
102
}
330
C
100
AcDbDictionary
281
     1
  0
ACDBDICTIONARYWDFLT
  5
E
102
{ACAD_REACTORS
330
C
102
}
330
C
100
AcDbDictionary
281
     1
  3
Normal
350
F
100
AcDbDictionaryWithDefault
340
F
  0
DICTIONARY
  5
47
102
{ACAD_REACTORS
330
C
102
}
330
C
100
AcDbDictionary
281
     1
  3
A0
350
48
  3
A1
350
49
  3
A2
350
4A
  3
A3
350
4B
  3
A4
350
4C
  3
A5
350
4D
  3
A6
350
4E
  3
A7
350
4F
  3
A8
350
50
  3
A9
350
51
  3
B0
350
52
  3
B1
350
53
  3
B2
350
54
  3
B3
350
55
  3
B4
350
56
  3
B5
350
57
  3
B6
350
58
  3
B7
350
59
  3
B8
350
5A
  3
B9
350
5B
  3
C0
350
5C
  3
C1
350
5D
  3
C2
350
5E
  3
C3
350
5F
  3
C4
350
60
  3
C5
350
61
  3
C6
350
62
  3
C7
350
63
  3
C8
350
64
  3
C9
350
65
  3
D0
350
66
  3
D1
350
67
  3
D2
350
68
  0
XRECORD
  5
168
102
{ACAD_REACTORS
330
C
102
}
330
C
100
AcDbXrecord
280
     1
  1
DWGPROPS COOKIE
  2

  3

  4

  6

  7

  8
radek.stransky
  9

300
=
301
=
302
=
303
=
304
=
305
=
306
=
307
=
308
=
309
=
 40
0.0
 41
2459139.270259352
 42
2459139.270259734
  1

 90
        0
  0
LAYOUT
  5
1E
102
{ACAD_REACTORS
330
1A
102
}
330
1A
100
AcDbPlotSettings
  1

  2
none_device
  4

  6

 40
0.0
 41
0.0
 42
0.0
 43
0.0
 44
0.0
 45
0.0
 46
0.0
 47
0.0
 48
0.0
 49
0.0
140
0.0
141
0.0
142
1.0
143
1.0
 70
   688
 72
     1
 73
     0
 74
     5
  7

 75
    16
147
1.0
148
0.0
149
0.0
100
AcDbLayout
  1
Layout1
 70
     1
 71
     1
 10
0.0
 20
0.0
 11
420.0
 21
297.0
 12
0.0
 22
0.0
 32
0.0
 14
1.0000000000E+20
 24
1.0000000000E+20
 34
1.0000000000E+20
 15
-1.0000000000E+20
 25
-1.0000000000E+20
 35
-1.0000000000E+20
146
0.0
 13
0.0
 23
0.0
 33
0.0
 16
1.0
 26
0.0
 36
0.0
 17
0.0
 27
1.0
 37
0.0
 76
     0
330
1B
  0
LAYOUT
  5
26
102
{ACAD_REACTORS
330
1A
102
}
330
1A
100
AcDbPlotSettings
  1

  2
none_device
  4

  6

 40
0.0
 41
0.0
 42
0.0
 43
0.0
 44
0.0
 45
0.0
 46
0.0
 47
0.0
 48
0.0
 49
0.0
140
0.0
141
0.0
142
1.0
143
1.0
 70
   688
 72
     1
 73
     0
 74
     5
  7

 75
    16
147
1.0
148
0.0
149
0.0
100
AcDbLayout
  1
Layout2
 70
     1
 71
     2
 10
0.0
 20
0.0
 11
0.0
 21
0.0
 12
0.0
 22
0.0
 32
0.0
 14
0.0
 24
0.0
 34
0.0
 15
0.0
 25
0.0
 35
0.0
146
0.0
 13
0.0
 23
0.0
 33
0.0
 16
1.0
 26
0.0
 36
0.0
 17
0.0
 27
1.0
 37
0.0
 76
     0
330
23
  0
LAYOUT
  5
22
102
{ACAD_REACTORS
330
1A
102
}
330
1A
100
AcDbPlotSettings
  1

  2
none_device
  4
Letter_(8.50_x_11.00_Inches)
  6

 40
6.35
 41
6.35
 42
6.35000508
 43
6.35000508
 44
215.9
 45
279.4
 46
0.0
 47
0.0
 48
0.0
 49
0.0
140
0.0
141
0.0
142
1.0
143
1.0
 70
  1712
 72
     1
 73
     0
 74
     0
  7

 75
     0
147
1.0
148
0.0
149
0.0
100
AcDbLayout
  1
Model
 70
     1
 71
     0
 10
0.0
 20
0.0
 11
20000.0
 21
10000.0
 12
0.0
 22
0.0
 32
0.0
 14
0.0
 24
0.0
 34
0.0
 15
20000.0
 25
10000.0
 35
0.0
146
0.0
 13
0.0
 23
0.0
 33
0.0
 16
1.0
 26
0.0
 36
0.0
 17
0.0
 27
1.0
 37
0.0
 76
     0
330
1F
331
29
  0
MLINESTYLE
  5
18
102
{ACAD_REACTORS
330
17
102
}
330
17
100
AcDbMlineStyle
  2
Standard
 70
     0
  3

 62
   256
 51
90.0
 52
90.0
 71
     2
 49
0.5
 62
   256
  6
BYLAYER
 49
-0.5
 62
   256
  6
BYLAYER
  0
ACDBPLACEHOLDER
  5
F
102
{ACAD_REACTORS
330
E
102
}
330
E
  0
SCALE
  5
48
102
{ACAD_REACTORS
330
47
102
}
330
47
100
AcDbScale
 70
     0
300
1:1
140
1.0
141
1.0
290
     1
  0
SCALE
  5
49
102
{ACAD_REACTORS
330
47
102
}
330
47
100
AcDbScale
 70
     0
300
1:2
140
1.0
141
2.0
290
     0
  0
SCALE
  5
4A
102
{ACAD_REACTORS
330
47
102
}
330
47
100
AcDbScale
 70
     0
300
1:4
140
1.0
141
4.0
290
     0
  0
SCALE
  5
4B
102
{ACAD_REACTORS
330
47
102
}
330
47
100
AcDbScale
 70
     0
300
1:5
140
1.0
141
5.0
290
     0
  0
SCALE
  5
4C
102
{ACAD_REACTORS
330
47
102
}
330
47
100
AcDbScale
 70
     0
300
1:8
140
1.0
141
8.0
290
     0
  0
SCALE
  5
4D
102
{ACAD_REACTORS
330
47
102
}
330
47
100
AcDbScale
 70
     0
300
1:10
140
1.0
141
10.0
290
     0
  0
SCALE
  5
4E
102
{ACAD_REACTORS
330
47
102
}
330
47
100
AcDbScale
 70
     0
300
1:16
140
1.0
141
16.0
290
     0
  0
SCALE
  5
4F
102
{ACAD_REACTORS
330
47
102
}
330
47
100
AcDbScale
 70
     0
300
1:20
140
1.0
141
20.0
290
     0
  0
SCALE
  5
50
102
{ACAD_REACTORS
330
47
102
}
330
47
100
AcDbScale
 70
     0
300
1:30
140
1.0
141
30.0
290
     0
  0
SCALE
  5
51
102
{ACAD_REACTORS
330
47
102
}
330
47
100
AcDbScale
 70
     0
300
1:40
140
1.0
141
40.0
290
     0
  0
SCALE
  5
52
102
{ACAD_REACTORS
330
47
102
}
330
47
100
AcDbScale
 70
     0
300
1:50
140
1.0
141
50.0
290
     0
  0
SCALE
  5
53
102
{ACAD_REACTORS
330
47
102
}
330
47
100
AcDbScale
 70
     0
300
1:100
140
1.0
141
100.0
290
     0
  0
SCALE
  5
54
102
{ACAD_REACTORS
330
47
102
}
330
47
100
AcDbScale
 70
     0
300
2:1
140
2.0
141
1.0
290
     0
  0
SCALE
  5
55
102
{ACAD_REACTORS
330
47
102
}
330
47
100
AcDbScale
 70
     0
300
4:1
140
4.0
141
1.0
290
     0
  0
SCALE
  5
56
102
{ACAD_REACTORS
330
47
102
}
330
47
100
AcDbScale
 70
     0
300
8:1
140
8.0
141
1.0
290
     0
  0
SCALE
  5
57
102
{ACAD_REACTORS
330
47
102
}
330
47
100
AcDbScale
 70
     0
300
10:1
140
10.0
141
1.0
290
     0
  0
SCALE
  5
58
102
{ACAD_REACTORS
330
47
102
}
330
47
100
AcDbScale
 70
     0
300
100:1
140
100.0
141
1.0
290
     0
  0
SCALE
  5
59
102
{ACAD_REACTORS
330
47
102
}
330
47
100
AcDbScale
 70
     0
300
1/128" = 1'-0"
140
0.0078125
141
12.0
290
     0
  0
SCALE
  5
5A
102
{ACAD_REACTORS
330
47
102
}
330
47
100
AcDbScale
 70
     0
300
1/64" = 1'-0"
140
0.015625
141
12.0
290
     0
  0
SCALE
  5
5B
102
{ACAD_REACTORS
330
47
102
}
330
47
100
AcDbScale
 70
     0
300
1/32" = 1'-0"
140
0.03125
141
12.0
290
     0
  0
SCALE
  5
5C
102
{ACAD_REACTORS
330
47
102
}
330
47
100
AcDbScale
 70
     0
300
1/16" = 1'-0"
140
0.0625
141
12.0
290
     0
  0
SCALE
  5
5D
102
{ACAD_REACTORS
330
47
102
}
330
47
100
AcDbScale
 70
     0
300
3/32" = 1'-0"
140
0.09375
141
12.0
290
     0
  0
SCALE
  5
5E
102
{ACAD_REACTORS
330
47
102
}
330
47
100
AcDbScale
 70
     0
300
1/8" = 1'-0"
140
0.125
141
12.0
290
     0
  0
SCALE
  5
5F
102
{ACAD_REACTORS
330
47
102
}
330
47
100
AcDbScale
 70
     0
300
3/16" = 1'-0"
140
0.1875
141
12.0
290
     0
  0
SCALE
  5
60
102
{ACAD_REACTORS
330
47
102
}
330
47
100
AcDbScale
 70
     0
300
1/4" = 1'-0"
140
0.25
141
12.0
290
     0
  0
SCALE
  5
61
102
{ACAD_REACTORS
330
47
102
}
330
47
100
AcDbScale
 70
     0
300
3/8" = 1'-0"
140
0.375
141
12.0
290
     0
  0
SCALE
  5
62
102
{ACAD_REACTORS
330
47
102
}
330
47
100
AcDbScale
 70
     0
300
1/2" = 1'-0"
140
0.5
141
12.0
290
     0
  0
SCALE
  5
63
102
{ACAD_REACTORS
330
47
102
}
330
47
100
AcDbScale
 70
     0
300
3/4" = 1'-0"
140
0.75
141
12.0
290
     0
  0
SCALE
  5
64
102
{ACAD_REACTORS
330
47
102
}
330
47
100
AcDbScale
 70
     0
300
1" = 1'-0"
140
1.0
141
12.0
290
     0
  0
SCALE
  5
65
102
{ACAD_REACTORS
330
47
102
}
330
47
100
AcDbScale
 70
     0
300
1-1/2" = 1'-0"
140
1.5
141
12.0
290
     0
  0
SCALE
  5
66
102
{ACAD_REACTORS
330
47
102
}
330
47
100
AcDbScale
 70
     0
300
3" = 1'-0"
140
3.0
141
12.0
290
     0
  0
SCALE
  5
67
102
{ACAD_REACTORS
330
47
102
}
330
47
100
AcDbScale
 70
     0
300
6" = 1'-0"
140
6.0
141
12.0
290
     0
  0
SCALE
  5
68
102
{ACAD_REACTORS
330
47
102
}
330
47
100
AcDbScale
 70
     0
300
1'-0" = 1'-0"
140
12.0
141
12.0
290
     0
  0
ENDSEC
  0
EOF
