  0
SECTION
  2
HEADER
  9
$ACADVER
  1
AC1015
  9
$ACADMAINTVER
 70
     6
  9
$DWGCODEPAGE
  3
ANSI_1250
  9
$INSBASE
 10
0.0
 20
0.0
 30
0.0
  9
$EXTMIN
 10
0.0
 20
0.0
 30
0.0
  9
$EXTMAX
 10
20000.0
 20
10000.0
 30
0.0
  9
$LIMMIN
 10
0.0
 20
0.0
  9
$LIMMAX
 10
20000.0
 20
10000.0
  9
$ORTHOMODE
 70
     0
  9
$REGENMODE
 70
     1
  9
$FILLMODE
 70
     1
  9
$QTEXTMODE
 70
     0
  9
$MIRRTEXT
 70
     1
  9
$LTSCALE
 40
1.0
  9
$ATTMODE
 70
     1
  9
$TEXTSIZE
 40
2.0
  9
$TRACEWID
 40
1.0
  9
$TEXTSTYLE
  7
Standard
  9
$CLAYER
  8
0
  9
$CELTYPE
  6
ByLayer
  9
$CECOLOR
 62
   256
  9
$CELTSCALE
 40
1.0
  9
$DISPSILH
 70
     0
  9
$DIMSCALE
 40
1.0
  9
$DIMASZ
 40
2.0
  9
$DIMEXO
 40
1.0
  9
$DIMDLI
 40
3.75
  9
$DIMRND
 40
0.0
  9
$DIMDLE
 40
0.0
  9
$DIMEXE
 40
1.0
  9
$DIMTP
 40
0.0
  9
$DIMTM
 40
0.0
  9
$DIMTXT
 40
2.0
  9
$DIMCEN
 40
2.5
  9
$DIMTSZ
 40
0.0
  9
$DIMTOL
 70
     0
  9
$DIMLIM
 70
     0
  9
$DIMTIH
 70
     1
  9
$DIMTOH
 70
     1
  9
$DIMSE1
 70
     0
  9
$DIMSE2
 70
     0
  9
$DIMTAD
 70
     1
  9
$DIMZIN
 70
     0
  9
$DIMBLK
  1

  9
$DIMASO
 70
     1
  9
$DIMSHO
 70
     1
  9
$DIMPOST
  1

  9
$DIMAPOST
  1

  9
$DIMALT
 70
     0
  9
$DIMALTD
 70
     3
  9
$DIMALTF
 40
0.0393700787
  9
$DIMLFAC
 40
1.0
  9
$DIMTOFL
 70
     1
  9
$DIMTVP
 40
0.0
  9
$DIMTIX
 70
     0
  9
$DIMSOXD
 70
     0
  9
$DIMSAH
 70
     0
  9
$DIMBLK1
  1

  9
$DIMBLK2
  1

  9
$DIMSTYLE
  2
ISO-25
  9
$DIMCLRD
 70
     0
  9
$DIMCLRE
 70
     0
  9
$DIMCLRT
 70
     0
  9
$DIMTFAC
 40
1.0
  9
$DIMGAP
 40
1.524
  9
$DIMJUST
 70
     0
  9
$DIMSD1
 70
     0
  9
$DIMSD2
 70
     0
  9
$DIMTOLJ
 70
     0
  9
$DIMTZIN
 70
     0
  9
$DIMALTZ
 70
     0
  9
$DIMALTTZ
 70
     0
  9
$DIMUPT
 70
     0
  9
$DIMDEC
 70
     2
  9
$DIMTDEC
 70
     0
  9
$DIMALTU
 70
     2
  9
$DIMALTTD
 70
     3
  9
$DIMTXSTY
  7
Standard
  9
$DIMAUNIT
 70
     0
  9
$DIMADEC
 70
     2
  9
$DIMALTRND
 40
0.0
  9
$DIMAZIN
 70
     0
  9
$DIMDSEP
 70
    44
  9
$DIMATFIT
 70
     3
  9
$DIMFRAC
 70
     0
  9
$DIMLDRBLK
  1

  9
$DIMLUNIT
 70
     2
  9
$DIMLWD
 70
    -2
  9
$DIMLWE
 70
    -2
  9
$DIMTMOVE
 70
     0
  9
$LUNITS
 70
     2
  9
$LUPREC
 70
     3
  9
$SKETCHINC
 40
1.0
  9
$FILLETRAD
 40
10.0
  9
$AUNITS
 70
     0
  9
$AUPREC
 70
     2
  9
$MENU
  1
.
  9
$ELEVATION
 40
0.0
  9
$PELEVATION
 40
0.0
  9
$THICKNESS
 40
0.0
  9
$LIMCHECK
 70
     0
  9
$CHAMFERA
 40
0.0
  9
$CHAMFERB
 40
0.0
  9
$CHAMFERC
 40
0.0
  9
$CHAMFERD
 40
0.0
  9
$SKPOLY
 70
     0
  9
$TDCREATE
 40
2459740.516610533
  9
$TDUCREATE
 40
2459740.433277199
  9
$TDUPDATE
 40
2459740.51661103
  9
$TDUUPDATE
 40
2459740.433277697
  9
$TDINDWG
 40
0.0000000116
  9
$TDUSRTIMER
 40
0.0000000116
  9
$USRTIMER
 70
     1
  9
$ANGBASE
 50
0.0
  9
$ANGDIR
 70
     0
  9
$PDMODE
 70
     0
  9
$PDSIZE
 40
-1.0
  9
$PLINEWID
 40
0.0
  9
$SPLFRAME
 70
     0
  9
$SPLINETYPE
 70
     6
  9
$SPLINESEGS
 70
     8
  9
$HANDSEED
  5
12B
  9
$SURFTAB1
 70
     6
  9
$SURFTAB2
 70
     6
  9
$SURFTYPE
 70
     6
  9
$SURFU
 70
     6
  9
$SURFV
 70
     6
  9
$UCSBASE
  2

  9
$UCSNAME
  2

  9
$UCSORG
 10
0.0
 20
0.0
 30
0.0
  9
$UCSXDIR
 10
1.0
 20
0.0
 30
0.0
  9
$UCSYDIR
 10
0.0
 20
1.0
 30
0.0
  9
$UCSORTHOREF
  2

  9
$UCSORTHOVIEW
 70
     0
  9
$UCSORGTOP
 10
0.0
 20
0.0
 30
0.0
  9
$UCSORGBOTTOM
 10
0.0
 20
0.0
 30
0.0
  9
$UCSORGLEFT
 10
0.0
 20
0.0
 30
0.0
  9
$UCSORGRIGHT
 10
0.0
 20
0.0
 30
0.0
  9
$UCSORGFRONT
 10
0.0
 20
0.0
 30
0.0
  9
$UCSORGBACK
 10
0.0
 20
0.0
 30
0.0
  9
$PUCSBASE
  2

  9
$PUCSNAME
  2

  9
$PUCSORG
 10
0.0
 20
0.0
 30
0.0
  9
$PUCSXDIR
 10
1.0
 20
0.0
 30
0.0
  9
$PUCSYDIR
 10
0.0
 20
1.0
 30
0.0
  9
$PUCSORTHOREF
  2

  9
$PUCSORTHOVIEW
 70
     0
  9
$PUCSORGTOP
 10
0.0
 20
0.0
 30
0.0
  9
$PUCSORGBOTTOM
 10
0.0
 20
0.0
 30
0.0
  9
$PUCSORGLEFT
 10
0.0
 20
0.0
 30
0.0
  9
$PUCSORGRIGHT
 10
0.0
 20
0.0
 30
0.0
  9
$PUCSORGFRONT
 10
0.0
 20
0.0
 30
0.0
  9
$PUCSORGBACK
 10
0.0
 20
0.0
 30
0.0
  9
$USERI1
 70
     0
  9
$USERI2
 70
     0
  9
$USERI3
 70
     0
  9
$USERI4
 70
     0
  9
$USERI5
 70
     0
  9
$USERR1
 40
0.0
  9
$USERR2
 40
0.0
  9
$USERR3
 40
0.0
  9
$USERR4
 40
0.0
  9
$USERR5
 40
0.0
  9
$WORLDVIEW
 70
     1
  9
$SHADEDGE
 70
     3
  9
$SHADEDIF
 70
    70
  9
$TILEMODE
 70
     1
  9
$MAXACTVP
 70
    64
  9
$PINSBASE
 10
0.0
 20
0.0
 30
0.0
  9
$PLIMCHECK
 70
     0
  9
$PEXTMIN
 10
1.0000000000E+20
 20
1.0000000000E+20
 30
1.0000000000E+20
  9
$PEXTMAX
 10
-1.0000000000E+20
 20
-1.0000000000E+20
 30
-1.0000000000E+20
  9
$PLIMMIN
 10
0.0
 20
0.0
  9
$PLIMMAX
 10
420.0
 20
297.0
  9
$UNITMODE
 70
     0
  9
$VISRETAIN
 70
     1
  9
$PLINEGEN
 70
     0
  9
$PSLTSCALE
 70
     1
  9
$TREEDEPTH
 70
  3020
  9
$CMLSTYLE
  2
Standard
  9
$CMLJUST
 70
     0
  9
$CMLSCALE
 40
20.0
  9
$PROXYGRAPHICS
 70
     1
  9
$MEASUREMENT
 70
     1
  9
$CELWEIGHT
370
    -1
  9
$ENDCAPS
280
     0
  9
$JOINSTYLE
280
     0
  9
$LWDISPLAY
290
     1
  9
$INSUNITS
 70
     4
  9
$HYPERLINKBASE
  1

  9
$STYLESHEET
  1

  9
$XEDIT
290
     1
  9
$CEPSNTYPE
380
     0
  9
$PSTYLEMODE
290
     1
  9
$FINGERPRINTGUID
  2
{1e37ecab-ef44-41b6-9b62-24cd19400010}
  9
$VERSIONGUID
  2
{FAEB1C32-E019-11D5-929B-00C0DF256EC4}
  9
$EXTNAMES
290
     1
  9
$PSVPSCALE
 40
0.0
  9
$OLESTARTUP
290
     0
  0
ENDSEC
  0
SECTION
  2
CLASSES
  0
CLASS
  1
ACDBDICTIONARYWDFLT
  2
AcDbDictionaryWithDefault
  3
ObjectDBX Classes
 90
        0
280
     0
281
     0
  0
CLASS
  1
VISUALSTYLE
  2
AcDbVisualStyle
  3
ObjectDBX Classes
 90
     4095
280
     0
281
     0
  0
CLASS
  1
MATERIAL
  2
AcDbMaterial
  3
ObjectDBX Classes
 90
     1153
280
     0
281
     0
  0
CLASS
  1
SCALE
  2
AcDbScale
  3
ObjectDBX Classes
 90
     1153
280
     0
281
     0
  0
CLASS
  1
TABLESTYLE
  2
AcDbTableStyle
  3
ObjectDBX Classes
 90
     4095
280
     0
281
     0
  0
CLASS
  1
MLEADERSTYLE
  2
AcDbMLeaderStyle
  3
ACDB_MLEADERSTYLE_CLASS
 90
     4095
280
     0
281
     0
  0
CLASS
  1
SUN
  2
AcDbSun
  3
SCENEOE
 90
     1153
280
     0
281
     0
  0
CLASS
  1
ACDBPLACEHOLDER
  2
AcDbPlaceHolder
  3
ObjectDBX Classes
 90
        0
280
     0
281
     0
  0
CLASS
  1
LAYOUT
  2
AcDbLayout
  3
ObjectDBX Classes
 90
        0
280
     0
281
     0
  0
ENDSEC
  0
SECTION
  2
TABLES
  0
TABLE
  2
VPORT
  5
8
330
0
100
AcDbSymbolTable
 70
     1
  0
VPORT
  5
29
330
8
100
AcDbSymbolTableRecord
100
AcDbViewportTableRecord
  2
*Active
 70
     0
 10
0.0
 20
0.0
 11
1.0
 21
1.0
 12
10000.0
 22
5000.0
 13
0.0
 23
0.0
 14
10.0
 24
10.0
 15
10.0
 25
10.0
 16
0.0
 26
0.0
 36
1.0
 17
0.0
 27
0.0
 37
0.0
 40
10000.0
 41
2.0
 42
50.0
 43
0.0
 44
0.0
 50
0.0
 51
0.0
 71
     0
 72
  2000
 73
     1
 74
     3
 75
     0
 76
     0
 77
     0
 78
     0
281
     0
 65
     1
110
0.0
120
0.0
130
0.0
111
1.0
121
0.0
131
0.0
112
0.0
122
1.0
132
0.0
 79
     0
146
0.0
  0
ENDTAB
  0
TABLE
  2
LTYPE
  5
5
330
0
100
AcDbSymbolTable
 70
     6
  0
LTYPE
  5
14
330
5
100
AcDbSymbolTableRecord
100
AcDbLinetypeTableRecord
  2
ByBlock
 70
     0
  3

 72
    65
 73
     0
 40
0.0
  0
LTYPE
  5
15
330
5
100
AcDbSymbolTableRecord
100
AcDbLinetypeTableRecord
  2
ByLayer
 70
     0
  3

 72
    65
 73
     0
 40
0.0
  0
LTYPE
  5
16
330
5
100
AcDbSymbolTableRecord
100
AcDbLinetypeTableRecord
  2
Continuous
 70
     0
  3
Solid line
 72
    65
 73
     0
 40
0.0
  0
LTYPE
  5
6E
330
5
100
AcDbSymbolTableRecord
100
AcDbLinetypeTableRecord
  2
HIDDEN
 70
     0
  3
Hidden __ __ __ __ __ __ __ __ __ __ __ __ __ __
 72
    65
 73
     2
 40
1.905
 49
1.27
 74
     0
 49
-0.635
 74
     0
  0
LTYPE
  5
6F
330
5
100
AcDbSymbolTableRecord
100
AcDbLinetypeTableRecord
  2
PHANTOM
 70
     0
  3
Phantom ______  __  __  ______  __  __  ______
 72
    65
 73
     6
 40
12.7
 49
6.35
 74
     0
 49
-1.27
 74
     0
 49
1.27
 74
     0
 49
-1.27
 74
     0
 49
1.27
 74
     0
 49
-1.27
 74
     0
  0
LTYPE
  5
70
330
5
100
AcDbSymbolTableRecord
100
AcDbLinetypeTableRecord
  2
CENTER
 70
     0
  3
Center ____ _ ____ _ ____ _ ____ _ ____ _ ____
 72
    65
 73
     4
 40
10.16
 49
6.35
 74
     0
 49
-1.27
 74
     0
 49
1.27
 74
     0
 49
-1.27
 74
     0
  0
LTYPE
  5
71
330
5
100
AcDbSymbolTableRecord
100
AcDbLinetypeTableRecord
  2
CENTERX2
 70
     0
  3
Center (2x) ________  __  ________  __  _____
 72
    65
 73
     4
 40
20.32
 49
12.7
 74
     0
 49
-2.54
 74
     0
 49
2.54
 74
     0
 49
-2.54
 74
     0
  0
LTYPE
  5
72
330
5
100
AcDbSymbolTableRecord
100
AcDbLinetypeTableRecord
  2
DOT2
 70
     0
  3
Dot (.5x) ........................................
 72
    65
 73
     2
 40
0.635
 49
0.0
 74
     0
 49
-0.635
 74
     0
  0
ENDTAB
  0
TABLE
  2
LAYER
  5
2
330
0
100
AcDbSymbolTable
 70
    13
  0
LAYER
  5
10
330
2
100
AcDbSymbolTableRecord
100
AcDbLayerTableRecord
  2
0
 70
     0
 62
     7
  6
Continuous
370
    -3
390
F
  0
LAYER
  5
73
330
2
100
AcDbSymbolTableRecord
100
AcDbLayerTableRecord
  2
FORMAT
 70
     0
 62
     7
  6
Continuous
370
    -3
390
F
  0
LAYER
  5
74
330
2
100
AcDbSymbolTableRecord
100
AcDbLayerTableRecord
  2
OSA
 70
     0
 62
     7
  6
CENTER
370
    -3
390
F
  0
LAYER
  5
75
330
2
100
AcDbSymbolTableRecord
100
AcDbLayerTableRecord
  2
0_35
 70
     0
 62
     7
  6
Continuous
370
    35
390
F
  0
LAYER
  5
76
330
2
100
AcDbSymbolTableRecord
100
AcDbLayerTableRecord
  2
0_5
 70
     0
 62
     7
  6
Continuous
370
    50
390
F
  0
LAYER
  5
77
330
2
100
AcDbSymbolTableRecord
100
AcDbLayerTableRecord
  2
0_25
 70
     0
 62
     7
  6
Continuous
370
    25
390
F
  0
LAYER
  5
78
330
2
100
AcDbSymbolTableRecord
100
AcDbLayerTableRecord
  2
0_18
 70
     0
 62
     7
  6
Continuous
370
    -3
390
F
  0
LAYER
  5
79
330
2
100
AcDbSymbolTableRecord
100
AcDbLayerTableRecord
  2
SLD-0
 70
     0
 62
   179
  6
Continuous
370
    -3
390
F
  0
LAYER
  5
7A
330
2
100
AcDbSymbolTableRecord
100
AcDbLayerTableRecord
  2
KOTY
 70
     0
 62
     7
  6
Continuous
370
    -3
390
F
  0
LAYER
  5
7B
330
2
100
AcDbSymbolTableRecord
100
AcDbLayerTableRecord
  2
SILNA
 70
     0
 62
   179
  6
Continuous
370
    -3
390
F
  0
LAYER
  5
7C
330
2
100
AcDbSymbolTableRecord
100
AcDbLayerTableRecord
  2
0_18_1
 70
     0
 62
   179
  6
Continuous
370
    -3
390
F
  0
LAYER
  5
7D
330
2
100
AcDbSymbolTableRecord
100
AcDbLayerTableRecord
  2
0_35_1
 70
     0
 62
   179
  6
Continuous
370
    35
390
F
  0
LAYER
  5
7E
330
2
100
AcDbSymbolTableRecord
100
AcDbLayerTableRecord
  2
0_5_1
 70
     0
 62
   179
  6
Continuous
370
    50
390
F
  0
ENDTAB
  0
TABLE
  2
STYLE
  5
3
330
0
100
AcDbSymbolTable
 70
     1
  0
STYLE
  5
11
330
3
100
AcDbSymbolTableRecord
100
AcDbTextStyleTableRecord
  2
Standard
 70
     0
 40
0.0
 41
1.0
 50
0.0
 71
     0
 42
2.0
  3
txt
  4

  0
ENDTAB
  0
TABLE
  2
VIEW
  5
6
330
0
100
AcDbSymbolTable
 70
     0
  0
ENDTAB
  0
TABLE
  2
UCS
  5
7
330
0
100
AcDbSymbolTable
 70
     0
  0
ENDTAB
  0
TABLE
  2
APPID
  5
9
330
0
100
AcDbSymbolTable
 70
     1
  0
APPID
  5
12
330
9
100
AcDbSymbolTableRecord
100
AcDbRegAppTableRecord
  2
ACAD
 70
     0
  0
ENDTAB
  0
TABLE
  2
DIMSTYLE
  5
A
330
0
100
AcDbSymbolTable
 70
     1
100
AcDbDimStyleTable
  0
DIMSTYLE
105
27
330
A
100
AcDbSymbolTableRecord
100
AcDbDimStyleTableRecord
  2
ISO-25
 70
     0
 41
2.5
 42
0.625
 43
3.75
 44
1.25
 73
     0
 74
     0
 77
     1
 78
     8
140
2.5
141
2.5
143
0.0393700787
147
0.625
171
     3
172
     1
178
     0
271
     2
272
     2
274
     3
278
    44
283
     0
284
     8
340
11
  0
ENDTAB
  0
TABLE
  2
BLOCK_RECORD
  5
1
330
0
100
AcDbSymbolTable
 70
     1
  0
BLOCK_RECORD
  5
1F
330
1
100
AcDbSymbolTableRecord
100
AcDbBlockTableRecord
  2
*Model_Space
340
22
  0
BLOCK_RECORD
  5
1B
330
1
100
AcDbSymbolTableRecord
100
AcDbBlockTableRecord
  2
*Paper_Space
340
1E
  0
BLOCK_RECORD
  5
23
330
1
100
AcDbSymbolTableRecord
100
AcDbBlockTableRecord
  2
*Paper_Space0
340
26
  0
ENDTAB
  0
ENDSEC
  0
SECTION
  2
BLOCKS
  0
BLOCK
  5
20
330
1F
100
AcDbEntity
  8
0
100
AcDbBlockBegin
  2
*Model_Space
 70
     0
 10
0.0
 20
0.0
 30
0.0
  3
*Model_Space
  1

  0
ENDBLK
  5
21
330
1F
100
AcDbEntity
  8
0
100
AcDbBlockEnd
  0
BLOCK
  5
1C
330
1B
100
AcDbEntity
 67
     1
  8
0
100
AcDbBlockBegin
  2
*Paper_Space
 70
     0
 10
0.0
 20
0.0
 30
0.0
  3
*Paper_Space
  1

  0
ENDBLK
  5
1D
330
1B
100
AcDbEntity
 67
     1
  8
0
100
AcDbBlockEnd
  0
BLOCK
  5
24
330
23
100
AcDbEntity
  8
0
100
AcDbBlockBegin
  2
*Paper_Space0
 70
     0
 10
0.0
 20
0.0
 30
0.0
  3
*Paper_Space0
  1

  0
ENDBLK
  5
25
330
23
100
AcDbEntity
  8
0
100
AcDbBlockEnd
  0
ENDSEC
  0
SECTION
  2
ENTITIES
  0
LINE
  5
7F
330
1F
100
AcDbEntity
  8
0_25
100
AcDbLine
 10
6121.519031984
 20
4641.6400012465
 30
0.0
 11
6145.5013126418
 21
4610.0565082549
 31
0.0
  0
LINE
  5
80
330
1F
100
AcDbEntity
  8
0_25
100
AcDbLine
 10
6426.519031984
 20
4641.6400012465
 30
0.0
 11
6402.4087545587
 21
4609.862018676
 31
0.0
  0
LINE
  5
81
330
1F
100
AcDbEntity
  8
0
  6
Continuous
 62
     7
370
    25
100
AcDbLine
 10
6156.519031984
 20
5021.1826208338
 30
0.0
 11
6391.519031984
 21
5021.1826208338
 31
0.0
  0
LWPOLYLINE
  5
82
330
1F
100
AcDbEntity
  8
FORMAT
  6
Continuous
370
    25
100
AcDbPolyline
 90
        8
 70
   128
 43
0.0
 10
6145.632006194
 20
5395.5352929154
 10
6145.6344333032
 20
5388.6475184772
 10
6145.6337328558
 20
5382.2536963913
 10
6145.6299048517
 20
5376.4135489896
 10
6145.6222194605
 20
5370.6721550697
 10
6145.60923213
 20
5363.6153317231
 10
6145.5789658867
 20
5349.214733806
 10
6145.6112373241
 20
5334.3631572856
  0
LWPOLYLINE
  5
83
330
1F
100
AcDbEntity
  8
FORMAT
  6
Continuous
370
    25
100
AcDbPolyline
 90
       32
 70
   128
 43
0.0
 10
6145.6112373241
 20
5334.3631572856
 10
6145.6256691923
 20
5331.8755126355
 10
6145.6482623352
 20
5328.6057156449
 10
6145.6790167529
 20
5324.5404509959
 10
6145.7099759834
 20
5320.4184837636
 10
6145.732586331
 20
5316.9171982304
 10
6145.7469595319
 20
5314.0281739208
 10
6145.7553503119
 20
5310.632796088
 10
6145.7460237455
 20
5305.3247896175
 10
6145.7036216313
 20
5300.243487437
 10
6145.687759682
 20
5299.0491268672
 10
6145.6695512319
 20
5297.8499799722
 10
6145.6489962812
 20
5296.646064311
 10
6145.6260948298
 20
5295.4373979308
 10
6145.6008468778
 20
5294.2239993697
 10
6145.5732524251
 20
5293.0058876608
 10
6145.5433114717
 20
5291.7830823353
 10
6145.5174402206
 20
5290.7982222949
 10
6145.4715078168
 20
5289.0894790251
 10
6145.4055142605
 20
5286.6533769194
 10
6145.3481919423
 20
5284.5072380669
 10
6145.3023679551
 20
5282.695927532
 10
6145.2657679954
 20
5281.1361825517
 10
6145.2277692811
 20
5279.2848753333
 10
6145.1863078663
 20
5276.6520695074
 10
6145.1630549619
 20
5274.1738781943
 10
6145.158010568
 20
5271.8513892013
 10
6145.1711746847
 20
5269.6855456729
 10
6145.3104202973
 20
5263.8993627947
 10
6145.6002757093
 20
5258.5319128124
 10
6146.0516458324
 20
5253.3497889409
 10
6146.729059933
 20
5247.3571410343
  0
LWPOLYLINE
  5
84
330
1F
100
AcDbEntity
  8
FORMAT
  6
Continuous
370
    25
100
AcDbPolyline
 90
       13
 70
   128
 43
0.0
 10
6146.729059933
 20
5247.3571410343
 10
6147.6288934874
 20
5240.4190615076
 10
6148.5781201107
 20
5233.1772782634
 10
6149.344855474
 20
5226.4570666745
 10
6149.8995569639
 20
5219.6593680174
 10
6150.183326491
 20
5212.908564302
 10
6150.2470216567
 20
5205.9595061542
 10
6150.166959086
 20
5199.6115455858
 10
6149.9513491985
 20
5190.6061063898
 10
6149.7811540672
 20
5183.2617726511
 10
6149.7013734694
 20
5177.0740033588
 10
6149.6711566355
 20
5169.648651994
 10
6149.6938066208
 20
5161.2162883517
  0
LINE
  5
85
330
1F
100
AcDbEntity
  8
FORMAT
  6
Continuous
370
    25
100
AcDbLine
 10
6149.6938066208
 20
5161.2162883517
 30
0.0
 11
6121.519031984
 21
5161.2162883517
 31
0.0
  0
LINE
  5
86
330
1F
100
AcDbEntity
  8
FORMAT
  6
Continuous
370
    25
100
AcDbLine
 10
6121.519031984
 20
5381.2162883517
 30
0.0
 11
6121.519031984
 21
5161.2162883517
 31
0.0
  0
ARC
  5
87
330
1F
100
AcDbEntity
  8
FORMAT
  6
Continuous
370
    25
100
AcDbCircle
 10
6146.5236494961
 20
5381.2139147774
 30
0.0
 40
25.00461762471323
100
AcDbArc
 50
125.5957124505
 51
179.9945611729
  0
LWPOLYLINE
  5
88
330
1F
100
AcDbEntity
  8
FORMAT
  6
Continuous
370
    25
100
AcDbPolyline
 90
        3
 70
   128
 43
0.0
 10
6145.632443939
 20
5395.5351549562
 10
6135.0040839975
 20
5400.202466471
 10
6131.9694086844
 20
5401.5462775755
  0
LINE
  5
89
330
1F
100
AcDbEntity
  8
FORMAT
  6
Continuous
370
    25
100
AcDbLine
 10
6398.3442573472
 20
5161.2162883517
 30
0.0
 11
6426.519031984
 21
5161.2162883517
 31
0.0
  0
LWPOLYLINE
  5
8A
330
1F
100
AcDbEntity
  8
FORMAT
  6
Continuous
370
    25
100
AcDbPolyline
 90
       19
 70
   128
 43
0.0
 10
6398.3442573472
 20
5161.2162883517
 10
6398.3623366645
 20
5165.606412181
 10
6398.3668961954
 20
5169.7424890873
 10
6398.35793594
 20
5173.6192161912
 10
6398.3354558983
 20
5177.2320198961
 10
6398.2994560702
 20
5180.5769803197
 10
6398.2532425044
 20
5183.4483808059
 10
6398.1814509114
 20
5186.7481005911
 10
6398.0831834323
 20
5190.7532101443
 10
6397.9676606388
 20
5195.2733621124
 10
6397.8806318286
 20
5199.1343691473
 10
6397.8237110244
 20
5202.3634716231
 10
6397.7924734854
 20
5205.6201759979
 10
6397.7983669404
 20
5209.306533071
 10
6397.9802431691
 20
5216.6599259821
 10
6398.4875257699
 20
5224.2989286046
 10
6399.2494524371
 20
5231.4291756924
 10
6400.3049545394
 20
5239.6516028233
 10
6401.3090040351
 20
5247.3571410343
  0
LWPOLYLINE
  5
8B
330
1F
100
AcDbEntity
  8
FORMAT
  6
Continuous
370
    25
100
AcDbPolyline
 90
       22
 70
   128
 43
0.0
 10
6401.3090040351
 20
5247.3571410343
 10
6401.7852256718
 20
5251.4376936096
 10
6402.1611952336
 20
5255.1583663228
 10
6402.4369127203
 20
5258.5195573912
 10
6402.6473088936
 20
5262.0541807358
 10
6402.7906273133
 20
5265.7761574675
 10
6402.8668679793
 20
5269.6835495979
 10
6402.877294719
 20
5273.7371034254
 10
6402.8275504204
 20
5278.305451338
 10
6402.7357969408
 20
5282.6917810482
 10
6402.5970990531
 20
5287.960675826
 10
6402.4948470159
 20
5291.7793608234
 10
6402.3880388004
 20
5296.7034593454
 10
6402.319731715
 20
5301.5490456265
 10
6402.2886628641
 20
5306.116282712
 10
6402.2831201186
 20
5310.9932705569
 10
6402.2972545246
 20
5315.394037804
 10
6402.3180540019
 20
5318.9448259597
 10
6402.3488268949
 20
5323.2291448272
 10
6402.3843096803
 20
5327.8574939133
 10
6402.4105038504
 20
5331.5840349594
 10
6402.426826644
 20
5334.3631572862
  0
LWPOLYLINE
  5
8C
330
1F
100
AcDbEntity
  8
FORMAT
  6
Continuous
370
    25
100
AcDbPolyline
 90
       18
 70
   128
 43
0.0
 10
6402.426826644
 20
5334.3631572862
 10
6402.4425356196
 20
5338.1992714466
 10
6402.4523625941
 20
5342.3449045659
 10
6402.4563075675
 20
5346.7895113736
 10
6402.4543705398
 20
5351.521031212
 10
6402.4478679473
 20
5356.0831805913
 10
6402.4302621088
 20
5365.2664220053
 10
6402.4276223753
 20
5366.4510739759
 10
6402.4249052465
 20
5367.6314536083
 10
6402.4221107224
 20
5368.807522811
 10
6402.419238803
 20
5369.9792436313
 10
6402.4162894882
 20
5371.146578257
 10
6402.4132627782
 20
5372.3094890176
 10
6402.4070575643
 20
5375.4937100059
 10
6402.403172824
 20
5379.4490693412
 10
6402.4016085571
 20
5384.1397082415
 10
6402.4023647637
 20
5389.5203878671
 10
6402.4054414437
 20
5395.5354291932
  0
LWPOLYLINE
  5
8D
330
1F
100
AcDbEntity
  8
FORMAT
  6
Continuous
370
    25
100
AcDbPolyline
 90
        4
 70
   128
 43
0.0
 10
6416.0686552836
 20
5401.5462775755
 10
6416.038876566
 20
5401.5330653833
 10
6409.2447447252
 20
5398.5316998563
 10
6402.405620029
 20
5395.5351549562
  0
ARC
  5
8E
330
1F
100
AcDbEntity
  8
FORMAT
  6
Continuous
370
    25
100
AcDbCircle
 10
6401.5111226601
 20
5381.2122226626
 30
0.0
 40
25.00790965443301
100
AcDbArc
 50
0.0093149259
 51
54.4004114507
  0
LINE
  5
8F
330
1F
100
AcDbEntity
  8
FORMAT
  6
Continuous
370
    25
100
AcDbLine
 10
6426.519031984
 20
5381.2162883517
 30
0.0
 11
6426.519031984
 21
5161.2162883517
 31
0.0
  0
LINE
  5
90
330
1F
100
AcDbEntity
  8
FORMAT
  6
Continuous
370
    25
100
AcDbLine
 10
6149.6938066208
 20
5161.2162883517
 30
0.0
 11
6398.3442573472
 21
5161.2162883517
 31
0.0
  0
LINE
  5
91
330
1F
100
AcDbEntity
  8
FORMAT
  6
Continuous
370
    25
100
AcDbLine
 10
6145.6327657469
 20
5395.5351549562
 30
0.0
 11
6402.4055306443
 21
5395.5351549562
 31
0.0
  0
LWPOLYLINE
  5
92
330
1F
100
AcDbEntity
  8
FORMAT
  6
Continuous
370
    25
100
AcDbPolyline
 90
        6
 70
   128
 43
0.0
 10
6398.3442573472
 20
5161.2162883517
 10
6398.2510945884
 20
5149.6165820033
 10
6398.2007562571
 20
5137.499627212
 10
6398.20696726
 20
5124.9125824761
 10
6398.2357158844
 20
5109.5384950563
 10
6398.2438274282
 20
5093.6541447584
  0
LINE
  5
93
330
1F
100
AcDbEntity
  8
FORMAT
  6
Continuous
370
    25
100
AcDbLine
 10
6149.7942365398
 20
5093.6541447584
 30
0.0
 11
6398.2438274282
 21
5093.6541447584
 31
0.0
  0
LWPOLYLINE
  5
94
330
1F
100
AcDbEntity
  8
FORMAT
  6
Continuous
370
    25
100
AcDbPolyline
 90
        6
 70
   128
 43
0.0
 10
6149.6938066208
 20
5161.2162883517
 10
6149.7869693796
 20
5149.6165820033
 10
6149.8373077109
 20
5137.499627212
 10
6149.831096708
 20
5124.9125824761
 10
6149.8023480836
 20
5109.5384950563
 10
6149.7942365398
 20
5093.6541447584
  0
LWPOLYLINE
  5
95
330
1F
100
AcDbEntity
  8
FORMAT
  6
Continuous
370
    25
100
AcDbPolyline
 90
       13
 70
   128
 43
0.0
 10
6398.2347607366
 20
5036.2162883517
 10
6398.2340095428
 20
5039.1177306278
 10
6398.2333629467
 20
5041.7810297397
 10
6398.2328209482
 20
5044.189382324
 10
6398.2323835473
 20
5046.3284420469
 10
6398.2320507441
 20
5048.1861186064
 10
6398.2317216151
 20
5050.5060174817
 10
6398.2313756015
 20
5054.6095179492
 10
6398.2313559619
 20
5058.5310735876
 10
6398.2316626964
 20
5062.2530753728
 10
6398.2341602981
 20
5071.6990773844
 10
6398.2389902475
 20
5081.404650848
 10
6398.2433752457
 20
5091.3811637362
  0
LWPOLYLINE
  5
96
330
1F
100
AcDbEntity
  8
FORMAT
  6
Continuous
370
    25
100
AcDbPolyline
 90
        3
 70
   128
 43
0.0
 10
6398.2438274282
 20
5093.6541447584
 10
6398.2436076382
 20
5092.3798048465
 10
6398.2433752457
 20
5091.3811637362
  0
LINE
  5
97
330
1F
100
AcDbEntity
  8
FORMAT
  6
Continuous
370
    25
100
AcDbLine
 10
6426.519031984
 20
5161.2162883517
 30
0.0
 11
6426.519031984
 21
5061.2162883516
 31
0.0
  0
ARC
  5
98
330
1F
100
AcDbEntity
  8
FORMAT
  6
Continuous
370
    25
100
AcDbCircle
 10
6401.5130744588
 20
5061.2222458801
 30
0.0
 40
25.00595823493365
100
AcDbArc
 50
270.0136198794
 51
359.9863496038
  0
LINE
  5
99
330
1F
100
AcDbEntity
  8
FORMAT
  6
Continuous
370
    25
100
AcDbLine
 10
6398.2347607366
 20
5036.2162883517
 30
0.0
 11
6401.5190319847
 21
5036.2162883517
 31
0.0
  0
LWPOLYLINE
  5
9A
330
1F
100
AcDbEntity
  8
FORMAT
  6
Continuous
370
    25
100
AcDbPolyline
 90
        3
 70
   128
 43
0.0
 10
6149.7942365398
 20
5093.6541447584
 10
6149.7944563296
 20
5092.3798059045
 10
6149.7946887219
 20
5091.3811656211
  0
LWPOLYLINE
  5
9B
330
1F
100
AcDbEntity
  8
FORMAT
  6
Continuous
370
    25
100
AcDbPolyline
 90
       14
 70
   128
 43
0.0
 10
6149.7946887219
 20
5091.3811656211
 10
6149.7963995187
 20
5086.6322803827
 10
6149.7990092298
 20
5081.3974564592
 10
6149.801692737
 20
5076.5009665619
 10
6149.8038676273
 20
5071.996806045
 10
6149.8054372983
 20
5067.2391390038
 10
6149.8064017502
 20
5062.2493900106
 10
6149.8067043563
 20
5058.6255695893
 10
6149.8066971551
 20
5054.8117971757
 10
6149.8063801466
 20
5050.8242843282
 10
6149.8058887496
 20
5047.4550742441
 10
6149.8052717155
 20
5044.3228719038
 10
6149.8044098761
 20
5040.5588644701
 10
6149.8033032315
 20
5036.2162883517
  0
LINE
  5
9C
330
1F
100
AcDbEntity
  8
FORMAT
  6
Continuous
370
    25
100
AcDbLine
 10
6149.8033032315
 20
5036.2162883517
 30
0.0
 11
6146.5190319838
 21
5036.2162883517
 31
0.0
  0
ARC
  5
9D
330
1F
100
AcDbEntity
  8
FORMAT
  6
Continuous
370
    25
100
AcDbCircle
 10
6146.5232364902
 20
5061.220492859
 30
0.0
 40
25.00420485964183
100
AcDbArc
 50
180.0096344005
 51
269.9903811222
  0
LINE
  5
9E
330
1F
100
AcDbEntity
  8
FORMAT
  6
Continuous
370
    25
100
AcDbLine
 10
6121.519031984
 20
5161.2162883517
 30
0.0
 11
6121.519031984
 21
5061.2162883516
 31
0.0
  0
LINE
  5
9F
330
1F
100
AcDbEntity
  8
FORMAT
  6
Continuous
370
    25
100
AcDbLine
 10
6149.8033032315
 20
5036.2162883517
 30
0.0
 11
6398.2347607366
 21
5036.2162883517
 31
0.0
  0
ARC
  5
A0
330
1F
100
AcDbEntity
  8
FORMAT
  6
Continuous
370
    25
100
AcDbCircle
 10
6401.519031984
 20
5381.2162883517
 30
0.0
 40
25.00000000000809
100
AcDbArc
 50
54.4097263765
 51
90.0
  0
ARC
  5
A1
330
1F
100
AcDbEntity
  8
FORMAT
  6
Continuous
370
    25
100
AcDbCircle
 10
6146.519031984
 20
5381.2162883517
 30
0.0
 40
25.0
100
AcDbArc
 50
90.0
 51
125.5902736234
  0
LINE
  5
A2
330
1F
100
AcDbEntity
  8
FORMAT
  6
Continuous
370
    25
100
AcDbLine
 10
6146.519031984
 20
5406.2162883517
 30
0.0
 11
6401.519031984
 21
5406.2162883517
 31
0.0
  0
LINE
  5
A3
330
1F
100
AcDbEntity
  8
0
  6
Continuous
 62
     7
370
    25
100
AcDbLine
 10
6389.519031984
 20
5023.2196405379
 30
0.0
 11
6158.519031984
 21
5023.2196405379
 31
0.0
  0
LINE
  5
A4
330
1F
100
AcDbEntity
  8
0
  6
Continuous
 62
     7
370
    25
100
AcDbLine
 10
6391.519031984
 20
5036.2162883517
 30
0.0
 11
6391.519031984
 21
5021.2162883517
 31
0.0
  0
LINE
  5
A5
330
1F
100
AcDbEntity
  8
0
  6
Continuous
 62
     7
370
    25
100
AcDbLine
 10
6391.519031984
 20
5021.2162883517
 30
0.0
 11
6156.519031984
 21
5021.2162883517
 31
0.0
  0
LINE
  5
A6
330
1F
100
AcDbEntity
  8
0
  6
Continuous
 62
     7
370
    25
100
AcDbLine
 10
6158.519031984
 20
5036.2162883517
 30
0.0
 11
6158.519031984
 21
5023.2196405379
 31
0.0
  0
LINE
  5
A7
330
1F
100
AcDbEntity
  8
0
  6
Continuous
 62
     7
370
    25
100
AcDbLine
 10
6156.519031984
 20
5036.2162883517
 30
0.0
 11
6156.519031984
 21
5021.2162883517
 31
0.0
  0
LINE
  5
A8
330
1F
100
AcDbEntity
  8
0
  6
Continuous
 62
     7
370
    25
100
AcDbLine
 10
6389.519031984
 20
5036.2162883517
 30
0.0
 11
6389.519031984
 21
5023.2196405379
 31
0.0
  0
LINE
  5
A9
330
1F
100
AcDbEntity
  8
0
  6
Continuous
 62
     7
370
    25
100
AcDbLine
 10
6158.519031984
 20
5036.0787040604
 30
0.0
 11
6389.519031984
 21
5036.0787040604
 31
0.0
  0
LINE
  5
AA
330
1F
100
AcDbEntity
  8
0
  6
Continuous
 62
     7
370
    25
100
AcDbLine
 10
6391.519031984
 20
5021.2162883517
 30
0.0
 11
6391.519031984
 21
5021.1826208338
 31
0.0
  0
LINE
  5
AB
330
1F
100
AcDbEntity
  8
0
  6
Continuous
 62
     7
370
    25
100
AcDbLine
 10
6156.519031984
 20
5021.2162883517
 30
0.0
 11
6156.519031984
 21
5021.1826208338
 31
0.0
  0
LINE
  5
AC
330
1F
100
AcDbEntity
  8
0
  6
Continuous
 62
     7
370
    25
100
AcDbLine
 10
6146.519031984
 20
5035.7162883517
 30
0.0
 11
6156.519031984
 21
5035.7162883517
 31
0.0
  0
LINE
  5
AD
330
1F
100
AcDbEntity
  8
0
  6
Continuous
 62
     7
370
    25
100
AcDbLine
 10
6391.519031984
 20
5035.7162883517
 30
0.0
 11
6401.519031984
 21
5035.7162883517
 31
0.0
  0
LINE
  5
AE
330
1F
100
AcDbEntity
  8
0
  6
Continuous
 62
     7
370
    25
100
AcDbLine
 10
6401.519031984
 20
5036.2162883517
 30
0.0
 11
6401.519031984
 21
5035.7162883517
 31
0.0
  0
LINE
  5
AF
330
1F
100
AcDbEntity
  8
0
  6
Continuous
 62
     7
370
    25
100
AcDbLine
 10
6146.519031984
 20
5035.7162883517
 30
0.0
 11
6146.519031984
 21
5036.2162888059
 31
0.0
  0
LINE
  5
B0
330
1F
100
AcDbEntity
  8
0
  6
Continuous
 62
     7
370
    25
100
AcDbLine
 10
6121.5729602327
 20
5382.3574782177
 30
0.0
 11
6121.519031984
 21
5380.7162883517
 31
0.0
  0
ARC
  5
B1
330
1F
100
AcDbEntity
  8
0
  6
Continuous
 62
     7
370
    25
100
AcDbCircle
 10
6401.519031984
 20
5060.7162883517
 30
0.0
 40
25.00000000000057
100
AcDbArc
 50
270.0
 51
342.563977422
  0
LINE
  5
B2
330
1F
100
AcDbEntity
  8
0
  6
Continuous
 62
     7
370
    25
100
AcDbLine
 10
6426.4871274532
 20
5059.4536685992
 30
0.0
 11
6426.519031984
 21
5060.7162883517
 31
0.0
  0
LINE
  5
B3
330
1F
100
AcDbEntity
  8
0
  6
Continuous
 62
     7
370
    25
100
AcDbLine
 10
6426.519031984
 20
5380.7162883517
 30
0.0
 11
6426.4614379103
 21
5382.412279687
 31
0.0
  0
LINE
  5
B4
330
1F
100
AcDbEntity
  8
0
  6
Continuous
 62
     7
370
    25
100
AcDbLine
 10
6121.519031984
 20
5061.0412783516
 30
0.0
 11
6121.519031984
 21
5060.7162883517
 31
0.0
  0
LINE
  5
B5
330
1F
100
AcDbEntity
  8
0
  6
Continuous
 62
     7
370
    25
100
AcDbLine
 10
6121.519031984
 20
5060.7162883517
 30
0.0
 11
6121.5215140053
 21
5060.3640172861
 31
0.0
  0
ARC
  5
B6
330
1F
100
AcDbEntity
  8
0
  6
Continuous
 62
     7
370
    25
100
AcDbCircle
 10
6146.519031984
 20
5060.7162883517
 30
0.0
 40
25.0
100
AcDbArc
 50
190.853402727
 51
270.0
  0
LINE
  5
B7
330
1F
100
AcDbEntity
  8
0
  6
Continuous
 62
     7
370
    25
100
AcDbLine
 10
6426.519031984
 20
5060.7162883517
 30
0.0
 11
6426.519031984
 21
5061.0412783516
 31
0.0
  0
LINE
  5
B8
330
1F
100
AcDbEntity
  8
0
  6
Continuous
 62
     7
370
    25
100
AcDbLine
 10
6689.0959643677
 20
5404.7162874374
 30
0.0
 11
6689.0959643677
 21
5404.1317232514
 31
0.0
  0
LWPOLYLINE
  5
B9
330
1F
100
AcDbEntity
  8
0
  6
Continuous
 62
     7
370
    25
100
AcDbPolyline
 90
        7
 70
   128
 43
0.0
 10
6698.1775513862
 20
5405.7120610944
 10
6691.6609529066
 20
5405.3850220976
 10
6689.7079503455
 20
5405.0607463278
 10
6689.2417165696
 20
5404.8863991751
 10
6689.1313384309
 20
5404.8003249254
 10
6689.1046672958
 20
5404.7579986853
 10
6689.0959643677
 20
5404.7162874374
  0
LWPOLYLINE
  5
BA
330
1F
100
AcDbEntity
  8
0
  6
Continuous
 62
     7
370
    25
100
AcDbPolyline
 90
       10
 70
   128
 43
0.0
 10
6698.1386930318
 20
5405.7112747669
 10
6698.1898133184
 20
5405.7112748263
 10
6698.6483042858
 20
5405.711274857
 10
6699.4391215671
 20
5405.7112747533
 10
6700.473106513
 20
5405.7112747659
 10
6701.6336851642
 20
5405.7112748686
 10
6702.7900110818
 20
5405.7112748075
 10
6703.8117172901
 20
5405.7112747385
 10
6704.5836141645
 20
5405.7112748148
 10
6704.7497965259
 20
5405.7112748339
  0
ARC
  5
BB
330
1F
100
AcDbEntity
  8
FORMAT
  6
Continuous
370
    25
100
AcDbCircle
 10
6596.3994545778
 20
5234.0608023206
 30
0.0
 40
246.6965097898602
100
AcDbArc
 50
23.9903000877
 51
40.8853192942
  0
ARC
  5
BC
330
1F
100
AcDbEntity
  8
FORMAT
  6
Continuous
370
    25
100
AcDbCircle
 10
6596.3994545778
 20
5234.0608023207
 30
0.0
 40
246.6965097898465
100
AcDbArc
 50
3.0895995162
 51
23.9903000877
  0
ARC
  5
BD
330
1F
100
AcDbEntity
  8
FORMAT
  6
Continuous
370
    25
100
AcDbCircle
 10
6596.3994545778
 20
5234.0608023207
 30
0.0
 40
246.6965097898497
100
AcDbArc
 50
342.8256794914
 51
3.0895995162
  0
LINE
  5
BE
330
1F
100
AcDbEntity
  8
FORMAT
  6
Continuous
370
    25
100
AcDbLine
 10
6832.0959643677
 20
5161.2162883517
 30
0.0
 11
6804.3936873526
 21
5161.2162883517
 31
0.0
  0
LWPOLYLINE
  5
BF
330
1F
100
AcDbEntity
  8
FORMAT
  6
Continuous
370
    25
100
AcDbPolyline
 90
       17
 70
   128
 43
0.0
 10
6756.4093384352
 20
5381.2162883517
 10
6766.7539217538
 20
5366.1557654697
 10
6775.8994611305
 20
5350.463601251
 10
6783.848830456
 20
5334.2121705767
 10
6790.5938279599
 20
5317.473848328
 10
6794.9945411501
 20
5304.0278866117
 10
6798.5463585598
 20
5290.3611303211
 10
6801.2846019901
 20
5276.5086854935
 10
6803.3741956018
 20
5262.5056581664
 10
6805.4768764884
 20
5243.6613927216
 10
6807.3820222956
 20
5224.6950500996
 10
6809.4815614143
 20
5205.6898446113
 10
6810.0719115158
 20
5196.7405452777
 10
6810.0053653211
 20
5187.8098214057
 10
6809.0069366224
 20
5178.9063915745
 10
6807.0694555781
 20
5170.0389743634
 10
6804.3936873526
 20
5161.2162883517
  0
LWPOLYLINE
  5
C0
330
1F
100
AcDbEntity
  8
FORMAT
  6
Continuous
370
    25
100
AcDbPolyline
 90
       11
 70
   128
 43
0.0
 10
6756.0000910266
 20
5401.5462775755
 10
6754.4945829132
 20
5400.162883209
 10
6753.2447091241
 20
5398.5207471762
 10
6752.3202123365
 20
5396.580203945
 10
6751.8085328808
 20
5394.3871432465
 10
6751.7539984345
 20
5392.2321447723
 10
6752.0786948635
 20
5389.9904788967
 10
6752.6850234944
 20
5387.9275313696
 10
6753.5391992702
 20
5385.8960582598
 10
6754.8577335129
 20
5383.4972742665
 10
6756.4093384352
 20
5381.2162883517
  0
LINE
  5
C1
330
1F
100
AcDbEntity
  8
FORMAT
  6
Continuous
370
    25
100
AcDbLine
 10
6782.9073669661
 20
5395.5351549562
 30
0.0
 11
6756.0000910266
 21
5401.5462775755
 31
0.0
  0
ARC
  5
C2
330
1F
100
AcDbEntity
  8
FORMAT
  6
Continuous
370
    25
100
AcDbCircle
 10
6992.510688683
 20
5040.3295279996
 30
0.0
 40
200.8643637024427
100
AcDbArc
 50
142.9987253823
 51
164.6047764002
  0
LWPOLYLINE
  5
C3
330
1F
100
AcDbEntity
  8
FORMAT
  6
Continuous
370
    25
100
AcDbPolyline
 90
        3
 70
   128
 43
0.0
 10
6798.8538327416
 20
5093.6541447584
 10
6798.4969342473
 20
5092.3798059045
 10
6798.2088242335
 20
5091.3811656211
  0
ARC
  5
C4
330
1F
100
AcDbEntity
  8
FORMAT
  6
Continuous
370
    25
100
AcDbCircle
 10
6652.9373763318
 20
5133.8331852457
 30
0.0
 40
151.3471755457674
100
AcDbArc
 50
319.8353308344
 51
343.7102918891
  0
LINE
  5
C5
330
1F
100
AcDbEntity
  8
FORMAT
  6
Continuous
370
    25
100
AcDbLine
 10
6768.5959643677
 20
5036.2162883517
 30
0.0
 11
6766.9011999435
 21
5036.2162883517
 31
0.0
  0
LWPOLYLINE
  5
C6
330
1F
100
AcDbEntity
  8
FORMAT
  6
Continuous
370
    25
100
AcDbPolyline
 90
       13
 70
   128
 43
0.0
 10
6757.4242578866
 20
5061.2162883517
 10
6756.2997191978
 20
5058.8013085793
 10
6755.52686477
 20
5056.2799101481
 10
6755.1576229226
 20
5053.7140577331
 10
6755.1754354717
 20
5051.2062687155
 10
6755.619968724
 20
5048.4536395327
 10
6756.3997801299
 20
5045.9443568792
 10
6757.8362295965
 20
5042.91778227
 10
6759.5230932546
 20
5040.43184796
 10
6761.3870567495
 20
5038.4698114476
 10
6763.3514798828
 20
5037.1093344174
 10
6765.0936494786
 20
5036.4392186425
 10
6766.9011877546
 20
5036.2162883517
  0
LWPOLYLINE
  5
C7
330
1F
100
AcDbEntity
  8
FORMAT
  6
Continuous
370
    25
100
AcDbPolyline
 90
       11
 70
   128
 43
0.0
 10
6804.3936873526
 20
5161.2162883517
 10
6796.7851471283
 20
5151.0591545168
 10
6789.9705194407
 20
5140.4987543757
 10
6784.0911076654
 20
5129.5670179555
 10
6779.0318188411
 20
5118.2958752837
 10
6774.67292282
 20
5106.7172563876
 10
6771.696132349
 20
5097.4248660276
 10
6768.9463855638
 20
5088.0409682242
 10
6765.6733448012
 20
5078.8463235163
 10
6761.824677543
 20
5069.8958014654
 10
6757.4242578867
 20
5061.2162883516
  0
LINE
  5
C8
330
1F
100
AcDbEntity
  8
FORMAT
  6
Continuous
370
    25
100
AcDbLine
 10
6766.9011999436
 20
5036.2162883517
 30
0.0
 11
6728.0959643677
 21
5036.2162883517
 31
0.0
  0
LINE
  5
C9
330
1F
100
AcDbEntity
  8
FORMAT
  6
Continuous
370
    25
100
AcDbLine
 10
6728.0959643677
 20
5036.2162883517
 30
0.0
 11
6728.0959643677
 21
5061.2162883517
 31
0.0
  0
LINE
  5
CA
330
1F
100
AcDbEntity
  8
FORMAT
  6
Continuous
370
    25
100
AcDbLine
 10
6728.0959643677
 20
5061.2162883517
 30
0.0
 11
6757.4242578867
 21
5061.2162883516
 31
0.0
  0
LINE
  5
CB
330
1F
100
AcDbEntity
  8
FORMAT
  6
Continuous
370
    25
100
AcDbLine
 10
6756.4093384352
 20
5381.2162883517
 30
0.0
 11
6728.0959643677
 21
5381.2162883517
 31
0.0
  0
LINE
  5
CC
330
1F
100
AcDbEntity
  8
FORMAT
  6
Continuous
370
    25
100
AcDbLine
 10
6728.0959643677
 20
5381.2162883517
 30
0.0
 11
6728.0959643677
 21
5061.2162883517
 31
0.0
  0
LINE
  5
CD
330
1F
100
AcDbEntity
  8
FORMAT
  6
Continuous
370
    25
100
AcDbLine
 10
6728.0959643677
 20
5406.2162883517
 30
0.0
 11
6735.0959643677
 21
5406.2162883517
 31
0.0
  0
LINE
  5
CE
330
1F
100
AcDbEntity
  8
FORMAT
  6
Continuous
370
    25
100
AcDbLine
 10
6735.0959643677
 20
5406.2162883517
 30
0.0
 11
6756.0000910266
 21
5401.5462775755
 31
0.0
  0
LINE
  5
CF
330
1F
100
AcDbEntity
  8
FORMAT
  6
Continuous
370
    25
100
AcDbLine
 10
6728.0959643677
 20
5381.2162883517
 30
0.0
 11
6728.0959643677
 21
5406.2162883517
 31
0.0
  0
ARC
  5
D0
330
1F
100
AcDbEntity
  8
0
  6
Continuous
 62
     7
370
    25
100
AcDbCircle
 10
6704.939561481
 20
5325.7162883517
 30
0.0
 40
55.00000000000197
100
AcDbArc
 50
90.0
 51
175.6780310958
  0
LWPOLYLINE
  5
D1
330
1F
100
AcDbEntity
  8
0
  6
Continuous
 62
     7
370
    25
100
AcDbPolyline
 90
       11
 70
   128
 43
0.0
 10
6650.0959643677
 20
5329.8611472959
 10
6649.9808531042
 20
5329.8654886524
 10
6644.5944203935
 20
5330.0637899773
 10
6640.6352159057
 20
5330.2039639645
 10
6636.8340060384
 20
5330.3345426537
 10
6633.5111568678
 20
5330.4457364382
 10
6630.5694071598
 20
5330.5420396398
 10
6628.2560720474
 20
5330.616441418
 10
6626.504133871
 20
5330.6720442425
 10
6625.4607391186
 20
5330.7048649374
 10
6625.0959643677
 20
5330.7162883517
  0
ARC
  5
D2
330
1F
100
AcDbEntity
  8
0
  6
Continuous
 62
     7
370
    25
100
AcDbCircle
 10
6704.939561481
 20
5325.7162883517
 30
0.0
 40
80.00000000000108
100
AcDbArc
 50
90.0
 51
176.4166783015
  0
LINE
  5
D3
330
1F
100
AcDbEntity
  8
0
  6
Continuous
 62
     7
370
    25
100
AcDbLine
 10
6704.939561481
 20
5380.7162883517
 30
0.0
 11
6704.939561481
 21
5405.7162883517
 31
0.0
  0
ARC
  5
D4
330
1F
100
AcDbEntity
  8
0
  6
Continuous
 62
     7
370
    25
100
AcDbCircle
 10
6704.939561481
 20
5115.7162883517
 30
0.0
 40
55.00000000000204
100
AcDbArc
 50
184.3219689042
 51
270.0
  0
LINE
  5
D5
330
1F
100
AcDbEntity
  8
0
  6
Continuous
 62
     7
370
    25
100
AcDbLine
 10
6704.939561481
 20
5060.7162883517
 30
0.0
 11
6704.939561481
 21
5035.7162883517
 31
0.0
  0
ARC
  5
D6
330
1F
100
AcDbEntity
  8
0
  6
Continuous
 62
     7
370
    25
100
AcDbCircle
 10
6704.939561481
 20
5115.7162883517
 30
0.0
 40
80.00000000000108
100
AcDbArc
 50
183.5833216985
 51
270.0
  0
LWPOLYLINE
  5
D7
330
1F
100
AcDbEntity
  8
0
  6
Continuous
 62
     7
370
    25
100
AcDbPolyline
 90
       11
 70
   128
 43
0.0
 10
6650.0959643677
 20
5111.5714294074
 10
6649.9808531042
 20
5111.5670880509
 10
6644.5944203935
 20
5111.368786726
 10
6640.6352159057
 20
5111.2286127388
 10
6636.8340060384
 20
5111.0980340496
 10
6633.5111568678
 20
5110.9868402652
 10
6630.5694071598
 20
5110.8905370635
 10
6628.2560720474
 20
5110.8161352853
 10
6626.504133871
 20
5110.7605324608
 10
6625.4607391186
 20
5110.7277117659
 10
6625.0959643677
 20
5110.7162883517
  0
LINE
  5
D8
330
1F
100
AcDbEntity
  8
0
  6
Continuous
 62
     7
370
    25
100
AcDbLine
 10
6650.0959643677
 20
5329.8611472959
 30
0.0
 11
6650.0959643677
 21
5111.5714294074
 31
0.0
  0
LINE
  5
D9
330
1F
100
AcDbEntity
  8
0
  6
Continuous
 62
     7
370
    25
100
AcDbLine
 10
6625.0959643677
 20
5110.7162883517
 30
0.0
 11
6625.0959643677
 21
5330.7162883517
 31
0.0
  0
LINE
  5
DA
330
1F
100
AcDbEntity
  8
0
  6
Continuous
 62
     7
370
    25
100
AcDbLine
 10
6704.939561481
 20
5060.7162883517
 30
0.0
 11
6721.0959643677
 21
5060.7162883517
 31
0.0
  0
LINE
  5
DB
330
1F
100
AcDbEntity
  8
0
  6
Continuous
 62
     7
370
    25
100
AcDbLine
 10
6721.0959643677
 20
5380.7162883517
 30
0.0
 11
6704.939561481
 21
5380.7162883517
 31
0.0
  0
LINE
  5
DC
330
1F
100
AcDbEntity
  8
0
  6
Continuous
 62
     7
370
    25
100
AcDbLine
 10
6721.0959643677
 20
5380.7162883517
 30
0.0
 11
6721.0959643677
 21
5060.7162883517
 31
0.0
  0
LINE
  5
DD
330
1F
100
AcDbEntity
  8
0
  6
Continuous
 62
     7
370
    25
100
AcDbLine
 10
6721.0959643677
 20
5060.7162883517
 30
0.0
 11
6721.0959643677
 21
5035.7162883517
 31
0.0
  0
LINE
  5
DE
330
1F
100
AcDbEntity
  8
0
  6
Continuous
 62
     7
370
    25
100
AcDbLine
 10
6721.0959643677
 20
5035.7162883517
 30
0.0
 11
6704.939561481
 21
5035.7162883517
 31
0.0
  0
LINE
  5
DF
330
1F
100
AcDbEntity
  8
0
  6
Continuous
 62
     7
370
    25
100
AcDbLine
 10
6704.939561481
 20
5405.7162883517
 30
0.0
 11
6721.0959643677
 21
5405.7162883517
 31
0.0
  0
LINE
  5
E0
330
1F
100
AcDbEntity
  8
0
  6
Continuous
 62
     7
370
    25
100
AcDbLine
 10
6721.0959643677
 20
5405.7162883517
 30
0.0
 11
6721.0959643677
 21
5380.7162883517
 31
0.0
  0
LINE
  5
E1
330
1F
100
AcDbEntity
  8
0
  6
Continuous
 62
     7
370
    25
100
AcDbLine
 10
6721.0959643677
 20
5380.7162883517
 30
0.0
 11
6728.0959643677
 21
5380.7162883517
 31
0.0
  0
LINE
  5
E2
330
1F
100
AcDbEntity
  8
0
  6
Continuous
 62
     7
370
    25
100
AcDbLine
 10
6721.0959643677
 20
5404.2162883517
 30
0.0
 11
6728.0959643677
 21
5404.2162883517
 31
0.0
  0
LINE
  5
E3
330
1F
100
AcDbEntity
  8
0
  6
Continuous
 62
     7
370
    25
100
AcDbLine
 10
6721.0959643677
 20
5060.7162883517
 30
0.0
 11
6728.0959643677
 21
5060.7162883517
 31
0.0
  0
LINE
  5
E4
330
1F
100
AcDbEntity
  8
0
  6
Continuous
 62
     7
370
    25
100
AcDbLine
 10
6721.0959643677
 20
5037.2162883517
 30
0.0
 11
6728.0959643677
 21
5037.2162883517
 31
0.0
  0
LINE
  5
E5
330
1F
100
AcDbEntity
  8
0
  6
Continuous
 62
     7
370
    25
100
AcDbLine
 10
6728.0959643677
 20
5035.7162883517
 30
0.0
 11
6721.0959643677
 21
5035.7162883517
 31
0.0
  0
LINE
  5
E6
330
1F
100
AcDbEntity
  8
0
  6
Continuous
 62
     7
370
    25
100
AcDbLine
 10
6728.0959643677
 20
5035.7162883517
 30
0.0
 11
6728.0959643677
 21
5036.2162883517
 31
0.0
  0
LINE
  5
E7
330
1F
100
AcDbEntity
  8
0
  6
Continuous
 62
     7
370
    25
100
AcDbLine
 10
6750.0959643677
 20
5036.2162883517
 30
0.0
 11
6750.0959643677
 21
5021.2162883517
 31
0.0
  0
ARC
  5
E8
330
1F
100
AcDbEntity
  8
0
  6
Continuous
 62
     7
370
    25
100
AcDbCircle
 10
6748.8759362158
 20
5043.3048663281
 30
0.0
 40
22.12224549437048
100
AcDbArc
 50
200.0615421158
 51
273.161430732
  0
LINE
  5
E9
330
1F
100
AcDbEntity
  8
0
  6
Continuous
 62
     8
370
    25
100
AcDbLine
 10
6693.2840182104
 20
5404.7162874374
 30
0.0
 11
6689.0959643677
 21
5404.7162874374
 31
0.0
  0
LINE
  5
EA
330
1F
100
AcDbEntity
  8
FORMAT
  6
Continuous
370
    25
100
AcDbLine
 10
6148.462327552
 20
4608.6849326416
 30
0.0
 11
6399.5872479054
 21
4608.6849326416
 31
0.0
  0
CIRCLE
  5
EB
330
1F
100
AcDbEntity
  8
0
  6
Continuous
 62
     7
370
    25
100
AcDbCircle
 10
6274.019031984
 20
4750.1849326416
 30
0.0
 40
12.50000000000273
  0
CIRCLE
  5
EC
330
1F
100
AcDbEntity
  8
0
  6
Continuous
 62
     7
370
    25
100
AcDbCircle
 10
6274.019031984
 20
4750.1849326416
 30
0.0
 40
3.499999999995032
  0
LINE
  5
ED
330
1F
100
AcDbEntity
  8
0
  6
Continuous
 62
     7
370
    25
100
AcDbLine
 10
6273.619031984
 20
4748.1849326416
 30
0.0
 11
6273.619031984
 21
4746.7078649115
 31
0.0
  0
LINE
  5
EE
330
1F
100
AcDbEntity
  8
0
  6
Continuous
 62
     7
370
    25
100
AcDbLine
 10
6274.419031984
 20
4748.1849326416
 30
0.0
 11
6273.619031984
 21
4748.1849326416
 31
0.0
  0
LINE
  5
EF
330
1F
100
AcDbEntity
  8
0
  6
Continuous
 62
     7
370
    25
100
AcDbLine
 10
6274.419031984
 20
4746.7078649115
 30
0.0
 11
6274.419031984
 21
4748.1849326416
 31
0.0
  0
LINE
  5
F0
330
1F
100
AcDbEntity
  8
0
  6
Continuous
 62
     7
370
    25
100
AcDbLine
 10
6274.419031984
 20
4752.1849326416
 30
0.0
 11
6274.419031984
 21
4753.6620003718
 31
0.0
  0
LINE
  5
F1
330
1F
100
AcDbEntity
  8
0
  6
Continuous
 62
     7
370
    25
100
AcDbLine
 10
6273.619031984
 20
4752.1849326416
 30
0.0
 11
6274.419031984
 21
4752.1849326416
 31
0.0
  0
LINE
  5
F2
330
1F
100
AcDbEntity
  8
0
  6
Continuous
 62
     7
370
    25
100
AcDbLine
 10
6273.619031984
 20
4753.6620003718
 30
0.0
 11
6273.619031984
 21
4752.1849326416
 31
0.0
  0
LINE
  5
F3
330
1F
100
AcDbEntity
  8
0
  6
Continuous
 62
     7
370
    25
100
AcDbLine
 10
6274.019031984
 20
4748.1849326416
 30
0.0
 11
6274.019031984
 21
4750.1849326416
 31
0.0
  0
LINE
  5
F4
330
1F
100
AcDbEntity
  8
0
  6
Continuous
 62
     7
370
    25
100
AcDbLine
 10
6274.019031984
 20
4750.1849326416
 30
0.0
 11
6277.519031984
 21
4750.1849326416
 31
0.0
  0
LWPOLYLINE
  5
F5
330
1F
100
AcDbEntity
  8
FORMAT
  6
Continuous
370
    25
100
AcDbPolyline
 90
       11
 70
   128
 43
0.0
 10
6131.9694086844
 20
4695.7808059827
 10
6130.2253199349
 20
4697.273813417
 10
6128.4758697115
 20
4698.5361878852
 10
6126.8272520211
 20
4699.450380715
 10
6125.2698300851
 20
4699.9723641285
 10
6124.0957548793
 20
4700.0318941791
 10
6123.109342104
 20
4699.7022021458
 10
6122.4424585395
 20
4699.1040413544
 10
6121.9609426119
 20
4698.2416977391
 10
6121.6250571209
 20
4696.935062382
 10
6121.519031984
 20
4695.3715585741
  0
LINE
  5
F6
330
1F
100
AcDbEntity
  8
FORMAT
  6
Continuous
370
    25
100
AcDbLine
 10
6121.519031984
 20
4695.3715585741
 30
0.0
 11
6121.519031984
 21
4723.6849326416
 31
0.0
  0
LINE
  5
F7
330
1F
100
AcDbEntity
  8
FORMAT
  6
Continuous
370
    25
100
AcDbLine
 10
6146.519031984
 20
4723.6849326416
 30
0.0
 11
6146.519031984
 21
4716.6849326416
 31
0.0
  0
ELLIPSE
  5
F8
330
1F
100
AcDbEntity
  8
FORMAT
  6
Continuous
370
    25
100
AcDbEllipse
 10
6146.519031984
 20
4604.7787312395
 30
0.0
 11
0.0
 21
111.9062014020992
 31
0.0
210
0.0
220
0.0
230
1.0
 40
0.2234013816
 41
0.0
 42
0.6211674564148079
  0
LINE
  5
F9
330
1F
100
AcDbEntity
  8
FORMAT
  6
Continuous
370
    25
100
AcDbLine
 10
6121.519031984
 20
4723.6849326416
 30
0.0
 11
6146.519031984
 21
4723.6849326416
 31
0.0
  0
LINE
  5
FA
330
1F
100
AcDbEntity
  8
FORMAT
  6
Continuous
370
    25
100
AcDbLine
 10
6401.519031984
 20
4716.6849326416
 30
0.0
 11
6401.519031984
 21
4723.6849326416
 31
0.0
  0
LINE
  5
FB
330
1F
100
AcDbEntity
  8
FORMAT
  6
Continuous
370
    25
100
AcDbLine
 10
6146.519031984
 20
4716.6849326416
 30
0.0
 11
6401.519031984
 21
4716.6849326416
 31
0.0
  0
LINE
  5
FC
330
1F
100
AcDbEntity
  8
FORMAT
  6
Continuous
370
    25
100
AcDbLine
 10
6401.519031984
 20
4723.6849326416
 30
0.0
 11
6146.519031984
 21
4723.6849326416
 31
0.0
  0
ELLIPSE
  5
FD
330
1F
100
AcDbEntity
  8
FORMAT
  6
Continuous
370
    25
100
AcDbEllipse
 10
6401.519031984
 20
4604.7787312395
 30
0.0
 11
0.0
 21
111.9062014020983
 31
0.0
210
0.0
220
0.0
230
1.0
 40
0.2234013816
 41
5.662017850764592
 42
6.283185307179586
  0
LINE
  5
FE
330
1F
100
AcDbEntity
  8
FORMAT
  6
Continuous
370
    25
100
AcDbLine
 10
6426.519031984
 20
4723.6849326416
 30
0.0
 11
6426.519031984
 21
4695.3715585741
 31
0.0
  0
LWPOLYLINE
  5
FF
330
1F
100
AcDbEntity
  8
FORMAT
  6
Continuous
370
    25
100
AcDbPolyline
 90
       10
 70
   128
 43
0.0
 10
6426.519031984
 20
4695.3715585741
 10
6426.4069590799
 20
4696.974712683
 10
6426.0339429558
 20
4698.3466622282
 10
6425.3686457656
 20
4699.3594664098
 10
6424.337249076
 20
4699.9546918863
 10
6423.1853992466
 20
4700.0346418908
 10
6421.7659552053
 20
4699.6815850278
 10
6420.4441875297
 20
4699.0637635661
 10
6419.0176487051
 20
4698.1717876814
 10
6416.0686552836
 20
4695.7808059827
  0
LINE
  5
100
330
1F
100
AcDbEntity
  8
FORMAT
  6
Continuous
370
    25
100
AcDbLine
 10
6401.519031984
 20
4723.6849326416
 30
0.0
 11
6426.519031984
 21
4723.6849326416
 31
0.0
  0
LWPOLYLINE
  5
101
330
1F
100
AcDbEntity
  8
FORMAT
  6
Continuous
370
    25
100
AcDbPolyline
 90
        4
 70
   128
 43
0.0
 10
6416.0686552836
 20
4695.7808059827
 10
6416.038876566
 20
4695.7216649332
 10
6409.2447447252
 20
4682.2868083273
 10
6402.405620029
 20
4668.8735300432
  0
LINE
  5
102
330
1F
100
AcDbEntity
  8
FORMAT
  6
Continuous
370
    25
100
AcDbLine
 10
6145.6327657469
 20
4668.8735300432
 30
0.0
 11
6402.4055306443
 21
4668.8735300432
 31
0.0
  0
LWPOLYLINE
  5
103
330
1F
100
AcDbEntity
  8
FORMAT
  6
Continuous
370
    25
100
AcDbPolyline
 90
        3
 70
   128
 43
0.0
 10
6145.632443939
 20
4668.8735300432
 10
6135.0040839975
 20
4689.7655741385
 10
6131.9694086844
 20
4695.7808059827
  0
LWPOLYLINE
  5
104
330
1F
100
AcDbEntity
  8
FORMAT
  6
Continuous
370
    25
100
AcDbPolyline
 90
        8
 70
   128
 43
0.0
 10
6145.632006194
 20
4668.8736494853
 10
6145.6344333032
 20
4663.1261040649
 10
6145.6337328558
 20
4658.1555970423
 10
6145.6299048517
 20
4653.8997721527
 10
6145.6222194605
 20
4649.9635604383
 10
6145.60923213
 20
4645.4414704066
 10
6145.5789658867
 20
4637.2100877445
 10
6145.6112373241
 20
4629.9959825389
  0
LWPOLYLINE
  5
105
330
1F
100
AcDbEntity
  8
FORMAT
  6
Continuous
370
    25
100
AcDbPolyline
 90
       32
 70
   128
 43
0.0
 10
6145.6112373241
 20
4629.9959825389
 10
6145.6256691923
 20
4628.9052838882
 10
6145.6482623352
 20
4627.5208988813
 10
6145.6790167529
 20
4625.876320227
 10
6145.7099759834
 20
4624.2937560475
 10
6145.732586331
 20
4623.0153829492
 10
6145.7469595319
 20
4622.0053780593
 10
6145.7553503119
 20
4620.8694007087
 10
6145.7460237455
 20
4619.20224763
 10
6145.7036216313
 20
4617.7282915302
 10
6145.687759682
 20
4617.3989102676
 10
6145.6695512319
 20
4617.0746889455
 10
6145.6489962812
 20
4616.7556832937
 10
6145.6260948298
 20
4616.4419491412
 10
6145.6008468778
 20
4616.1335424128
 10
6145.5732524251
 20
4615.8305191255
 10
6145.5433114717
 20
4615.532935385
 10
6145.5174402206
 20
4615.2980545906
 10
6145.4715078168
 20
4614.9006476003
 10
6145.4055142605
 20
4614.3561552943
 10
6145.3481919423
 20
4613.897850726
 10
6145.3023679551
 20
4613.5265426709
 10
6145.2657679954
 20
4613.2181163092
 10
6145.2277692811
 20
4612.8655642654
 10
6145.1863078663
 20
4612.3893604577
 10
6145.1630549619
 20
4611.9679894622
 10
6145.158010568
 20
4611.5966203327
 10
6145.1711746847
 20
4611.2707183664
 10
6145.3104202973
 20
4610.4961054851
 10
6145.6002757093
 20
4609.9016414421
 10
6146.0516458324
 20
4609.4401833112
 10
6146.729059933
 20
4609.0435133192
  0
LWPOLYLINE
  5
106
330
1F
100
AcDbEntity
  8
FORMAT
  6
Continuous
370
    25
100
AcDbPolyline
 90
        3
 70
   128
 43
0.0
 10
6146.729059933
 20
4609.0435133192
 10
6147.6288934874
 20
4608.766883894
 10
6148.462327552
 20
4608.6963187058
  0
LINE
  5
107
330
1F
100
AcDbEntity
  8
FORMAT
  6
Continuous
370
    25
100
AcDbLine
 10
6121.519031984
 20
4695.3715585741
 30
0.0
 11
6121.519031984
 21
4641.7089854935
 31
0.0
  0
LWPOLYLINE
  5
108
330
1F
100
AcDbEntity
  8
FORMAT
  6
Continuous
370
    25
100
AcDbPolyline
 90
        3
 70
   128
 43
0.0
 10
6399.5872479054
 20
4608.7147542813
 10
6400.3049545394
 20
4608.748291999
 10
6401.3090040351
 20
4609.0435133192
  0
LWPOLYLINE
  5
109
330
1F
100
AcDbEntity
  8
FORMAT
  6
Continuous
370
    25
100
AcDbPolyline
 90
       22
 70
   128
 43
0.0
 10
6401.3090040351
 20
4609.0435133192
 10
6401.7852256718
 20
4609.2976932898
 10
6402.1611952336
 20
4609.5887233862
 10
6402.4369127203
 20
4609.900410083
 10
6402.6473088936
 20
4610.2783239132
 10
6402.7906273133
 20
4610.7320929731
 10
6402.8668679793
 20
4611.2704270739
 10
6402.877294719
 20
4611.8964139941
 10
6402.8275504204
 20
4612.6849674348
 10
6402.7357969408
 20
4613.5257088825
 10
6402.5970990531
 20
4614.6451311309
 10
6402.4948470159
 20
4615.5320397913
 10
6402.3880388004
 20
4616.7707438797
 10
6402.319731715
 20
4618.0957392001
 10
6402.2886628641
 20
4619.4425187922
 10
6402.2831201186
 20
4620.9874082207
 10
6402.2972545246
 20
4622.4778727974
 10
6402.3180540019
 20
4623.7483910909
 10
6402.3488268949
 20
4625.3636721677
 10
6402.3843096803
 20
4627.2118813836
 10
6402.4105038504
 20
4628.7796175532
 10
6402.426826644
 20
4629.9959825392
  0
LWPOLYLINE
  5
10A
330
1F
100
AcDbEntity
  8
FORMAT
  6
Continuous
370
    25
100
AcDbPolyline
 90
       18
 70
   128
 43
0.0
 10
6402.426826644
 20
4629.9959825392
 10
6402.4425356196
 20
4631.7425656891
 10
6402.4523625941
 20
4633.7201667349
 10
6402.4563075675
 20
4635.9471559178
 10
6402.4543705398
 20
4638.4430581578
 10
6402.4478679473
 20
4640.9759687521
 10
6402.4302621088
 20
4646.46937168
 10
6402.4276223753
 20
4647.2180837116
 10
6402.4249052465
 20
4647.973513323
 10
6402.4221107224
 20
4648.7356361358
 10
6402.419238803
 20
4649.5044275556
 10
6402.4162894882
 20
4650.279862773
 10
6402.4132627782
 20
4651.0619167638
 10
6402.4070575643
 20
4653.2530165082
 10
6402.403172824
 20
4656.0791098931
 10
6402.4016085571
 20
4659.5869329576
 10
6402.4023647637
 20
4663.83122655
 10
6402.4054414437
 20
4668.8737674718
  0
LINE
  5
10B
330
1F
100
AcDbEntity
  8
FORMAT
  6
Continuous
370
    25
100
AcDbLine
 10
6426.519031984
 20
4695.3715585741
 30
0.0
 11
6426.519031984
 21
4641.7089854935
 31
0.0
  0
LINE
  5
10C
330
1F
100
AcDbEntity
  8
0
  6
Continuous
 62
     7
370
    25
100
AcDbLine
 10
6146.519031984
 20
4826.6849326416
 30
0.0
 11
6146.519031984
 21
4746.8413355283
 31
0.0
  0
LINE
  5
10D
330
1F
100
AcDbEntity
  8
0
  6
Continuous
 62
     7
370
    25
100
AcDbLine
 10
6274.019031984
 20
4826.6849326416
 30
0.0
 11
6146.519031984
 21
4826.6849326416
 31
0.0
  0
LINE
  5
10E
330
1F
100
AcDbEntity
  8
0
  6
Continuous
 62
     7
370
    25
100
AcDbLine
 10
6401.519031984
 20
4826.6849326416
 30
0.0
 11
6274.019031984
 21
4826.6849326416
 31
0.0
  0
LINE
  5
10F
330
1F
100
AcDbEntity
  8
0
  6
Continuous
 62
     7
370
    25
100
AcDbLine
 10
6401.519031984
 20
4746.8413355283
 30
0.0
 11
6401.519031984
 21
4826.6849326416
 31
0.0
  0
LINE
  5
110
330
1F
100
AcDbEntity
  8
0
  6
Continuous
 62
     7
370
    25
100
AcDbLine
 10
6401.519031984
 20
4746.8413355283
 30
0.0
 11
6287.0984187565
 21
4746.8413355283
 31
0.0
  0
ARC
  5
111
330
1F
100
AcDbEntity
  8
0
  6
Continuous
 62
     7
370
    25
100
AcDbCircle
 10
6274.019031984
 20
4750.3112510382
 30
0.0
 40
13.53183919463198
100
AcDbArc
 50
345.1419007186
 51
194.8580992814
  0
LINE
  5
112
330
1F
100
AcDbEntity
  8
0
  6
Continuous
 62
     7
370
    25
100
AcDbLine
 10
6260.9396452116
 20
4746.8413355283
 30
0.0
 11
6146.519031984
 21
4746.8413355283
 31
0.0
  0
ARC
  5
113
330
1F
100
AcDbEntity
  8
0
  6
Continuous
 62
     7
370
    25
100
AcDbCircle
 10
6274.0737000461
 20
4750.2029305885
 30
0.0
 40
12.4515313588919
100
AcDbArc
 50
345.5175530417
 51
77.9875720469
  0
ARC
  5
114
330
1F
100
AcDbEntity
  8
0
  6
Continuous
 62
     7
370
    25
100
AcDbCircle
 10
6274.0185653236
 20
4750.1851380992
 30
0.0
 40
12.49959876954176
100
AcDbArc
 50
90.0069765377
 51
194.3413480336
  0
LINE
  5
115
330
1F
100
AcDbEntity
  8
0
  6
Continuous
 62
     7
370
    25
100
AcDbLine
 10
6260.9396452116
 20
4746.8413355283
 30
0.0
 11
6261.9084886762
 21
4747.0890093885
 31
0.0
  0
LINE
  5
116
330
1F
100
AcDbEntity
  8
0
  6
Continuous
 62
     7
370
    25
100
AcDbLine
 10
6286.1295752918
 20
4747.0890093885
 30
0.0
 11
6287.0984187565
 21
4746.8413355283
 31
0.0
  0
ARC
  5
117
330
1F
100
AcDbEntity
  8
0
  6
Continuous
 62
     7
370
    25
100
AcDbCircle
 10
6274.019031984
 20
4750.1849326416
 30
0.0
 40
12.5000000000002
100
AcDbArc
 50
194.3399058028
 51
345.6600941972
  0
ARC
  5
118
330
1F
100
AcDbEntity
  8
0
  6
Continuous
 62
     7
370
    25
100
AcDbCircle
 10
6274.019031984
 20
4750.1849326416
 30
0.0
 40
13.50000000000061
100
AcDbArc
 50
194.3399058028
 51
345.6600941972
  0
LINE
  5
119
330
1F
100
AcDbEntity
  8
0
  6
Continuous
 62
     7
370
    25
100
AcDbLine
 10
6401.519031984
 20
4730.6849326416
 30
0.0
 11
6401.519031984
 21
4746.8413355283
 31
0.0
  0
LINE
  5
11A
330
1F
100
AcDbEntity
  8
0
  6
Continuous
 62
     7
370
    25
100
AcDbLine
 10
6401.519031984
 20
4730.6849326416
 30
0.0
 11
6146.519031984
 21
4730.6849326416
 31
0.0
  0
LINE
  5
11B
330
1F
100
AcDbEntity
  8
0
  6
Continuous
 62
     7
370
    25
100
AcDbLine
 10
6146.519031984
 20
4746.8413355283
 30
0.0
 11
6146.519031984
 21
4730.6849326416
 31
0.0
  0
LINE
  5
11C
330
1F
100
AcDbEntity
  8
0
  6
Continuous
 62
     7
370
    25
100
AcDbLine
 10
6121.519031984
 20
4746.8413355283
 30
0.0
 11
6121.519031984
 21
4801.6849326416
 31
0.0
  0
ARC
  5
11D
330
1F
100
AcDbEntity
  8
0
  6
Continuous
 62
     7
370
    25
100
AcDbCircle
 10
6146.519031984
 20
4801.6849326416
 30
0.0
 40
24.99999999999818
100
AcDbArc
 50
90.0
 51
180.0
  0
LINE
  5
11E
330
1F
100
AcDbEntity
  8
0
  6
Continuous
 62
     7
370
    25
100
AcDbLine
 10
6121.519031984
 20
4746.8413355283
 30
0.0
 11
6146.519031984
 21
4746.8413355283
 31
0.0
  0
LINE
  5
11F
330
1F
100
AcDbEntity
  8
0
  6
Continuous
 62
     7
370
    25
100
AcDbLine
 10
6426.519031984
 20
4801.6849326416
 30
0.0
 11
6426.519031984
 21
4746.8413355283
 31
0.0
  0
LINE
  5
120
330
1F
100
AcDbEntity
  8
0
  6
Continuous
 62
     7
370
    25
100
AcDbLine
 10
6426.519031984
 20
4746.8413355283
 30
0.0
 11
6401.519031984
 21
4746.8413355283
 31
0.0
  0
ARC
  5
121
330
1F
100
AcDbEntity
  8
0
  6
Continuous
 62
     7
370
    25
100
AcDbCircle
 10
6401.519031984
 20
4801.6849326416
 30
0.0
 40
25.00000000000182
100
AcDbArc
 50
0.0
 51
90.0
  0
LINE
  5
122
330
1F
100
AcDbEntity
  8
0
  6
Continuous
 62
     7
370
    25
100
AcDbLine
 10
6146.519031984
 20
4730.6849326416
 30
0.0
 11
6121.519031984
 21
4730.6849326416
 31
0.0
  0
LINE
  5
123
330
1F
100
AcDbEntity
  8
0
  6
Continuous
 62
     7
370
    25
100
AcDbLine
 10
6121.519031984
 20
4730.6849326416
 30
0.0
 11
6121.519031984
 21
4746.8413355283
 31
0.0
  0
LINE
  5
124
330
1F
100
AcDbEntity
  8
0
  6
Continuous
 62
     7
370
    25
100
AcDbLine
 10
6426.519031984
 20
4746.8413355283
 30
0.0
 11
6426.519031984
 21
4730.6849326416
 31
0.0
  0
LINE
  5
125
330
1F
100
AcDbEntity
  8
0
  6
Continuous
 62
     7
370
    25
100
AcDbLine
 10
6426.519031984
 20
4730.6849326416
 30
0.0
 11
6401.519031984
 21
4730.6849326416
 31
0.0
  0
LINE
  5
126
330
1F
100
AcDbEntity
  8
0
  6
Continuous
 62
     7
370
    25
100
AcDbLine
 10
6401.519031984
 20
4730.6849326416
 30
0.0
 11
6401.519031984
 21
4723.6849326416
 31
0.0
  0
LINE
  5
127
330
1F
100
AcDbEntity
  8
0
  6
Continuous
 62
     7
370
    25
100
AcDbLine
 10
6425.019031984
 20
4730.6849326416
 30
0.0
 11
6425.019031984
 21
4723.6849326416
 31
0.0
  0
LINE
  5
128
330
1F
100
AcDbEntity
  8
0
  6
Continuous
 62
     7
370
    25
100
AcDbLine
 10
6123.019031984
 20
4730.6849326416
 30
0.0
 11
6123.019031984
 21
4723.6849326416
 31
0.0
  0
LINE
  5
129
330
1F
100
AcDbEntity
  8
0
  6
Continuous
 62
     7
370
    25
100
AcDbLine
 10
6146.519031984
 20
4730.6849326416
 30
0.0
 11
6146.519031984
 21
4723.6849326416
 31
0.0
  0
ENDSEC
  0
SECTION
  2
OBJECTS
  0
DICTIONARY
  5
C
330
0
100
AcDbDictionary
281
     1
  3
ACAD_GROUP
350
D
  3
ACAD_LAYOUT
350
1A
  3
ACAD_MLINESTYLE
350
17
  3
ACAD_PLOTSETTINGS
350
19
  3
ACAD_PLOTSTYLENAME
350
E
  3
ACAD_SCALELIST
350
47
  3
DWGPROPS
350
12A
  0
DICTIONARY
  5
D
102
{ACAD_REACTORS
330
C
102
}
330
C
100
AcDbDictionary
281
     1
  0
DICTIONARY
  5
1A
102
{ACAD_REACTORS
330
C
102
}
330
C
100
AcDbDictionary
281
     1
  3
Layout1
350
1E
  3
Layout2
350
26
  3
Model
350
22
  0
DICTIONARY
  5
17
102
{ACAD_REACTORS
330
C
102
}
330
C
100
AcDbDictionary
281
     1
  3
Standard
350
18
  0
DICTIONARY
  5
19
102
{ACAD_REACTORS
330
C
102
}
330
C
100
AcDbDictionary
281
     1
  0
ACDBDICTIONARYWDFLT
  5
E
102
{ACAD_REACTORS
330
C
102
}
330
C
100
AcDbDictionary
281
     1
  3
Normal
350
F
100
AcDbDictionaryWithDefault
340
F
  0
DICTIONARY
  5
47
102
{ACAD_REACTORS
330
C
102
}
330
C
100
AcDbDictionary
281
     1
  3
A0
350
48
  3
A1
350
49
  3
A2
350
4A
  3
A3
350
4B
  3
A4
350
4C
  3
A5
350
4D
  3
A6
350
4E
  3
A7
350
4F
  3
A8
350
50
  3
A9
350
51
  3
B0
350
52
  3
B1
350
53
  3
B2
350
54
  3
B3
350
55
  3
B4
350
56
  3
B5
350
57
  3
B6
350
58
  3
B7
350
59
  3
B8
350
5A
  3
B9
350
5B
  3
C0
350
5C
  3
C1
350
5D
  3
C2
350
5E
  3
C3
350
5F
  3
C4
350
60
  3
C5
350
61
  3
C6
350
62
  3
C7
350
63
  3
C8
350
64
  3
C9
350
65
  3
D0
350
66
  3
D1
350
67
  3
D2
350
68
  0
XRECORD
  5
12A
102
{ACAD_REACTORS
330
C
102
}
330
C
100
AcDbXrecord
280
     1
  1
DWGPROPS COOKIE
  2

  3

  4

  6

  7

  8
radek.stransky
  9

300
=
301
=
302
=
303
=
304
=
305
=
306
=
307
=
308
=
309
=
 40
0.0
 41
2459740.433277199
 42
2459740.433277697
  1

 90
        0
  0
LAYOUT
  5
1E
102
{ACAD_REACTORS
330
1A
102
}
330
1A
100
AcDbPlotSettings
  1

  2
none_device
  4

  6

 40
0.0
 41
0.0
 42
0.0
 43
0.0
 44
0.0
 45
0.0
 46
0.0
 47
0.0
 48
0.0
 49
0.0
140
0.0
141
0.0
142
1.0
143
1.0
 70
   688
 72
     1
 73
     0
 74
     5
  7

 75
    16
147
1.0
148
0.0
149
0.0
100
AcDbLayout
  1
Layout1
 70
     1
 71
     1
 10
0.0
 20
0.0
 11
420.0
 21
297.0
 12
0.0
 22
0.0
 32
0.0
 14
1.0000000000E+20
 24
1.0000000000E+20
 34
1.0000000000E+20
 15
-1.0000000000E+20
 25
-1.0000000000E+20
 35
-1.0000000000E+20
146
0.0
 13
0.0
 23
0.0
 33
0.0
 16
1.0
 26
0.0
 36
0.0
 17
0.0
 27
1.0
 37
0.0
 76
     0
330
1B
  0
LAYOUT
  5
26
102
{ACAD_REACTORS
330
1A
102
}
330
1A
100
AcDbPlotSettings
  1

  2
none_device
  4

  6

 40
0.0
 41
0.0
 42
0.0
 43
0.0
 44
0.0
 45
0.0
 46
0.0
 47
0.0
 48
0.0
 49
0.0
140
0.0
141
0.0
142
1.0
143
1.0
 70
   688
 72
     1
 73
     0
 74
     5
  7

 75
    16
147
1.0
148
0.0
149
0.0
100
AcDbLayout
  1
Layout2
 70
     1
 71
     2
 10
0.0
 20
0.0
 11
0.0
 21
0.0
 12
0.0
 22
0.0
 32
0.0
 14
0.0
 24
0.0
 34
0.0
 15
0.0
 25
0.0
 35
0.0
146
0.0
 13
0.0
 23
0.0
 33
0.0
 16
1.0
 26
0.0
 36
0.0
 17
0.0
 27
1.0
 37
0.0
 76
     0
330
23
  0
LAYOUT
  5
22
102
{ACAD_REACTORS
330
1A
102
}
330
1A
100
AcDbPlotSettings
  1

  2
none_device
  4
Letter_(8.50_x_11.00_Inches)
  6

 40
6.35
 41
6.35
 42
6.35000508
 43
6.35000508
 44
215.9
 45
279.4
 46
0.0
 47
0.0
 48
0.0
 49
0.0
140
0.0
141
0.0
142
1.0
143
1.0
 70
  1712
 72
     1
 73
     0
 74
     0
  7

 75
     0
147
1.0
148
0.0
149
0.0
100
AcDbLayout
  1
Model
 70
     1
 71
     0
 10
0.0
 20
0.0
 11
20000.0
 21
10000.0
 12
0.0
 22
0.0
 32
0.0
 14
0.0
 24
0.0
 34
0.0
 15
20000.0
 25
10000.0
 35
0.0
146
0.0
 13
0.0
 23
0.0
 33
0.0
 16
1.0
 26
0.0
 36
0.0
 17
0.0
 27
1.0
 37
0.0
 76
     0
330
1F
331
29
  0
MLINESTYLE
  5
18
102
{ACAD_REACTORS
330
17
102
}
330
17
100
AcDbMlineStyle
  2
Standard
 70
     0
  3

 62
   256
 51
90.0
 52
90.0
 71
     2
 49
0.5
 62
   256
  6
BYLAYER
 49
-0.5
 62
   256
  6
BYLAYER
  0
ACDBPLACEHOLDER
  5
F
102
{ACAD_REACTORS
330
E
102
}
330
E
  0
SCALE
  5
48
102
{ACAD_REACTORS
330
47
102
}
330
47
100
AcDbScale
 70
     0
300
1:1
140
1.0
141
1.0
290
     1
  0
SCALE
  5
49
102
{ACAD_REACTORS
330
47
102
}
330
47
100
AcDbScale
 70
     0
300
1:2
140
1.0
141
2.0
290
     0
  0
SCALE
  5
4A
102
{ACAD_REACTORS
330
47
102
}
330
47
100
AcDbScale
 70
     0
300
1:4
140
1.0
141
4.0
290
     0
  0
SCALE
  5
4B
102
{ACAD_REACTORS
330
47
102
}
330
47
100
AcDbScale
 70
     0
300
1:5
140
1.0
141
5.0
290
     0
  0
SCALE
  5
4C
102
{ACAD_REACTORS
330
47
102
}
330
47
100
AcDbScale
 70
     0
300
1:8
140
1.0
141
8.0
290
     0
  0
SCALE
  5
4D
102
{ACAD_REACTORS
330
47
102
}
330
47
100
AcDbScale
 70
     0
300
1:10
140
1.0
141
10.0
290
     0
  0
SCALE
  5
4E
102
{ACAD_REACTORS
330
47
102
}
330
47
100
AcDbScale
 70
     0
300
1:16
140
1.0
141
16.0
290
     0
  0
SCALE
  5
4F
102
{ACAD_REACTORS
330
47
102
}
330
47
100
AcDbScale
 70
     0
300
1:20
140
1.0
141
20.0
290
     0
  0
SCALE
  5
50
102
{ACAD_REACTORS
330
47
102
}
330
47
100
AcDbScale
 70
     0
300
1:30
140
1.0
141
30.0
290
     0
  0
SCALE
  5
51
102
{ACAD_REACTORS
330
47
102
}
330
47
100
AcDbScale
 70
     0
300
1:40
140
1.0
141
40.0
290
     0
  0
SCALE
  5
52
102
{ACAD_REACTORS
330
47
102
}
330
47
100
AcDbScale
 70
     0
300
1:50
140
1.0
141
50.0
290
     0
  0
SCALE
  5
53
102
{ACAD_REACTORS
330
47
102
}
330
47
100
AcDbScale
 70
     0
300
1:100
140
1.0
141
100.0
290
     0
  0
SCALE
  5
54
102
{ACAD_REACTORS
330
47
102
}
330
47
100
AcDbScale
 70
     0
300
2:1
140
2.0
141
1.0
290
     0
  0
SCALE
  5
55
102
{ACAD_REACTORS
330
47
102
}
330
47
100
AcDbScale
 70
     0
300
4:1
140
4.0
141
1.0
290
     0
  0
SCALE
  5
56
102
{ACAD_REACTORS
330
47
102
}
330
47
100
AcDbScale
 70
     0
300
8:1
140
8.0
141
1.0
290
     0
  0
SCALE
  5
57
102
{ACAD_REACTORS
330
47
102
}
330
47
100
AcDbScale
 70
     0
300
10:1
140
10.0
141
1.0
290
     0
  0
SCALE
  5
58
102
{ACAD_REACTORS
330
47
102
}
330
47
100
AcDbScale
 70
     0
300
100:1
140
100.0
141
1.0
290
     0
  0
SCALE
  5
59
102
{ACAD_REACTORS
330
47
102
}
330
47
100
AcDbScale
 70
     0
300
1/128" = 1'-0"
140
0.0078125
141
12.0
290
     0
  0
SCALE
  5
5A
102
{ACAD_REACTORS
330
47
102
}
330
47
100
AcDbScale
 70
     0
300
1/64" = 1'-0"
140
0.015625
141
12.0
290
     0
  0
SCALE
  5
5B
102
{ACAD_REACTORS
330
47
102
}
330
47
100
AcDbScale
 70
     0
300
1/32" = 1'-0"
140
0.03125
141
12.0
290
     0
  0
SCALE
  5
5C
102
{ACAD_REACTORS
330
47
102
}
330
47
100
AcDbScale
 70
     0
300
1/16" = 1'-0"
140
0.0625
141
12.0
290
     0
  0
SCALE
  5
5D
102
{ACAD_REACTORS
330
47
102
}
330
47
100
AcDbScale
 70
     0
300
3/32" = 1'-0"
140
0.09375
141
12.0
290
     0
  0
SCALE
  5
5E
102
{ACAD_REACTORS
330
47
102
}
330
47
100
AcDbScale
 70
     0
300
1/8" = 1'-0"
140
0.125
141
12.0
290
     0
  0
SCALE
  5
5F
102
{ACAD_REACTORS
330
47
102
}
330
47
100
AcDbScale
 70
     0
300
3/16" = 1'-0"
140
0.1875
141
12.0
290
     0
  0
SCALE
  5
60
102
{ACAD_REACTORS
330
47
102
}
330
47
100
AcDbScale
 70
     0
300
1/4" = 1'-0"
140
0.25
141
12.0
290
     0
  0
SCALE
  5
61
102
{ACAD_REACTORS
330
47
102
}
330
47
100
AcDbScale
 70
     0
300
3/8" = 1'-0"
140
0.375
141
12.0
290
     0
  0
SCALE
  5
62
102
{ACAD_REACTORS
330
47
102
}
330
47
100
AcDbScale
 70
     0
300
1/2" = 1'-0"
140
0.5
141
12.0
290
     0
  0
SCALE
  5
63
102
{ACAD_REACTORS
330
47
102
}
330
47
100
AcDbScale
 70
     0
300
3/4" = 1'-0"
140
0.75
141
12.0
290
     0
  0
SCALE
  5
64
102
{ACAD_REACTORS
330
47
102
}
330
47
100
AcDbScale
 70
     0
300
1" = 1'-0"
140
1.0
141
12.0
290
     0
  0
SCALE
  5
65
102
{ACAD_REACTORS
330
47
102
}
330
47
100
AcDbScale
 70
     0
300
1-1/2" = 1'-0"
140
1.5
141
12.0
290
     0
  0
SCALE
  5
66
102
{ACAD_REACTORS
330
47
102
}
330
47
100
AcDbScale
 70
     0
300
3" = 1'-0"
140
3.0
141
12.0
290
     0
  0
SCALE
  5
67
102
{ACAD_REACTORS
330
47
102
}
330
47
100
AcDbScale
 70
     0
300
6" = 1'-0"
140
6.0
141
12.0
290
     0
  0
SCALE
  5
68
102
{ACAD_REACTORS
330
47
102
}
330
47
100
AcDbScale
 70
     0
300
1'-0" = 1'-0"
140
12.0
141
12.0
290
     0
  0
ENDSEC
  0
EOF
