  0
SECTION
  2
HEADER
  9
$ACADVER
  1
AC1015
  9
$ACADMAINTVER
 70
     6
  9
$DWGCODEPAGE
  3
ANSI_1250
  9
$INSBASE
 10
0.0
 20
0.0
 30
0.0
  9
$EXTMIN
 10
0.0
 20
0.0
 30
0.0
  9
$EXTMAX
 10
20000.0
 20
10000.0
 30
0.0
  9
$LIMMIN
 10
0.0
 20
0.0
  9
$LIMMAX
 10
20000.0
 20
10000.0
  9
$ORTHOMODE
 70
     0
  9
$REGENMODE
 70
     1
  9
$FILLMODE
 70
     1
  9
$QTEXTMODE
 70
     0
  9
$MIRRTEXT
 70
     1
  9
$LTSCALE
 40
1.0
  9
$ATTMODE
 70
     1
  9
$TEXTSIZE
 40
2.0
  9
$TRACEWID
 40
1.0
  9
$TEXTSTYLE
  7
Standard
  9
$CLAYER
  8
0
  9
$CELTYPE
  6
ByLayer
  9
$CECOLOR
 62
   256
  9
$CELTSCALE
 40
1.0
  9
$DISPSILH
 70
     0
  9
$DIMSCALE
 40
1.0
  9
$DIMASZ
 40
2.0
  9
$DIMEXO
 40
1.0
  9
$DIMDLI
 40
3.75
  9
$DIMRND
 40
0.0
  9
$DIMDLE
 40
0.0
  9
$DIMEXE
 40
1.0
  9
$DIMTP
 40
0.0
  9
$DIMTM
 40
0.0
  9
$DIMTXT
 40
2.0
  9
$DIMCEN
 40
2.5
  9
$DIMTSZ
 40
0.0
  9
$DIMTOL
 70
     0
  9
$DIMLIM
 70
     0
  9
$DIMTIH
 70
     1
  9
$DIMTOH
 70
     1
  9
$DIMSE1
 70
     0
  9
$DIMSE2
 70
     0
  9
$DIMTAD
 70
     1
  9
$DIMZIN
 70
     0
  9
$DIMBLK
  1

  9
$DIMASO
 70
     1
  9
$DIMSHO
 70
     1
  9
$DIMPOST
  1

  9
$DIMAPOST
  1

  9
$DIMALT
 70
     0
  9
$DIMALTD
 70
     3
  9
$DIMALTF
 40
0.0393700787
  9
$DIMLFAC
 40
1.0
  9
$DIMTOFL
 70
     1
  9
$DIMTVP
 40
0.0
  9
$DIMTIX
 70
     0
  9
$DIMSOXD
 70
     0
  9
$DIMSAH
 70
     0
  9
$DIMBLK1
  1

  9
$DIMBLK2
  1

  9
$DIMSTYLE
  2
ISO-25
  9
$DIMCLRD
 70
     0
  9
$DIMCLRE
 70
     0
  9
$DIMCLRT
 70
     0
  9
$DIMTFAC
 40
1.0
  9
$DIMGAP
 40
1.524
  9
$DIMJUST
 70
     0
  9
$DIMSD1
 70
     0
  9
$DIMSD2
 70
     0
  9
$DIMTOLJ
 70
     0
  9
$DIMTZIN
 70
     0
  9
$DIMALTZ
 70
     0
  9
$DIMALTTZ
 70
     0
  9
$DIMUPT
 70
     0
  9
$DIMDEC
 70
     2
  9
$DIMTDEC
 70
     0
  9
$DIMALTU
 70
     2
  9
$DIMALTTD
 70
     3
  9
$DIMTXSTY
  7
Standard
  9
$DIMAUNIT
 70
     0
  9
$DIMADEC
 70
     2
  9
$DIMALTRND
 40
0.0
  9
$DIMAZIN
 70
     0
  9
$DIMDSEP
 70
    44
  9
$DIMATFIT
 70
     3
  9
$DIMFRAC
 70
     0
  9
$DIMLDRBLK
  1

  9
$DIMLUNIT
 70
     2
  9
$DIMLWD
 70
    -2
  9
$DIMLWE
 70
    -2
  9
$DIMTMOVE
 70
     0
  9
$LUNITS
 70
     2
  9
$LUPREC
 70
     3
  9
$SKETCHINC
 40
1.0
  9
$FILLETRAD
 40
10.0
  9
$AUNITS
 70
     0
  9
$AUPREC
 70
     2
  9
$MENU
  1
.
  9
$ELEVATION
 40
0.0
  9
$PELEVATION
 40
0.0
  9
$THICKNESS
 40
0.0
  9
$LIMCHECK
 70
     0
  9
$CHAMFERA
 40
0.0
  9
$CHAMFERB
 40
0.0
  9
$CHAMFERC
 40
0.0
  9
$CHAMFERD
 40
0.0
  9
$SKPOLY
 70
     0
  9
$TDCREATE
 40
2459744.547434872
  9
$TDUCREATE
 40
2459744.464101539
  9
$TDUPDATE
 40
2459744.547435243
  9
$TDUUPDATE
 40
2459744.46410191
  9
$TDINDWG
 40
0.0000000116
  9
$TDUSRTIMER
 40
0.0000000116
  9
$USRTIMER
 70
     1
  9
$ANGBASE
 50
0.0
  9
$ANGDIR
 70
     0
  9
$PDMODE
 70
     0
  9
$PDSIZE
 40
-1.0
  9
$PLINEWID
 40
0.0
  9
$SPLFRAME
 70
     0
  9
$SPLINETYPE
 70
     6
  9
$SPLINESEGS
 70
     8
  9
$HANDSEED
  5
243
  9
$SURFTAB1
 70
     6
  9
$SURFTAB2
 70
     6
  9
$SURFTYPE
 70
     6
  9
$SURFU
 70
     6
  9
$SURFV
 70
     6
  9
$UCSBASE
  2

  9
$UCSNAME
  2

  9
$UCSORG
 10
0.0
 20
0.0
 30
0.0
  9
$UCSXDIR
 10
1.0
 20
0.0
 30
0.0
  9
$UCSYDIR
 10
0.0
 20
1.0
 30
0.0
  9
$UCSORTHOREF
  2

  9
$UCSORTHOVIEW
 70
     0
  9
$UCSORGTOP
 10
0.0
 20
0.0
 30
0.0
  9
$UCSORGBOTTOM
 10
0.0
 20
0.0
 30
0.0
  9
$UCSORGLEFT
 10
0.0
 20
0.0
 30
0.0
  9
$UCSORGRIGHT
 10
0.0
 20
0.0
 30
0.0
  9
$UCSORGFRONT
 10
0.0
 20
0.0
 30
0.0
  9
$UCSORGBACK
 10
0.0
 20
0.0
 30
0.0
  9
$PUCSBASE
  2

  9
$PUCSNAME
  2

  9
$PUCSORG
 10
0.0
 20
0.0
 30
0.0
  9
$PUCSXDIR
 10
1.0
 20
0.0
 30
0.0
  9
$PUCSYDIR
 10
0.0
 20
1.0
 30
0.0
  9
$PUCSORTHOREF
  2

  9
$PUCSORTHOVIEW
 70
     0
  9
$PUCSORGTOP
 10
0.0
 20
0.0
 30
0.0
  9
$PUCSORGBOTTOM
 10
0.0
 20
0.0
 30
0.0
  9
$PUCSORGLEFT
 10
0.0
 20
0.0
 30
0.0
  9
$PUCSORGRIGHT
 10
0.0
 20
0.0
 30
0.0
  9
$PUCSORGFRONT
 10
0.0
 20
0.0
 30
0.0
  9
$PUCSORGBACK
 10
0.0
 20
0.0
 30
0.0
  9
$USERI1
 70
     0
  9
$USERI2
 70
     0
  9
$USERI3
 70
     0
  9
$USERI4
 70
     0
  9
$USERI5
 70
     0
  9
$USERR1
 40
0.0
  9
$USERR2
 40
0.0
  9
$USERR3
 40
0.0
  9
$USERR4
 40
0.0
  9
$USERR5
 40
0.0
  9
$WORLDVIEW
 70
     1
  9
$SHADEDGE
 70
     3
  9
$SHADEDIF
 70
    70
  9
$TILEMODE
 70
     1
  9
$MAXACTVP
 70
    64
  9
$PINSBASE
 10
0.0
 20
0.0
 30
0.0
  9
$PLIMCHECK
 70
     0
  9
$PEXTMIN
 10
1.0000000000E+20
 20
1.0000000000E+20
 30
1.0000000000E+20
  9
$PEXTMAX
 10
-1.0000000000E+20
 20
-1.0000000000E+20
 30
-1.0000000000E+20
  9
$PLIMMIN
 10
0.0
 20
0.0
  9
$PLIMMAX
 10
420.0
 20
297.0
  9
$UNITMODE
 70
     0
  9
$VISRETAIN
 70
     1
  9
$PLINEGEN
 70
     0
  9
$PSLTSCALE
 70
     1
  9
$TREEDEPTH
 70
  3020
  9
$CMLSTYLE
  2
Standard
  9
$CMLJUST
 70
     0
  9
$CMLSCALE
 40
20.0
  9
$PROXYGRAPHICS
 70
     1
  9
$MEASUREMENT
 70
     1
  9
$CELWEIGHT
370
    -1
  9
$ENDCAPS
280
     0
  9
$JOINSTYLE
280
     0
  9
$LWDISPLAY
290
     1
  9
$INSUNITS
 70
     4
  9
$HYPERLINKBASE
  1

  9
$STYLESHEET
  1

  9
$XEDIT
290
     1
  9
$CEPSNTYPE
380
     0
  9
$PSTYLEMODE
290
     1
  9
$FINGERPRINTGUID
  2
{e3330b4b-20a6-4676-b229-22543506a783}
  9
$VERSIONGUID
  2
{FAEB1C32-E019-11D5-929B-00C0DF256EC4}
  9
$EXTNAMES
290
     1
  9
$PSVPSCALE
 40
0.0
  9
$OLESTARTUP
290
     0
  0
ENDSEC
  0
SECTION
  2
CLASSES
  0
CLASS
  1
ACDBDICTIONARYWDFLT
  2
AcDbDictionaryWithDefault
  3
ObjectDBX Classes
 90
        0
280
     0
281
     0
  0
CLASS
  1
VISUALSTYLE
  2
AcDbVisualStyle
  3
ObjectDBX Classes
 90
     4095
280
     0
281
     0
  0
CLASS
  1
MATERIAL
  2
AcDbMaterial
  3
ObjectDBX Classes
 90
     1153
280
     0
281
     0
  0
CLASS
  1
SCALE
  2
AcDbScale
  3
ObjectDBX Classes
 90
     1153
280
     0
281
     0
  0
CLASS
  1
TABLESTYLE
  2
AcDbTableStyle
  3
ObjectDBX Classes
 90
     4095
280
     0
281
     0
  0
CLASS
  1
MLEADERSTYLE
  2
AcDbMLeaderStyle
  3
ACDB_MLEADERSTYLE_CLASS
 90
     4095
280
     0
281
     0
  0
CLASS
  1
SUN
  2
AcDbSun
  3
SCENEOE
 90
     1153
280
     0
281
     0
  0
CLASS
  1
ACDBPLACEHOLDER
  2
AcDbPlaceHolder
  3
ObjectDBX Classes
 90
        0
280
     0
281
     0
  0
CLASS
  1
LAYOUT
  2
AcDbLayout
  3
ObjectDBX Classes
 90
        0
280
     0
281
     0
  0
ENDSEC
  0
SECTION
  2
TABLES
  0
TABLE
  2
VPORT
  5
8
330
0
100
AcDbSymbolTable
 70
     1
  0
VPORT
  5
29
330
8
100
AcDbSymbolTableRecord
100
AcDbViewportTableRecord
  2
*Active
 70
     0
 10
0.0
 20
0.0
 11
1.0
 21
1.0
 12
10000.0
 22
5000.0
 13
0.0
 23
0.0
 14
10.0
 24
10.0
 15
10.0
 25
10.0
 16
0.0
 26
0.0
 36
1.0
 17
0.0
 27
0.0
 37
0.0
 40
10000.0
 41
2.0
 42
50.0
 43
0.0
 44
0.0
 50
0.0
 51
0.0
 71
     0
 72
  2000
 73
     1
 74
     3
 75
     0
 76
     0
 77
     0
 78
     0
281
     0
 65
     1
110
0.0
120
0.0
130
0.0
111
1.0
121
0.0
131
0.0
112
0.0
122
1.0
132
0.0
 79
     0
146
0.0
  0
ENDTAB
  0
TABLE
  2
LTYPE
  5
5
330
0
100
AcDbSymbolTable
 70
     6
  0
LTYPE
  5
14
330
5
100
AcDbSymbolTableRecord
100
AcDbLinetypeTableRecord
  2
ByBlock
 70
     0
  3

 72
    65
 73
     0
 40
0.0
  0
LTYPE
  5
15
330
5
100
AcDbSymbolTableRecord
100
AcDbLinetypeTableRecord
  2
ByLayer
 70
     0
  3

 72
    65
 73
     0
 40
0.0
  0
LTYPE
  5
16
330
5
100
AcDbSymbolTableRecord
100
AcDbLinetypeTableRecord
  2
Continuous
 70
     0
  3
Solid line
 72
    65
 73
     0
 40
0.0
  0
LTYPE
  5
6E
330
5
100
AcDbSymbolTableRecord
100
AcDbLinetypeTableRecord
  2
HIDDEN
 70
     0
  3
Hidden __ __ __ __ __ __ __ __ __ __ __ __ __ __
 72
    65
 73
     2
 40
1.905
 49
1.27
 74
     0
 49
-0.635
 74
     0
  0
LTYPE
  5
6F
330
5
100
AcDbSymbolTableRecord
100
AcDbLinetypeTableRecord
  2
PHANTOM
 70
     0
  3
Phantom ______  __  __  ______  __  __  ______
 72
    65
 73
     6
 40
12.7
 49
6.35
 74
     0
 49
-1.27
 74
     0
 49
1.27
 74
     0
 49
-1.27
 74
     0
 49
1.27
 74
     0
 49
-1.27
 74
     0
  0
LTYPE
  5
70
330
5
100
AcDbSymbolTableRecord
100
AcDbLinetypeTableRecord
  2
CENTER
 70
     0
  3
Center ____ _ ____ _ ____ _ ____ _ ____ _ ____
 72
    65
 73
     4
 40
10.16
 49
6.35
 74
     0
 49
-1.27
 74
     0
 49
1.27
 74
     0
 49
-1.27
 74
     0
  0
LTYPE
  5
71
330
5
100
AcDbSymbolTableRecord
100
AcDbLinetypeTableRecord
  2
CENTERX2
 70
     0
  3
Center (2x) ________  __  ________  __  _____
 72
    65
 73
     4
 40
20.32
 49
12.7
 74
     0
 49
-2.54
 74
     0
 49
2.54
 74
     0
 49
-2.54
 74
     0
  0
LTYPE
  5
72
330
5
100
AcDbSymbolTableRecord
100
AcDbLinetypeTableRecord
  2
DOT2
 70
     0
  3
Dot (.5x) ........................................
 72
    65
 73
     2
 40
0.635
 49
0.0
 74
     0
 49
-0.635
 74
     0
  0
ENDTAB
  0
TABLE
  2
LAYER
  5
2
330
0
100
AcDbSymbolTable
 70
    13
  0
LAYER
  5
10
330
2
100
AcDbSymbolTableRecord
100
AcDbLayerTableRecord
  2
0
 70
     0
 62
     7
  6
Continuous
370
    -3
390
F
  0
LAYER
  5
73
330
2
100
AcDbSymbolTableRecord
100
AcDbLayerTableRecord
  2
FORMAT
 70
     0
 62
     7
  6
Continuous
370
    -3
390
F
  0
LAYER
  5
74
330
2
100
AcDbSymbolTableRecord
100
AcDbLayerTableRecord
  2
OSA
 70
     0
 62
     7
  6
CENTER
370
    -3
390
F
  0
LAYER
  5
75
330
2
100
AcDbSymbolTableRecord
100
AcDbLayerTableRecord
  2
0_35
 70
     0
 62
     7
  6
Continuous
370
    35
390
F
  0
LAYER
  5
76
330
2
100
AcDbSymbolTableRecord
100
AcDbLayerTableRecord
  2
0_5
 70
     0
 62
     7
  6
Continuous
370
    50
390
F
  0
LAYER
  5
77
330
2
100
AcDbSymbolTableRecord
100
AcDbLayerTableRecord
  2
0_25
 70
     0
 62
     7
  6
Continuous
370
    25
390
F
  0
LAYER
  5
78
330
2
100
AcDbSymbolTableRecord
100
AcDbLayerTableRecord
  2
0_18
 70
     0
 62
     7
  6
Continuous
370
    -3
390
F
  0
LAYER
  5
79
330
2
100
AcDbSymbolTableRecord
100
AcDbLayerTableRecord
  2
SLD-0
 70
     0
 62
   179
  6
Continuous
370
    -3
390
F
  0
LAYER
  5
7A
330
2
100
AcDbSymbolTableRecord
100
AcDbLayerTableRecord
  2
KOTY
 70
     0
 62
     7
  6
Continuous
370
    -3
390
F
  0
LAYER
  5
7B
330
2
100
AcDbSymbolTableRecord
100
AcDbLayerTableRecord
  2
SILNA
 70
     0
 62
   179
  6
Continuous
370
    -3
390
F
  0
LAYER
  5
7C
330
2
100
AcDbSymbolTableRecord
100
AcDbLayerTableRecord
  2
0_18_1
 70
     0
 62
   179
  6
Continuous
370
    -3
390
F
  0
LAYER
  5
7D
330
2
100
AcDbSymbolTableRecord
100
AcDbLayerTableRecord
  2
0_35_1
 70
     0
 62
   179
  6
Continuous
370
    35
390
F
  0
LAYER
  5
7E
330
2
100
AcDbSymbolTableRecord
100
AcDbLayerTableRecord
  2
0_5_1
 70
     0
 62
   179
  6
Continuous
370
    50
390
F
  0
ENDTAB
  0
TABLE
  2
STYLE
  5
3
330
0
100
AcDbSymbolTable
 70
     1
  0
STYLE
  5
11
330
3
100
AcDbSymbolTableRecord
100
AcDbTextStyleTableRecord
  2
Standard
 70
     0
 40
0.0
 41
1.0
 50
0.0
 71
     0
 42
2.0
  3
txt
  4

  0
ENDTAB
  0
TABLE
  2
VIEW
  5
6
330
0
100
AcDbSymbolTable
 70
     0
  0
ENDTAB
  0
TABLE
  2
UCS
  5
7
330
0
100
AcDbSymbolTable
 70
     0
  0
ENDTAB
  0
TABLE
  2
APPID
  5
9
330
0
100
AcDbSymbolTable
 70
     1
  0
APPID
  5
12
330
9
100
AcDbSymbolTableRecord
100
AcDbRegAppTableRecord
  2
ACAD
 70
     0
  0
ENDTAB
  0
TABLE
  2
DIMSTYLE
  5
A
330
0
100
AcDbSymbolTable
 70
     1
100
AcDbDimStyleTable
  0
DIMSTYLE
105
27
330
A
100
AcDbSymbolTableRecord
100
AcDbDimStyleTableRecord
  2
ISO-25
 70
     0
 41
2.5
 42
0.625
 43
3.75
 44
1.25
 73
     0
 74
     0
 77
     1
 78
     8
140
2.5
141
2.5
143
0.0393700787
147
0.625
171
     3
172
     1
178
     0
271
     2
272
     2
274
     3
278
    44
283
     0
284
     8
340
11
  0
ENDTAB
  0
TABLE
  2
BLOCK_RECORD
  5
1
330
0
100
AcDbSymbolTable
 70
     1
  0
BLOCK_RECORD
  5
1F
330
1
100
AcDbSymbolTableRecord
100
AcDbBlockTableRecord
  2
*Model_Space
340
22
  0
BLOCK_RECORD
  5
1B
330
1
100
AcDbSymbolTableRecord
100
AcDbBlockTableRecord
  2
*Paper_Space
340
1E
  0
BLOCK_RECORD
  5
23
330
1
100
AcDbSymbolTableRecord
100
AcDbBlockTableRecord
  2
*Paper_Space0
340
26
  0
ENDTAB
  0
ENDSEC
  0
SECTION
  2
BLOCKS
  0
BLOCK
  5
20
330
1F
100
AcDbEntity
  8
0
100
AcDbBlockBegin
  2
*Model_Space
 70
     0
 10
0.0
 20
0.0
 30
0.0
  3
*Model_Space
  1

  0
ENDBLK
  5
21
330
1F
100
AcDbEntity
  8
0
100
AcDbBlockEnd
  0
BLOCK
  5
1C
330
1B
100
AcDbEntity
 67
     1
  8
0
100
AcDbBlockBegin
  2
*Paper_Space
 70
     0
 10
0.0
 20
0.0
 30
0.0
  3
*Paper_Space
  1

  0
ENDBLK
  5
1D
330
1B
100
AcDbEntity
 67
     1
  8
0
100
AcDbBlockEnd
  0
BLOCK
  5
24
330
23
100
AcDbEntity
  8
0
100
AcDbBlockBegin
  2
*Paper_Space0
 70
     0
 10
0.0
 20
0.0
 30
0.0
  3
*Paper_Space0
  1

  0
ENDBLK
  5
25
330
23
100
AcDbEntity
  8
0
100
AcDbBlockEnd
  0
ENDSEC
  0
SECTION
  2
ENTITIES
  0
LINE
  5
7F
330
1F
100
AcDbEntity
  8
0
  6
Continuous
 62
     7
370
    25
100
AcDbLine
 10
6259.1187553361
 20
5633.1697669994
 30
0.0
 11
6259.1187553361
 21
5605.8899667802
 31
0.0
  0
LINE
  5
80
330
1F
100
AcDbEntity
  8
0
  6
Continuous
 62
     7
370
    25
100
AcDbLine
 10
6288.9187553361
 20
5605.8899667802
 30
0.0
 11
6288.9187553361
 21
5633.1697669994
 31
0.0
  0
LINE
  5
81
330
1F
100
AcDbEntity
  8
0
  6
Continuous
 62
     7
370
    25
100
AcDbLine
 10
6259.1187553361
 20
5649.1912369695
 30
0.0
 11
6259.1187553361
 21
5633.6027797013
 31
0.0
  0
LINE
  5
82
330
1F
100
AcDbEntity
  8
0
  6
Continuous
 62
     7
370
    25
100
AcDbLine
 10
6288.9187553361
 20
5633.6027797013
 30
0.0
 11
6288.9187553361
 21
5649.1912369695
 31
0.0
  0
LINE
  5
83
330
1F
100
AcDbEntity
  8
0
  6
Continuous
 62
     7
370
    25
100
AcDbLine
 10
6165.5066203725
 20
5738.9090754651
 30
0.0
 11
6165.5066274747
 21
5738.109068363
 31
0.0
  0
LINE
  5
84
330
1F
100
AcDbEntity
  8
0
  6
Continuous
 62
     7
370
    25
100
AcDbLine
 10
6382.5308902996
 20
5738.9090754651
 30
0.0
 11
6165.5066203725
 21
5738.9090754651
 31
0.0
  0
LINE
  5
85
330
1F
100
AcDbEntity
  8
0
  6
Continuous
 62
     7
370
    25
100
AcDbLine
 10
6384.0379970808
 20
5737.4019686839
 30
0.0
 11
6383.2379899787
 21
5737.4019615818
 31
0.0
  0
LINE
  5
86
330
1F
100
AcDbEntity
  8
0
  6
Continuous
 62
     7
370
    25
100
AcDbLine
 10
6384.0379970808
 20
4694.5898337204
 30
0.0
 11
6384.0379970808
 21
5737.4019686839
 31
0.0
  0
LINE
  5
87
330
1F
100
AcDbEntity
  8
0
  6
Continuous
 62
     7
370
    25
100
AcDbLine
 10
6163.9995135914
 20
5737.4019686839
 30
0.0
 11
6163.9995135914
 21
4694.5898337204
 31
0.0
  0
LINE
  5
88
330
1F
100
AcDbEntity
  8
0
  6
Continuous
 62
     7
370
    25
100
AcDbLine
 10
6382.5308831975
 20
5738.109068363
 30
0.0
 11
6382.5308902996
 21
5738.9090754651
 31
0.0
  0
LINE
  5
89
330
1F
100
AcDbEntity
  8
0
  6
Continuous
 62
     7
370
    25
100
AcDbLine
 10
6164.7995206935
 20
5737.4019615818
 30
0.0
 11
6163.9995135914
 21
5737.4019686839
 31
0.0
  0
ARC
  5
8A
330
1F
100
AcDbEntity
  8
0
  6
Continuous
 62
     7
370
    25
100
AcDbCircle
 10
6364.4294696218
 20
4690.9898337203
 30
0.0
 40
2.660714285715274
100
AcDbArc
 50
180.0
 51
249.9840403971
  0
ARC
  5
8B
330
1F
100
AcDbEntity
  8
0
  6
Continuous
 62
     7
370
    25
100
AcDbCircle
 10
6368.6080410504
 20
4690.9898337203
 30
0.0
 40
2.660714285714962
100
AcDbArc
 50
290.0159596029
 51
0.0
  0
ARC
  5
8C
330
1F
100
AcDbEntity
  8
0
  6
Continuous
 62
     7
370
    25
100
AcDbCircle
 10
6326.9294696218
 20
4690.9898337203
 30
0.0
 40
2.660714285714675
100
AcDbArc
 50
180.0
 51
249.9840403971
  0
ARC
  5
8D
330
1F
100
AcDbEntity
  8
0
  6
Continuous
 62
     7
370
    25
100
AcDbCircle
 10
6331.1080410504
 20
4690.9898337203
 30
0.0
 40
2.660714285714419
100
AcDbArc
 50
290.0159596029
 51
0.0
  0
ARC
  5
8E
330
1F
100
AcDbEntity
  8
0
  6
Continuous
 62
     7
370
    25
100
AcDbCircle
 10
6179.4294696218
 20
4690.9898337203
 30
0.0
 40
2.660714285714675
100
AcDbArc
 50
180.0
 51
249.9840403971
  0
ARC
  5
8F
330
1F
100
AcDbEntity
  8
0
  6
Continuous
 62
     7
370
    25
100
AcDbCircle
 10
6183.6080410504
 20
4690.9898337203
 30
0.0
 40
2.660714285714419
100
AcDbArc
 50
290.0159596029
 51
0.0
  0
ARC
  5
90
330
1F
100
AcDbEntity
  8
0
  6
Continuous
 62
     7
370
    25
100
AcDbCircle
 10
6216.9294696218
 20
4690.9898337203
 30
0.0
 40
2.660714285714419
100
AcDbArc
 50
180.0
 51
249.9840403971
  0
ARC
  5
91
330
1F
100
AcDbEntity
  8
0
  6
Continuous
 62
     7
370
    25
100
AcDbCircle
 10
6221.1080410504
 20
4690.9898337203
 30
0.0
 40
2.660714285714675
100
AcDbArc
 50
290.0159596029
 51
0.0
  0
LWPOLYLINE
  5
92
330
1F
100
AcDbEntity
  8
0
  6
Continuous
 62
     7
370
    25
100
AcDbPolyline
 90
       26
 70
   128
 43
0.0
 10
6268.3687553361
 20
5604.4031719504
 10
6268.5462604757
 20
5603.7006230191
 10
6269.0676225939
 20
5603.042217821
 10
6269.9000825912
 20
5602.4693263761
 10
6270.9913339445
 20
5602.0179455608
 10
6272.2728093179
 20
5601.7164372918
 10
6273.6639889008
 20
5601.5837464426
 10
6275.0774597635
 20
5601.6282104671
 10
6276.4244083334
 20
5601.8470355272
 10
6277.6202008782
 20
5602.2264720395
 10
6278.5897013543
 20
5602.7426786127
 10
6279.2719924814
 20
5603.363220089
 10
6279.6242033985
 20
5604.0491055656
 10
6279.6242033985
 20
5604.7572383352
 10
6279.2719924814
 20
5605.4431238117
 10
6278.5897013543
 20
5606.0636652881
 10
6277.6202008782
 20
5606.5798718612
 10
6276.4244083334
 20
5606.9593083736
 10
6275.0774597635
 20
5607.1781334337
 10
6273.6639889008
 20
5607.2225974582
 10
6272.2728093179
 20
5607.0899066089
 10
6270.9913339445
 20
5606.7883983399
 10
6269.9000825912
 20
5606.3370175246
 10
6269.0676225939
 20
5605.7641260797
 10
6268.5462604757
 20
5605.1057208816
 10
6268.3687553361
 20
5604.4031719504
  0
LWPOLYLINE
  5
93
330
1F
100
AcDbEntity
  8
0
  6
Continuous
 62
     7
370
    25
100
AcDbPolyline
 90
       41
 70
   128
 43
0.0
 10
6274.0187553361
 20
5613.3399667802
 10
6276.3496288652
 20
5613.2482449177
 10
6278.6231085523
 20
5612.9753378266
 10
6280.7832137822
 20
5612.5279653854
 10
6282.7767555953
 20
5611.9171433883
 10
6284.5546463758
 20
5611.1579123001
 10
6286.0731085523
 20
5610.2689669098
 10
6287.2947525465
 20
5609.2721960033
 10
6288.1894974289
 20
5608.1921433883
 10
6288.735311611
 20
5607.0554035448
 10
6288.9187553361
 20
5605.8899667802
 10
6288.735311611
 20
5604.7245300157
 10
6288.1894974289
 20
5603.5877901721
 10
6287.2947525465
 20
5602.5077375572
 10
6286.0731085523
 20
5601.5109666507
 10
6284.5546463758
 20
5600.6220212604
 10
6282.7767555953
 20
5599.8627901721
 10
6280.7832137822
 20
5599.251968175
 10
6278.6231085523
 20
5598.8045957338
 10
6276.3496288652
 20
5598.5316886428
 10
6274.0187553361
 20
5598.4399667802
 10
6271.687881807
 20
5598.5316886428
 10
6269.4144021199
 20
5598.8045957338
 10
6267.25429689
 20
5599.251968175
 10
6265.2607550769
 20
5599.8627901721
 10
6263.4828642964
 20
5600.6220212604
 10
6261.9644021199
 20
5601.5109666507
 10
6260.7427581257
 20
5602.5077375572
 10
6259.8480132433
 20
5603.5877901721
 10
6259.3021990612
 20
5604.7245300157
 10
6259.1187553361
 20
5605.8899667802
 10
6259.3021990612
 20
5607.0554035448
 10
6259.8480132433
 20
5608.1921433883
 10
6260.7427581257
 20
5609.2721960033
 10
6261.9644021199
 20
5610.2689669098
 10
6263.4828642964
 20
5611.1579123001
 10
6265.2607550769
 20
5611.9171433883
 10
6267.25429689
 20
5612.5279653854
 10
6269.4144021199
 20
5612.9753378266
 10
6271.687881807
 20
5613.2482449177
 10
6274.0187553361
 20
5613.3399667802
  0
LWPOLYLINE
  5
94
330
1F
100
AcDbEntity
  8
0
  6
Continuous
 62
     7
370
    25
100
AcDbPolyline
 90
       21
 70
   128
 43
0.0
 10
6259.1187553361
 20
5633.1697669994
 10
6259.3021990612
 20
5634.335203764
 10
6259.8480132433
 20
5635.4719436075
 10
6260.7427581257
 20
5636.5519962225
 10
6261.9644021199
 20
5637.548767129
 10
6263.4828642964
 20
5638.4377125193
 10
6265.2607550769
 20
5639.1969436075
 10
6267.25429689
 20
5639.8077656047
 10
6269.4144021199
 20
5640.2551380458
 10
6271.687881807
 20
5640.5280451369
 10
6274.0187553361
 20
5640.6197669994
 10
6276.3496288652
 20
5640.5280451369
 10
6278.6231085523
 20
5640.2551380458
 10
6280.7832137822
 20
5639.8077656047
 10
6282.7767555953
 20
5639.1969436075
 10
6284.5546463758
 20
5638.4377125193
 10
6286.0731085523
 20
5637.548767129
 10
6287.2947525465
 20
5636.5519962225
 10
6288.1894974289
 20
5635.4719436075
 10
6288.735311611
 20
5634.335203764
 10
6288.9187553361
 20
5633.1697669994
  0
LWPOLYLINE
  5
95
330
1F
100
AcDbEntity
  8
0
  6
Continuous
 62
     7
370
    25
100
AcDbPolyline
 90
       23
 70
   128
 43
0.0
 10
6259.1250486114
 20
5633.3862733506
 10
6259.1187553361
 20
5633.6027797013
 10
6259.3021990612
 20
5634.7682164659
 10
6259.8480132433
 20
5635.9049563094
 10
6260.7427581257
 20
5636.9850089244
 10
6261.9644021199
 20
5637.9817798309
 10
6263.4828642964
 20
5638.8707252212
 10
6265.2607550769
 20
5639.6299563094
 10
6267.25429689
 20
5640.2407783065
 10
6269.4144021199
 20
5640.6881507477
 10
6271.687881807
 20
5640.9610578388
 10
6274.0187553361
 20
5641.0527797013
 10
6276.3496288652
 20
5640.9610578388
 10
6278.6231085523
 20
5640.6881507477
 10
6280.7832137822
 20
5640.2407783065
 10
6282.7767555953
 20
5639.6299563094
 10
6284.5546463758
 20
5638.8707252212
 10
6286.0731085523
 20
5637.9817798309
 10
6287.2947525465
 20
5636.9850089244
 10
6288.1894974289
 20
5635.9049563094
 10
6288.735311611
 20
5634.7682164659
 10
6288.9187553361
 20
5633.6027797013
 10
6288.9124620608
 20
5633.3862733506
  0
ARC
  5
96
330
1F
100
AcDbEntity
  8
0
  6
Continuous
 62
     7
370
    25
100
AcDbCircle
 10
6274.0187553361
 20
5649.1912369695
 30
0.0
 40
14.89999999999964
100
AcDbArc
 50
90.0
 51
180.0
  0
ARC
  5
97
330
1F
100
AcDbEntity
  8
0
  6
Continuous
 62
     7
370
    25
100
AcDbCircle
 10
6274.0187553361
 20
5649.1912369695
 30
0.0
 40
14.90000000000055
100
AcDbArc
 50
0.0
 51
90.0
  0
LINE
  5
98
330
1F
100
AcDbEntity
  8
0
  6
Continuous
 62
     7
370
    25
100
AcDbLine
 10
6203.6880549854
 20
5699.9276408522
 30
0.0
 11
6203.717352087
 21
5699.1912369695
 31
0.0
  0
LINE
  5
99
330
1F
100
AcDbEntity
  8
0
  6
Continuous
 62
     7
370
    25
100
AcDbLine
 10
6203.6880549854
 20
5700.664044735
 30
0.0
 11
6203.6880549854
 21
5699.9276408522
 31
0.0
  0
LINE
  5
9A
330
1F
100
AcDbEntity
  8
0
  6
Continuous
 62
     7
370
    25
100
AcDbLine
 10
6203.6880549854
 20
5700.664044735
 30
0.0
 11
6203.717352087
 21
5699.1912369695
 31
0.0
  0
LINE
  5
9B
330
1F
100
AcDbEntity
  8
0
  6
Continuous
 62
     7
370
    25
100
AcDbLine
 10
6203.717352087
 20
5699.1912369695
 30
0.0
 11
6344.3201585852
 21
5699.1912369695
 31
0.0
  0
LINE
  5
9C
330
1F
100
AcDbEntity
  8
0
  6
Continuous
 62
     7
370
    25
100
AcDbLine
 10
6203.6880549854
 20
5700.664044735
 30
0.0
 11
6344.3494556867
 21
5700.664044735
 31
0.0
  0
LINE
  5
9D
330
1F
100
AcDbEntity
  8
0
  6
Continuous
 62
     7
370
    25
100
AcDbLine
 10
6344.3201585852
 20
5699.1912369695
 30
0.0
 11
6344.3494556867
 21
5700.664044735
 31
0.0
  0
LINE
  5
9E
330
1F
100
AcDbEntity
  8
0
  6
Continuous
 62
     7
370
    25
100
AcDbLine
 10
6344.3201585852
 20
5699.1912369695
 30
0.0
 11
6344.3201585852
 21
4694.5898337204
 31
0.0
  0
LINE
  5
9F
330
1F
100
AcDbEntity
  8
0
  6
Continuous
 62
     7
370
    25
100
AcDbLine
 10
6345.7929663507
 20
5699.220534071
 30
0.0
 11
6344.3201585852
 21
5699.1912369695
 31
0.0
  0
LINE
  5
A0
330
1F
100
AcDbEntity
  8
0
  6
Continuous
 62
     7
370
    25
100
AcDbLine
 10
6345.7929663507
 20
5699.220534071
 30
0.0
 11
6345.7929663507
 21
4694.5898337204
 31
0.0
  0
LINE
  5
A1
330
1F
100
AcDbEntity
  8
0
  6
Continuous
 62
     7
370
    25
100
AcDbLine
 10
6344.3201585852
 20
4694.5898337204
 30
0.0
 11
6345.7929663507
 21
4694.5898337204
 31
0.0
  0
LINE
  5
A2
330
1F
100
AcDbEntity
  8
0
  6
Continuous
 62
     7
370
    25
100
AcDbLine
 10
6203.717352087
 20
4694.5898337204
 30
0.0
 11
6203.717352087
 21
5699.1912369695
 31
0.0
  0
LINE
  5
A3
330
1F
100
AcDbEntity
  8
0
  6
Continuous
 62
     7
370
    25
100
AcDbLine
 10
6203.717352087
 20
4694.5898337204
 30
0.0
 11
6344.3201585852
 21
4694.5898337204
 31
0.0
  0
CIRCLE
  5
A4
330
1F
100
AcDbEntity
  8
0
  6
Continuous
 62
     7
370
    25
100
AcDbCircle
 10
6274.0187553361
 20
5142.9898337204
 30
0.0
 40
11.34999999999764
  0
CIRCLE
  5
A5
330
1F
100
AcDbEntity
  8
0
  6
Continuous
 62
     7
370
    25
100
AcDbCircle
 10
6274.0187553361
 20
5042.9898337204
 30
0.0
 40
15.10000000000036
  0
LINE
  5
A6
330
1F
100
AcDbEntity
  8
0
  6
Continuous
 62
     7
370
    25
100
AcDbLine
 10
6204.246860536
 20
4692.9898337204
 30
0.0
 11
6343.7906501362
 21
4692.9898337204
 31
0.0
  0
ARC
  5
A7
330
1F
100
AcDbEntity
  8
0
  6
Continuous
 62
     7
370
    25
100
AcDbCircle
 10
6206.8748420911
 20
4694.7471637428
 30
0.0
 40
3.161407259712895
100
AcDbArc
 50
182.8525496923
 51
213.7706279469
  0
ARC
  5
A8
330
1F
100
AcDbEntity
  8
0
  6
Continuous
 62
     7
370
    25
100
AcDbCircle
 10
6341.1626685812
 20
4694.7471637428
 30
0.0
 40
3.161407259678349
100
AcDbArc
 50
326.2293720529
 51
357.1474503079
  0
LINE
  5
A9
330
1F
100
AcDbEntity
  8
0
  6
Continuous
 62
     7
370
    25
100
AcDbLine
 10
6202.2445443215
 20
4694.5898337204
 30
0.0
 11
6203.717352087
 21
4694.5898337204
 31
0.0
  0
LINE
  5
AA
330
1F
100
AcDbEntity
  8
0
  6
Continuous
 62
     7
370
    25
100
AcDbLine
 10
6202.2445443215
 20
4694.5898337204
 30
0.0
 11
6202.2445443215
 21
5699.2205340711
 31
0.0
  0
LINE
  5
AB
330
1F
100
AcDbEntity
  8
0
  6
Continuous
 62
     7
370
    25
100
AcDbLine
 10
6203.717352087
 20
5699.1912369695
 30
0.0
 11
6202.2445443215
 21
5699.2205340711
 31
0.0
  0
LINE
  5
AC
330
1F
100
AcDbEntity
  8
0
  6
Continuous
 62
     7
370
    25
100
AcDbLine
 10
6345.056562468
 20
5699.220534071
 30
0.0
 11
6344.3201585852
 21
5699.1912369695
 31
0.0
  0
LINE
  5
AD
330
1F
100
AcDbEntity
  8
0
  6
Continuous
 62
     7
370
    25
100
AcDbLine
 10
6345.7929663507
 20
5699.220534071
 30
0.0
 11
6345.056562468
 21
5699.220534071
 31
0.0
  0
LINE
  5
AE
330
1F
100
AcDbEntity
  8
0
  6
Continuous
 62
     7
370
    25
100
AcDbLine
 10
6344.3201585852
 20
5699.1912369695
 30
0.0
 11
6344.3494556867
 21
5699.9276408522
 31
0.0
  0
LINE
  5
AF
330
1F
100
AcDbEntity
  8
0
  6
Continuous
 62
     7
370
    25
100
AcDbLine
 10
6344.3494556867
 20
5700.664044735
 30
0.0
 11
6344.3494556867
 21
5699.9276408522
 31
0.0
  0
LINE
  5
B0
330
1F
100
AcDbEntity
  8
0
  6
Continuous
 62
     7
370
    25
100
AcDbLine
 10
6203.717352087
 20
5699.1912369695
 30
0.0
 11
6202.9809482042
 21
5699.2205340711
 31
0.0
  0
LINE
  5
B1
330
1F
100
AcDbEntity
  8
0
  6
Continuous
 62
     7
370
    25
100
AcDbLine
 10
6202.2445443215
 20
5699.2205340711
 30
0.0
 11
6202.9809482042
 21
5699.2205340711
 31
0.0
  0
ARC
  5
B2
330
1F
100
AcDbEntity
  8
0
  6
Continuous
 62
     7
370
    25
100
AcDbCircle
 10
6344.4205128732
 20
4694.3749204492
 30
0.0
 40
1.389178268646092
100
AcDbArc
 50
274.3985413903
 51
8.8997062935
  0
LINE
  5
B3
330
1F
100
AcDbEntity
  8
0
  6
Continuous
 62
     7
370
    25
100
AcDbLine
 10
6344.527054019
 20
4693.7898337204
 30
0.0
 11
6344.527054019
 21
4692.9898337204
 31
0.0
  0
ARC
  5
B4
330
1F
100
AcDbEntity
  8
0
  6
Continuous
 62
     7
370
    25
100
AcDbCircle
 10
6344.4487618483
 20
4694.4168911761
 30
0.0
 40
0.6319261957316891
100
AcDbArc
 50
277.1169181862
 51
15.8830818139
  0
LINE
  5
B5
330
1F
100
AcDbEntity
  8
0
  6
Continuous
 62
     7
370
    25
100
AcDbLine
 10
6383.9108048464
 20
5737.3383725667
 30
0.0
 11
6383.9108048464
 21
4694.5898337204
 31
0.0
  0
LINE
  5
B6
330
1F
100
AcDbEntity
  8
0
  6
Continuous
 62
     7
370
    25
100
AcDbLine
 10
6345.7929663507
 20
4694.5898337204
 30
0.0
 11
6383.9108048464
 21
4694.5898337204
 31
0.0
  0
LINE
  5
B7
330
1F
100
AcDbEntity
  8
0
  6
Continuous
 62
     7
370
    25
100
AcDbLine
 10
6383.9108048464
 20
5737.3383725667
 30
0.0
 11
6345.7929663507
 21
5699.220534071
 31
0.0
  0
ARC
  5
B8
330
1F
100
AcDbEntity
  8
0
  6
Continuous
 62
     7
370
    25
100
AcDbCircle
 10
6382.2604493553
 20
4694.6403526362
 30
0.0
 40
1.651128525489653
100
AcDbArc
 50
271.5569923623
 51
358.2466704285
  0
LINE
  5
B9
330
1F
100
AcDbEntity
  8
0
  6
Continuous
 62
     7
370
    25
100
AcDbLine
 10
6344.527054019
 20
4692.9898337204
 30
0.0
 11
6382.3053126617
 21
4692.9898337204
 31
0.0
  0
LINE
  5
BA
330
1F
100
AcDbEntity
  8
0
  6
Continuous
 62
     7
370
    25
100
AcDbLine
 10
6344.3494556867
 20
5699.9276408522
 30
0.0
 11
6382.4672941824
 21
5738.0454793479
 31
0.0
  0
LINE
  5
BB
330
1F
100
AcDbEntity
  8
0
  6
Continuous
 62
     7
370
    25
100
AcDbLine
 10
6344.3494556867
 20
5700.664044735
 30
0.0
 11
6382.4672941824
 21
5738.7818832306
 31
0.0
  0
LINE
  5
BC
330
1F
100
AcDbEntity
  8
0
  6
Continuous
 62
     7
370
    25
100
AcDbLine
 10
6382.4672941824
 20
5738.7818832306
 30
0.0
 11
6382.4672941824
 21
5738.0454793479
 31
0.0
  0
LINE
  5
BD
330
1F
100
AcDbEntity
  8
0
  6
Continuous
 62
     7
370
    25
100
AcDbLine
 10
6165.5702164898
 20
5738.7818832306
 30
0.0
 11
6203.6880549854
 21
5700.664044735
 31
0.0
  0
LINE
  5
BE
330
1F
100
AcDbEntity
  8
0
  6
Continuous
 62
     7
370
    25
100
AcDbLine
 10
6165.5702164898
 20
5738.7818832306
 30
0.0
 11
6382.4672941824
 21
5738.7818832306
 31
0.0
  0
ARC
  5
BF
330
1F
100
AcDbEntity
  8
0
  6
Continuous
 62
     7
370
    25
100
AcDbCircle
 10
6203.616997799
 20
4694.3749204492
 30
0.0
 40
1.389178268650552
100
AcDbArc
 50
171.1002937067
 51
265.6014586095
  0
ARC
  5
C0
330
1F
100
AcDbEntity
  8
0
  6
Continuous
 62
     7
370
    25
100
AcDbCircle
 10
6203.5887488239
 20
4694.4168911761
 30
0.0
 40
0.6319261957314402
100
AcDbArc
 50
164.1169181862
 51
262.8830818137
  0
LINE
  5
C1
330
1F
100
AcDbEntity
  8
0
  6
Continuous
 62
     7
370
    25
100
AcDbLine
 10
6203.5104566532
 20
4693.7898337204
 30
0.0
 11
6203.5104566532
 21
4692.9898337204
 31
0.0
  0
LINE
  5
C2
330
1F
100
AcDbEntity
  8
0
  6
Continuous
 62
     7
370
    25
100
AcDbLine
 10
6165.7321980105
 20
4692.9898337204
 30
0.0
 11
6203.5104566532
 21
4692.9898337204
 31
0.0
  0
ARC
  5
C3
330
1F
100
AcDbEntity
  8
0
  6
Continuous
 62
     7
370
    25
100
AcDbCircle
 10
6165.7770613169
 20
4694.6403526362
 30
0.0
 40
1.651128525493373
100
AcDbArc
 50
181.7533295715
 51
268.4430076377
  0
LINE
  5
C4
330
1F
100
AcDbEntity
  8
0
  6
Continuous
 62
     7
370
    25
100
AcDbLine
 10
6164.1267058258
 20
4694.5898337204
 30
0.0
 11
6202.2445443215
 21
4694.5898337204
 31
0.0
  0
LINE
  5
C5
330
1F
100
AcDbEntity
  8
0
  6
Continuous
 62
     7
370
    25
100
AcDbLine
 10
6164.1267058258
 20
4694.5898337204
 30
0.0
 11
6164.1267058258
 21
5737.3383725667
 31
0.0
  0
LINE
  5
C6
330
1F
100
AcDbEntity
  8
0
  6
Continuous
 62
     7
370
    25
100
AcDbLine
 10
6202.2445443215
 20
5699.2205340711
 30
0.0
 11
6164.1267058258
 21
5737.3383725667
 31
0.0
  0
LINE
  5
C7
330
1F
100
AcDbEntity
  8
0
  6
Continuous
 62
     7
370
    25
100
AcDbLine
 10
6202.9809482042
 20
5699.2205340711
 30
0.0
 11
6164.8631097086
 21
5737.3383725667
 31
0.0
  0
LINE
  5
C8
330
1F
100
AcDbEntity
  8
0
  6
Continuous
 62
     7
370
    25
100
AcDbLine
 10
6164.1267058258
 20
5737.3383725667
 30
0.0
 11
6164.8631097086
 21
5737.3383725667
 31
0.0
  0
LINE
  5
C9
330
1F
100
AcDbEntity
  8
0
  6
Continuous
 62
     7
370
    25
100
AcDbLine
 10
6383.1744009636
 20
5737.3383725667
 30
0.0
 11
6345.056562468
 21
5699.220534071
 31
0.0
  0
LINE
  5
CA
330
1F
100
AcDbEntity
  8
0
  6
Continuous
 62
     7
370
    25
100
AcDbLine
 10
6383.9108048464
 20
5737.3383725667
 30
0.0
 11
6383.1744009636
 21
5737.3383725667
 31
0.0
  0
LINE
  5
CB
330
1F
100
AcDbEntity
  8
0
  6
Continuous
 62
     7
370
    25
100
AcDbLine
 10
6165.5702164898
 20
5738.0454793479
 30
0.0
 11
6203.6880549854
 21
5699.9276408522
 31
0.0
  0
LINE
  5
CC
330
1F
100
AcDbEntity
  8
0
  6
Continuous
 62
     7
370
    25
100
AcDbLine
 10
6165.5702164898
 20
5738.7818832306
 30
0.0
 11
6165.5702164898
 21
5738.0454793479
 31
0.0
  0
LINE
  5
CD
330
1F
100
AcDbEntity
  8
0
  6
Continuous
 62
     7
370
    25
100
AcDbLine
 10
6344.1399118344
 20
4693.7898337204
 30
0.0
 11
6344.527054019
 21
4693.7898337204
 31
0.0
  0
LINE
  5
CE
330
1F
100
AcDbEntity
  8
0
  6
Continuous
 62
     7
370
    25
100
AcDbLine
 10
6343.7906501362
 20
4692.9898337204
 30
0.0
 11
6344.527054019
 21
4692.9898337204
 31
0.0
  0
LINE
  5
CF
330
1F
100
AcDbEntity
  8
0
  6
Continuous
 62
     7
370
    25
100
AcDbLine
 10
6203.5104566532
 20
4692.9898337204
 30
0.0
 11
6204.246860536
 21
4692.9898337204
 31
0.0
  0
LINE
  5
D0
330
1F
100
AcDbEntity
  8
0
  6
Continuous
 62
     7
370
    25
100
AcDbLine
 10
6203.5104566532
 20
4693.7898337204
 30
0.0
 11
6203.8975988378
 21
4693.7898337204
 31
0.0
  0
LINE
  5
D1
330
1F
100
AcDbEntity
  8
0
  6
Continuous
 62
     7
370
    25
100
AcDbLine
 10
6165.5702164898
 20
5738.0454793479
 30
0.0
 11
6165.506627647
 21
5738.1090681907
 31
0.0
  0
LINE
  5
D2
330
1F
100
AcDbEntity
  8
0
  6
Continuous
 62
     7
370
    25
100
AcDbLine
 10
6165.5702164898
 20
5738.7818832306
 30
0.0
 11
6165.5066207224
 21
5738.9090747654
 31
0.0
  0
LINE
  5
D3
330
1F
100
AcDbEntity
  8
0
  6
Continuous
 62
     7
370
    25
100
AcDbLine
 10
6382.5308902996
 20
5738.9090754651
 30
0.0
 11
6382.4672941824
 21
5738.7818832306
 31
0.0
  0
LINE
  5
D4
330
1F
100
AcDbEntity
  8
0
  6
Continuous
 62
     7
370
    25
100
AcDbLine
 10
6383.1744009636
 20
5737.3383725667
 30
0.0
 11
6383.2379898064
 21
5737.4019614095
 31
0.0
  0
LINE
  5
D5
330
1F
100
AcDbEntity
  8
0
  6
Continuous
 62
     7
370
    25
100
AcDbLine
 10
6383.9108048464
 20
5737.3383725667
 30
0.0
 11
6384.0379963812
 21
5737.4019683341
 31
0.0
  0
LINE
  5
D6
330
1F
100
AcDbEntity
  8
0
  6
Continuous
 62
     7
370
    25
100
AcDbLine
 10
6384.0379970808
 20
4694.5898337204
 30
0.0
 11
6383.9108048464
 21
4694.5898337204
 31
0.0
  0
LINE
  5
D7
330
1F
100
AcDbEntity
  8
0
  6
Continuous
 62
     7
370
    25
100
AcDbLine
 10
6163.9995135914
 20
5737.4019686839
 30
0.0
 11
6164.1267058258
 21
5737.3383725667
 31
0.0
  0
LINE
  5
D8
330
1F
100
AcDbEntity
  8
0
  6
Continuous
 62
     7
370
    25
100
AcDbLine
 10
6164.1267058258
 20
4694.5898337204
 30
0.0
 11
6163.9995135914
 21
4694.5898337204
 31
0.0
  0
LINE
  5
D9
330
1F
100
AcDbEntity
  8
0
  6
Continuous
 62
     7
370
    25
100
AcDbLine
 10
6382.5308886874
 20
5738.1090738528
 30
0.0
 11
6382.4672941824
 21
5738.0454793479
 31
0.0
  0
LINE
  5
DA
330
1F
100
AcDbEntity
  8
0
  6
Continuous
 62
     7
370
    25
100
AcDbLine
 10
6164.7995152036
 20
5737.4019670716
 30
0.0
 11
6164.8631097086
 21
5737.3383725667
 31
0.0
  0
LINE
  5
DB
330
1F
100
AcDbEntity
  8
0
  6
Continuous
 62
     7
370
    25
100
AcDbLine
 10
6363.5187553361
 20
4688.4898337203
 30
0.0
 11
6369.5187553361
 21
4688.4898337203
 31
0.0
  0
LINE
  5
DC
330
1F
100
AcDbEntity
  8
0
  6
Continuous
 62
     7
370
    25
100
AcDbLine
 10
6326.0187553361
 20
4688.4898337203
 30
0.0
 11
6332.0187553361
 21
4688.4898337203
 31
0.0
  0
LINE
  5
DD
330
1F
100
AcDbEntity
  8
0
  6
Continuous
 62
     7
370
    25
100
AcDbLine
 10
6178.5187553361
 20
4688.4898337203
 30
0.0
 11
6184.5187553361
 21
4688.4898337203
 31
0.0
  0
LINE
  5
DE
330
1F
100
AcDbEntity
  8
0
  6
Continuous
 62
     7
370
    25
100
AcDbLine
 10
6216.0187553361
 20
4688.4898337203
 30
0.0
 11
6222.0187553361
 21
4688.4898337203
 31
0.0
  0
LINE
  5
DF
330
1F
100
AcDbEntity
  8
0
  6
Continuous
 62
     7
370
    25
100
AcDbLine
 10
6199.0187553361
 20
5703.1827269392
 30
0.0
 11
6199.0187553361
 21
5704.5969405016
 31
0.0
  0
LINE
  5
E0
330
1F
100
AcDbEntity
  8
0
  6
Continuous
 62
     7
370
    25
100
AcDbLine
 10
6349.0187553361
 20
5703.1827269392
 30
0.0
 11
6349.0187553361
 21
5704.5969405016
 31
0.0
  0
LINE
  5
E1
330
1F
100
AcDbEntity
  8
0
  6
Continuous
 62
     7
370
    25
100
AcDbLine
 10
6338.3988948244
 20
4690.9898337203
 30
0.0
 11
6338.3988948244
 21
4692.9898337203
 31
0.0
  0
LINE
  5
E2
330
1F
100
AcDbEntity
  8
0
  6
Continuous
 62
     7
370
    25
100
AcDbLine
 10
6344.8424287986
 20
4692.9898337203
 30
0.0
 11
6344.8424287986
 21
4690.9898337203
 31
0.0
  0
LINE
  5
E3
330
1F
100
AcDbEntity
  8
0
  6
Continuous
 62
     7
370
    25
100
AcDbLine
 10
6344.8424287986
 20
4690.9898337203
 30
0.0
 11
6338.3988948244
 21
4690.9898337203
 31
0.0
  0
LINE
  5
E4
330
1F
100
AcDbEntity
  8
0
  6
Continuous
 62
     7
370
    25
100
AcDbLine
 10
6209.6386158478
 20
4692.9898337203
 30
0.0
 11
6209.6386158478
 21
4690.9898337203
 31
0.0
  0
LINE
  5
E5
330
1F
100
AcDbEntity
  8
0
  6
Continuous
 62
     7
370
    25
100
AcDbLine
 10
6209.6386158478
 20
4690.9898337203
 30
0.0
 11
6338.3988948244
 21
4690.9898337203
 31
0.0
  0
LINE
  5
E6
330
1F
100
AcDbEntity
  8
0
  6
Continuous
 62
     7
370
    25
100
AcDbLine
 10
6203.1950818736
 20
4690.9898337203
 30
0.0
 11
6203.1950818736
 21
4692.9898337203
 31
0.0
  0
LINE
  5
E7
330
1F
100
AcDbEntity
  8
0
  6
Continuous
 62
     7
370
    25
100
AcDbLine
 10
6209.6386158478
 20
4690.9898337203
 30
0.0
 11
6203.1950818736
 21
4690.9898337203
 31
0.0
  0
LINE
  5
E8
330
1F
100
AcDbEntity
  8
0
  6
Continuous
 62
     7
370
    25
100
AcDbLine
 10
6174.5752213619
 20
4692.9898337203
 30
0.0
 11
6174.5752213619
 21
4690.9898337203
 31
0.0
  0
LINE
  5
E9
330
1F
100
AcDbEntity
  8
0
  6
Continuous
 62
     7
370
    25
100
AcDbLine
 10
6174.5752213619
 20
4690.9898337203
 30
0.0
 11
6203.1950818736
 21
4690.9898337203
 31
0.0
  0
LINE
  5
EA
330
1F
100
AcDbEntity
  8
0
  6
Continuous
 62
     7
370
    25
100
AcDbLine
 10
6373.4622893103
 20
4690.9898337203
 30
0.0
 11
6373.4622893103
 21
4692.9898337203
 31
0.0
  0
LINE
  5
EB
330
1F
100
AcDbEntity
  8
0
  6
Continuous
 62
     7
370
    25
100
AcDbLine
 10
6344.8424287986
 20
4690.9898337203
 30
0.0
 11
6373.4622893103
 21
4690.9898337203
 31
0.0
  0
LINE
  5
EC
330
1F
100
AcDbEntity
  8
0
  6
Continuous
 62
     7
370
    25
100
AcDbLine
 10
6174.0187553361
 20
4690.9898337203
 30
0.0
 11
6174.0187553361
 21
4692.9898337203
 31
0.0
  0
LINE
  5
ED
330
1F
100
AcDbEntity
  8
0
  6
Continuous
 62
     7
370
    25
100
AcDbLine
 10
6174.5752213619
 20
4690.9898337203
 30
0.0
 11
6174.0187553361
 21
4690.9898337203
 31
0.0
  0
LINE
  5
EE
330
1F
100
AcDbEntity
  8
0
  6
Continuous
 62
     7
370
    25
100
AcDbLine
 10
6374.0187553361
 20
4692.9898337203
 30
0.0
 11
6374.0187553361
 21
4690.9898337203
 31
0.0
  0
LINE
  5
EF
330
1F
100
AcDbEntity
  8
0
  6
Continuous
 62
     7
370
    25
100
AcDbLine
 10
6374.0187553361
 20
4690.9898337203
 30
0.0
 11
6373.4622893103
 21
4690.9898337203
 31
0.0
  0
CIRCLE
  5
F0
330
1F
100
AcDbEntity
  8
0
  6
Continuous
 62
     7
370
    25
100
AcDbCircle
 10
6274.0187553361
 20
4832.9898337204
 30
0.0
 40
12.5
  0
CIRCLE
  5
F1
330
1F
100
AcDbEntity
  8
0
  6
Continuous
 62
     7
370
    25
100
AcDbCircle
 10
6274.0187553361
 20
4832.9898337204
 30
0.0
 40
14.0
  0
CIRCLE
  5
F2
330
1F
100
AcDbEntity
  8
0
  6
Continuous
 62
     7
370
    25
100
AcDbCircle
 10
6274.0187553361
 20
5042.9898337204
 30
0.0
 40
14.89999999999964
  0
CIRCLE
  5
F3
330
1F
100
AcDbEntity
  8
0
  6
Continuous
 62
     7
370
    25
100
AcDbCircle
 10
6274.0187553361
 20
5142.9898337203
 30
0.0
 40
11.24999999999909
  0
ARC
  5
F4
330
1F
100
AcDbEntity
  8
0
  6
Continuous
 62
     7
370
    25
100
AcDbCircle
 10
6274.0187553361
 20
5649.1912369695
 30
0.0
 40
27.49999999999975
100
AcDbArc
 50
302.807496337
 51
237.192503663
  0
LINE
  5
F5
330
1F
100
AcDbEntity
  8
0
  6
Continuous
 62
     8
370
    25
100
AcDbLine
 10
6344.9072842888
 20
4693.9898337203
 30
0.0
 11
6344.190439311
 21
4693.9898337203
 31
0.0
  0
LINE
  5
F6
330
1F
100
AcDbEntity
  8
0
  6
Continuous
 62
     8
370
    25
100
AcDbLine
 10
6203.8470713612
 20
4693.9898337203
 30
0.0
 11
6203.1302263834
 21
4693.9898337203
 31
0.0
  0
ARC
  5
F7
330
1F
100
AcDbEntity
  8
0
  6
Continuous
 62
     8
370
    25
100
AcDbCircle
 10
6274.0187553361
 20
5649.1912369695
 30
0.0
 40
27.00000000000046
100
AcDbArc
 50
303.4941507302
 51
236.5058492698
  0
LINE
  5
F8
330
1F
100
AcDbEntity
  8
0
  6
Continuous
 62
     7
370
    25
100
AcDbLine
 10
6684.1090761353
 20
5634.2912369695
 30
0.0
 11
6689.5065571243
 21
5634.2912369695
 31
0.0
  0
LINE
  5
F9
330
1F
100
AcDbEntity
  8
0
  6
Continuous
 62
     7
370
    25
100
AcDbLine
 10
6706.7115951462
 20
5664.0912369695
 30
0.0
 11
6684.1090761353
 21
5664.0912369695
 31
0.0
  0
LINE
  5
FA
330
1F
100
AcDbEntity
  8
0
  6
Continuous
 62
     7
370
    25
100
AcDbLine
 10
6689.5065571243
 20
5634.2912369695
 30
0.0
 11
6694.2052976189
 21
5626.1527797013
 31
0.0
  0
LINE
  5
FB
330
1F
100
AcDbEntity
  8
0
  6
Continuous
 62
     7
370
    25
100
AcDbLine
 10
6720.0128546517
 20
5641.0527797013
 30
0.0
 11
6706.7115951462
 21
5664.0912369695
 31
0.0
  0
LINE
  5
FC
330
1F
100
AcDbEntity
  8
0
  6
Continuous
 62
     7
370
    25
100
AcDbLine
 10
6694.4552976189
 20
5625.7197669994
 30
0.0
 11
6710.2052976189
 21
5598.4399667802
 31
0.0
  0
LINE
  5
FD
330
1F
100
AcDbEntity
  8
0
  6
Continuous
 62
     7
370
    25
100
AcDbLine
 10
6736.0128546517
 20
5613.3399667802
 30
0.0
 11
6720.2628546517
 21
5640.6197669994
 31
0.0
  0
ARC
  5
FE
330
1F
100
AcDbEntity
  8
0
  6
Continuous
 62
     7
370
    25
100
AcDbCircle
 10
6695.8578261353
 20
5653.09051635
 30
0.0
 40
56.50250000000096
100
AcDbArc
 50
305.7389156903
 51
315.2900265433
  0
ARC
  5
FF
330
1F
100
AcDbEntity
  8
0
  6
Continuous
 62
     7
370
    25
100
AcDbCircle
 10
6695.8578261353
 20
5653.09051635
 30
0.0
 40
56.50250000000054
100
AcDbArc
 50
284.7099734567
 51
294.2610843097
  0
LINE
  5
100
330
1F
100
AcDbEntity
  8
0
  6
Continuous
 62
     7
370
    25
100
AcDbLine
 10
6676.1090761353
 20
5634.2912369695
 30
0.0
 11
6682.1090761353
 21
5634.2912369695
 31
0.0
  0
LINE
  5
101
330
1F
100
AcDbEntity
  8
0
  6
Continuous
 62
     7
370
    25
100
AcDbLine
 10
6682.1090761353
 20
5664.0912369695
 30
0.0
 11
6676.1090761353
 21
5664.0912369695
 31
0.0
  0
LINE
  5
102
330
1F
100
AcDbEntity
  8
0
  6
Continuous
 62
     7
370
    25
100
AcDbLine
 10
6695.9373484264
 20
5627.1527797013
 30
0.0
 11
6696.1873484264
 21
5626.7197669994
 31
0.0
  0
LINE
  5
103
330
1F
100
AcDbEntity
  8
0
  6
Continuous
 62
     7
370
    25
100
AcDbLine
 10
6718.5308038441
 20
5639.6197669994
 30
0.0
 11
6718.2808038441
 21
5640.0527797013
 31
0.0
  0
LINE
  5
104
330
1F
100
AcDbEntity
  8
0
  6
Continuous
 62
     7
370
    25
100
AcDbLine
 10
6684.1090761353
 20
5658.6912369695
 30
0.0
 11
6682.1090761353
 21
5658.6912369695
 31
0.0
  0
LINE
  5
105
330
1F
100
AcDbEntity
  8
0
  6
Continuous
 62
     7
370
    25
100
AcDbLine
 10
6682.1090761353
 20
5639.6912369695
 30
0.0
 11
6684.1090761353
 21
5639.6912369695
 31
0.0
  0
ARC
  5
106
330
1F
100
AcDbEntity
  8
0
  6
Continuous
 62
     7
370
    25
100
AcDbCircle
 10
6594.0197904209
 20
4690.9898337203
 30
0.0
 40
2.660714285714675
100
AcDbArc
 50
180.0
 51
249.9840403971
  0
ARC
  5
107
330
1F
100
AcDbEntity
  8
0
  6
Continuous
 62
     7
370
    25
100
AcDbCircle
 10
6598.1983618495
 20
4690.9898337203
 30
0.0
 40
2.660714285714108
100
AcDbArc
 50
290.0159596029
 51
0.0
  0
ARC
  5
108
330
1F
100
AcDbEntity
  8
0
  6
Continuous
 62
     7
370
    25
100
AcDbCircle
 10
6659.0197904209
 20
4690.9898337203
 30
0.0
 40
2.660714285714675
100
AcDbArc
 50
180.0
 51
249.9840403971
  0
ARC
  5
109
330
1F
100
AcDbEntity
  8
0
  6
Continuous
 62
     7
370
    25
100
AcDbCircle
 10
6663.1983618495
 20
4690.9898337203
 30
0.0
 40
2.660714285714731
100
AcDbArc
 50
290.0159596029
 51
0.0
  0
LWPOLYLINE
  5
10A
330
1F
100
AcDbEntity
  8
0
  6
Continuous
 62
     7
370
    25
100
AcDbPolyline
 90
        3
 70
   128
 43
0.0
 10
6572.1775562671
 20
4753.0038193393
 10
6572.4839910873
 20
4753.5338000769
 10
6572.7810013523
 20
4754.0473841787
  0
LWPOLYLINE
  5
10B
330
1F
100
AcDbEntity
  8
0
  6
Continuous
 62
     7
370
    25
100
AcDbPolyline
 90
        3
 70
   128
 43
0.0
 10
6574.131402421
 20
4753.0038193393
 10
6574.4380124394
 20
4753.5341089001
 10
6574.7348475572
 20
4754.0473844413
  0
LWPOLYLINE
  5
10C
330
1F
100
AcDbEntity
  8
0
  6
Continuous
 62
     7
370
    25
100
AcDbPolyline
 90
        3
 70
   128
 43
0.0
 10
6576.0852485748
 20
4753.0038193393
 10
6576.3920338309
 20
4753.5344208515
 10
6576.68869377
 20
4754.0473848086
  0
LWPOLYLINE
  5
10D
330
1F
100
AcDbEntity
  8
0
  6
Continuous
 62
     7
370
    25
100
AcDbPolyline
 90
        3
 70
   128
 43
0.0
 10
6578.0390947287
 20
4753.0038193393
 10
6578.3460552616
 20
4753.5347359316
 10
6578.6425399905
 20
4754.0473852804
  0
LWPOLYLINE
  5
10E
330
1F
100
AcDbEntity
  8
0
  6
Continuous
 62
     7
370
    25
100
AcDbPolyline
 90
        3
 70
   128
 43
0.0
 10
6571.8131537425
 20
4771.9165901489
 10
6571.5070680733
 20
4772.4458672535
 10
6571.2006333028
 20
4772.9758479065
  0
LWPOLYLINE
  5
10F
330
1F
100
AcDbEntity
  8
0
  6
Continuous
 62
     7
370
    25
100
AcDbPolyline
 90
        3
 70
   128
 43
0.0
 10
6573.7669998964
 20
4771.9165901489
 10
6573.4610894254
 20
4772.4455584291
 10
6573.1544794567
 20
4772.9758479065
  0
LWPOLYLINE
  5
110
330
1F
100
AcDbEntity
  8
0
  6
Continuous
 62
     7
370
    25
100
AcDbPolyline
 90
        3
 70
   128
 43
0.0
 10
6575.7208460502
 20
4771.9165901489
 10
6575.4151108169
 20
4772.4452464766
 10
6575.1083256105
 20
4772.9758479065
  0
LWPOLYLINE
  5
111
330
1F
100
AcDbEntity
  8
0
  6
Continuous
 62
     7
370
    25
100
AcDbPolyline
 90
        3
 70
   128
 43
0.0
 10
6577.6746922041
 20
4771.9165901489
 10
6577.3691322476
 20
4772.4449313954
 10
6577.0621717644
 20
4772.9758479065
  0
LINE
  5
112
330
1F
100
AcDbEntity
  8
0
  6
Continuous
 62
     7
370
    25
100
AcDbLine
 10
6569.8593075887
 20
4771.9165901489
 30
0.0
 11
6569.65685379
 21
4772.2666709951
 31
0.0
  0
LWPOLYLINE
  5
113
330
1F
100
AcDbEntity
  8
0
  6
Continuous
 62
     7
370
    25
100
AcDbPolyline
 90
        3
 70
   128
 43
0.0
 10
6570.2237101133
 20
4753.0038193393
 10
6570.5299697747
 20
4753.5334943813
 10
6570.8362306526
 20
4754.0630772693
  0
LWPOLYLINE
  5
114
330
1F
100
AcDbEntity
  8
0
  6
Continuous
 62
     7
370
    25
100
AcDbPolyline
 90
        3
 70
   128
 43
0.0
 10
6573.19285095
 20
4754.261324642
 10
6573.4987321542
 20
4753.7413374541
 10
6573.804247475
 20
4753.2234453074
  0
LWPOLYLINE
  5
115
330
1F
100
AcDbEntity
  8
0
  6
Continuous
 62
     7
370
    25
100
AcDbPolyline
 90
        3
 70
   128
 43
0.0
 10
6575.1466971038
 20
4754.261324642
 10
6575.4527611956
 20
4753.7401521641
 10
6575.7580936288
 20
4753.2234453074
  0
LWPOLYLINE
  5
116
330
1F
100
AcDbEntity
  8
0
  6
Continuous
 62
     7
370
    25
100
AcDbPolyline
 90
        3
 70
   128
 43
0.0
 10
6577.1005432577
 20
4754.261324642
 10
6577.4067902214
 20
4753.7389700326
 10
6577.7119397827
 20
4753.2234453074
  0
LWPOLYLINE
  5
117
330
1F
100
AcDbEntity
  8
0
  6
Continuous
 62
     7
370
    25
100
AcDbPolyline
 90
        3
 70
   128
 43
0.0
 10
6579.0543894115
 20
4754.261324642
 10
6579.3608192316
 20
4753.7377910598
 10
6579.6657859365
 20
4753.2234453074
  0
LWPOLYLINE
  5
118
330
1F
100
AcDbEntity
  8
0
  6
Continuous
 62
     7
370
    25
100
AcDbPolyline
 90
        3
 70
   128
 43
0.0
 10
6572.8783324702
 20
4772.9761051863
 10
6572.5722705464
 20
4772.4467695007
 10
6572.2658572988
 20
4771.9169251715
  0
LWPOLYLINE
  5
119
330
1F
100
AcDbEntity
  8
0
  6
Continuous
 62
     7
370
    25
100
AcDbPolyline
 90
        3
 70
   128
 43
0.0
 10
6574.832178624
 20
4772.9761051863
 10
6574.5262917409
 20
4772.4470658748
 10
6574.2197034526
 20
4771.9169251715
  0
LWPOLYLINE
  5
11A
330
1F
100
AcDbEntity
  8
0
  6
Continuous
 62
     7
370
    25
100
AcDbPolyline
 90
        3
 70
   128
 43
0.0
 10
6576.7860247779
 20
4772.9761051863
 10
6576.4803128956
 20
4772.4473591236
 10
6576.1735496065
 20
4771.9169251715
  0
LWPOLYLINE
  5
11B
330
1F
100
AcDbEntity
  8
0
  6
Continuous
 62
     7
370
    25
100
AcDbPolyline
 90
        3
 70
   128
 43
0.0
 10
6578.7398709317
 20
4772.9761051863
 10
6578.4343340105
 20
4772.4476492474
 10
6578.1273957603
 20
4771.9169251715
  0
LWPOLYLINE
  5
11C
330
1F
100
AcDbEntity
  8
0
  6
Continuous
 62
     7
370
    25
100
AcDbPolyline
 90
        3
 70
   128
 43
0.0
 10
6570.9244863163
 20
4772.9761051863
 10
6570.6182493122
 20
4772.4464700006
 10
6570.3120111449
 20
4771.9169251715
  0
LWPOLYLINE
  5
11D
330
1F
100
AcDbEntity
  8
0
  6
Continuous
 62
     7
370
    25
100
AcDbPolyline
 90
        3
 70
   128
 43
0.0
 10
6571.2390047962
 20
4754.261324642
 10
6571.5447030973
 20
4753.7425259021
 10
6571.8504013211
 20
4753.2234453074
  0
LINE
  5
11E
330
1F
100
AcDbEntity
  8
0
  6
Continuous
 62
     7
370
    25
100
AcDbLine
 10
6579.7324328583
 20
4752.9898337204
 30
0.0
 11
6580.7538313154
 21
4752.9898337204
 31
0.0
  0
LINE
  5
11F
330
1F
100
AcDbEntity
  8
0
  6
Continuous
 62
     7
370
    25
100
AcDbLine
 10
6577.7785867044
 20
4752.9898337204
 30
0.0
 11
6578.023011744
 21
4752.9898337204
 31
0.0
  0
LINE
  5
120
330
1F
100
AcDbEntity
  8
0
  6
Continuous
 62
     7
370
    25
100
AcDbLine
 10
6575.8247405506
 20
4752.9898337204
 30
0.0
 11
6576.0691655902
 21
4752.9898337204
 31
0.0
  0
LINE
  5
121
330
1F
100
AcDbEntity
  8
0
  6
Continuous
 62
     7
370
    25
100
AcDbLine
 10
6573.8708943967
 20
4752.9898337204
 30
0.0
 11
6574.1153194364
 21
4752.9898337204
 31
0.0
  0
LINE
  5
122
330
1F
100
AcDbEntity
  8
0
  6
Continuous
 62
     7
370
    25
100
AcDbLine
 10
6571.9170482429
 20
4752.9898337204
 30
0.0
 11
6572.1614732825
 21
4752.9898337204
 31
0.0
  0
LINE
  5
123
330
1F
100
AcDbEntity
  8
0
  6
Continuous
 62
     7
370
    25
100
AcDbLine
 10
6571.1848192499
 20
4772.9898337203
 30
0.0
 11
6570.9405189303
 21
4772.9898337203
 31
0.0
  0
LINE
  5
124
330
1F
100
AcDbEntity
  8
0
  6
Continuous
 62
     7
370
    25
100
AcDbLine
 10
6573.1386654037
 20
4772.9898337203
 30
0.0
 11
6572.8943650841
 21
4772.9898337203
 31
0.0
  0
LINE
  5
125
330
1F
100
AcDbEntity
  8
0
  6
Continuous
 62
     7
370
    25
100
AcDbLine
 10
6575.0925115576
 20
4772.9898337203
 30
0.0
 11
6574.848211238
 21
4772.9898337203
 31
0.0
  0
LINE
  5
126
330
1F
100
AcDbEntity
  8
0
  6
Continuous
 62
     7
370
    25
100
AcDbLine
 10
6577.0463577114
 20
4772.9898337203
 30
0.0
 11
6576.8020573918
 21
4772.9898337203
 31
0.0
  0
LINE
  5
127
330
1F
100
AcDbEntity
  8
0
  6
Continuous
 62
     7
370
    25
100
AcDbLine
 10
6580.7538313154
 20
4772.9898337203
 30
0.0
 11
6578.7559035456
 21
4772.9898337203
 31
0.0
  0
LINE
  5
128
330
1F
100
AcDbEntity
  8
0
  6
Continuous
 62
     7
370
    25
100
AcDbLine
 10
6580.7538313154
 20
4752.7898337203
 30
0.0
 11
6581.1090761353
 21
4752.7898337203
 31
0.0
  0
LINE
  5
129
330
1F
100
AcDbEntity
  8
0
  6
Continuous
 62
     7
370
    25
100
AcDbLine
 10
6581.1090761353
 20
4773.1898337204
 30
0.0
 11
6580.7538313154
 21
4773.1898337204
 31
0.0
  0
LINE
  5
12A
330
1F
100
AcDbEntity
  8
0
  6
Continuous
 62
     7
370
    25
100
AcDbLine
 10
6569.5907987511
 20
4772.3268011561
 30
0.0
 11
6568.7538313154
 21
4771.4898337203
 31
0.0
  0
LINE
  5
12B
330
1F
100
AcDbEntity
  8
0
  6
Continuous
 62
     7
370
    25
100
AcDbLine
 10
6569.5667739259
 20
4753.6768911098
 30
0.0
 11
6570.1846475194
 21
4753.0590175163
 31
0.0
  0
LINE
  5
12C
330
1F
100
AcDbEntity
  8
0
  6
Continuous
 62
     7
370
    25
100
AcDbLine
 10
6568.7538313154
 20
4754.4898337204
 30
0.0
 11
6569.1962810673
 21
4754.0473839684
 31
0.0
  0
LWPOLYLINE
  5
12D
330
1F
100
AcDbEntity
  8
0
  6
Continuous
 62
     7
370
    25
100
AcDbPolyline
 90
        3
 70
   128
 43
0.0
 10
6570.8182543896
 20
4754.0473839684
 10
6571.0626560692
 20
4754.0473854129
 10
6571.3067159281
 20
4754.0473839684
  0
LWPOLYLINE
  5
12E
330
1F
100
AcDbEntity
  8
0
  6
Continuous
 62
     7
370
    25
100
AcDbPolyline
 90
        3
 70
   128
 43
0.0
 10
6572.7721005435
 20
4754.0473839684
 10
6573.0166731802
 20
4754.0473897469
 10
6573.2605620819
 20
4754.0473839684
  0
LWPOLYLINE
  5
12F
330
1F
100
AcDbEntity
  8
0
  6
Continuous
 62
     7
370
    25
100
AcDbPolyline
 90
        3
 70
   128
 43
0.0
 10
6574.7259466973
 20
4754.0473839684
 10
6574.9706903381
 20
4754.0473969712
 10
6575.2144082358
 20
4754.0473839684
  0
LWPOLYLINE
  5
130
330
1F
100
AcDbEntity
  8
0
  6
Continuous
 62
     7
370
    25
100
AcDbPolyline
 90
        3
 70
   128
 43
0.0
 10
6576.6797928512
 20
4754.0473839684
 10
6576.9247075427
 20
4754.0474070865
 10
6577.1682543896
 20
4754.0473839684
  0
LWPOLYLINE
  5
131
330
1F
100
AcDbEntity
  8
0
  6
Continuous
 62
     7
370
    25
100
AcDbPolyline
 90
        3
 70
   128
 43
0.0
 10
6578.633639005
 20
4754.0473839684
 10
6578.8787247939
 20
4754.0474200936
 10
6579.1221005435
 20
4754.0473839684
  0
LWPOLYLINE
  5
132
330
1F
100
AcDbEntity
  8
0
  6
Continuous
 62
     7
370
    25
100
AcDbPolyline
 90
        3
 70
   128
 43
0.0
 10
6572.7425542031
 20
4754.089331633
 10
6572.9869626998
 20
4754.0888350008
 10
6573.2310157415
 20
4754.089331633
  0
LWPOLYLINE
  5
133
330
1F
100
AcDbEntity
  8
0
  6
Continuous
 62
     7
370
    25
100
AcDbPolyline
 90
        3
 70
   128
 43
0.0
 10
6574.6964003569
 20
4754.089331633
 10
6574.9409865472
 20
4754.0883413502
 10
6575.1848618954
 20
4754.089331633
  0
LWPOLYLINE
  5
134
330
1F
100
AcDbEntity
  8
0
  6
Continuous
 62
     7
370
    25
100
AcDbPolyline
 90
        3
 70
   128
 43
0.0
 10
6576.6502465108
 20
4754.089331633
 10
6576.8950103608
 20
4754.0878506808
 10
6577.1387080492
 20
4754.089331633
  0
LWPOLYLINE
  5
135
330
1F
100
AcDbEntity
  8
0
  6
Continuous
 62
     7
370
    25
100
AcDbPolyline
 90
        3
 70
   128
 43
0.0
 10
6578.6040926646
 20
4754.089331633
 10
6578.8490341403
 20
4754.0873629924
 10
6579.0925542031
 20
4754.089331633
  0
LWPOLYLINE
  5
136
330
1F
100
AcDbEntity
  8
0
  6
Continuous
 62
     7
370
    25
100
AcDbPolyline
 90
        3
 70
   128
 43
0.0
 10
6572.2836399064
 20
4771.9322834722
 10
6572.0395800477
 20
4771.9322820125
 10
6571.8040781844
 20
4771.9322834191
  0
LWPOLYLINE
  5
137
330
1F
100
AcDbEntity
  8
0
  6
Continuous
 62
     7
370
    25
100
AcDbPolyline
 90
        3
 70
   128
 43
0.0
 10
6574.2374860602
 20
4771.9322834722
 10
6573.993597159
 20
4771.9322776633
 10
6573.757924329
 20
4771.9322832608
  0
LWPOLYLINE
  5
138
330
1F
100
AcDbEntity
  8
0
  6
Continuous
 62
     7
370
    25
100
AcDbPolyline
 90
        3
 70
   128
 43
0.0
 10
6576.1913322141
 20
4771.9322834722
 10
6575.9476143171
 20
4771.9322704238
 10
6575.7117704815
 20
4771.9322829977
  0
LWPOLYLINE
  5
139
330
1F
100
AcDbEntity
  8
0
  6
Continuous
 62
     7
370
    25
100
AcDbPolyline
 90
        3
 70
   128
 43
0.0
 10
6578.1451783679
 20
4771.9322834722
 10
6577.901631522
 20
4771.9322602932
 10
6577.6656166419
 20
4771.9322826299
  0
LINE
  5
13A
330
1F
100
AcDbEntity
  8
0
  6
Continuous
 62
     7
370
    25
100
AcDbLine
 10
6570.3297937525
 20
4771.9322834722
 30
0.0
 11
6569.8502320481
 21
4771.9322834722
 31
0.0
  0
LINE
  5
13B
330
1F
100
AcDbEntity
  8
0
  6
Continuous
 62
     7
370
    25
100
AcDbLine
 10
6570.7887080492
 20
4754.089331633
 30
0.0
 11
6571.2771695877
 21
4754.089331633
 31
0.0
  0
LINE
  5
13C
330
1F
100
AcDbEntity
  8
0
  6
Continuous
 62
     7
370
    25
100
AcDbLine
 10
6674.1090761353
 20
4818.9898337204
 30
0.0
 11
6674.6090761353
 21
4818.9898337204
 31
0.0
  0
LINE
  5
13D
330
1F
100
AcDbEntity
  8
0
  6
Continuous
 62
     7
370
    25
100
AcDbLine
 10
6674.6090761353
 20
4846.9898337204
 30
0.0
 11
6674.1090761353
 21
4846.9898337204
 31
0.0
  0
LINE
  5
13E
330
1F
100
AcDbEntity
  8
0
  6
Continuous
 62
     7
370
    25
100
AcDbLine
 10
6674.6090761353
 20
4818.9898337204
 30
0.0
 11
6676.1090761353
 21
4820.4898337204
 31
0.0
  0
LINE
  5
13F
330
1F
100
AcDbEntity
  8
0
  6
Continuous
 62
     7
370
    25
100
AcDbLine
 10
6676.1090761353
 20
4845.4898337204
 30
0.0
 11
6674.6090761353
 21
4846.9898337204
 31
0.0
  0
LINE
  5
140
330
1F
100
AcDbEntity
  8
0
  6
Continuous
 62
     7
370
    25
100
AcDbLine
 10
6674.5090761353
 20
5057.8898337204
 30
0.0
 11
6674.1090761353
 21
5057.8898337204
 31
0.0
  0
LINE
  5
141
330
1F
100
AcDbEntity
  8
0
  6
Continuous
 62
     7
370
    25
100
AcDbLine
 10
6674.1090761353
 20
5028.0898337204
 30
0.0
 11
6674.5090761353
 21
5028.0898337204
 31
0.0
  0
ARC
  5
142
330
1F
100
AcDbEntity
  8
0
  6
Continuous
 62
     7
370
    25
100
AcDbCircle
 10
6580.9090761353
 20
5146.1398337204
 30
0.0
 40
0.2000000000007276
100
AcDbArc
 50
0.0
 51
122.7790806681
  0
ARC
  5
143
330
1F
100
AcDbEntity
  8
0
  6
Continuous
 62
     7
370
    25
100
AcDbCircle
 10
6580.9090761353
 20
5139.8398337204
 30
0.0
 40
0.2000000000007276
100
AcDbArc
 50
237.2209193319
 51
0.0
  0
ARC
  5
144
330
1F
100
AcDbEntity
  8
0
  6
Continuous
 62
     7
370
    25
100
AcDbCircle
 10
6581.9715761353
 20
5144.4898337204
 30
0.0
 40
2.162500000000503
100
AcDbArc
 50
122.7790806681
 51
180.0
  0
ARC
  5
145
330
1F
100
AcDbEntity
  8
0
  6
Continuous
 62
     7
370
    25
100
AcDbCircle
 10
6581.9715761353
 20
5141.4898337204
 30
0.0
 40
2.162500000000503
100
AcDbArc
 50
180.0
 51
237.2209193319
  0
ARC
  5
146
330
1F
100
AcDbEntity
  8
0
  6
Continuous
 62
     7
370
    25
100
AcDbCircle
 10
6580.9090761353
 20
5046.1398337204
 30
0.0
 40
0.2000000000007276
100
AcDbArc
 50
0.0000000003
 51
122.7790806681
  0
ARC
  5
147
330
1F
100
AcDbEntity
  8
0
  6
Continuous
 62
     7
370
    25
100
AcDbCircle
 10
6580.9090761353
 20
5039.8398337204
 30
0.0
 40
0.2000000000007276
100
AcDbArc
 50
237.2209193318
 51
0.0
  0
ARC
  5
148
330
1F
100
AcDbEntity
  8
0
  6
Continuous
 62
     7
370
    25
100
AcDbCircle
 10
6581.9715761353
 20
5044.4898337204
 30
0.0
 40
2.162500000000364
100
AcDbArc
 50
122.7790806681
 51
180.0
  0
ARC
  5
149
330
1F
100
AcDbEntity
  8
0
  6
Continuous
 62
     7
370
    25
100
AcDbCircle
 10
6581.9715761353
 20
5041.4898337204
 30
0.0
 40
2.162500000000364
100
AcDbArc
 50
180.0
 51
237.2209193319
  0
ARC
  5
14A
330
1F
100
AcDbEntity
  8
0
  6
Continuous
 62
     7
370
    25
100
AcDbCircle
 10
6674.6090761353
 20
5676.1912369695
 30
0.0
 40
0.5
100
AcDbArc
 50
90.0
 51
180.0
  0
ARC
  5
14B
330
1F
100
AcDbEntity
  8
0
  6
Continuous
 62
     7
370
    25
100
AcDbCircle
 10
6674.6090761353
 20
5622.1912369695
 30
0.0
 40
0.5
100
AcDbArc
 50
180.0
 51
270.0
  0
LINE
  5
14C
330
1F
100
AcDbEntity
  8
0
  6
Continuous
 62
     7
370
    25
100
AcDbLine
 10
6674.6090761353
 20
5621.6912369695
 30
0.0
 11
6675.6090761353
 21
5621.6912369695
 31
0.0
  0
LINE
  5
14D
330
1F
100
AcDbEntity
  8
0
  6
Continuous
 62
     7
370
    25
100
AcDbLine
 10
6675.6090761353
 20
5676.6912369695
 30
0.0
 11
6674.6090761353
 21
5676.6912369695
 31
0.0
  0
ARC
  5
14E
330
1F
100
AcDbEntity
  8
0
  6
Continuous
 62
     7
370
    25
100
AcDbCircle
 10
6675.6090761353
 20
5676.1912369695
 30
0.0
 40
0.5
100
AcDbArc
 50
0.0
 51
90.0
  0
ARC
  5
14F
330
1F
100
AcDbEntity
  8
0
  6
Continuous
 62
     7
370
    25
100
AcDbCircle
 10
6675.6090761353
 20
5622.1912369695
 30
0.0
 40
0.5
100
AcDbArc
 50
270.0
 51
0.0
  0
LINE
  5
150
330
1F
100
AcDbEntity
  8
0
  6
Continuous
 62
     7
370
    25
100
AcDbLine
 10
6684.1090761353
 20
5649.1912369695
 30
0.0
 11
6684.1090761353
 21
5664.0912369695
 31
0.0
  0
LINE
  5
151
330
1F
100
AcDbEntity
  8
0
  6
Continuous
 62
     7
370
    25
100
AcDbLine
 10
6684.1090761353
 20
5634.2912369695
 30
0.0
 11
6684.1090761353
 21
5649.1912369695
 31
0.0
  0
LINE
  5
152
330
1F
100
AcDbEntity
  8
0
  6
Continuous
 62
     7
370
    25
100
AcDbLine
 10
6706.7115951462
 20
5664.0912369695
 30
0.0
 11
6689.5065571243
 21
5634.2912369695
 31
0.0
  0
LINE
  5
153
330
1F
100
AcDbEntity
  8
0
  6
Continuous
 62
     7
370
    25
100
AcDbLine
 10
6707.1090761353
 20
5633.6027797013
 30
0.0
 11
6720.0128546517
 21
5641.0527797013
 31
0.0
  0
LINE
  5
154
330
1F
100
AcDbEntity
  8
0
  6
Continuous
 62
     7
370
    25
100
AcDbLine
 10
6694.2052976189
 20
5626.1527797013
 30
0.0
 11
6707.1090761353
 21
5633.6027797013
 31
0.0
  0
LINE
  5
155
330
1F
100
AcDbEntity
  8
0
  6
Continuous
 62
     7
370
    25
100
AcDbLine
 10
6707.3590761353
 20
5633.1697669994
 30
0.0
 11
6720.2628546517
 21
5640.6197669994
 31
0.0
  0
LINE
  5
156
330
1F
100
AcDbEntity
  8
0
  6
Continuous
 62
     7
370
    25
100
AcDbLine
 10
6694.4552976189
 20
5625.7197669994
 30
0.0
 11
6707.3590761353
 21
5633.1697669994
 31
0.0
  0
LINE
  5
157
330
1F
100
AcDbEntity
  8
0
  6
Continuous
 62
     7
370
    25
100
AcDbLine
 10
6710.2052976189
 20
5598.4399667802
 30
0.0
 11
6736.0128546517
 21
5613.3399667802
 31
0.0
  0
LINE
  5
158
330
1F
100
AcDbEntity
  8
0
  6
Continuous
 62
     7
370
    25
100
AcDbLine
 10
6723.9674775305
 20
5604.4031719504
 30
0.0
 11
6719.0744339991
 21
5601.5781719504
 31
0.0
  0
LINE
  5
159
330
1F
100
AcDbEntity
  8
0
  6
Continuous
 62
     7
370
    25
100
AcDbLine
 10
6728.8605210619
 20
5607.2281719504
 30
0.0
 11
6723.9674775305
 21
5604.4031719504
 31
0.0
  0
LINE
  5
15A
330
1F
100
AcDbEntity
  8
0
  6
Continuous
 62
     7
370
    25
100
AcDbLine
 10
6676.1090761353
 20
5644.0912369695
 30
0.0
 11
6682.1090761353
 21
5644.0912369695
 31
0.0
  0
LINE
  5
15B
330
1F
100
AcDbEntity
  8
0
  6
Continuous
 62
     7
370
    25
100
AcDbLine
 10
6676.1090761353
 20
5654.2912369695
 30
0.0
 11
6682.1090761353
 21
5654.2912369695
 31
0.0
  0
LINE
  5
15C
330
1F
100
AcDbEntity
  8
0
  6
Continuous
 62
     7
370
    25
100
AcDbLine
 10
6682.1090761353
 20
5644.0912369695
 30
0.0
 11
6682.1090761353
 21
5654.2912369695
 31
0.0
  0
LINE
  5
15D
330
1F
100
AcDbEntity
  8
0
  6
Continuous
 62
     7
370
    25
100
AcDbLine
 10
6682.1090761353
 20
5634.2912369695
 30
0.0
 11
6682.1090761353
 21
5644.0912369695
 31
0.0
  0
LINE
  5
15E
330
1F
100
AcDbEntity
  8
0
  6
Continuous
 62
     7
370
    25
100
AcDbLine
 10
6682.1090761353
 20
5654.2912369695
 30
0.0
 11
6682.1090761353
 21
5664.0912369695
 31
0.0
  0
ELLIPSE
  5
15F
330
1F
100
AcDbEntity
  8
0
  6
Continuous
 62
     7
370
    25
100
AcDbEllipse
 10
6582.7090761353
 20
5736.6019686839
 30
0.0
 11
1.599999999999454
 21
0.0
 31
0.0
210
0.0
220
0.0
230
1.0
 40
0.5
 41
1.169370598836339
 42
3.141592653590958
  0
LINE
  5
160
330
1F
100
AcDbEntity
  8
0
  6
Continuous
 62
     7
370
    25
100
AcDbLine
 10
6583.3342459408
 20
4694.5898337204
 30
0.0
 11
6583.3342459408
 21
5737.3383725667
 31
0.0
  0
LINE
  5
161
330
1F
100
AcDbEntity
  8
0
  6
Continuous
 62
     7
370
    25
100
AcDbLine
 10
6583.3342459408
 20
4694.5898337204
 30
0.0
 11
6581.1090761353
 21
4694.5898337204
 31
0.0
  0
LINE
  5
162
330
1F
100
AcDbEntity
  8
0
  6
Continuous
 62
     7
370
    25
100
AcDbLine
 10
6581.1090761353
 20
4694.5898337204
 30
0.0
 11
6581.1090761353
 21
5736.6019686839
 31
0.0
  0
LINE
  5
163
330
1F
100
AcDbEntity
  8
0
  6
Continuous
 62
     7
370
    25
100
AcDbLine
 10
6673.1342459408
 20
4694.5898337204
 30
0.0
 11
6673.1342459408
 21
5699.2205340711
 31
0.0
  0
LINE
  5
164
330
1F
100
AcDbEntity
  8
0
  6
Continuous
 62
     7
370
    25
100
AcDbLine
 10
6583.3342459408
 20
4694.5898337204
 30
0.0
 11
6673.1342459408
 21
4694.5898337204
 31
0.0
  0
LINE
  5
165
330
1F
100
AcDbEntity
  8
0
  6
Continuous
 62
     7
370
    25
100
AcDbLine
 10
6673.1342459408
 20
5699.2205340711
 30
0.0
 11
6583.3342459408
 21
5737.3383725667
 31
0.0
  0
LWPOLYLINE
  5
166
330
1F
100
AcDbEntity
  8
0
  6
Continuous
 62
     7
370
    25
100
AcDbPolyline
 90
        5
 70
   128
 43
0.0
 10
6583.0216610381
 20
4692.9898337204
 10
6583.1827569394
 20
4693.1116264683
 10
6583.3074303956
 20
4693.4584628705
 10
6583.3648039487
 20
4693.9775402286
 10
6583.3342459408
 20
4694.5898337204
  0
LINE
  5
167
330
1F
100
AcDbEntity
  8
0
  6
Continuous
 62
     7
370
    25
100
AcDbLine
 10
6583.0216610381
 20
4693.7898337204
 30
0.0
 11
6583.0216610381
 21
4692.9898337204
 31
0.0
  0
ARC
  5
168
330
1F
100
AcDbEntity
  8
0
  6
Continuous
 62
     7
370
    25
100
AcDbCircle
 10
6582.062696163
 20
4694.1898337204
 30
0.0
 40
1.039044576368182
100
AcDbArc
 50
337.3581813447
 51
22.6418186553
  0
LWPOLYLINE
  5
169
330
1F
100
AcDbEntity
  8
0
  6
Continuous
 62
     7
370
    25
100
AcDbPolyline
 90
        5
 70
   128
 43
0.0
 10
6673.1342459408
 20
4694.5898337204
 10
6672.9648039487
 20
4693.9775402286
 10
6672.7074303956
 20
4693.4584628705
 10
6672.3827569394
 20
4693.1116264683
 10
6672.0216610381
 20
4692.9898337204
  0
LINE
  5
16A
330
1F
100
AcDbEntity
  8
0
  6
Continuous
 62
     7
370
    25
100
AcDbLine
 10
6583.0216610381
 20
4692.9898337204
 30
0.0
 11
6672.0216610381
 21
4692.9898337204
 31
0.0
  0
ARC
  5
16B
330
1F
100
AcDbEntity
  8
0
  6
Continuous
 62
     7
370
    25
100
AcDbCircle
 10
6582.7090761353
 20
5737.3090754651
 30
0.0
 40
0.8000000000001819
100
AcDbArc
 50
67.0
 51
180.0000000001
  0
LINE
  5
16C
330
1F
100
AcDbEntity
  8
0
  6
Continuous
 62
     7
370
    25
100
AcDbLine
 10
6581.1090761353
 20
5737.3090754651
 30
0.0
 11
6581.9090761353
 21
5737.3090754651
 31
0.0
  0
LINE
  5
16D
330
1F
100
AcDbEntity
  8
0
  6
Continuous
 62
     7
370
    25
100
AcDbLine
 10
6583.3342459408
 20
5738.7818832306
 30
0.0
 11
6583.0216610381
 21
5738.0454793479
 31
0.0
  0
ARC
  5
16E
330
1F
100
AcDbEntity
  8
0
  6
Continuous
 62
     7
370
    25
100
AcDbCircle
 10
6582.7090761353
 20
5737.3090754651
 30
0.0
 40
1.600000000000364
100
AcDbArc
 50
67.0
 51
180.0000000001
  0
LINE
  5
16F
330
1F
100
AcDbEntity
  8
0
  6
Continuous
 62
     7
370
    25
100
AcDbLine
 10
6583.0216610381
 20
5738.0454793479
 30
0.0
 11
6672.8216610381
 21
5699.9276408522
 31
0.0
  0
LINE
  5
170
330
1F
100
AcDbEntity
  8
0
  6
Continuous
 62
     7
370
    25
100
AcDbLine
 10
6583.3342459408
 20
5738.7818832306
 30
0.0
 11
6673.1342459408
 21
5700.664044735
 31
0.0
  0
LINE
  5
171
330
1F
100
AcDbEntity
  8
0
  6
Continuous
 62
     7
370
    25
100
AcDbLine
 10
6673.1342459408
 20
5700.664044735
 30
0.0
 11
6672.8216610381
 21
5699.9276408522
 31
0.0
  0
LINE
  5
172
330
1F
100
AcDbEntity
  8
0
  6
Continuous
 62
     7
370
    25
100
AcDbLine
 10
6581.9090761353
 20
5737.3090754651
 30
0.0
 11
6581.9090761353
 21
5737.294789007
 31
0.0
  0
LINE
  5
173
330
1F
100
AcDbEntity
  8
0
  6
Continuous
 62
     7
370
    25
100
AcDbLine
 10
6581.1090761353
 20
5737.3090754651
 30
0.0
 11
6581.1090761353
 21
5736.6019686839
 31
0.0
  0
LINE
  5
174
330
1F
100
AcDbEntity
  8
0
  6
Continuous
 62
     7
370
    25
100
AcDbLine
 10
6674.1090761353
 20
4694.5898337204
 30
0.0
 11
6674.1090761353
 21
5699.1912369695
 31
0.0
  0
LINE
  5
175
330
1F
100
AcDbEntity
  8
0
  6
Continuous
 62
     7
370
    25
100
AcDbLine
 10
6673.1342459408
 20
4694.5898337204
 30
0.0
 11
6674.1090761353
 21
4694.5898337204
 31
0.0
  0
ELLIPSE
  5
176
330
1F
100
AcDbEntity
  8
0
  6
Continuous
 62
     7
370
    25
100
AcDbEllipse
 10
6672.5090761353
 20
5699.1912369695
 30
0.0
 11
1.600000000000364
 21
0.0
 31
0.0
210
0.0
220
0.0
230
1.0
 40
0.0198920065
 41
0.0
 42
1.169370598844031
  0
ARC
  5
177
330
1F
100
AcDbEntity
  8
0
  6
Continuous
 62
     7
370
    25
100
AcDbCircle
 10
6672.5090761353
 20
5699.1912369695
 30
0.0
 40
1.600000000001273
100
AcDbArc
 50
0.0
 51
67.0
  0
ARC
  5
178
330
1F
100
AcDbEntity
  8
0
  6
Continuous
 62
     7
370
    25
100
AcDbCircle
 10
6672.5090761353
 20
5699.1912369695
 30
0.0
 40
0.8000000000009173
100
AcDbArc
 50
0.0
 51
67.0
  0
ARC
  5
179
330
1F
100
AcDbEntity
  8
0
  6
Continuous
 62
     7
370
    25
100
AcDbCircle
 10
6672.5090761353
 20
4694.5898337204
 30
0.0
 40
1.600000000005821
100
AcDbArc
 50
270.0000000002
 51
359.9999999999
  0
LINE
  5
17A
330
1F
100
AcDbEntity
  8
0
  6
Continuous
 62
     7
370
    25
100
AcDbLine
 10
6672.5090761353
 20
4693.2465684988
 30
0.0
 11
6672.5090761353
 21
4692.9898337204
 31
0.0
  0
ARC
  5
17B
330
1F
100
AcDbEntity
  8
0
  6
Continuous
 62
     7
370
    25
100
AcDbCircle
 10
6672.5998861785
 20
4694.5578122469
 30
0.0
 40
0.7099125083357106
100
AcDbArc
 50
299.0763116731
 51
2.5852734898
  0
LINE
  5
17C
330
1F
100
AcDbEntity
  8
0
  6
Continuous
 62
     7
370
    25
100
AcDbLine
 10
6672.0216610381
 20
4692.9898337204
 30
0.0
 11
6672.5090761353
 21
4692.9898337204
 31
0.0
  0
LINE
  5
17D
330
1F
100
AcDbEntity
  8
0
  6
Continuous
 62
     7
370
    25
100
AcDbLine
 10
6593.1090761352
 20
4688.4898337203
 30
0.0
 11
6599.1090761352
 21
4688.4898337203
 31
0.0
  0
LINE
  5
17E
330
1F
100
AcDbEntity
  8
0
  6
Continuous
 62
     7
370
    25
100
AcDbLine
 10
6658.1090761352
 20
4688.4898337203
 30
0.0
 11
6664.1090761352
 21
4688.4898337203
 31
0.0
  0
LINE
  5
17F
330
1F
100
AcDbEntity
  8
0
  6
Continuous
 62
     7
370
    25
100
AcDbLine
 10
6584.6090761353
 20
5736.7972392542
 30
0.0
 11
6584.6090761353
 21
5737.3716616162
 31
0.0
  0
LINE
  5
180
330
1F
100
AcDbEntity
  8
0
  6
Continuous
 62
     7
370
    25
100
AcDbLine
 10
6582.9382671517
 20
5738.075542345
 30
0.0
 11
6582.6090761353
 21
5738.075542345
 31
0.0
  0
LINE
  5
181
330
1F
100
AcDbEntity
  8
0
  6
Continuous
 62
     7
370
    25
100
AcDbLine
 10
6582.6090761353
 20
5737.4004046551
 30
0.0
 11
6582.6090761353
 21
5738.075542345
 31
0.0
  0
LINE
  5
182
330
1F
100
AcDbEntity
  8
0
  6
Continuous
 62
     7
370
    25
100
AcDbLine
 10
6583.1090761352
 20
4693.9898337203
 30
0.0
 11
6581.1090761352
 21
4693.9898337203
 31
0.0
  0
LINE
  5
183
330
1F
100
AcDbEntity
  8
0
  6
Continuous
 62
     7
370
    25
100
AcDbLine
 10
6581.1090761352
 20
4693.9898337203
 30
0.0
 11
6581.1090761352
 21
4694.5898337204
 31
0.0
  0
LINE
  5
184
330
1F
100
AcDbEntity
  8
0
  6
Continuous
 62
     7
370
    25
100
AcDbLine
 10
6584.1090761352
 20
4692.9898337203
 30
0.0
 11
6584.1090761352
 21
4690.9898337203
 31
0.0
  0
ARC
  5
185
330
1F
100
AcDbEntity
  8
0
  6
Continuous
 62
     7
370
    25
100
AcDbCircle
 10
6584.1090761352
 20
4693.9898337203
 30
0.0
 40
3.0
100
AcDbArc
 50
180.0
 51
270.0
  0
LINE
  5
186
330
1F
100
AcDbEntity
  8
0
  6
Continuous
 62
     7
370
    25
100
AcDbLine
 10
6594.6849100392
 20
4690.9898337203
 30
0.0
 11
6594.6849100392
 21
4692.9898337203
 31
0.0
  0
LINE
  5
187
330
1F
100
AcDbEntity
  8
0
  6
Continuous
 62
     7
370
    25
100
AcDbLine
 10
6584.1090761352
 20
4690.9898337203
 30
0.0
 11
6594.6849100392
 21
4690.9898337203
 31
0.0
  0
LINE
  5
188
330
1F
100
AcDbEntity
  8
0
  6
Continuous
 62
     7
370
    25
100
AcDbLine
 10
6597.4200279386
 20
4692.9898337203
 30
0.0
 11
6597.4200279386
 21
4690.9898337203
 31
0.0
  0
LINE
  5
189
330
1F
100
AcDbEntity
  8
0
  6
Continuous
 62
     7
370
    25
100
AcDbLine
 10
6597.4200279386
 20
4690.9898337203
 30
0.0
 11
6594.6849100392
 21
4690.9898337203
 31
0.0
  0
LINE
  5
18A
330
1F
100
AcDbEntity
  8
0
  6
Continuous
 62
     7
370
    25
100
AcDbLine
 10
6664.8441940346
 20
4690.9898337203
 30
0.0
 11
6664.8441940346
 21
4692.9898337203
 31
0.0
  0
LINE
  5
18B
330
1F
100
AcDbEntity
  8
0
  6
Continuous
 62
     7
370
    25
100
AcDbLine
 10
6597.4200279386
 20
4690.9898337203
 30
0.0
 11
6664.8441940346
 21
4690.9898337203
 31
0.0
  0
LINE
  5
18C
330
1F
100
AcDbEntity
  8
0
  6
Continuous
 62
     7
370
    25
100
AcDbLine
 10
6669.1090761352
 20
4692.9898337203
 30
0.0
 11
6669.1090761352
 21
4690.9898337203
 31
0.0
  0
LINE
  5
18D
330
1F
100
AcDbEntity
  8
0
  6
Continuous
 62
     7
370
    25
100
AcDbLine
 10
6669.1090761352
 20
4690.9898337203
 30
0.0
 11
6664.8441940346
 21
4690.9898337203
 31
0.0
  0
LWPOLYLINE
  5
18E
330
1F
100
AcDbEntity
  8
0
  6
Continuous
 62
     7
370
    25
100
AcDbPolyline
 90
       11
 70
   128
 43
0.0
 10
6570.2245778452
 20
4753.0989478421
 10
6570.2039269832
 20
4753.096280052
 10
6570.1367469375
 20
4754.0638653504
 10
6570.0705822243
 20
4756.0321802493
 10
6570.0028059527
 20
4758.7676900678
 10
6569.9365302195
 20
4761.9447941478
 10
6569.8689363752
 20
4765.1948234219
 10
6569.8023957908
 20
4768.1552296187
 10
6569.7351637674
 20
4770.4800329921
 10
6569.668204601
 20
4771.9281649621
 10
6569.6053261424
 20
4772.3122737648
  0
LWPOLYLINE
  5
18F
330
1F
100
AcDbEntity
  8
0
  6
Continuous
 62
     7
370
    25
100
AcDbPolyline
 90
       11
 70
   128
 43
0.0
 10
6569.859737004
 20
4771.7944317341
 10
6569.9053769134
 20
4771.7404089688
 10
6570.0111022402
 20
4770.6405705106
 10
6570.113967202
 20
4768.7028520467
 10
6570.2191493645
 20
4766.1144865347
 10
6570.3226114245
 20
4763.1929708138
 10
6570.4269818113
 20
4760.240702692
 10
6570.5312746358
 20
4757.5950423201
 10
6570.6347958665
 20
4755.55369635
 10
6570.7399217238
 20
4754.3317977829
 10
6570.8181534151
 20
4754.1377319336
  0
LWPOLYLINE
  5
190
330
1F
100
AcDbEntity
  8
0
  6
Continuous
 62
     7
370
    25
100
AcDbPolyline
 90
       11
 70
   128
 43
0.0
 10
6571.8135921803
 20
4771.7944210545
 10
6571.8592230673
 20
4771.7404089688
 10
6571.964948394
 20
4770.6405705106
 10
6572.0678133559
 20
4768.7028520467
 10
6572.1729955184
 20
4766.1144865347
 10
6572.2764575783
 20
4763.1929708138
 10
6572.3808279652
 20
4760.240702692
 10
6572.4851207896
 20
4757.5950423201
 10
6572.5886420203
 20
4755.55369635
 10
6572.6937678776
 20
4754.3317977829
 10
6572.7718564519
 20
4754.1380869576
  0
LWPOLYLINE
  5
191
330
1F
100
AcDbEntity
  8
0
  6
Continuous
 62
     7
370
    25
100
AcDbPolyline
 90
       11
 70
   128
 43
0.0
 10
6573.7674473595
 20
4771.7944103713
 10
6573.8130692211
 20
4771.7404089688
 10
6573.9187945479
 20
4770.6405705106
 10
6574.0216595097
 20
4768.7028520467
 10
6574.1268416722
 20
4766.1144865347
 10
6574.2303037322
 20
4763.1929708138
 10
6574.334674119
 20
4760.240702692
 10
6574.4389669434
 20
4757.5950423201
 10
6574.5424881741
 20
4755.55369635
 10
6574.6476140315
 20
4754.3317977829
 10
6574.7257032221
 20
4754.1380854287
  0
LWPOLYLINE
  5
192
330
1F
100
AcDbEntity
  8
0
  6
Continuous
 62
     7
370
    25
100
AcDbPolyline
 90
       11
 70
   128
 43
0.0
 10
6575.7213025419
 20
4771.7943996845
 10
6575.766915375
 20
4771.7404089688
 10
6575.8726407017
 20
4770.6405705106
 10
6575.9755056636
 20
4768.7028520467
 10
6576.0806878261
 20
4766.1144865347
 10
6576.184149886
 20
4763.1929708138
 10
6576.2885202729
 20
4760.240702692
 10
6576.3928130973
 20
4757.5950423201
 10
6576.496334328
 20
4755.55369635
 10
6576.6014601853
 20
4754.3317977829
 10
6576.6795502349
 20
4754.1380832978
  0
LWPOLYLINE
  5
193
330
1F
100
AcDbEntity
  8
0
  6
Continuous
 62
     7
370
    25
100
AcDbPolyline
 90
       11
 70
   128
 43
0.0
 10
6577.6751577275
 20
4771.7943889938
 10
6577.7207615288
 20
4771.7404089688
 10
6577.8264868556
 20
4770.6405705106
 10
6577.9293518174
 20
4768.7028520467
 10
6578.0345339799
 20
4766.1144865347
 10
6578.1379960399
 20
4763.1929708138
 10
6578.2423664267
 20
4760.240702692
 10
6578.3466592511
 20
4757.5950423201
 10
6578.4501804818
 20
4755.55369635
 10
6578.5553063392
 20
4754.3317977829
 10
6578.6333974929
 20
4754.1380805589
  0
LWPOLYLINE
  5
194
330
1F
100
AcDbEntity
  8
0
  6
Continuous
 62
     7
370
    25
100
AcDbPolyline
 90
       11
 70
   128
 43
0.0
 10
6571.2016056954
 20
4772.860083273
 10
6571.2745693448
 20
4772.5730553606
 10
6571.3789780614
 20
4771.099635872
 10
6571.4832324681
 20
4768.7246232849
 10
6571.586783868
 20
4765.7189570043
 10
6571.6918809014
 20
4762.3945632883
 10
6571.7948062629
 20
4759.1581694603
 10
6571.9004796627
 20
4756.3224914575
 10
6572.0030172384
 20
4754.2513338043
 10
6572.1072236431
 20
4753.1451338902
 10
6572.1614732825
 20
4753.1222322192
  0
LWPOLYLINE
  5
195
330
1F
100
AcDbEntity
  8
0
  6
Continuous
 62
     7
370
    25
100
AcDbPolyline
 90
       11
 70
   128
 43
0.0
 10
6573.1554796904
 20
4772.8599737501
 10
6573.2284154986
 20
4772.5730553606
 10
6573.3328242152
 20
4771.099635872
 10
6573.437078622
 20
4768.7246232849
 10
6573.5406300219
 20
4765.7189570043
 10
6573.6457270553
 20
4762.3945632883
 10
6573.7486524167
 20
4759.1581694603
 10
6573.8543258165
 20
4756.3224914575
 10
6573.9568633923
 20
4754.2513338043
 10
6574.061069797
 20
4753.1451338902
 10
6574.1153194364
 20
4753.1222322192
  0
LWPOLYLINE
  5
196
330
1F
100
AcDbEntity
  8
0
  6
Continuous
 62
     7
370
    25
100
AcDbPolyline
 90
       11
 70
   128
 43
0.0
 10
6575.1093537052
 20
4772.859864149
 10
6575.1822616525
 20
4772.5730553606
 10
6575.2866703691
 20
4771.099635872
 10
6575.3909247758
 20
4768.7246232849
 10
6575.4944761757
 20
4765.7189570043
 10
6575.5995732091
 20
4762.3945632883
 10
6575.7024985706
 20
4759.1581694603
 10
6575.8081719704
 20
4756.3224914575
 10
6575.9107095461
 20
4754.2513338043
 10
6576.0149159508
 20
4753.1451338902
 10
6576.0691655902
 20
4753.1222322192
  0
LWPOLYLINE
  5
197
330
1F
100
AcDbEntity
  8
0
  6
Continuous
 62
     7
370
    25
100
AcDbPolyline
 90
       11
 70
   128
 43
0.0
 10
6577.0632277397
 20
4772.8597544708
 10
6577.1361078063
 20
4772.5730553606
 10
6577.2405165229
 20
4771.099635872
 10
6577.3447709297
 20
4768.7246232849
 10
6577.4483223296
 20
4765.7189570043
 10
6577.553419363
 20
4762.3945632883
 10
6577.6563447244
 20
4759.1581694603
 10
6577.7620181242
 20
4756.3224914575
 10
6577.8645556999
 20
4754.2513338043
 10
6577.9687621047
 20
4753.1451338902
 10
6578.023011744
 20
4753.1222322192
  0
LWPOLYLINE
  5
198
330
1F
100
AcDbEntity
  8
0
  6
Continuous
 62
     7
370
    25
100
AcDbPolyline
 90
       11
 70
   128
 43
0.0
 10
6570.9405189303
 20
4772.8598447623
 10
6571.0044153566
 20
4772.7752678945
 10
6571.1101406823
 20
4771.5453607336
 10
6571.213005642
 20
4769.3784843668
 10
6571.3181878039
 20
4766.4840142145
 10
6571.4216498612
 20
4763.2169948732
 10
6571.5260202482
 20
4759.9155861914
 10
6571.6303130693
 20
4756.9570451903
 10
6571.7338342999
 20
4754.6742857865
 10
6571.8389601543
 20
4753.307883051
 10
6571.9170482429
 20
4753.0912647518
  0
LWPOLYLINE
  5
199
330
1F
100
AcDbEntity
  8
0
  6
Continuous
 62
     7
370
    25
100
AcDbPolyline
 90
       11
 70
   128
 43
0.0
 10
6572.8943650841
 20
4772.8598447623
 10
6572.9582615105
 20
4772.7752678945
 10
6573.0639868362
 20
4771.5453607336
 10
6573.1668517958
 20
4769.3784843668
 10
6573.2720339578
 20
4766.4840142145
 10
6573.3754960151
 20
4763.2169948732
 10
6573.479866402
 20
4759.9155861914
 10
6573.5841592232
 20
4756.9570451903
 10
6573.6876804538
 20
4754.6742857865
 10
6573.7928063081
 20
4753.307883051
 10
6573.8708943967
 20
4753.0912647518
  0
LWPOLYLINE
  5
19A
330
1F
100
AcDbEntity
  8
0
  6
Continuous
 62
     7
370
    25
100
AcDbPolyline
 90
       11
 70
   128
 43
0.0
 10
6574.848211238
 20
4772.8598447623
 10
6574.9121076643
 20
4772.7752678945
 10
6575.01783299
 20
4771.5453607336
 10
6575.1206979497
 20
4769.3784843668
 10
6575.2258801116
 20
4766.4840142145
 10
6575.3293421689
 20
4763.2169948732
 10
6575.4337125559
 20
4759.9155861914
 10
6575.538005377
 20
4756.9570451903
 10
6575.6415266076
 20
4754.6742857865
 10
6575.746652462
 20
4753.307883051
 10
6575.8247405506
 20
4753.0912647518
  0
LWPOLYLINE
  5
19B
330
1F
100
AcDbEntity
  8
0
  6
Continuous
 62
     7
370
    25
100
AcDbPolyline
 90
       11
 70
   128
 43
0.0
 10
6576.8020573918
 20
4772.8598447623
 10
6576.8659538182
 20
4772.7752678945
 10
6576.9716791439
 20
4771.5453607336
 10
6577.0745441035
 20
4769.3784843668
 10
6577.1797262655
 20
4766.4840142145
 10
6577.2831883228
 20
4763.2169948732
 10
6577.3875587097
 20
4759.9155861914
 10
6577.4918515309
 20
4756.9570451903
 10
6577.5953727615
 20
4754.6742857865
 10
6577.7004986158
 20
4753.307883051
 10
6577.7785867044
 20
4753.0912647518
  0
LWPOLYLINE
  5
19C
330
1F
100
AcDbEntity
  8
0
  6
Continuous
 62
     7
370
    25
100
AcDbPolyline
 90
       11
 70
   128
 43
0.0
 10
6578.7559035456
 20
4772.8598447623
 10
6578.819799972
 20
4772.7752678945
 10
6578.9255252977
 20
4771.5453607336
 10
6579.0283902574
 20
4769.3784843668
 10
6579.1335724193
 20
4766.4840142145
 10
6579.2370344766
 20
4763.2169948732
 10
6579.3414048636
 20
4759.9155861914
 10
6579.4456976847
 20
4756.9570451903
 10
6579.5492189153
 20
4754.6742857865
 10
6579.6543447697
 20
4753.307883051
 10
6579.7324328583
 20
4753.0912647518
  0
LWPOLYLINE
  5
19D
330
1F
100
AcDbEntity
  8
0
  6
Continuous
 62
     7
370
    25
100
AcDbPolyline
 90
       11
 70
   128
 43
0.0
 10
6570.3298648034
 20
4771.8161328869
 10
6570.3938384362
 20
4771.7404090607
 10
6570.4995637619
 20
4770.640570762
 10
6570.6024287216
 20
4768.7028524592
 10
6570.7076108835
 20
4766.1144870696
 10
6570.8110729408
 20
4763.1929714398
 10
6570.9154433278
 20
4760.2407033151
 10
6571.0197361489
 20
4757.5950428909
 10
6571.1232573795
 20
4755.5536967645
 10
6571.2283832339
 20
4754.3317979842
 10
6571.238679464
 20
4754.2944139494
  0
LWPOLYLINE
  5
19E
330
1F
100
AcDbEntity
  8
0
  6
Continuous
 62
     7
370
    25
100
AcDbPolyline
 90
       11
 70
   128
 43
0.0
 10
6572.2837579385
 20
4771.8160772765
 10
6572.3476845901
 20
4771.7404090607
 10
6572.4534099158
 20
4770.640570762
 10
6572.5562748754
 20
4768.7028524592
 10
6572.6614570374
 20
4766.1144870696
 10
6572.7649190947
 20
4763.1929714398
 10
6572.8692894816
 20
4760.2407033151
 10
6572.9735823028
 20
4757.5950428909
 10
6573.0771035334
 20
4755.5536967645
 10
6573.1822293877
 20
4754.3317979842
 10
6573.1925484504
 20
4754.2943310481
  0
LWPOLYLINE
  5
19F
330
1F
100
AcDbEntity
  8
0
  6
Continuous
 62
     7
370
    25
100
AcDbPolyline
 90
       11
 70
   128
 43
0.0
 10
6574.2376510066
 20
4771.8160217454
 10
6574.3015307439
 20
4771.7404090607
 10
6574.4072560696
 20
4770.640570762
 10
6574.5101210293
 20
4768.7028524592
 10
6574.6153031912
 20
4766.1144870696
 10
6574.7187652485
 20
4763.1929714398
 10
6574.8231356355
 20
4760.2407033151
 10
6574.9274284566
 20
4757.5950428909
 10
6575.0309496872
 20
4755.5536967645
 10
6575.1360755416
 20
4754.3317979842
 10
6575.1464174031
 20
4754.2942482689
  0
LWPOLYLINE
  5
1A0
330
1F
100
AcDbEntity
  8
0
  6
Continuous
 62
     7
370
    25
100
AcDbPolyline
 90
       11
 70
   128
 43
0.0
 10
6576.1915440091
 20
4771.8159662919
 10
6576.2553768977
 20
4771.7404090607
 10
6576.3611022235
 20
4770.640570762
 10
6576.4639671831
 20
4768.7028524592
 10
6576.5691493451
 20
4766.1144870696
 10
6576.6726114024
 20
4763.1929714398
 10
6576.7769817893
 20
4760.2407033151
 10
6576.8812746105
 20
4757.5950428909
 10
6576.9847958411
 20
4755.5536967645
 10
6577.0899216954
 20
4754.3317979842
 10
6577.1002863225
 20
4754.2941656105
  0
LWPOLYLINE
  5
1A1
330
1F
100
AcDbEntity
  8
0
  6
Continuous
 62
     7
370
    25
100
AcDbPolyline
 90
       11
 70
   128
 43
0.0
 10
6578.1454369475
 20
4771.8159109143
 10
6578.2092230516
 20
4771.7404090607
 10
6578.3149483773
 20
4770.640570762
 10
6578.417813337
 20
4768.7028524592
 10
6578.5229954989
 20
4766.1144870696
 10
6578.6264575562
 20
4763.1929714398
 10
6578.7308279431
 20
4760.2407033151
 10
6578.8351207643
 20
4757.5950428909
 10
6578.9386419949
 20
4755.5536967645
 10
6579.0437678492
 20
4754.3317979842
 10
6579.0541552091
 20
4754.2940830714
  0
LINE
  5
1A2
330
1F
100
AcDbEntity
  8
0
  6
Continuous
 62
     7
370
    25
100
AcDbLine
 10
6580.7538313154
 20
4762.9898337203
 30
0.0
 11
6580.7538313154
 21
4773.1898337204
 31
0.0
  0
LINE
  5
1A3
330
1F
100
AcDbEntity
  8
0
  6
Continuous
 62
     7
370
    25
100
AcDbLine
 10
6580.7538313154
 20
4752.7898337203
 30
0.0
 11
6580.7538313154
 21
4762.9898337203
 31
0.0
  0
LINE
  5
1A4
330
1F
100
AcDbEntity
  8
0
  6
Continuous
 62
     7
370
    25
100
AcDbLine
 10
6569.5667739259
 20
4753.6768911098
 30
0.0
 11
6569.1962810673
 21
4754.0473839684
 31
0.0
  0
LINE
  5
1A5
330
1F
100
AcDbEntity
  8
0
  6
Continuous
 62
     7
370
    25
100
AcDbLine
 10
6568.7538313154
 20
4754.4898337204
 30
0.0
 11
6568.7538313154
 21
4771.4898337203
 31
0.0
  0
LINE
  5
1A6
330
1F
100
AcDbEntity
  8
0
  6
Continuous
 62
     7
370
    25
100
AcDbLine
 10
6674.6090761353
 20
4818.9898337204
 30
0.0
 11
6674.6090761353
 21
4846.9898337204
 31
0.0
  0
LINE
  5
1A7
330
1F
100
AcDbEntity
  8
0
  6
Continuous
 62
     7
370
    25
100
AcDbLine
 10
6676.1090761353
 20
4845.4898337204
 30
0.0
 11
6676.1090761353
 21
4820.4898337204
 31
0.0
  0
LINE
  5
1A8
330
1F
100
AcDbEntity
  8
0
  6
Continuous
 62
     7
370
    25
100
AcDbLine
 10
6674.5090761353
 20
5057.8898337204
 30
0.0
 11
6674.5090761353
 21
5028.0898337204
 31
0.0
  0
LINE
  5
1A9
330
1F
100
AcDbEntity
  8
0
  6
Continuous
 62
     7
370
    25
100
AcDbLine
 10
6579.8090761353
 20
5142.5053063097
 30
0.0
 11
6579.8090761353
 21
5141.4898337204
 31
0.0
  0
LINE
  5
1AA
330
1F
100
AcDbEntity
  8
0
  6
Continuous
 62
     7
370
    25
100
AcDbLine
 10
6579.8090761353
 20
5144.4898337204
 30
0.0
 11
6579.8090761353
 21
5142.5053063097
 31
0.0
  0
LINE
  5
1AB
330
1F
100
AcDbEntity
  8
0
  6
Continuous
 62
     7
370
    25
100
AcDbLine
 10
6579.8090761353
 20
5042.5053063097
 30
0.0
 11
6579.8090761353
 21
5041.4898337204
 31
0.0
  0
LINE
  5
1AC
330
1F
100
AcDbEntity
  8
0
  6
Continuous
 62
     7
370
    25
100
AcDbLine
 10
6579.8090761353
 20
5044.4898337204
 30
0.0
 11
6579.8090761353
 21
5042.5053063097
 31
0.0
  0
LINE
  5
1AD
330
1F
100
AcDbEntity
  8
0
  6
Continuous
 62
     7
370
    25
100
AcDbLine
 10
6676.1090761353
 20
5676.1912368477
 30
0.0
 11
6676.1090761353
 21
5622.1912369695
 31
0.0
  0
LINE
  5
1AE
330
1F
100
AcDbEntity
  8
0
  6
Continuous
 62
     8
370
    25
100
AcDbLine
 10
6580.8007958805
 20
5141.9180097094
 30
0.0
 11
6580.8007958805
 21
5139.6716808541
 31
0.0
  0
LINE
  5
1AF
330
1F
100
AcDbEntity
  8
0
  6
Continuous
 62
     8
370
    25
100
AcDbLine
 10
6580.8007958805
 20
5146.3079865866
 30
0.0
 11
6580.8007958805
 21
5141.9180097094
 31
0.0
  0
LINE
  5
1B0
330
1F
100
AcDbEntity
  8
0
  6
Continuous
 62
     8
370
    25
100
AcDbLine
 10
6580.8007958805
 20
5041.9180097094
 30
0.0
 11
6580.8007958805
 21
5039.6716808541
 31
0.0
  0
LINE
  5
1B1
330
1F
100
AcDbEntity
  8
0
  6
Continuous
 62
     8
370
    25
100
AcDbLine
 10
6580.8007958805
 20
5046.3079865866
 30
0.0
 11
6580.8007958805
 21
5041.9180097094
 31
0.0
  0
LINE
  5
1B2
330
1F
100
AcDbEntity
  8
0
  6
Continuous
 62
     8
370
    25
100
AcDbLine
 10
6674.6090761353
 20
5676.6912369695
 30
0.0
 11
6674.6090761353
 21
5621.6912369695
 31
0.0
  0
LINE
  5
1B3
330
1F
100
AcDbEntity
  8
0
  6
Continuous
 62
     8
370
    25
100
AcDbLine
 10
6675.6090761353
 20
5621.6912369695
 30
0.0
 11
6675.6090761353
 21
5676.6912369695
 31
0.0
  0
LINE
  5
1B4
330
1F
100
AcDbEntity
  8
0
  6
Continuous
 62
     7
370
    25
100
AcDbLine
 10
6259.1187553361
 20
4393.5758902048
 30
0.0
 11
6259.1187553361
 21
4379.5758902048
 31
0.0
  0
LINE
  5
1B5
330
1F
100
AcDbEntity
  8
0
  6
Continuous
 62
     7
370
    25
100
AcDbLine
 10
6288.9187553361
 20
4379.5758902048
 30
0.0
 11
6288.9187553361
 21
4393.5758902048
 31
0.0
  0
LINE
  5
1B6
330
1F
100
AcDbEntity
  8
0
  6
Continuous
 62
     7
370
    25
100
AcDbLine
 10
6259.1187553361
 20
4379.5758902048
 30
0.0
 11
6259.1187553361
 21
4370.5758902048
 31
0.0
  0
LINE
  5
1B7
330
1F
100
AcDbEntity
  8
0
  6
Continuous
 62
     7
370
    25
100
AcDbLine
 10
6288.9187553361
 20
4370.5758902048
 30
0.0
 11
6288.9187553361
 21
4379.5758902048
 31
0.0
  0
LINE
  5
1B8
330
1F
100
AcDbEntity
  8
0
  6
Continuous
 62
     7
370
    25
100
AcDbLine
 10
6283.5187553361
 20
4393.5758902048
 30
0.0
 11
6283.5187553361
 21
4395.5758902048
 31
0.0
  0
LINE
  5
1B9
330
1F
100
AcDbEntity
  8
0
  6
Continuous
 62
     7
370
    25
100
AcDbLine
 10
6264.5187553361
 20
4395.5758902048
 30
0.0
 11
6264.5187553361
 21
4393.5758902048
 31
0.0
  0
LINE
  5
1BA
330
1F
100
AcDbEntity
  8
0
  6
Continuous
 62
     7
370
    25
100
AcDbLine
 10
6259.1187553361
 20
4370.3258902048
 30
0.0
 11
6259.1187553361
 21
4354.5758902048
 31
0.0
  0
LINE
  5
1BB
330
1F
100
AcDbEntity
  8
0
  6
Continuous
 62
     7
370
    25
100
AcDbLine
 10
6288.9187553361
 20
4354.5758902048
 30
0.0
 11
6288.9187553361
 21
4370.3258902048
 31
0.0
  0
LINE
  5
1BC
330
1F
100
AcDbEntity
  8
0
  6
Continuous
 62
     7
370
    25
100
AcDbLine
 10
6208.8187553361
 20
4496.9311350247
 30
0.0
 11
6208.8187553361
 21
4496.5758902048
 31
0.0
  0
LINE
  5
1BD
330
1F
100
AcDbEntity
  8
0
  6
Continuous
 62
     7
370
    25
100
AcDbLine
 10
6229.2187553361
 20
4496.5758902048
 30
0.0
 11
6229.2187553361
 21
4496.9311350247
 31
0.0
  0
LWPOLYLINE
  5
1BE
330
1F
100
AcDbEntity
  8
0
  6
Continuous
 62
     7
370
    25
100
AcDbPolyline
 90
        3
 70
   128
 43
0.0
 10
6209.032932709
 20
4505.9950760851
 10
6209.5629884342
 20
4505.6885611508
 10
6210.0763056437
 20
4505.3916779053
  0
LWPOLYLINE
  5
1BF
330
1F
100
AcDbEntity
  8
0
  6
Continuous
 62
     7
370
    25
100
AcDbPolyline
 90
        3
 70
   128
 43
0.0
 10
6209.032932709
 20
4504.0412299313
 10
6209.5633049153
 20
4503.7345312637
 10
6210.0763058228
 20
4503.4378316268
  0
LWPOLYLINE
  5
1C0
330
1F
100
AcDbEntity
  8
0
  6
Continuous
 62
     7
370
    25
100
AcDbPolyline
 90
        3
 70
   128
 43
0.0
 10
6209.032932709
 20
4502.0873837774
 10
6209.5636245952
 20
4501.7805013859
 10
6210.0763061214
 20
4501.4839853357
  0
LWPOLYLINE
  5
1C1
330
1F
100
AcDbEntity
  8
0
  6
Continuous
 62
     7
370
    25
100
AcDbPolyline
 90
        3
 70
   128
 43
0.0
 10
6209.032932709
 20
4500.1335376236
 10
6209.5639474737
 20
4499.8264715174
 10
6210.0763065391
 20
4499.530139032
  0
LWPOLYLINE
  5
1C2
330
1F
100
AcDbEntity
  8
0
  6
Continuous
 62
     7
370
    25
100
AcDbPolyline
 90
        3
 70
   128
 43
0.0
 10
6227.9451822965
 20
4506.3593339804
 10
6228.4745171119
 20
4506.6654812368
 10
6229.0045730868
 20
4506.9719962703
  0
LWPOLYLINE
  5
1C3
330
1F
100
AcDbEntity
  8
0
  6
Continuous
 62
     7
370
    25
100
AcDbPolyline
 90
        3
 70
   128
 43
0.0
 10
6227.9451822965
 20
4504.4054878266
 10
6228.4742005788
 20
4504.7114513499
 10
6229.0045730868
 20
4505.0181501164
  0
LWPOLYLINE
  5
1C4
330
1F
100
AcDbEntity
  8
0
  6
Continuous
 62
     7
370
    25
100
AcDbPolyline
 90
        3
 70
   128
 43
0.0
 10
6227.9451822965
 20
4502.4516416727
 10
6228.4738808468
 20
4502.7574214722
 10
6229.0045730868
 20
4503.0643039626
  0
LWPOLYLINE
  5
1C5
330
1F
100
AcDbEntity
  8
0
  6
Continuous
 62
     7
370
    25
100
AcDbPolyline
 90
        3
 70
   128
 43
0.0
 10
6227.9451822965
 20
4500.4977955189
 10
6228.4735579162
 20
4500.8033916039
 10
6229.0045730868
 20
4501.1104578087
  0
LWPOLYLINE
  5
1C6
330
1F
100
AcDbEntity
  8
0
  6
Continuous
 62
     7
370
    25
100
AcDbPolyline
 90
        3
 70
   128
 43
0.0
 10
6209.4161203832
 20
4507.7273384516
 10
6209.5626751525
 20
4507.642591047
 10
6210.0763055842
 20
4507.3455241707
  0
LWPOLYLINE
  5
1C7
330
1F
100
AcDbEntity
  8
0
  6
Continuous
 62
     7
370
    25
100
AcDbPolyline
 90
        3
 70
   128
 43
0.0
 10
6210.0939767341
 20
4504.9327305188
 10
6209.5640099729
 20
4504.6262185042
 10
6209.034591564
 20
4504.3200735894
  0
LWPOLYLINE
  5
1C8
330
1F
100
AcDbEntity
  8
0
  6
Continuous
 62
     7
370
    25
100
AcDbPolyline
 90
        3
 70
   128
 43
0.0
 10
6210.0939767341
 20
4502.9788843649
 10
6209.5636864792
 20
4502.6721886377
 10
6209.034591564
 20
4502.3662274356
  0
LWPOLYLINE
  5
1C9
330
1F
100
AcDbEntity
  8
0
  6
Continuous
 62
     7
370
    25
100
AcDbPolyline
 90
        3
 70
   128
 43
0.0
 10
6210.0939767341
 20
4501.0250382111
 10
6209.563366184
 20
4500.7181587619
 10
6209.034591564
 20
4500.4123812817
  0
LWPOLYLINE
  5
1CA
330
1F
100
AcDbEntity
  8
0
  6
Continuous
 62
     7
370
    25
100
AcDbPolyline
 90
        3
 70
   128
 43
0.0
 10
6210.0939767341
 20
4499.0711920572
 10
6209.5630490877
 20
4498.7641288767
 10
6209.034591564
 20
4498.4585351279
  0
LWPOLYLINE
  5
1CB
330
1F
100
AcDbEntity
  8
0
  6
Continuous
 62
     7
370
    25
100
AcDbPolyline
 90
        3
 70
   128
 43
0.0
 10
6229.0029227082
 20
4505.2969946463
 10
6228.4735040756
 20
4505.6031396731
 10
6227.9612050282
 20
4505.8994333829
  0
LWPOLYLINE
  5
1CC
330
1F
100
AcDbEntity
  8
0
  6
Continuous
 62
     7
370
    25
100
AcDbPolyline
 90
        3
 70
   128
 43
0.0
 10
6229.0029227082
 20
4503.3431484925
 10
6228.4738275361
 20
4503.6491098065
 10
6227.9612048482
 20
4503.9455874453
  0
LWPOLYLINE
  5
1CD
330
1F
100
AcDbEntity
  8
0
  6
Continuous
 62
     7
370
    25
100
AcDbPolyline
 90
        3
 70
   128
 43
0.0
 10
6229.0029227082
 20
4501.3893023386
 10
6228.4741477981
 20
4501.6950799306
 10
6227.9612045478
 20
4501.9917415152
  0
LWPOLYLINE
  5
1CE
330
1F
100
AcDbEntity
  8
0
  6
Continuous
 62
     7
370
    25
100
AcDbPolyline
 90
        3
 70
   128
 43
0.0
 10
6229.0029227082
 20
4499.4354561848
 10
6228.4744648612
 20
4499.7410500453
 10
6227.9612041267
 20
4500.037895593
  0
LWPOLYLINE
  5
1CF
330
1F
100
AcDbEntity
  8
0
  6
Continuous
 62
     7
370
    25
100
AcDbPolyline
 90
        3
 70
   128
 43
0.0
 10
6229.0029227082
 20
4507.2508408002
 10
6228.4731774169
 20
4507.5571695302
 10
6227.961205088
 20
4507.8532793279
  0
LWPOLYLINE
  5
1D0
330
1F
100
AcDbEntity
  8
0
  6
Continuous
 62
     7
370
    25
100
AcDbPolyline
 90
        3
 70
   128
 43
0.0
 10
6210.0939767341
 20
4506.8865766726
 10
6209.5643366648
 20
4506.5802483612
 10
6209.034591564
 20
4506.2739197433
  0
LINE
  5
1D1
330
1F
100
AcDbEntity
  8
0
  6
Continuous
 62
     7
370
    25
100
AcDbLine
 10
6209.0187553361
 20
4498.4409117653
 30
0.0
 11
6209.0187553361
 21
4496.9311350247
 31
0.0
  0
LINE
  5
1D2
330
1F
100
AcDbEntity
  8
0
  6
Continuous
 62
     7
370
    25
100
AcDbLine
 10
6209.0187553361
 20
4500.3947579192
 30
0.0
 11
6209.0187553361
 21
4500.1500851014
 31
0.0
  0
LINE
  5
1D3
330
1F
100
AcDbEntity
  8
0
  6
Continuous
 62
     7
370
    25
100
AcDbLine
 10
6209.0187553361
 20
4502.348604073
 30
0.0
 11
6209.0187553361
 21
4502.1039312552
 31
0.0
  0
LINE
  5
1D4
330
1F
100
AcDbEntity
  8
0
  6
Continuous
 62
     7
370
    25
100
AcDbLine
 10
6209.0187553361
 20
4504.3024502269
 30
0.0
 11
6209.0187553361
 21
4504.0577774091
 31
0.0
  0
LINE
  5
1D5
330
1F
100
AcDbEntity
  8
0
  6
Continuous
 62
     7
370
    25
100
AcDbLine
 10
6209.0187553361
 20
4506.2562963807
 30
0.0
 11
6209.0187553361
 21
4506.0116235629
 31
0.0
  0
LINE
  5
1D6
330
1F
100
AcDbEntity
  8
0
  6
Continuous
 62
     7
370
    25
100
AcDbLine
 10
6229.0187553361
 20
4506.9889082653
 30
0.0
 11
6229.0187553361
 21
4507.2328153022
 31
0.0
  0
LINE
  5
1D7
330
1F
100
AcDbEntity
  8
0
  6
Continuous
 62
     7
370
    25
100
AcDbLine
 10
6229.0187553361
 20
4505.0350621115
 30
0.0
 11
6229.0187553361
 21
4505.2789691483
 31
0.0
  0
LINE
  5
1D8
330
1F
100
AcDbEntity
  8
0
  6
Continuous
 62
     7
370
    25
100
AcDbLine
 10
6229.0187553361
 20
4503.0812159576
 30
0.0
 11
6229.0187553361
 21
4503.3251229945
 31
0.0
  0
LINE
  5
1D9
330
1F
100
AcDbEntity
  8
0
  6
Continuous
 62
     7
370
    25
100
AcDbLine
 10
6229.0187553361
 20
4501.1273698038
 30
0.0
 11
6229.0187553361
 21
4501.3712768407
 31
0.0
  0
LINE
  5
1DA
330
1F
100
AcDbEntity
  8
0
  6
Continuous
 62
     7
370
    25
100
AcDbLine
 10
6229.0187553361
 20
4496.9311350247
 30
0.0
 11
6229.0187553361
 21
4499.4174306868
 31
0.0
  0
LINE
  5
1DB
330
1F
100
AcDbEntity
  8
0
  6
Continuous
 62
     7
370
    25
100
AcDbLine
 10
6227.9961286396
 20
4508.4537617212
 30
0.0
 11
6227.5187553361
 21
4508.9311350247
 31
0.0
  0
LINE
  5
1DC
330
1F
100
AcDbEntity
  8
0
  6
Continuous
 62
     7
370
    25
100
AcDbLine
 10
6210.5187553361
 20
4508.9311350247
 30
0.0
 11
6209.4179843963
 21
4507.8303640849
 31
0.0
  0
LWPOLYLINE
  5
1DD
330
1F
100
AcDbEntity
  8
0
  6
Continuous
 62
     7
370
    25
100
AcDbPolyline
 90
        3
 70
   128
 43
0.0
 10
6210.0763055842
 20
4505.4013280103
 10
6210.0763070908
 20
4505.1569130526
 10
6210.0763056437
 20
4504.9225102523
  0
LWPOLYLINE
  5
1DE
330
1F
100
AcDbEntity
  8
0
  6
Continuous
 62
     7
370
    25
100
AcDbPolyline
 90
        3
 70
   128
 43
0.0
 10
6210.0763055842
 20
4503.4474818565
 10
6210.0763116329
 20
4503.2028827104
 10
6210.0763058234
 20
4502.9686643152
  0
LWPOLYLINE
  5
1DF
330
1F
100
AcDbEntity
  8
0
  6
Continuous
 62
     7
370
    25
100
AcDbPolyline
 90
        3
 70
   128
 43
0.0
 10
6210.0763055842
 20
4501.4936357027
 10
6210.0763192104
 20
4501.2488523683
 10
6210.0763061235
 20
4501.0148183856
  0
LWPOLYLINE
  5
1E0
330
1F
100
AcDbEntity
  8
0
  6
Continuous
 62
     7
370
    25
100
AcDbPolyline
 90
        3
 70
   128
 43
0.0
 10
6210.0763055842
 20
4499.5397895488
 10
6210.0763298234
 20
4499.2948220265
 10
6210.0763065443
 20
4499.0609724638
  0
LWPOLYLINE
  5
1E1
330
1F
100
AcDbEntity
  8
0
  6
Continuous
 62
     7
370
    25
100
AcDbPolyline
 90
        3
 70
   128
 43
0.0
 10
6227.961205088
 20
4505.8897890986
 10
6227.961203574
 20
4506.1338356794
 10
6227.9612050282
 20
4506.3686009231
  0
LWPOLYLINE
  5
1E2
330
1F
100
AcDbEntity
  8
0
  6
Continuous
 62
     7
370
    25
100
AcDbPolyline
 90
        3
 70
   128
 43
0.0
 10
6227.961205088
 20
4503.9359429448
 10
6227.9611990245
 20
4504.1798053371
 10
6227.9612048488
 20
4504.4147546454
  0
LWPOLYLINE
  5
1E3
330
1F
100
AcDbEntity
  8
0
  6
Continuous
 62
     7
370
    25
100
AcDbPolyline
 90
        3
 70
   128
 43
0.0
 10
6227.961205088
 20
4501.9820967909
 10
6227.9611914396
 20
4502.225774995
 10
6227.96120455
 20
4502.460908355
  0
LWPOLYLINE
  5
1E4
330
1F
100
AcDbEntity
  8
0
  6
Continuous
 62
     7
370
    25
100
AcDbPolyline
 90
        3
 70
   128
 43
0.0
 10
6227.961205088
 20
4500.0282506371
 10
6227.9611808191
 20
4500.2717446533
 10
6227.961204132
 20
4500.5070620521
  0
LINE
  5
1E5
330
1F
100
AcDbEntity
  8
0
  6
Continuous
 62
     7
370
    25
100
AcDbLine
 10
6227.961205088
 20
4507.8436352525
 30
0.0
 11
6227.961205088
 21
4508.3320967909
 31
0.0
  0
LINE
  5
1E6
330
1F
100
AcDbEntity
  8
0
  6
Continuous
 62
     7
370
    25
100
AcDbLine
 10
6210.0763055842
 20
4507.3551741642
 30
0.0
 11
6210.0763055842
 21
4506.8763561968
 31
0.0
  0
ARC
  5
1E7
330
1F
100
AcDbEntity
  8
0
  6
Continuous
 62
     7
370
    25
100
AcDbCircle
 10
6374.6687553361
 20
4496.7758902048
 30
0.0
 40
0.2000000000005364
100
AcDbArc
 50
270.0
 51
32.7790806683
  0
ARC
  5
1E8
330
1F
100
AcDbEntity
  8
0
  6
Continuous
 62
     7
370
    25
100
AcDbCircle
 10
6368.3687553361
 20
4496.7758902048
 30
0.0
 40
0.2000000000005364
100
AcDbArc
 50
147.2209193317
 51
270.0
  0
ARC
  5
1E9
330
1F
100
AcDbEntity
  8
0
  6
Continuous
 62
     7
370
    25
100
AcDbCircle
 10
6373.0187553361
 20
4495.7133902048
 30
0.0
 40
2.162499999999738
100
AcDbArc
 50
32.7790806681
 51
90.0
  0
ARC
  5
1EA
330
1F
100
AcDbEntity
  8
0
  6
Continuous
 62
     7
370
    25
100
AcDbCircle
 10
6370.0187553361
 20
4495.7133902048
 30
0.0
 40
2.162500000000503
100
AcDbArc
 50
90.0
 51
147.2209193319
  0
ARC
  5
1EB
330
1F
100
AcDbEntity
  8
0
  6
Continuous
 62
     7
370
    25
100
AcDbCircle
 10
6179.6687553361
 20
4496.7758902048
 30
0.0
 40
0.200000000000044
100
AcDbArc
 50
270.0
 51
32.7790806681
  0
ARC
  5
1EC
330
1F
100
AcDbEntity
  8
0
  6
Continuous
 62
     7
370
    25
100
AcDbCircle
 10
6173.3687553361
 20
4496.7758902048
 30
0.0
 40
0.200000000000044
100
AcDbArc
 50
147.2209193319
 51
270.0
  0
ARC
  5
1ED
330
1F
100
AcDbEntity
  8
0
  6
Continuous
 62
     7
370
    25
100
AcDbCircle
 10
6178.0187553361
 20
4495.7133902048
 30
0.0
 40
2.162500000000503
100
AcDbArc
 50
32.7790806681
 51
90.0
  0
ARC
  5
1EE
330
1F
100
AcDbEntity
  8
0
  6
Continuous
 62
     7
370
    25
100
AcDbCircle
 10
6175.0187553361
 20
4495.7133902048
 30
0.0
 40
2.162500000000364
100
AcDbArc
 50
90.0
 51
147.2209193319
  0
ARC
  5
1EF
330
1F
100
AcDbEntity
  8
0
  6
Continuous
 62
     7
370
    25
100
AcDbCircle
 10
6301.0187553361
 20
4403.0758902048
 30
0.0
 40
0.5000000000009095
100
AcDbArc
 50
0.0
 51
90.0
  0
ARC
  5
1F0
330
1F
100
AcDbEntity
  8
0
  6
Continuous
 62
     7
370
    25
100
AcDbCircle
 10
6247.0187553361
 20
4403.0758902048
 30
0.0
 40
0.5000000000009095
100
AcDbArc
 50
90.0
 51
180.0
  0
ARC
  5
1F1
330
1F
100
AcDbEntity
  8
0
  6
Continuous
 62
     7
370
    25
100
AcDbCircle
 10
6301.0187553361
 20
4402.0758902048
 30
0.0
 40
0.5000000000009095
100
AcDbArc
 50
270.0
 51
0.0
  0
ARC
  5
1F2
330
1F
100
AcDbEntity
  8
0
  6
Continuous
 62
     7
370
    25
100
AcDbCircle
 10
6247.0187553361
 20
4402.0758902048
 30
0.0
 40
0.5000000000009095
100
AcDbArc
 50
180.0
 51
270.0
  0
LINE
  5
1F3
330
1F
100
AcDbEntity
  8
0
  6
Continuous
 62
     7
370
    25
100
AcDbLine
 10
6246.5187553361
 20
4403.0758902048
 30
0.0
 11
6246.5187553361
 21
4402.0758902048
 31
0.0
  0
LINE
  5
1F4
330
1F
100
AcDbEntity
  8
0
  6
Continuous
 62
     7
370
    25
100
AcDbLine
 10
6301.5187553361
 20
4402.0758902048
 30
0.0
 11
6301.5187553361
 21
4403.0758902048
 31
0.0
  0
LINE
  5
1F5
330
1F
100
AcDbEntity
  8
0
  6
Continuous
 62
     7
370
    25
100
AcDbLine
 10
6259.1187553361
 20
4393.5758902048
 30
0.0
 11
6288.9187553361
 21
4393.5758902048
 31
0.0
  0
ELLIPSE
  5
1F6
330
1F
100
AcDbEntity
  8
0
  6
Continuous
 62
     7
370
    25
100
AcDbEllipse
 10
6274.0187553361
 20
4379.5758902048
 30
0.0
 11
14.90000000000055
 21
0.0
 31
0.0
210
0.0
220
0.0
230
1.0
 40
0.5773502692
 41
3.141592653589793
 42
4.712388980384698
  0
ELLIPSE
  5
1F7
330
1F
100
AcDbEntity
  8
0
  6
Continuous
 62
     7
370
    25
100
AcDbEllipse
 10
6274.0187553361
 20
4379.5758902048
 30
0.0
 11
14.90000000000055
 21
0.0
 31
0.0
210
0.0
220
0.0
230
1.0
 40
0.5773502692
 41
4.712388980384698
 42
6.283185307179586
  0
LINE
  5
1F8
330
1F
100
AcDbEntity
  8
0
  6
Continuous
 62
     7
370
    25
100
AcDbLine
 10
6260.0187553361
 20
4401.5758902048
 30
0.0
 11
6260.0187553361
 21
4395.5758902048
 31
0.0
  0
LINE
  5
1F9
330
1F
100
AcDbEntity
  8
0
  6
Continuous
 62
     7
370
    25
100
AcDbLine
 10
6288.0187553361
 20
4401.5758902048
 30
0.0
 11
6288.0187553361
 21
4395.5758902048
 31
0.0
  0
LINE
  5
1FA
330
1F
100
AcDbEntity
  8
0
  6
Continuous
 62
     7
370
    25
100
AcDbLine
 10
6260.0187553361
 20
4395.5758902048
 30
0.0
 11
6288.0187553361
 21
4395.5758902048
 31
0.0
  0
LWPOLYLINE
  5
1FB
330
1F
100
AcDbEntity
  8
0
  6
Continuous
 62
     7
370
    25
100
AcDbPolyline
 90
       21
 70
   128
 43
0.0
 10
6259.1187553361
 20
4370.5758902048
 10
6259.3021990612
 20
4368.5572945156
 10
6259.8480132433
 20
4366.5884033516
 10
6260.7427581257
 20
4364.7176973476
 10
6261.9644021199
 20
4362.991239494
 10
6263.4828642964
 20
4361.4515409129
 10
6265.2607550769
 20
4360.1365140934
 10
6267.25429689
 20
4359.07853936
 10
6269.4144021199
 20
4358.303667562
 10
6271.687881807
 20
4357.8309786145
 10
6274.0187553361
 20
4357.6721116884
 10
6276.3496288652
 20
4357.8309786145
 10
6278.6231085523
 20
4358.303667562
 10
6280.7832137822
 20
4359.07853936
 10
6282.7767555953
 20
4360.1365140934
 10
6284.5546463758
 20
4361.4515409129
 10
6286.0731085523
 20
4362.991239494
 10
6287.2947525465
 20
4364.7176973476
 10
6288.1894974289
 20
4366.5884033516
 10
6288.735311611
 20
4368.5572945156
 10
6288.9187553361
 20
4370.5758902048
  0
LWPOLYLINE
  5
1FC
330
1F
100
AcDbEntity
  8
0
  6
Continuous
 62
     7
370
    25
100
AcDbPolyline
 90
       21
 70
   128
 43
0.0
 10
6259.1187553361
 20
4370.3258902048
 10
6259.3021990612
 20
4368.3072945156
 10
6259.8480132433
 20
4366.3384033516
 10
6260.7427581257
 20
4364.4676973476
 10
6261.9644021199
 20
4362.741239494
 10
6263.4828642964
 20
4361.2015409129
 10
6265.2607550769
 20
4359.8865140934
 10
6267.25429689
 20
4358.82853936
 10
6269.4144021199
 20
4358.053667562
 10
6271.687881807
 20
4357.5809786145
 10
6274.0187553361
 20
4357.4221116884
 10
6276.3496288652
 20
4357.5809786145
 10
6278.6231085523
 20
4358.053667562
 10
6280.7832137822
 20
4358.82853936
 10
6282.7767555953
 20
4359.8865140934
 10
6284.5546463758
 20
4361.2015409129
 10
6286.0731085523
 20
4362.741239494
 10
6287.2947525465
 20
4364.4676973476
 10
6288.1894974289
 20
4366.3384033516
 10
6288.735311611
 20
4368.3072945156
 10
6288.9187553361
 20
4370.3258902048
  0
LWPOLYLINE
  5
1FD
330
1F
100
AcDbEntity
  8
0
  6
Continuous
 62
     7
370
    25
100
AcDbPolyline
 90
       11
 70
   128
 43
0.0
 10
6274.0187553361
 20
4341.6721116884
 10
6276.3496288652
 20
4341.8309786145
 10
6278.6231085523
 20
4342.303667562
 10
6280.7832137822
 20
4343.07853936
 10
6282.7767555953
 20
4344.1365140934
 10
6284.5546463758
 20
4345.4515409129
 10
6286.0731085523
 20
4346.991239494
 10
6287.2947525465
 20
4348.7176973476
 10
6288.1894974289
 20
4350.5884033516
 10
6288.735311611
 20
4352.5572945156
 10
6288.9187553361
 20
4354.5758902048
  0
LWPOLYLINE
  5
1FE
330
1F
100
AcDbEntity
  8
0
  6
Continuous
 62
     7
370
    25
100
AcDbPolyline
 90
       11
 70
   128
 43
0.0
 10
6259.1187553361
 20
4354.5758902048
 10
6259.3021990612
 20
4352.5572945156
 10
6259.8480132433
 20
4350.5884033516
 10
6260.7427581257
 20
4348.7176973476
 10
6261.9644021199
 20
4346.991239494
 10
6263.4828642964
 20
4345.4515409129
 10
6265.2607550769
 20
4344.1365140934
 10
6267.25429689
 20
4343.07853936
 10
6269.4144021199
 20
4342.303667562
 10
6271.687881807
 20
4341.8309786145
 10
6274.0187553361
 20
4341.6721116884
  0
ELLIPSE
  5
1FF
330
1F
100
AcDbEntity
  8
0
  6
Continuous
 62
     7
370
    25
100
AcDbEllipse
 10
6381.7308902996
 20
4494.9758902048
 30
0.0
 11
0.0
 21
1.600000000001273
 31
0.0
210
0.0
220
0.0
230
1.0
 40
0.5
 41
4.310963252425698
 42
6.283185307179586
  0
LINE
  5
200
330
1F
100
AcDbEntity
  8
0
  6
Continuous
 62
     7
370
    25
100
AcDbLine
 10
6165.5702164898
 20
4494.3507203992
 30
0.0
 11
6382.4672941824
 21
4494.3507203992
 31
0.0
  0
LINE
  5
201
330
1F
100
AcDbEntity
  8
0
  6
Continuous
 62
     7
370
    25
100
AcDbLine
 10
6166.3066203725
 20
4496.5758902048
 30
0.0
 11
6381.7308902997
 21
4496.5758902048
 31
0.0
  0
ELLIPSE
  5
202
330
1F
100
AcDbEntity
  8
0
  6
Continuous
 62
     7
370
    25
100
AcDbEllipse
 10
6166.3066203725
 20
4494.9758902048
 30
0.0
 11
0.0
 21
1.600000000001273
 31
0.0
210
0.0
220
0.0
230
1.0
 40
0.5
 41
0.0
 42
1.972222054750789
  0
LINE
  5
203
330
1F
100
AcDbEntity
  8
0
  6
Continuous
 62
     7
370
    25
100
AcDbLine
 10
6203.6880549854
 20
4404.5507203992
 30
0.0
 11
6344.3494556867
 21
4404.5507203992
 31
0.0
  0
LINE
  5
204
330
1F
100
AcDbEntity
  8
0
  6
Continuous
 62
     7
370
    25
100
AcDbLine
 10
6344.3494556867
 20
4404.5507203992
 30
0.0
 11
6382.4672941824
 21
4494.3507203992
 31
0.0
  0
LINE
  5
205
330
1F
100
AcDbEntity
  8
0
  6
Continuous
 62
     7
370
    25
100
AcDbLine
 10
6165.5702164898
 20
4494.3507203992
 30
0.0
 11
6203.6880549854
 21
4404.5507203992
 31
0.0
  0
ARC
  5
206
330
1F
100
AcDbEntity
  8
0
  6
Continuous
 62
     7
370
    25
100
AcDbCircle
 10
6165.5995135914
 20
4494.9758902048
 30
0.0
 40
0.8000000000001819
100
AcDbArc
 50
90.0
 51
203.0
  0
LINE
  5
207
330
1F
100
AcDbEntity
  8
0
  6
Continuous
 62
     7
370
    25
100
AcDbLine
 10
6164.1267058258
 20
4494.3507203992
 30
0.0
 11
6164.8631097086
 21
4494.663305302
 31
0.0
  0
LINE
  5
208
330
1F
100
AcDbEntity
  8
0
  6
Continuous
 62
     7
370
    25
100
AcDbLine
 10
6165.5995135914
 20
4496.5758902048
 30
0.0
 11
6165.5995135914
 21
4495.7758902048
 31
0.0
  0
ARC
  5
209
330
1F
100
AcDbEntity
  8
0
  6
Continuous
 62
     7
370
    25
100
AcDbCircle
 10
6165.5995135914
 20
4494.9758902048
 30
0.0
 40
1.600000000001273
100
AcDbArc
 50
90.0
 51
203.0
  0
LINE
  5
20A
330
1F
100
AcDbEntity
  8
0
  6
Continuous
 62
     7
370
    25
100
AcDbLine
 10
6383.9108048464
 20
4494.3507203992
 30
0.0
 11
6383.1744009636
 21
4494.663305302
 31
0.0
  0
ARC
  5
20B
330
1F
100
AcDbEntity
  8
0
  6
Continuous
 62
     7
370
    25
100
AcDbCircle
 10
6382.4379970808
 20
4494.9758902048
 30
0.0
 40
0.8000000000001819
100
AcDbArc
 50
337.0
 51
90.0
  0
LINE
  5
20C
330
1F
100
AcDbEntity
  8
0
  6
Continuous
 62
     7
370
    25
100
AcDbLine
 10
6382.4379970808
 20
4496.5758902048
 30
0.0
 11
6382.4379970808
 21
4495.7758902048
 31
0.0
  0
ARC
  5
20D
330
1F
100
AcDbEntity
  8
0
  6
Continuous
 62
     7
370
    25
100
AcDbCircle
 10
6382.4379970808
 20
4494.9758902048
 30
0.0
 40
1.600000000001273
100
AcDbArc
 50
337.0
 51
90.0
  0
LINE
  5
20E
330
1F
100
AcDbEntity
  8
0
  6
Continuous
 62
     7
370
    25
100
AcDbLine
 10
6202.9809482042
 20
4404.863305302
 30
0.0
 11
6164.8631097086
 21
4494.663305302
 31
0.0
  0
LINE
  5
20F
330
1F
100
AcDbEntity
  8
0
  6
Continuous
 62
     7
370
    25
100
AcDbLine
 10
6202.2445443215
 20
4404.5507203992
 30
0.0
 11
6202.9809482042
 21
4404.863305302
 31
0.0
  0
LINE
  5
210
330
1F
100
AcDbEntity
  8
0
  6
Continuous
 62
     7
370
    25
100
AcDbLine
 10
6202.2445443215
 20
4404.5507203992
 30
0.0
 11
6164.1267058258
 21
4494.3507203992
 31
0.0
  0
LINE
  5
211
330
1F
100
AcDbEntity
  8
0
  6
Continuous
 62
     7
370
    25
100
AcDbLine
 10
6383.1744009636
 20
4494.663305302
 30
0.0
 11
6345.056562468
 21
4404.863305302
 31
0.0
  0
LINE
  5
212
330
1F
100
AcDbEntity
  8
0
  6
Continuous
 62
     7
370
    25
100
AcDbLine
 10
6383.9108048464
 20
4494.3507203992
 30
0.0
 11
6345.7929663507
 21
4404.5507203992
 31
0.0
  0
LINE
  5
213
330
1F
100
AcDbEntity
  8
0
  6
Continuous
 62
     7
370
    25
100
AcDbLine
 10
6345.7929663507
 20
4404.5507203992
 30
0.0
 11
6345.056562468
 21
4404.863305302
 31
0.0
  0
LINE
  5
214
330
1F
100
AcDbEntity
  8
0
  6
Continuous
 62
     7
370
    25
100
AcDbLine
 10
6165.6138000495
 20
4495.7758902048
 30
0.0
 11
6165.5995135914
 21
4495.7758902048
 31
0.0
  0
LINE
  5
215
330
1F
100
AcDbEntity
  8
0
  6
Continuous
 62
     7
370
    25
100
AcDbLine
 10
6166.3066203725
 20
4496.5758902048
 30
0.0
 11
6165.5995135914
 21
4496.5758902048
 31
0.0
  0
LINE
  5
216
330
1F
100
AcDbEntity
  8
0
  6
Continuous
 62
     7
370
    25
100
AcDbLine
 10
6382.4379970808
 20
4495.7758902048
 30
0.0
 11
6382.4237106227
 21
4495.7758902048
 31
0.0
  0
LINE
  5
217
330
1F
100
AcDbEntity
  8
0
  6
Continuous
 62
     7
370
    25
100
AcDbLine
 10
6382.4379970808
 20
4496.5758902048
 30
0.0
 11
6381.7308902996
 21
4496.5758902048
 31
0.0
  0
LINE
  5
218
330
1F
100
AcDbEntity
  8
0
  6
Continuous
 62
     7
370
    25
100
AcDbLine
 10
6203.717352087
 20
4403.5758902048
 30
0.0
 11
6344.3201585852
 21
4403.5758902048
 31
0.0
  0
ELLIPSE
  5
219
330
1F
100
AcDbEntity
  8
0
  6
Continuous
 62
     7
370
    25
100
AcDbEllipse
 10
6203.717352087
 20
4405.1758902048
 30
0.0
 11
0.0
 21
1.599999999999454
 31
0.0
210
0.0
220
0.0
230
1.0
 40
0.0198920064
 41
1.972222054757224
 42
3.141592653589787
  0
ELLIPSE
  5
21A
330
1F
100
AcDbEntity
  8
0
  6
Continuous
 62
     7
370
    25
100
AcDbEllipse
 10
6344.3201585852
 20
4405.1758902048
 30
0.0
 11
0.0
 21
1.599999999999454
 31
0.0
210
0.0
220
0.0
230
1.0
 40
0.0198920064
 41
3.141592653561211
 42
4.310963252419947
  0
ARC
  5
21B
330
1F
100
AcDbEntity
  8
0
  6
Continuous
 62
     7
370
    25
100
AcDbCircle
 10
6203.717352087
 20
4405.1758902048
 30
0.0
 40
0.8000000000001819
100
AcDbArc
 50
203.0
 51
270.0
  0
ARC
  5
21C
330
1F
100
AcDbEntity
  8
0
  6
Continuous
 62
     7
370
    25
100
AcDbCircle
 10
6203.717352087
 20
4405.1758902048
 30
0.0
 40
1.599999999999805
100
AcDbArc
 50
203.0
 51
269.9999999999
  0
ARC
  5
21D
330
1F
100
AcDbEntity
  8
0
  6
Continuous
 62
     7
370
    25
100
AcDbCircle
 10
6344.3201585852
 20
4405.1758902048
 30
0.0
 40
0.8000000000001819
100
AcDbArc
 50
270.0000000001
 51
337.0
  0
ARC
  5
21E
330
1F
100
AcDbEntity
  8
0
  6
Continuous
 62
     7
370
    25
100
AcDbCircle
 10
6344.3201585852
 20
4405.1758902048
 30
0.0
 40
1.599999999999805
100
AcDbArc
 50
270.0
 51
337.0
  0
ARC
  5
21F
330
1F
100
AcDbEntity
  8
0
  6
Continuous
 62
     7
370
    25
100
AcDbCircle
 10
6344.153894872
 20
4404.7452249129
 30
0.0
 40
0.9103580433433642
100
AcDbArc
 50
7.4526980152
 51
50.6667874865
  0
ARC
  5
220
330
1F
100
AcDbEntity
  8
0
  6
Continuous
 62
     7
370
    25
100
AcDbCircle
 10
6382.7398568126
 20
4495.9775298615
 30
0.0
 40
1.384201868224745
100
AcDbArc
 50
251.7036967381
 51
288.2963032618
  0
ARC
  5
221
330
1F
100
AcDbEntity
  8
0
  6
Continuous
 62
     7
370
    25
100
AcDbCircle
 10
6165.2976538596
 20
4495.9775298615
 30
0.0
 40
1.384201868218986
100
AcDbArc
 50
251.7036967381
 51
288.2963032619
  0
ARC
  5
222
330
1F
100
AcDbEntity
  8
0
  6
Continuous
 62
     7
370
    25
100
AcDbCircle
 10
6203.8836158002
 20
4404.7452249129
 30
0.0
 40
0.9103580433139357
100
AcDbArc
 50
129.3332125141
 51
172.5473019853
  0
LINE
  5
223
330
1F
100
AcDbEntity
  8
0
  6
Continuous
 62
     7
370
    25
100
AcDbLine
 10
6208.8187553361
 20
4496.9311350247
 30
0.0
 11
6229.2187553361
 21
4496.9311350247
 31
0.0
  0
LWPOLYLINE
  5
224
330
1F
100
AcDbEntity
  8
0
  6
Continuous
 62
     7
370
    25
100
AcDbPolyline
 90
       11
 70
   128
 43
0.0
 10
6209.4782547288
 20
4507.7700937525
 10
6209.6598950568
 20
4507.8160299649
 10
6210.9879540837
 20
4507.8825705492
 10
6213.2056167745
 20
4507.9498025727
 10
6216.0629713499
 20
4508.0167617391
 10
6219.2014124321
 20
4508.0834763171
 10
6222.2909471401
 20
4508.1509280972
 10
6224.9489365093
 20
4508.2172662442
 10
6226.9051896983
 20
4508.285005117
 10
6227.9322082447
 20
4508.3512091605
 10
6227.9319353133
 20
4508.3895683949
  0
LWPOLYLINE
  5
225
330
1F
100
AcDbEntity
  8
0
  6
Continuous
 62
     7
370
    25
100
AcDbPolyline
 90
       12
 70
   128
 43
0.0
 10
6227.854238797
 20
4508.3319698078
 10
6227.8915303821
 20
4508.2927094009
 10
6227.1164985154
 20
4508.1964710842
 10
6225.406932112
 20
4508.0904814701
 10
6223.0097696458
 20
4507.9880913094
 10
6220.1397488368
 20
4507.8820960613
 10
6217.1762460723
 20
4507.7795894266
 10
6214.3891080351
 20
4507.6738640999
 10
6212.1391602049
 20
4507.570999138
 10
6210.6399754514
 20
4507.4658169756
 10
6210.0786131176
 20
4507.3623549156
 10
6210.1080182769
 20
4507.3552301364
  0
LWPOLYLINE
  5
226
330
1F
100
AcDbEntity
  8
0
  6
Continuous
 62
     7
370
    25
100
AcDbPolyline
 90
       12
 70
   128
 43
0.0
 10
6227.8722067766
 20
4506.3592070489
 10
6227.8915303821
 20
4506.3388632471
 10
6227.1164985154
 20
4506.2426249304
 10
6225.406932112
 20
4506.1366353162
 10
6223.0097696458
 20
4506.0342451555
 10
6220.1397488368
 20
4505.9282499075
 10
6217.1762460723
 20
4505.8257432728
 10
6214.3891080351
 20
4505.720017946
 10
6212.1391602049
 20
4505.6171529842
 10
6210.6399754514
 20
4505.5119708217
 10
6210.0786131176
 20
4505.4085087617
 10
6210.1082801168
 20
4505.4013205395
  0
LWPOLYLINE
  5
227
330
1F
100
AcDbEntity
  8
0
  6
Continuous
 62
     7
370
    25
100
AcDbPolyline
 90
       12
 70
   128
 43
0.0
 10
6227.8722232141
 20
4504.4053435897
 10
6227.8915303821
 20
4504.3850170932
 10
6227.1164985154
 20
4504.2887787765
 10
6225.406932112
 20
4504.1827891624
 10
6223.0097696458
 20
4504.0803990017
 10
6220.1397488368
 20
4503.9744037536
 10
6217.1762460723
 20
4503.8718971189
 10
6214.3891080351
 20
4503.7661717922
 10
6212.1391602049
 20
4503.6633068303
 10
6210.6399754514
 20
4503.5581246679
 10
6210.0786131176
 20
4503.4546626079
 10
6210.1085416655
 20
4503.4474110132
  0
LWPOLYLINE
  5
228
330
1F
100
AcDbEntity
  8
0
  6
Continuous
 62
     7
370
    25
100
AcDbPolyline
 90
       12
 70
   128
 43
0.0
 10
6227.8722396768
 20
4502.451480104
 10
6227.8915303821
 20
4502.4311709394
 10
6227.1164985154
 20
4502.3349326227
 10
6225.406932112
 20
4502.2289430086
 10
6223.0097696458
 20
4502.1265528478
 10
6220.1397488368
 20
4502.0205575998
 10
6217.1762460723
 20
4501.9180509651
 10
6214.3891080351
 20
4501.8123256383
 10
6212.1391602049
 20
4501.7094606765
 10
6210.6399754514
 20
4501.604278514
 10
6210.0786131176
 20
4501.500816454
 10
6210.1088029179
 20
4501.4935015587
  0
LWPOLYLINE
  5
229
330
1F
100
AcDbEntity
  8
0
  6
Continuous
 62
     7
370
    25
100
AcDbPolyline
 90
       12
 70
   128
 43
0.0
 10
6227.8722561651
 20
4500.4976165913
 10
6227.8915303821
 20
4500.4773247855
 10
6227.1164985154
 20
4500.3810864689
 10
6225.406932112
 20
4500.2750968547
 10
6223.0097696458
 20
4500.172706694
 10
6220.1397488368
 20
4500.0667114459
 10
6217.1762460723
 20
4499.9642048112
 10
6214.3891080351
 20
4499.8584794845
 10
6212.1391602049
 20
4499.7556145226
 10
6210.6399754514
 20
4499.6504323602
 10
6210.0786131176
 20
4499.5469703002
 10
6210.1090638689
 20
4499.5395921773
  0
LWPOLYLINE
  5
22A
330
1F
100
AcDbEntity
  8
0
  6
Continuous
 62
     7
370
    25
100
AcDbPolyline
 90
       11
 70
   128
 43
0.0
 10
6228.8690304889
 20
4506.9719051451
 10
6228.8448432001
 20
4506.9301241748
 10
6227.6970664485
 20
4506.8276270468
 10
6225.5685174846
 20
4506.7218853227
 10
6222.7333118383
 20
4506.6190396975
 10
6219.4633569244
 20
4506.5138300546
 10
6216.161857894
 20
4506.4103969953
 10
6213.1680195651
 20
4506.3059882787
 10
6210.826552418
 20
4506.2017338719
 10
6209.3983662535
 20
4506.098182472
 10
6209.1003202392
 20
4506.0116235629
  0
LWPOLYLINE
  5
22B
330
1F
100
AcDbEntity
  8
0
  6
Continuous
 62
     7
370
    25
100
AcDbPolyline
 90
       11
 70
   128
 43
0.0
 10
6228.8690111843
 20
4505.0180256445
 10
6228.8448432001
 20
4504.9762780209
 10
6227.6970664485
 20
4504.8737808929
 10
6225.5685174846
 20
4504.7680391688
 10
6222.7333118383
 20
4504.6651935436
 10
6219.4633569244
 20
4504.5599839008
 10
6216.161857894
 20
4504.4565508415
 10
6213.1680195651
 20
4504.3521421248
 10
6210.826552418
 20
4504.2478877181
 10
6209.3983662535
 20
4504.1443363182
 10
6209.1003202392
 20
4504.0577774091
  0
LWPOLYLINE
  5
22C
330
1F
100
AcDbEntity
  8
0
  6
Continuous
 62
     7
370
    25
100
AcDbPolyline
 90
       11
 70
   128
 43
0.0
 10
6228.8689918894
 20
4503.0641461607
 10
6228.8448432001
 20
4503.0224318671
 10
6227.6970664485
 20
4502.9199347391
 10
6225.5685174846
 20
4502.814193015
 10
6222.7333118383
 20
4502.7113473898
 10
6219.4633569244
 20
4502.6061377469
 10
6216.161857894
 20
4502.5027046876
 10
6213.1680195651
 20
4502.398295971
 10
6210.826552418
 20
4502.2940415642
 10
6209.3983662535
 20
4502.1904901643
 10
6209.1003202392
 20
4502.1039312552
  0
LWPOLYLINE
  5
22D
330
1F
100
AcDbEntity
  8
0
  6
Continuous
 62
     7
370
    25
100
AcDbPolyline
 90
       11
 70
   128
 43
0.0
 10
6228.8689726042
 20
4501.1102666938
 10
6228.8448432001
 20
4501.0685857132
 10
6227.6970664485
 20
4500.9660885852
 10
6225.5685174846
 20
4500.8603468611
 10
6222.7333118383
 20
4500.7575012359
 10
6219.4633569244
 20
4500.6522915931
 10
6216.161857894
 20
4500.5488585338
 10
6213.1680195651
 20
4500.4444498171
 10
6210.826552418
 20
4500.3401954104
 10
6209.3983662535
 20
4500.2366440105
 10
6209.1003202392
 20
4500.1500851014
  0
LWPOLYLINE
  5
22E
330
1F
100
AcDbEntity
  8
0
  6
Continuous
 62
     7
370
    25
100
AcDbPolyline
 90
       12
 70
   128
 43
0.0
 10
6228.897768299
 20
4507.2328153022
 10
6228.96376327
 20
4507.1999491782
 10
6228.0741523657
 20
4507.0974326346
 10
6226.1624096714
 20
4506.9914430221
 10
6223.4817545578
 20
4506.8890528629
 10
6220.2723199942
 20
4506.7830576163
 10
6216.9583480893
 20
4506.6805509834
 10
6213.8415980538
 20
4506.5748256577
 10
6211.3255672507
 20
4506.4719606981
 10
6209.6490860423
 20
4506.3667785361
 10
6209.0213357785
 20
4506.2633164788
 10
6209.0537352991
 20
4506.2562963807
  0
LWPOLYLINE
  5
22F
330
1F
100
AcDbEntity
  8
0
  6
Continuous
 62
     7
370
    25
100
AcDbPolyline
 90
       12
 70
   128
 43
0.0
 10
6228.897768299
 20
4505.2789691483
 10
6228.96376327
 20
4505.2461030243
 10
6228.0741523657
 20
4505.1435864808
 10
6226.1624096714
 20
4505.0375968683
 10
6223.4817545578
 20
4504.9352067091
 10
6220.2723199942
 20
4504.8292114625
 10
6216.9583480893
 20
4504.7267048296
 10
6213.8415980538
 20
4504.6209795039
 10
6211.3255672507
 20
4504.5181145442
 10
6209.6490860423
 20
4504.4129323823
 10
6209.0213357785
 20
4504.309470325
 10
6209.0537352991
 20
4504.3024502269
  0
LWPOLYLINE
  5
230
330
1F
100
AcDbEntity
  8
0
  6
Continuous
 62
     7
370
    25
100
AcDbPolyline
 90
       12
 70
   128
 43
0.0
 10
6228.897768299
 20
4503.3251229945
 10
6228.96376327
 20
4503.2922568705
 10
6228.0741523657
 20
4503.1897403269
 10
6226.1624096714
 20
4503.0837507144
 10
6223.4817545578
 20
4502.9813605552
 10
6220.2723199942
 20
4502.8753653086
 10
6216.9583480893
 20
4502.7728586758
 10
6213.8415980538
 20
4502.66713335
 10
6211.3255672507
 20
4502.5642683904
 10
6209.6490860423
 20
4502.4590862284
 10
6209.0213357785
 20
4502.3556241711
 10
6209.0537352991
 20
4502.348604073
  0
LWPOLYLINE
  5
231
330
1F
100
AcDbEntity
  8
0
  6
Continuous
 62
     7
370
    25
100
AcDbPolyline
 90
       12
 70
   128
 43
0.0
 10
6228.897768299
 20
4501.3712768407
 10
6228.96376327
 20
4501.3384107166
 10
6228.0741523657
 20
4501.2358941731
 10
6226.1624096714
 20
4501.1299045606
 10
6223.4817545578
 20
4501.0275144014
 10
6220.2723199942
 20
4500.9215191548
 10
6216.9583480893
 20
4500.8190125219
 10
6213.8415980538
 20
4500.7132871962
 10
6211.3255672507
 20
4500.6104222365
 10
6209.6490860423
 20
4500.5052400746
 10
6209.0213357785
 20
4500.4017780173
 10
6209.0537352991
 20
4500.3947579192
  0
LWPOLYLINE
  5
232
330
1F
100
AcDbEntity
  8
0
  6
Continuous
 62
     7
370
    25
100
AcDbPolyline
 90
       12
 70
   128
 43
0.0
 10
6228.897768299
 20
4499.4174306868
 10
6228.96376327
 20
4499.3845645628
 10
6228.0741523657
 20
4499.2820480192
 10
6226.1624096714
 20
4499.1760584067
 10
6223.4817545578
 20
4499.0736682475
 10
6220.2723199942
 20
4498.9676730009
 10
6216.9583480893
 20
4498.8651663681
 10
6213.8415980538
 20
4498.7594410423
 10
6211.3255672507
 20
4498.6565760827
 10
6209.6490860423
 20
4498.5513939207
 10
6209.0213357785
 20
4498.4479318635
 10
6209.0537352991
 20
4498.4409117653
  0
LWPOLYLINE
  5
233
330
1F
100
AcDbEntity
  8
0
  6
Continuous
 62
     7
370
    25
100
AcDbPolyline
 90
       11
 70
   128
 43
0.0
 10
6227.8528589002
 20
4507.8434780627
 10
6227.9120287092
 20
4507.8105260986
 10
6227.1164986282
 20
4507.708009555
 10
6225.4069323299
 20
4507.6020199425
 10
6223.0097699643
 20
4507.4996297833
 10
6220.1397492327
 20
4507.3936345367
 10
6217.1762465088
 20
4507.2911279039
 10
6214.3891084506
 20
4507.1854025781
 10
6212.1391605475
 20
4507.0825376185
 10
6210.6399756509
 20
4506.9773554565
 10
6210.1434602755
 20
4506.885845068
  0
LWPOLYLINE
  5
234
330
1F
100
AcDbEntity
  8
0
  6
Continuous
 62
     7
370
    25
100
AcDbPolyline
 90
       11
 70
   128
 43
0.0
 10
6227.8529513886
 20
4505.8895804016
 10
6227.9120287092
 20
4505.8566799447
 10
6227.1164986282
 20
4505.7541634012
 10
6225.4069323299
 20
4505.6481737887
 10
6223.0097699643
 20
4505.5457836295
 10
6220.1397492327
 20
4505.4397883829
 10
6217.1762465088
 20
4505.33728175
 10
6214.3891084506
 20
4505.2315564243
 10
6212.1391605475
 20
4505.1286914646
 10
6210.6399756509
 20
4505.0235093027
 10
6210.1433476208
 20
4504.9319781513
  0
LWPOLYLINE
  5
235
330
1F
100
AcDbEntity
  8
0
  6
Continuous
 62
     7
370
    25
100
AcDbPolyline
 90
       11
 70
   128
 43
0.0
 10
6227.8530121182
 20
4503.9357004272
 10
6227.9120287092
 20
4503.9028337909
 10
6227.1164986282
 20
4503.8003172473
 10
6225.4069323299
 20
4503.6943276348
 10
6223.0097699643
 20
4503.5919374756
 10
6220.1397492327
 20
4503.485942229
 10
6217.1762465088
 20
4503.3834355962
 10
6214.3891084506
 20
4503.2777102704
 10
6212.1391605475
 20
4503.1748453108
 10
6210.6399756509
 20
4503.0696631488
 10
6210.1432347068
 20
4502.9781111868
  0
LWPOLYLINE
  5
236
330
1F
100
AcDbEntity
  8
0
  6
Continuous
 62
     7
370
    25
100
AcDbPolyline
 90
       11
 70
   128
 43
0.0
 10
6227.8530124622
 20
4501.9818540818
 10
6227.9120287092
 20
4501.948987637
 10
6227.1164986282
 20
4501.8464710935
 10
6225.4069323299
 20
4501.740481481
 10
6223.0097699643
 20
4501.6380913218
 10
6220.1397492327
 20
4501.5320960752
 10
6217.1762465088
 20
4501.4295894423
 10
6214.3891084506
 20
4501.3238641166
 10
6212.1391605475
 20
4501.2209991569
 10
6210.6399756509
 20
4501.115816995
 10
6210.1431215312
 20
4501.0242441741
  0
LWPOLYLINE
  5
237
330
1F
100
AcDbEntity
  8
0
  6
Continuous
 62
     7
370
    25
100
AcDbPolyline
 90
       11
 70
   128
 43
0.0
 10
6227.8530132152
 20
4500.0280075086
 10
6227.9120287092
 20
4499.9951414832
 10
6227.1164986282
 20
4499.8926249396
 10
6225.4069323299
 20
4499.7866353271
 10
6223.0097699643
 20
4499.684245168
 10
6220.1397492327
 20
4499.5782499213
 10
6217.1762465088
 20
4499.4757432885
 10
6214.3891084506
 20
4499.3700179628
 10
6212.1391605475
 20
4499.2671530031
 10
6210.6399756509
 20
4499.1619708411
 10
6210.1430080917
 20
4499.0703771128
  0
LINE
  5
238
330
1F
100
AcDbEntity
  8
0
  6
Continuous
 62
     7
370
    25
100
AcDbLine
 10
6210.5187553361
 20
4508.9311350247
 30
0.0
 11
6227.5187553361
 21
4508.9311350247
 31
0.0
  0
LINE
  5
239
330
1F
100
AcDbEntity
  8
0
  6
Continuous
 62
     7
370
    25
100
AcDbLine
 10
6370.6462840985
 20
4497.8758902048
 30
0.0
 11
6370.0187553361
 21
4497.8758902048
 31
0.0
  0
LINE
  5
23A
330
1F
100
AcDbEntity
  8
0
  6
Continuous
 62
     7
370
    25
100
AcDbLine
 10
6373.0187553361
 20
4497.8758902048
 30
0.0
 11
6370.6462840985
 21
4497.8758902048
 31
0.0
  0
LINE
  5
23B
330
1F
100
AcDbEntity
  8
0
  6
Continuous
 62
     7
370
    25
100
AcDbLine
 10
6178.0187553361
 20
4497.8758902048
 30
0.0
 11
6175.0187553361
 21
4497.8758902048
 31
0.0
  0
LINE
  5
23C
330
1F
100
AcDbEntity
  8
0
  6
Continuous
 62
     7
370
    25
100
AcDbLine
 10
6301.0187553361
 20
4401.5758902048
 30
0.0
 11
6247.0187553361
 21
4401.5758902048
 31
0.0
  0
LINE
  5
23D
330
1F
100
AcDbEntity
  8
0
  6
Continuous
 62
     8
370
    25
100
AcDbLine
 10
6369.5887600442
 20
4496.8841704596
 30
0.0
 11
6368.2006024699
 21
4496.8841704596
 31
0.0
  0
LINE
  5
23E
330
1F
100
AcDbEntity
  8
0
  6
Continuous
 62
     8
370
    25
100
AcDbLine
 10
6374.8369082023
 20
4496.8841704596
 30
0.0
 11
6369.5887600442
 21
4496.8841704596
 31
0.0
  0
LINE
  5
23F
330
1F
100
AcDbEntity
  8
0
  6
Continuous
 62
     8
370
    25
100
AcDbLine
 10
6179.8369082023
 20
4496.8841704596
 30
0.0
 11
6173.2006024699
 21
4496.8841704596
 31
0.0
  0
LINE
  5
240
330
1F
100
AcDbEntity
  8
0
  6
Continuous
 62
     8
370
    25
100
AcDbLine
 10
6301.5187553361
 20
4403.0758902048
 30
0.0
 11
6246.5187553361
 21
4403.0758902048
 31
0.0
  0
LINE
  5
241
330
1F
100
AcDbEntity
  8
0
  6
Continuous
 62
     8
370
    25
100
AcDbLine
 10
6246.5187553361
 20
4402.0758902048
 30
0.0
 11
6301.5187553361
 21
4402.0758902048
 31
0.0
  0
ENDSEC
  0
SECTION
  2
OBJECTS
  0
DICTIONARY
  5
C
330
0
100
AcDbDictionary
281
     1
  3
ACAD_GROUP
350
D
  3
ACAD_LAYOUT
350
1A
  3
ACAD_MLINESTYLE
350
17
  3
ACAD_PLOTSETTINGS
350
19
  3
ACAD_PLOTSTYLENAME
350
E
  3
ACAD_SCALELIST
350
47
  3
DWGPROPS
350
242
  0
DICTIONARY
  5
D
102
{ACAD_REACTORS
330
C
102
}
330
C
100
AcDbDictionary
281
     1
  0
DICTIONARY
  5
1A
102
{ACAD_REACTORS
330
C
102
}
330
C
100
AcDbDictionary
281
     1
  3
Layout1
350
1E
  3
Layout2
350
26
  3
Model
350
22
  0
DICTIONARY
  5
17
102
{ACAD_REACTORS
330
C
102
}
330
C
100
AcDbDictionary
281
     1
  3
Standard
350
18
  0
DICTIONARY
  5
19
102
{ACAD_REACTORS
330
C
102
}
330
C
100
AcDbDictionary
281
     1
  0
ACDBDICTIONARYWDFLT
  5
E
102
{ACAD_REACTORS
330
C
102
}
330
C
100
AcDbDictionary
281
     1
  3
Normal
350
F
100
AcDbDictionaryWithDefault
340
F
  0
DICTIONARY
  5
47
102
{ACAD_REACTORS
330
C
102
}
330
C
100
AcDbDictionary
281
     1
  3
A0
350
48
  3
A1
350
49
  3
A2
350
4A
  3
A3
350
4B
  3
A4
350
4C
  3
A5
350
4D
  3
A6
350
4E
  3
A7
350
4F
  3
A8
350
50
  3
A9
350
51
  3
B0
350
52
  3
B1
350
53
  3
B2
350
54
  3
B3
350
55
  3
B4
350
56
  3
B5
350
57
  3
B6
350
58
  3
B7
350
59
  3
B8
350
5A
  3
B9
350
5B
  3
C0
350
5C
  3
C1
350
5D
  3
C2
350
5E
  3
C3
350
5F
  3
C4
350
60
  3
C5
350
61
  3
C6
350
62
  3
C7
350
63
  3
C8
350
64
  3
C9
350
65
  3
D0
350
66
  3
D1
350
67
  3
D2
350
68
  0
XRECORD
  5
242
102
{ACAD_REACTORS
330
C
102
}
330
C
100
AcDbXrecord
280
     1
  1
DWGPROPS COOKIE
  2

  3

  4

  6

  7

  8
radek.stransky
  9

300
=
301
=
302
=
303
=
304
=
305
=
306
=
307
=
308
=
309
=
 40
0.0
 41
2459744.464101539
 42
2459744.46410191
  1

 90
        0
  0
LAYOUT
  5
1E
102
{ACAD_REACTORS
330
1A
102
}
330
1A
100
AcDbPlotSettings
  1

  2
none_device
  4

  6

 40
0.0
 41
0.0
 42
0.0
 43
0.0
 44
0.0
 45
0.0
 46
0.0
 47
0.0
 48
0.0
 49
0.0
140
0.0
141
0.0
142
1.0
143
1.0
 70
   688
 72
     1
 73
     0
 74
     5
  7

 75
    16
147
1.0
148
0.0
149
0.0
100
AcDbLayout
  1
Layout1
 70
     1
 71
     1
 10
0.0
 20
0.0
 11
420.0
 21
297.0
 12
0.0
 22
0.0
 32
0.0
 14
1.0000000000E+20
 24
1.0000000000E+20
 34
1.0000000000E+20
 15
-1.0000000000E+20
 25
-1.0000000000E+20
 35
-1.0000000000E+20
146
0.0
 13
0.0
 23
0.0
 33
0.0
 16
1.0
 26
0.0
 36
0.0
 17
0.0
 27
1.0
 37
0.0
 76
     0
330
1B
  0
LAYOUT
  5
26
102
{ACAD_REACTORS
330
1A
102
}
330
1A
100
AcDbPlotSettings
  1

  2
none_device
  4

  6

 40
0.0
 41
0.0
 42
0.0
 43
0.0
 44
0.0
 45
0.0
 46
0.0
 47
0.0
 48
0.0
 49
0.0
140
0.0
141
0.0
142
1.0
143
1.0
 70
   688
 72
     1
 73
     0
 74
     5
  7

 75
    16
147
1.0
148
0.0
149
0.0
100
AcDbLayout
  1
Layout2
 70
     1
 71
     2
 10
0.0
 20
0.0
 11
0.0
 21
0.0
 12
0.0
 22
0.0
 32
0.0
 14
0.0
 24
0.0
 34
0.0
 15
0.0
 25
0.0
 35
0.0
146
0.0
 13
0.0
 23
0.0
 33
0.0
 16
1.0
 26
0.0
 36
0.0
 17
0.0
 27
1.0
 37
0.0
 76
     0
330
23
  0
LAYOUT
  5
22
102
{ACAD_REACTORS
330
1A
102
}
330
1A
100
AcDbPlotSettings
  1

  2
none_device
  4
Letter_(8.50_x_11.00_Inches)
  6

 40
6.35
 41
6.35
 42
6.35000508
 43
6.35000508
 44
215.9
 45
279.4
 46
0.0
 47
0.0
 48
0.0
 49
0.0
140
0.0
141
0.0
142
1.0
143
1.0
 70
  1712
 72
     1
 73
     0
 74
     0
  7

 75
     0
147
1.0
148
0.0
149
0.0
100
AcDbLayout
  1
Model
 70
     1
 71
     0
 10
0.0
 20
0.0
 11
20000.0
 21
10000.0
 12
0.0
 22
0.0
 32
0.0
 14
0.0
 24
0.0
 34
0.0
 15
20000.0
 25
10000.0
 35
0.0
146
0.0
 13
0.0
 23
0.0
 33
0.0
 16
1.0
 26
0.0
 36
0.0
 17
0.0
 27
1.0
 37
0.0
 76
     0
330
1F
331
29
  0
MLINESTYLE
  5
18
102
{ACAD_REACTORS
330
17
102
}
330
17
100
AcDbMlineStyle
  2
Standard
 70
     0
  3

 62
   256
 51
90.0
 52
90.0
 71
     2
 49
0.5
 62
   256
  6
BYLAYER
 49
-0.5
 62
   256
  6
BYLAYER
  0
ACDBPLACEHOLDER
  5
F
102
{ACAD_REACTORS
330
E
102
}
330
E
  0
SCALE
  5
48
102
{ACAD_REACTORS
330
47
102
}
330
47
100
AcDbScale
 70
     0
300
1:1
140
1.0
141
1.0
290
     1
  0
SCALE
  5
49
102
{ACAD_REACTORS
330
47
102
}
330
47
100
AcDbScale
 70
     0
300
1:2
140
1.0
141
2.0
290
     0
  0
SCALE
  5
4A
102
{ACAD_REACTORS
330
47
102
}
330
47
100
AcDbScale
 70
     0
300
1:4
140
1.0
141
4.0
290
     0
  0
SCALE
  5
4B
102
{ACAD_REACTORS
330
47
102
}
330
47
100
AcDbScale
 70
     0
300
1:5
140
1.0
141
5.0
290
     0
  0
SCALE
  5
4C
102
{ACAD_REACTORS
330
47
102
}
330
47
100
AcDbScale
 70
     0
300
1:8
140
1.0
141
8.0
290
     0
  0
SCALE
  5
4D
102
{ACAD_REACTORS
330
47
102
}
330
47
100
AcDbScale
 70
     0
300
1:10
140
1.0
141
10.0
290
     0
  0
SCALE
  5
4E
102
{ACAD_REACTORS
330
47
102
}
330
47
100
AcDbScale
 70
     0
300
1:16
140
1.0
141
16.0
290
     0
  0
SCALE
  5
4F
102
{ACAD_REACTORS
330
47
102
}
330
47
100
AcDbScale
 70
     0
300
1:20
140
1.0
141
20.0
290
     0
  0
SCALE
  5
50
102
{ACAD_REACTORS
330
47
102
}
330
47
100
AcDbScale
 70
     0
300
1:30
140
1.0
141
30.0
290
     0
  0
SCALE
  5
51
102
{ACAD_REACTORS
330
47
102
}
330
47
100
AcDbScale
 70
     0
300
1:40
140
1.0
141
40.0
290
     0
  0
SCALE
  5
52
102
{ACAD_REACTORS
330
47
102
}
330
47
100
AcDbScale
 70
     0
300
1:50
140
1.0
141
50.0
290
     0
  0
SCALE
  5
53
102
{ACAD_REACTORS
330
47
102
}
330
47
100
AcDbScale
 70
     0
300
1:100
140
1.0
141
100.0
290
     0
  0
SCALE
  5
54
102
{ACAD_REACTORS
330
47
102
}
330
47
100
AcDbScale
 70
     0
300
2:1
140
2.0
141
1.0
290
     0
  0
SCALE
  5
55
102
{ACAD_REACTORS
330
47
102
}
330
47
100
AcDbScale
 70
     0
300
4:1
140
4.0
141
1.0
290
     0
  0
SCALE
  5
56
102
{ACAD_REACTORS
330
47
102
}
330
47
100
AcDbScale
 70
     0
300
8:1
140
8.0
141
1.0
290
     0
  0
SCALE
  5
57
102
{ACAD_REACTORS
330
47
102
}
330
47
100
AcDbScale
 70
     0
300
10:1
140
10.0
141
1.0
290
     0
  0
SCALE
  5
58
102
{ACAD_REACTORS
330
47
102
}
330
47
100
AcDbScale
 70
     0
300
100:1
140
100.0
141
1.0
290
     0
  0
SCALE
  5
59
102
{ACAD_REACTORS
330
47
102
}
330
47
100
AcDbScale
 70
     0
300
1/128" = 1'-0"
140
0.0078125
141
12.0
290
     0
  0
SCALE
  5
5A
102
{ACAD_REACTORS
330
47
102
}
330
47
100
AcDbScale
 70
     0
300
1/64" = 1'-0"
140
0.015625
141
12.0
290
     0
  0
SCALE
  5
5B
102
{ACAD_REACTORS
330
47
102
}
330
47
100
AcDbScale
 70
     0
300
1/32" = 1'-0"
140
0.03125
141
12.0
290
     0
  0
SCALE
  5
5C
102
{ACAD_REACTORS
330
47
102
}
330
47
100
AcDbScale
 70
     0
300
1/16" = 1'-0"
140
0.0625
141
12.0
290
     0
  0
SCALE
  5
5D
102
{ACAD_REACTORS
330
47
102
}
330
47
100
AcDbScale
 70
     0
300
3/32" = 1'-0"
140
0.09375
141
12.0
290
     0
  0
SCALE
  5
5E
102
{ACAD_REACTORS
330
47
102
}
330
47
100
AcDbScale
 70
     0
300
1/8" = 1'-0"
140
0.125
141
12.0
290
     0
  0
SCALE
  5
5F
102
{ACAD_REACTORS
330
47
102
}
330
47
100
AcDbScale
 70
     0
300
3/16" = 1'-0"
140
0.1875
141
12.0
290
     0
  0
SCALE
  5
60
102
{ACAD_REACTORS
330
47
102
}
330
47
100
AcDbScale
 70
     0
300
1/4" = 1'-0"
140
0.25
141
12.0
290
     0
  0
SCALE
  5
61
102
{ACAD_REACTORS
330
47
102
}
330
47
100
AcDbScale
 70
     0
300
3/8" = 1'-0"
140
0.375
141
12.0
290
     0
  0
SCALE
  5
62
102
{ACAD_REACTORS
330
47
102
}
330
47
100
AcDbScale
 70
     0
300
1/2" = 1'-0"
140
0.5
141
12.0
290
     0
  0
SCALE
  5
63
102
{ACAD_REACTORS
330
47
102
}
330
47
100
AcDbScale
 70
     0
300
3/4" = 1'-0"
140
0.75
141
12.0
290
     0
  0
SCALE
  5
64
102
{ACAD_REACTORS
330
47
102
}
330
47
100
AcDbScale
 70
     0
300
1" = 1'-0"
140
1.0
141
12.0
290
     0
  0
SCALE
  5
65
102
{ACAD_REACTORS
330
47
102
}
330
47
100
AcDbScale
 70
     0
300
1-1/2" = 1'-0"
140
1.5
141
12.0
290
     0
  0
SCALE
  5
66
102
{ACAD_REACTORS
330
47
102
}
330
47
100
AcDbScale
 70
     0
300
3" = 1'-0"
140
3.0
141
12.0
290
     0
  0
SCALE
  5
67
102
{ACAD_REACTORS
330
47
102
}
330
47
100
AcDbScale
 70
     0
300
6" = 1'-0"
140
6.0
141
12.0
290
     0
  0
SCALE
  5
68
102
{ACAD_REACTORS
330
47
102
}
330
47
100
AcDbScale
 70
     0
300
1'-0" = 1'-0"
140
12.0
141
12.0
290
     0
  0
ENDSEC
  0
EOF
