  0
SECTION
  2
HEADER
  9
$ACADVER
  1
AC1015
  9
$ACADMAINTVER
 70
     6
  9
$DWGCODEPAGE
  3
ANSI_1250
  9
$INSBASE
 10
0.0
 20
0.0
 30
0.0
  9
$EXTMIN
 10
0.0
 20
0.0
 30
0.0
  9
$EXTMAX
 10
20000.0
 20
10000.0
 30
0.0
  9
$LIMMIN
 10
0.0
 20
0.0
  9
$LIMMAX
 10
20000.0
 20
10000.0
  9
$ORTHOMODE
 70
     0
  9
$REGENMODE
 70
     1
  9
$FILLMODE
 70
     1
  9
$QTEXTMODE
 70
     0
  9
$MIRRTEXT
 70
     1
  9
$LTSCALE
 40
1.0
  9
$ATTMODE
 70
     1
  9
$TEXTSIZE
 40
2.0
  9
$TRACEWID
 40
1.0
  9
$TEXTSTYLE
  7
Standard
  9
$CLAYER
  8
0
  9
$CELTYPE
  6
ByLayer
  9
$CECOLOR
 62
   256
  9
$CELTSCALE
 40
1.0
  9
$DISPSILH
 70
     0
  9
$DIMSCALE
 40
1.0
  9
$DIMASZ
 40
2.0
  9
$DIMEXO
 40
1.0
  9
$DIMDLI
 40
3.75
  9
$DIMRND
 40
0.0
  9
$DIMDLE
 40
0.0
  9
$DIMEXE
 40
1.0
  9
$DIMTP
 40
0.0
  9
$DIMTM
 40
0.0
  9
$DIMTXT
 40
2.0
  9
$DIMCEN
 40
2.5
  9
$DIMTSZ
 40
0.0
  9
$DIMTOL
 70
     0
  9
$DIMLIM
 70
     0
  9
$DIMTIH
 70
     1
  9
$DIMTOH
 70
     1
  9
$DIMSE1
 70
     0
  9
$DIMSE2
 70
     0
  9
$DIMTAD
 70
     1
  9
$DIMZIN
 70
     0
  9
$DIMBLK
  1

  9
$DIMASO
 70
     1
  9
$DIMSHO
 70
     1
  9
$DIMPOST
  1

  9
$DIMAPOST
  1

  9
$DIMALT
 70
     0
  9
$DIMALTD
 70
     3
  9
$DIMALTF
 40
0.0393700787
  9
$DIMLFAC
 40
1.0
  9
$DIMTOFL
 70
     1
  9
$DIMTVP
 40
0.0
  9
$DIMTIX
 70
     0
  9
$DIMSOXD
 70
     0
  9
$DIMSAH
 70
     0
  9
$DIMBLK1
  1

  9
$DIMBLK2
  1

  9
$DIMSTYLE
  2
ISO-25
  9
$DIMCLRD
 70
     0
  9
$DIMCLRE
 70
     0
  9
$DIMCLRT
 70
     0
  9
$DIMTFAC
 40
1.0
  9
$DIMGAP
 40
1.524
  9
$DIMJUST
 70
     0
  9
$DIMSD1
 70
     0
  9
$DIMSD2
 70
     0
  9
$DIMTOLJ
 70
     0
  9
$DIMTZIN
 70
     0
  9
$DIMALTZ
 70
     0
  9
$DIMALTTZ
 70
     0
  9
$DIMUPT
 70
     0
  9
$DIMDEC
 70
     2
  9
$DIMTDEC
 70
     0
  9
$DIMALTU
 70
     2
  9
$DIMALTTD
 70
     3
  9
$DIMTXSTY
  7
Standard
  9
$DIMAUNIT
 70
     0
  9
$DIMADEC
 70
     2
  9
$DIMALTRND
 40
0.0
  9
$DIMAZIN
 70
     0
  9
$DIMDSEP
 70
    44
  9
$DIMATFIT
 70
     3
  9
$DIMFRAC
 70
     0
  9
$DIMLDRBLK
  1

  9
$DIMLUNIT
 70
     2
  9
$DIMLWD
 70
    -2
  9
$DIMLWE
 70
    -2
  9
$DIMTMOVE
 70
     0
  9
$LUNITS
 70
     2
  9
$LUPREC
 70
     3
  9
$SKETCHINC
 40
1.0
  9
$FILLETRAD
 40
10.0
  9
$AUNITS
 70
     0
  9
$AUPREC
 70
     2
  9
$MENU
  1
.
  9
$ELEVATION
 40
0.0
  9
$PELEVATION
 40
0.0
  9
$THICKNESS
 40
0.0
  9
$LIMCHECK
 70
     0
  9
$CHAMFERA
 40
0.0
  9
$CHAMFERB
 40
0.0
  9
$CHAMFERC
 40
0.0
  9
$CHAMFERD
 40
0.0
  9
$SKPOLY
 70
     0
  9
$TDCREATE
 40
2459746.353246227
  9
$TDUCREATE
 40
2459746.269912893
  9
$TDUPDATE
 40
2459746.353246644
  9
$TDUUPDATE
 40
2459746.26991331
  9
$TDINDWG
 40
0.0000000116
  9
$TDUSRTIMER
 40
0.0000000116
  9
$USRTIMER
 70
     1
  9
$ANGBASE
 50
0.0
  9
$ANGDIR
 70
     0
  9
$PDMODE
 70
     0
  9
$PDSIZE
 40
-1.0
  9
$PLINEWID
 40
0.0
  9
$SPLFRAME
 70
     0
  9
$SPLINETYPE
 70
     6
  9
$SPLINESEGS
 70
     8
  9
$HANDSEED
  5
114
  9
$SURFTAB1
 70
     6
  9
$SURFTAB2
 70
     6
  9
$SURFTYPE
 70
     6
  9
$SURFU
 70
     6
  9
$SURFV
 70
     6
  9
$UCSBASE
  2

  9
$UCSNAME
  2

  9
$UCSORG
 10
0.0
 20
0.0
 30
0.0
  9
$UCSXDIR
 10
1.0
 20
0.0
 30
0.0
  9
$UCSYDIR
 10
0.0
 20
1.0
 30
0.0
  9
$UCSORTHOREF
  2

  9
$UCSORTHOVIEW
 70
     0
  9
$UCSORGTOP
 10
0.0
 20
0.0
 30
0.0
  9
$UCSORGBOTTOM
 10
0.0
 20
0.0
 30
0.0
  9
$UCSORGLEFT
 10
0.0
 20
0.0
 30
0.0
  9
$UCSORGRIGHT
 10
0.0
 20
0.0
 30
0.0
  9
$UCSORGFRONT
 10
0.0
 20
0.0
 30
0.0
  9
$UCSORGBACK
 10
0.0
 20
0.0
 30
0.0
  9
$PUCSBASE
  2

  9
$PUCSNAME
  2

  9
$PUCSORG
 10
0.0
 20
0.0
 30
0.0
  9
$PUCSXDIR
 10
1.0
 20
0.0
 30
0.0
  9
$PUCSYDIR
 10
0.0
 20
1.0
 30
0.0
  9
$PUCSORTHOREF
  2

  9
$PUCSORTHOVIEW
 70
     0
  9
$PUCSORGTOP
 10
0.0
 20
0.0
 30
0.0
  9
$PUCSORGBOTTOM
 10
0.0
 20
0.0
 30
0.0
  9
$PUCSORGLEFT
 10
0.0
 20
0.0
 30
0.0
  9
$PUCSORGRIGHT
 10
0.0
 20
0.0
 30
0.0
  9
$PUCSORGFRONT
 10
0.0
 20
0.0
 30
0.0
  9
$PUCSORGBACK
 10
0.0
 20
0.0
 30
0.0
  9
$USERI1
 70
     0
  9
$USERI2
 70
     0
  9
$USERI3
 70
     0
  9
$USERI4
 70
     0
  9
$USERI5
 70
     0
  9
$USERR1
 40
0.0
  9
$USERR2
 40
0.0
  9
$USERR3
 40
0.0
  9
$USERR4
 40
0.0
  9
$USERR5
 40
0.0
  9
$WORLDVIEW
 70
     1
  9
$SHADEDGE
 70
     3
  9
$SHADEDIF
 70
    70
  9
$TILEMODE
 70
     1
  9
$MAXACTVP
 70
    64
  9
$PINSBASE
 10
0.0
 20
0.0
 30
0.0
  9
$PLIMCHECK
 70
     0
  9
$PEXTMIN
 10
1.0000000000E+20
 20
1.0000000000E+20
 30
1.0000000000E+20
  9
$PEXTMAX
 10
-1.0000000000E+20
 20
-1.0000000000E+20
 30
-1.0000000000E+20
  9
$PLIMMIN
 10
0.0
 20
0.0
  9
$PLIMMAX
 10
420.0
 20
297.0
  9
$UNITMODE
 70
     0
  9
$VISRETAIN
 70
     1
  9
$PLINEGEN
 70
     0
  9
$PSLTSCALE
 70
     1
  9
$TREEDEPTH
 70
  3020
  9
$CMLSTYLE
  2
Standard
  9
$CMLJUST
 70
     0
  9
$CMLSCALE
 40
20.0
  9
$PROXYGRAPHICS
 70
     1
  9
$MEASUREMENT
 70
     1
  9
$CELWEIGHT
370
    -1
  9
$ENDCAPS
280
     0
  9
$JOINSTYLE
280
     0
  9
$LWDISPLAY
290
     1
  9
$INSUNITS
 70
     4
  9
$HYPERLINKBASE
  1

  9
$STYLESHEET
  1

  9
$XEDIT
290
     1
  9
$CEPSNTYPE
380
     0
  9
$PSTYLEMODE
290
     1
  9
$FINGERPRINTGUID
  2
{5f4a1895-d008-40a4-ab0f-8ecdb2525d90}
  9
$VERSIONGUID
  2
{FAEB1C32-E019-11D5-929B-00C0DF256EC4}
  9
$EXTNAMES
290
     1
  9
$PSVPSCALE
 40
0.0
  9
$OLESTARTUP
290
     0
  0
ENDSEC
  0
SECTION
  2
CLASSES
  0
CLASS
  1
ACDBDICTIONARYWDFLT
  2
AcDbDictionaryWithDefault
  3
ObjectDBX Classes
 90
        0
280
     0
281
     0
  0
CLASS
  1
VISUALSTYLE
  2
AcDbVisualStyle
  3
ObjectDBX Classes
 90
     4095
280
     0
281
     0
  0
CLASS
  1
MATERIAL
  2
AcDbMaterial
  3
ObjectDBX Classes
 90
     1153
280
     0
281
     0
  0
CLASS
  1
SCALE
  2
AcDbScale
  3
ObjectDBX Classes
 90
     1153
280
     0
281
     0
  0
CLASS
  1
TABLESTYLE
  2
AcDbTableStyle
  3
ObjectDBX Classes
 90
     4095
280
     0
281
     0
  0
CLASS
  1
MLEADERSTYLE
  2
AcDbMLeaderStyle
  3
ACDB_MLEADERSTYLE_CLASS
 90
     4095
280
     0
281
     0
  0
CLASS
  1
SUN
  2
AcDbSun
  3
SCENEOE
 90
     1153
280
     0
281
     0
  0
CLASS
  1
ACDBPLACEHOLDER
  2
AcDbPlaceHolder
  3
ObjectDBX Classes
 90
        0
280
     0
281
     0
  0
CLASS
  1
LAYOUT
  2
AcDbLayout
  3
ObjectDBX Classes
 90
        0
280
     0
281
     0
  0
ENDSEC
  0
SECTION
  2
TABLES
  0
TABLE
  2
VPORT
  5
8
330
0
100
AcDbSymbolTable
 70
     1
  0
VPORT
  5
29
330
8
100
AcDbSymbolTableRecord
100
AcDbViewportTableRecord
  2
*Active
 70
     0
 10
0.0
 20
0.0
 11
1.0
 21
1.0
 12
10000.0
 22
5000.0
 13
0.0
 23
0.0
 14
10.0
 24
10.0
 15
10.0
 25
10.0
 16
0.0
 26
0.0
 36
1.0
 17
0.0
 27
0.0
 37
0.0
 40
10000.0
 41
2.0
 42
50.0
 43
0.0
 44
0.0
 50
0.0
 51
0.0
 71
     0
 72
  2000
 73
     1
 74
     3
 75
     0
 76
     0
 77
     0
 78
     0
281
     0
 65
     1
110
0.0
120
0.0
130
0.0
111
1.0
121
0.0
131
0.0
112
0.0
122
1.0
132
0.0
 79
     0
146
0.0
  0
ENDTAB
  0
TABLE
  2
LTYPE
  5
5
330
0
100
AcDbSymbolTable
 70
     6
  0
LTYPE
  5
14
330
5
100
AcDbSymbolTableRecord
100
AcDbLinetypeTableRecord
  2
ByBlock
 70
     0
  3

 72
    65
 73
     0
 40
0.0
  0
LTYPE
  5
15
330
5
100
AcDbSymbolTableRecord
100
AcDbLinetypeTableRecord
  2
ByLayer
 70
     0
  3

 72
    65
 73
     0
 40
0.0
  0
LTYPE
  5
16
330
5
100
AcDbSymbolTableRecord
100
AcDbLinetypeTableRecord
  2
Continuous
 70
     0
  3
Solid line
 72
    65
 73
     0
 40
0.0
  0
LTYPE
  5
6E
330
5
100
AcDbSymbolTableRecord
100
AcDbLinetypeTableRecord
  2
HIDDEN
 70
     0
  3
Hidden __ __ __ __ __ __ __ __ __ __ __ __ __ __
 72
    65
 73
     2
 40
1.905
 49
1.27
 74
     0
 49
-0.635
 74
     0
  0
LTYPE
  5
6F
330
5
100
AcDbSymbolTableRecord
100
AcDbLinetypeTableRecord
  2
PHANTOM
 70
     0
  3
Phantom ______  __  __  ______  __  __  ______
 72
    65
 73
     6
 40
12.7
 49
6.35
 74
     0
 49
-1.27
 74
     0
 49
1.27
 74
     0
 49
-1.27
 74
     0
 49
1.27
 74
     0
 49
-1.27
 74
     0
  0
LTYPE
  5
70
330
5
100
AcDbSymbolTableRecord
100
AcDbLinetypeTableRecord
  2
CENTER
 70
     0
  3
Center ____ _ ____ _ ____ _ ____ _ ____ _ ____
 72
    65
 73
     4
 40
10.16
 49
6.35
 74
     0
 49
-1.27
 74
     0
 49
1.27
 74
     0
 49
-1.27
 74
     0
  0
LTYPE
  5
71
330
5
100
AcDbSymbolTableRecord
100
AcDbLinetypeTableRecord
  2
CENTERX2
 70
     0
  3
Center (2x) ________  __  ________  __  _____
 72
    65
 73
     4
 40
20.32
 49
12.7
 74
     0
 49
-2.54
 74
     0
 49
2.54
 74
     0
 49
-2.54
 74
     0
  0
LTYPE
  5
72
330
5
100
AcDbSymbolTableRecord
100
AcDbLinetypeTableRecord
  2
DOT2
 70
     0
  3
Dot (.5x) ........................................
 72
    65
 73
     2
 40
0.635
 49
0.0
 74
     0
 49
-0.635
 74
     0
  0
ENDTAB
  0
TABLE
  2
LAYER
  5
2
330
0
100
AcDbSymbolTable
 70
    13
  0
LAYER
  5
10
330
2
100
AcDbSymbolTableRecord
100
AcDbLayerTableRecord
  2
0
 70
     0
 62
     7
  6
Continuous
370
    -3
390
F
  0
LAYER
  5
73
330
2
100
AcDbSymbolTableRecord
100
AcDbLayerTableRecord
  2
FORMAT
 70
     0
 62
     7
  6
Continuous
370
    -3
390
F
  0
LAYER
  5
74
330
2
100
AcDbSymbolTableRecord
100
AcDbLayerTableRecord
  2
OSA
 70
     0
 62
     7
  6
CENTER
370
    -3
390
F
  0
LAYER
  5
75
330
2
100
AcDbSymbolTableRecord
100
AcDbLayerTableRecord
  2
0_35
 70
     0
 62
     7
  6
Continuous
370
    35
390
F
  0
LAYER
  5
76
330
2
100
AcDbSymbolTableRecord
100
AcDbLayerTableRecord
  2
0_5
 70
     0
 62
     7
  6
Continuous
370
    50
390
F
  0
LAYER
  5
77
330
2
100
AcDbSymbolTableRecord
100
AcDbLayerTableRecord
  2
0_25
 70
     0
 62
     7
  6
Continuous
370
    25
390
F
  0
LAYER
  5
78
330
2
100
AcDbSymbolTableRecord
100
AcDbLayerTableRecord
  2
0_18
 70
     0
 62
     7
  6
Continuous
370
    -3
390
F
  0
LAYER
  5
79
330
2
100
AcDbSymbolTableRecord
100
AcDbLayerTableRecord
  2
SLD-0
 70
     0
 62
   179
  6
Continuous
370
    -3
390
F
  0
LAYER
  5
7A
330
2
100
AcDbSymbolTableRecord
100
AcDbLayerTableRecord
  2
KOTY
 70
     0
 62
     7
  6
Continuous
370
    -3
390
F
  0
LAYER
  5
7B
330
2
100
AcDbSymbolTableRecord
100
AcDbLayerTableRecord
  2
SILNA
 70
     0
 62
   179
  6
Continuous
370
    -3
390
F
  0
LAYER
  5
7C
330
2
100
AcDbSymbolTableRecord
100
AcDbLayerTableRecord
  2
0_18_1
 70
     0
 62
   179
  6
Continuous
370
    -3
390
F
  0
LAYER
  5
7D
330
2
100
AcDbSymbolTableRecord
100
AcDbLayerTableRecord
  2
0_35_1
 70
     0
 62
   179
  6
Continuous
370
    35
390
F
  0
LAYER
  5
7E
330
2
100
AcDbSymbolTableRecord
100
AcDbLayerTableRecord
  2
0_5_1
 70
     0
 62
   179
  6
Continuous
370
    50
390
F
  0
ENDTAB
  0
TABLE
  2
STYLE
  5
3
330
0
100
AcDbSymbolTable
 70
     1
  0
STYLE
  5
11
330
3
100
AcDbSymbolTableRecord
100
AcDbTextStyleTableRecord
  2
Standard
 70
     0
 40
0.0
 41
1.0
 50
0.0
 71
     0
 42
2.0
  3
txt
  4

  0
ENDTAB
  0
TABLE
  2
VIEW
  5
6
330
0
100
AcDbSymbolTable
 70
     0
  0
ENDTAB
  0
TABLE
  2
UCS
  5
7
330
0
100
AcDbSymbolTable
 70
     0
  0
ENDTAB
  0
TABLE
  2
APPID
  5
9
330
0
100
AcDbSymbolTable
 70
     1
  0
APPID
  5
12
330
9
100
AcDbSymbolTableRecord
100
AcDbRegAppTableRecord
  2
ACAD
 70
     0
  0
ENDTAB
  0
TABLE
  2
DIMSTYLE
  5
A
330
0
100
AcDbSymbolTable
 70
     1
100
AcDbDimStyleTable
  0
DIMSTYLE
105
27
330
A
100
AcDbSymbolTableRecord
100
AcDbDimStyleTableRecord
  2
ISO-25
 70
     0
 41
2.5
 42
0.625
 43
3.75
 44
1.25
 73
     0
 74
     0
 77
     1
 78
     8
140
2.5
141
2.5
143
0.0393700787
147
0.625
171
     3
172
     1
178
     0
271
     2
272
     2
274
     3
278
    44
283
     0
284
     8
340
11
  0
ENDTAB
  0
TABLE
  2
BLOCK_RECORD
  5
1
330
0
100
AcDbSymbolTable
 70
     1
  0
BLOCK_RECORD
  5
1F
330
1
100
AcDbSymbolTableRecord
100
AcDbBlockTableRecord
  2
*Model_Space
340
22
  0
BLOCK_RECORD
  5
1B
330
1
100
AcDbSymbolTableRecord
100
AcDbBlockTableRecord
  2
*Paper_Space
340
1E
  0
BLOCK_RECORD
  5
23
330
1
100
AcDbSymbolTableRecord
100
AcDbBlockTableRecord
  2
*Paper_Space0
340
26
  0
ENDTAB
  0
ENDSEC
  0
SECTION
  2
BLOCKS
  0
BLOCK
  5
20
330
1F
100
AcDbEntity
  8
0
100
AcDbBlockBegin
  2
*Model_Space
 70
     0
 10
0.0
 20
0.0
 30
0.0
  3
*Model_Space
  1

  0
ENDBLK
  5
21
330
1F
100
AcDbEntity
  8
0
100
AcDbBlockEnd
  0
BLOCK
  5
1C
330
1B
100
AcDbEntity
 67
     1
  8
0
100
AcDbBlockBegin
  2
*Paper_Space
 70
     0
 10
0.0
 20
0.0
 30
0.0
  3
*Paper_Space
  1

  0
ENDBLK
  5
1D
330
1B
100
AcDbEntity
 67
     1
  8
0
100
AcDbBlockEnd
  0
BLOCK
  5
24
330
23
100
AcDbEntity
  8
0
100
AcDbBlockBegin
  2
*Paper_Space0
 70
     0
 10
0.0
 20
0.0
 30
0.0
  3
*Paper_Space0
  1

  0
ENDBLK
  5
25
330
23
100
AcDbEntity
  8
0
100
AcDbBlockEnd
  0
ENDSEC
  0
SECTION
  2
ENTITIES
  0
LINE
  5
7F
330
1F
100
AcDbEntity
  8
0
  6
Continuous
 62
     7
370
    25
100
AcDbLine
 10
6074.3233598021
 20
5393.6994545927
 30
0.0
 11
6428.9861698474
 21
5393.6994545927
 31
0.0
  0
ARC
  5
80
330
1F
100
AcDbEntity
  8
0
  6
Continuous
 62
     7
370
    25
100
AcDbCircle
 10
6428.9853692776
 20
5391.6997435295
 30
0.0
 40
1.999711223421685
100
AcDbArc
 50
345.9531543657
 51
89.9770620514
  0
LINE
  5
81
330
1F
100
AcDbEntity
  8
0
  6
Continuous
 62
     7
370
    25
100
AcDbLine
 10
6430.9252843443
 20
5391.2143833426
 30
0.0
 11
6072.3842453052
 21
5391.2143833426
 31
0.0
  0
ARC
  5
82
330
1F
100
AcDbEntity
  8
0
  6
Continuous
 62
     7
370
    25
100
AcDbCircle
 10
6074.3241603719
 20
5391.6997435295
 30
0.0
 40
1.999711223423668
100
AcDbArc
 50
90.0229379487
 51
194.0468456339
  0
LWPOLYLINE
  5
83
330
1F
100
AcDbEntity
  8
0
  6
Continuous
 62
     7
370
    25
100
AcDbPolyline
 90
       10
 70
   128
 43
0.0
 10
6306.6729215641
 20
5067.204084081
 10
6308.5884261979
 20
5068.0604921595
 10
6315.9652108867
 20
5071.8048408531
 10
6322.8320505802
 20
5076.0482834941
 10
6329.3434636566
 20
5080.9548248708
 10
6335.2792550238
 20
5086.4761445627
 10
6338.206897329
 20
5089.7119454178
 10
6340.959687018
 20
5093.1863910257
 10
6343.5828580694
 20
5097.0261485257
 10
6345.9854567805
 20
5101.2047750093
  0
LWPOLYLINE
  5
84
330
1F
100
AcDbEntity
  8
0
  6
Continuous
 62
     7
370
    25
100
AcDbPolyline
 90
       15
 70
   128
 43
0.0
 10
6196.6366080854
 20
5067.204084081
 10
6203.3246799099
 20
5068.1826779815
 10
6210.3460010413
 20
5069.1704785229
 10
6218.6821379628
 20
5070.2360226642
 10
6227.3629377582
 20
5071.1651446642
 10
6236.2767036749
 20
5071.8709162085
 10
6242.8817735789
 20
5072.2002253045
 10
6249.5404671783
 20
5072.3532854359
 10
6258.2397734784
 20
5072.265485964
 10
6266.8933735339
 20
5071.8742084151
 10
6275.3729655284
 20
5071.2205612058
 10
6283.4632908121
 20
5070.3739790402
 10
6291.2951303397
 20
5069.3949759278
 10
6298.7892278246
 20
5068.354686336
 10
6306.6729215641
 20
5067.204084081
  0
LWPOLYLINE
  5
85
330
1F
100
AcDbEntity
  8
0
  6
Continuous
 62
     7
370
    25
100
AcDbPolyline
 90
        9
 70
   128
 43
0.0
 10
6157.324072869
 20
5101.2047750093
 10
6158.2088209347
 20
5099.5740773683
 10
6160.4022792092
 20
5095.9768825989
 10
6162.7612747923
 20
5092.6354597786
 10
6168.0335435124
 20
5086.4727507419
 10
6174.1530640577
 20
5080.7989431722
 10
6180.8820722155
 20
5075.7743974504
 10
6188.4567170278
 20
5071.1910825073
 10
6196.6366080854
 20
5067.204084081
  0
LWPOLYLINE
  5
86
330
1F
100
AcDbEntity
  8
0
  6
Continuous
 62
     7
370
    25
100
AcDbPolyline
 90
       16
 70
   128
 43
0.0
 10
6072.3842453052
 20
5391.2143833426
 10
6072.9624088404
 20
5389.2016452767
 10
6073.6020187643
 20
5386.9753312959
 10
6075.0230254754
 20
5382.0304690384
 10
6076.5151771606
 20
5376.8399484063
 10
6079.6575285738
 20
5365.9158624896
 10
6083.840233968
 20
5351.3899810373
 10
6088.0861414443
 20
5336.66313044
 10
6092.3670097179
 20
5321.8353933559
 10
6098.8853911637
 20
5299.3007489697
 10
6105.4452391989
 20
5276.6815769991
 10
6113.9283096222
 20
5247.5302495602
 10
6122.4661989396
 20
5218.3263513951
 10
6131.0599037729
 20
5189.0967455568
 10
6144.0964956664
 20
5145.144033085
 10
6157.324072869
 20
5101.2047750093
  0
LWPOLYLINE
  5
87
330
1F
100
AcDbEntity
  8
0
  6
Continuous
 62
     7
370
    25
100
AcDbPolyline
 90
       17
 70
   128
 43
0.0
 10
6345.9854567805
 20
5101.2047750093
 10
6363.2231802447
 20
5158.6094834534
 10
6375.850526084
 20
5201.320806975
 10
6388.3487582967
 20
5243.9922756232
 10
6396.4857957502
 20
5271.9364065
 10
6404.5709412067
 20
5299.8076886656
 10
6409.8167908009
 20
5317.9397931042
 10
6415.0280731421
 20
5335.9861118881
 10
6418.3951569056
 20
5347.662490176
 10
6421.7311841478
 20
5359.2429778786
 10
6423.8769675214
 20
5366.6976316818
 10
6425.9903675905
 20
5374.0440936938
 10
6427.8125001714
 20
5380.3814165096
 10
6429.5479926117
 20
5386.420145373
 10
6430.2022344412
 20
5388.6973052438
 10
6430.8065127292
 20
5390.8008850486
 10
6430.9252843443
 20
5391.2143833426
  0
LINE
  5
88
330
1F
100
AcDbEntity
  8
0
  6
Continuous
 62
     7
370
    25
100
AcDbLine
 10
6303.7110227296
 20
5064.3609676976
 30
0.0
 11
6306.6729215641
 21
5067.204084081
 31
0.0
  0
LWPOLYLINE
  5
89
330
1F
100
AcDbEntity
  8
0
  6
Continuous
 62
     7
370
    25
100
AcDbPolyline
 90
       20
 70
   128
 43
0.0
 10
6253.0157191148
 20
5042.7783677999
 10
6253.3121380062
 20
5042.7903748771
 10
6253.6053460805
 20
5042.8045087451
 10
6253.9040559597
 20
5042.8211828879
 10
6254.3217639621
 20
5042.8482778311
 10
6254.6038855982
 20
5042.8690186234
 10
6255.2800937359
 20
5042.926484739
 10
6255.3189739401
 20
5042.9301130466
 10
6256.2531048497
 20
5043.0274034298
 10
6257.5311924845
 20
5043.1899123083
 10
6259.3037611649
 20
5043.4648213945
 10
6259.3109107463
 20
5043.4660358299
 10
6261.8228702115
 20
5043.9391011779
 10
6265.4698454809
 20
5044.7697929032
 10
6270.9249385988
 20
5046.2893069446
 10
6279.4322651905
 20
5049.3215590013
 10
6287.9609271273
 20
5053.3055161686
 10
6293.5433470707
 20
5056.5617162714
 10
6298.8331645697
 20
5060.2562609309
 10
6303.7110227296
 20
5064.3609676976
  0
LWPOLYLINE
  5
8A
330
1F
100
AcDbEntity
  8
0
  6
Continuous
 62
     7
370
    25
100
AcDbPolyline
 90
        3
 70
   128
 43
0.0
 10
6253.0157191148
 20
5042.7783677999
 10
6250.5900963267
 20
5042.7907769444
 10
6250.2938105347
 20
5042.7783677999
  0
LWPOLYLINE
  5
8B
330
1F
100
AcDbEntity
  8
0
  6
Continuous
 62
     7
370
    25
100
AcDbPolyline
 90
       20
 70
   128
 43
0.0
 10
6199.5985069198
 20
5064.3609676976
 10
6204.4763650798
 20
5060.2562609309
 10
6209.7661825788
 20
5056.5617162714
 10
6215.3486025222
 20
5053.3055161686
 10
6223.8772644587
 20
5049.3215590014
 10
6232.3845910505
 20
5046.2893069446
 10
6237.8396841684
 20
5044.7697929032
 10
6241.4866594379
 20
5043.9391011779
 10
6243.9986189031
 20
5043.4660358299
 10
6244.0057684845
 20
5043.4648213946
 10
6245.7783371649
 20
5043.1899123083
 10
6247.0564247998
 20
5043.0274034298
 10
6247.9905557094
 20
5042.9301130466
 10
6248.0294359135
 20
5042.926484739
 10
6248.7056440532
 20
5042.8690186233
 10
6248.9877656873
 20
5042.8482778311
 10
6249.4054736897
 20
5042.8211828879
 10
6249.704183569
 20
5042.8045087451
 10
6249.9973916432
 20
5042.7903748771
 10
6250.2938105347
 20
5042.7783677999
  0
LINE
  5
8C
330
1F
100
AcDbEntity
  8
0
  6
Continuous
 62
     7
370
    25
100
AcDbLine
 10
6196.6366080854
 20
5067.204084081
 30
0.0
 11
6199.5985069198
 21
5064.3609676976
 31
0.0
  0
LWPOLYLINE
  5
8D
330
1F
100
AcDbEntity
  8
0
  6
Continuous
 62
     7
370
    25
100
AcDbPolyline
 90
        6
 70
   128
 43
0.0
 10
6157.324072869
 20
5101.2047750093
 10
6157.2973486438
 20
5101.187078223
 10
6156.8557860641
 20
5100.8882965598
 10
6155.5595205164
 20
5099.900295944
 10
6154.8074593642
 20
5099.0958156291
 10
6154.649320409
 20
5098.5200807902
  0
LWPOLYLINE
  5
8E
330
1F
100
AcDbEntity
  8
0
  6
Continuous
 62
     7
370
    25
100
AcDbPolyline
 90
       10
 70
   128
 43
0.0
 10
6196.6366080854
 20
5067.204084081
 10
6195.7316132687
 20
5064.2714768147
 10
6195.0651664747
 20
5061.4806032019
 10
6194.6465204153
 20
5058.8702107462
 10
6194.4814874248
 20
5056.476541215
 10
6194.5723587627
 20
5054.3328274707
 10
6194.9178728036
 20
5052.4688320782
 10
6195.5132325526
 20
5050.9104340914
 10
6196.350172245
 20
5049.6792697576
 10
6197.4170721057
 20
5048.7924321278
  0
ARC
  5
8F
330
1F
100
AcDbEntity
  8
0
  6
Continuous
 62
     7
370
    25
100
AcDbCircle
 10
6251.6590144403
 20
5138.7031105068
 30
0.0
 40
105.0053255545296
100
AcDbArc
 50
202.5123878528
 51
238.8979659272
  0
LINE
  5
90
330
1F
100
AcDbEntity
  8
0
  6
Continuous
 62
     7
370
    25
100
AcDbLine
 10
6154.6554337147
 20
5098.4983381379
 30
0.0
 11
6154.649320409
 21
5098.5200807902
 31
0.0
  0
LINE
  5
91
330
1F
100
AcDbEntity
  8
0
  6
Continuous
 62
     7
370
    25
100
AcDbLine
 10
6348.6602092405
 20
5098.5200807902
 30
0.0
 11
6348.6540959347
 21
5098.4983381379
 31
0.0
  0
ARC
  5
92
330
1F
100
AcDbEntity
  8
0
  6
Continuous
 62
     7
370
    25
100
AcDbCircle
 10
6251.6535458988
 20
5138.700503226
 30
0.0
 40
105.0015275367085
100
AcDbArc
 50
301.1013529736
 51
337.4882932463
  0
LWPOLYLINE
  5
93
330
1F
100
AcDbEntity
  8
0
  6
Continuous
 62
     7
370
    25
100
AcDbPolyline
 90
       10
 70
   128
 43
0.0
 10
6305.8924575438
 20
5048.7924321278
 10
6306.9593574044
 20
5049.6792697576
 10
6307.7962970968
 20
5050.9104340914
 10
6308.3916568458
 20
5052.4688320782
 10
6308.7371708867
 20
5054.3328274707
 10
6308.8280422247
 20
5056.476541215
 10
6308.6630092341
 20
5058.8702107462
 10
6308.2443631748
 20
5061.4806032019
 10
6307.5779163808
 20
5064.2714768147
 10
6306.6729215641
 20
5067.204084081
  0
LWPOLYLINE
  5
94
330
1F
100
AcDbEntity
  8
0
  6
Continuous
 62
     7
370
    25
100
AcDbPolyline
 90
        5
 70
   128
 43
0.0
 10
6348.6602092405
 20
5098.5200807902
 10
6348.4203582159
 20
5099.2115731719
 10
6347.3656102903
 20
5100.2183401284
 10
6346.0121810052
 20
5101.1870782217
 10
6345.9854567805
 20
5101.2047750093
  0
LWPOLYLINE
  5
95
330
1F
100
AcDbEntity
  8
0
  6
Continuous
 62
     7
370
    25
100
AcDbPolyline
 90
       19
 70
   128
 43
0.0
 10
6250.2938105347
 20
5042.7783677999
 10
6250.0242473198
 20
5042.7690938179
 10
6249.7128445348
 20
5042.7564117104
 10
6249.4107446254
 20
5042.7421501964
 10
6248.9863999323
 20
5042.7189907995
 10
6248.7465454031
 20
5042.704353264
 10
6248.0731266369
 20
5042.6576882522
 10
6247.1533632124
 20
5042.582111055
 10
6245.8906779805
 20
5042.4604491278
 10
6244.1332023612
 20
5042.2679251623
 10
6241.6344962003
 20
5041.9751546947
 10
6237.9843002047
 20
5041.5679164569
 10
6232.475573158
 20
5041.1205809349
 10
6223.7701528761
 20
5041.0627400583
 10
6215.3148634906
 20
5041.997666262
 10
6211.2089137488
 20
5042.8854767787
 10
6207.2697622187
 20
5044.0588810514
 10
6203.433140377
 20
5045.5643952767
 10
6199.8458978969
 20
5047.3712480646
  0
LWPOLYLINE
  5
96
330
1F
100
AcDbEntity
  8
0
  6
Continuous
 62
     7
370
    25
100
AcDbPolyline
 90
       10
 70
   128
 43
0.0
 10
6199.5985069198
 20
5064.3609676976
 10
6198.7499799759
 20
5061.5614016751
 10
6198.1110265525
 20
5058.9187492685
 10
6197.6900693393
 20
5056.4678459443
 10
6197.4926573978
 20
5054.240999531
 10
6197.5213930139
 20
5052.2675643371
 10
6197.7758973944
 20
5050.5735542018
 10
6198.2528156605
 20
5049.1812995814
 10
6198.9458610715
 20
5048.109153188
 10
6199.8458978969
 20
5047.3712480646
  0
LWPOLYLINE
  5
97
330
1F
100
AcDbEntity
  8
0
  6
Continuous
 62
     7
370
    25
100
AcDbPolyline
 90
       10
 70
   128
 43
0.0
 10
6303.4636317526
 20
5047.3712480646
 10
6304.363668578
 20
5048.109153188
 10
6305.0567139889
 20
5049.1812995814
 10
6305.533632255
 20
5050.5735542018
 10
6305.7881366355
 20
5052.267564337
 10
6305.8168722516
 20
5054.240999531
 10
6305.6194603101
 20
5056.4678459443
 10
6305.1985030969
 20
5058.9187492685
 10
6304.5595496736
 20
5061.561401675
 10
6303.7110227296
 20
5064.3609676976
  0
LWPOLYLINE
  5
98
330
1F
100
AcDbEntity
  8
0
  6
Continuous
 62
     7
370
    25
100
AcDbPolyline
 90
       18
 70
   128
 43
0.0
 10
6303.4636317526
 20
5047.3712480646
 10
6298.694342598
 20
5045.0619691224
 10
6293.4995209402
 20
5043.2672236502
 10
6287.9946661589
 20
5041.997666262
 10
6279.5393767732
 20
5041.0627400583
 10
6270.8339564914
 20
5041.1205809349
 10
6265.3252294446
 20
5041.5679164569
 10
6261.675033449
 20
5041.9751546948
 10
6259.1763272883
 20
5042.2679251623
 10
6257.4188516689
 20
5042.4604491278
 10
6256.156166437
 20
5042.582111055
 10
6255.2364030125
 20
5042.6576882522
 10
6254.5629842463
 20
5042.704353264
 10
6254.3231297171
 20
5042.7189907995
 10
6253.898785024
 20
5042.7421501964
 10
6253.5966851146
 20
5042.7564117104
 10
6253.2852823297
 20
5042.7690938179
 10
6253.0157191148
 20
5042.7783677999
  0
LINE
  5
99
330
1F
100
AcDbEntity
  8
0
  6
Continuous
 62
     7
370
    25
100
AcDbLine
 10
6305.8924575438
 20
5048.7924321278
 30
0.0
 11
6303.4636317526
 21
5047.3712480646
 31
0.0
  0
LINE
  5
9A
330
1F
100
AcDbEntity
  8
0
  6
Continuous
 62
     7
370
    25
100
AcDbLine
 10
6199.8458978969
 20
5047.3712480646
 30
0.0
 11
6197.4170721057
 21
5048.7924321278
 31
0.0
  0
ARC
  5
9B
330
1F
100
AcDbEntity
  8
0
  6
Continuous
 62
     7
370
    25
100
AcDbCircle
 10
6251.6547648247
 20
5138.699907141
 30
0.0
 40
105.0003936233466
100
AcDbArc
 50
240.4346508534
 51
299.5653491466
  0
LINE
  5
9C
330
1F
100
AcDbEntity
  8
0
  6
Continuous
 62
     7
370
    25
100
AcDbLine
 10
6250.2938105347
 20
5042.7783677999
 30
0.0
 11
6253.0157191148
 21
5042.7783677999
 31
0.0
  0
LINE
  5
9D
330
1F
100
AcDbEntity
  8
0
  6
Continuous
 62
     7
370
    25
100
AcDbLine
 10
6154.649320409
 20
5098.5200807902
 30
0.0
 11
6072.3693051512
 21
5391.1581123968
 31
0.0
  0
LINE
  5
9E
330
1F
100
AcDbEntity
  8
0
  6
Continuous
 62
     7
370
    25
100
AcDbLine
 10
6072.3842453052
 20
5391.2143833426
 30
0.0
 11
6072.3693051512
 21
5391.1581123968
 31
0.0
  0
LINE
  5
9F
330
1F
100
AcDbEntity
  8
0
  6
Continuous
 62
     7
370
    25
100
AcDbLine
 10
6430.9402244982
 20
5391.1581123968
 30
0.0
 11
6430.9252843443
 21
5391.2143833426
 31
0.0
  0
LINE
  5
A0
330
1F
100
AcDbEntity
  8
0
  6
Continuous
 62
     7
370
    25
100
AcDbLine
 10
6430.9402244982
 20
5391.1581123968
 30
0.0
 11
6348.6602092405
 21
5098.5200807902
 31
0.0
  0
ARC
  5
A1
330
1F
100
AcDbEntity
  8
0
  6
Continuous
 62
     7
370
    25
100
AcDbCircle
 10
6429.0148807297
 20
5391.6994545927
 30
0.0
 40
2.000000000000022
100
AcDbArc
 50
344.2957950163
 51
90.0
  0
ARC
  5
A2
330
1F
100
AcDbEntity
  8
0
  6
Continuous
 62
     7
370
    25
100
AcDbCircle
 10
6074.2946489197
 20
5391.6994545927
 30
0.0
 40
2.000000000000022
100
AcDbArc
 50
90.0
 51
195.7042049837
  0
LINE
  5
A3
330
1F
100
AcDbEntity
  8
0
  6
Continuous
 62
     7
370
    25
100
AcDbLine
 10
7133.1024301546
 20
5072.3326124538
 30
0.0
 11
7212.8228728768
 21
5391.2143833426
 31
0.0
  0
ARC
  5
A4
330
1F
100
AcDbEntity
  8
0
  6
Continuous
 62
     7
370
    25
100
AcDbCircle
 10
7210.8825878766
 20
5391.6994545927
 30
0.0
 40
2.000000000000107
100
AcDbArc
 50
345.9637565321
 51
90.0
  0
LINE
  5
A5
330
1F
100
AcDbEntity
  8
0
  6
Continuous
 62
     7
370
    25
100
AcDbLine
 10
6683.4441406894
 20
5033.6994545927
 30
0.0
 11
7083.5904719896
 21
5033.6994545927
 31
0.0
  0
ARC
  5
A6
330
1F
100
AcDbEntity
  8
0
  6
Continuous
 62
     7
370
    25
100
AcDbCircle
 10
7083.7030649448
 20
5084.6016211091
 30
0.0
 40
50.86292237675185
100
AcDbArc
 50
305.0083439305
 51
346.0512000691
  0
LINE
  5
A7
330
1F
100
AcDbEntity
  8
0
  6
Continuous
 62
     7
370
    25
100
AcDbLine
 10
7112.4771286925
 20
5042.6880530899
 30
0.0
 11
7112.809338858
 21
5042.9113213443
 31
0.0
  0
ARC
  5
A8
330
1F
100
AcDbEntity
  8
0
  6
Continuous
 62
     7
370
    25
100
AcDbCircle
 10
7083.5951373652
 20
5084.6696651292
 30
0.0
 40
50.96960313107429
100
AcDbArc
 50
269.9944854042
 51
304.5211101254
  0
LINE
  5
A9
330
1F
100
AcDbEntity
  8
0
  6
Continuous
 62
     7
370
    25
100
AcDbLine
 10
6683.4441406894
 20
5117.1994545927
 30
0.0
 11
6682.4441406894
 21
5117.1994545927
 31
0.0
  0
LINE
  5
AA
330
1F
100
AcDbEntity
  8
0
  6
Continuous
 62
     7
370
    25
100
AcDbLine
 10
6682.4441406894
 20
5096.6994545927
 30
0.0
 11
6683.4441406894
 21
5096.6994545927
 31
0.0
  0
LWPOLYLINE
  5
AB
330
1F
100
AcDbEntity
  8
0
  6
Continuous
 62
     7
370
    25
100
AcDbPolyline
 90
        9
 70
   128
 43
0.0
 10
7083.6862593915
 20
5101.2047750093
 10
7084.4679607714
 20
5099.5740773683
 10
7086.520471753
 20
5095.9893007002
 10
7088.8260732795
 20
5092.6354597786
 10
7093.9119294045
 20
5086.4727507419
 10
7099.3891022367
 20
5080.8231592503
 10
7104.8251060125
 20
5075.7743974504
 10
7110.1091769954
 20
5071.2100255253
 10
7114.9970116891
 20
5067.204084081
  0
LWPOLYLINE
  5
AC
330
1F
100
AcDbEntity
  8
0
  6
Continuous
 62
     7
370
    25
100
AcDbPolyline
 90
       16
 70
   128
 43
0.0
 10
7039.6739394325
 20
5391.2143833426
 10
7041.5375619293
 20
5389.2016452767
 10
7043.1844891566
 20
5386.9753312959
 10
7046.0654498368
 20
5382.0483054937
 10
7048.4952024585
 20
5376.8399484063
 10
7052.5405521889
 20
5365.9158624896
 10
7055.767346718
 20
5355.0576128489
 10
7058.5259779385
 20
5344.0791620164
 10
7063.1497507288
 20
5321.8353933559
 10
7066.9480550994
 20
5299.3076715471
 10
7070.1454977847
 20
5276.6815769991
 10
7072.7892351498
 20
5254.8303426468
 10
7075.0812679105
 20
5232.9478283445
 10
7078.8206484738
 20
5189.0967455568
 10
7081.6390018653
 20
5145.1509259849
 10
7083.6862593915
 20
5101.2047750093
  0
ARC
  5
AD
330
1F
100
AcDbEntity
  8
0
  6
Continuous
 62
     7
370
    25
100
AcDbCircle
 10
7062.0651439489
 20
5175.2092381514
 30
0.0
 40
77.09820489441489
100
AcDbArc
 50
275.9046558077
 51
286.2862307861
  0
ELLIPSE
  5
AE
330
1F
100
AcDbEntity
  8
0
  6
Continuous
 62
     7
370
    25
100
AcDbEllipse
 10
7033.4441406894
 20
5108.9959959594
 30
0.0
 11
9.094947017729282E-13
 21
284.2830577562818
 31
0.0
210
0.0
220
0.0
230
1.0
 40
0.1286647142
 41
4.675530337968186
 42
6.160956319227547
  0
LINE
  5
AF
330
1F
100
AcDbEntity
  8
0
  6
Continuous
 62
     7
370
    25
100
AcDbLine
 10
7039.6739394325
 20
5391.2143833426
 30
0.0
 11
7037.9038107213
 21
5391.1581123968
 31
0.0
  0
LINE
  5
B0
330
1F
100
AcDbEntity
  8
0
  6
Continuous
 62
     7
370
    25
100
AcDbLine
 10
6683.4441406894
 20
5393.6994545927
 30
0.0
 11
7037.9038107213
 21
5393.6994545927
 31
0.0
  0
LINE
  5
B1
330
1F
100
AcDbEntity
  8
0
  6
Continuous
 62
     7
370
    25
100
AcDbLine
 10
7037.9038107213
 20
5393.6994545927
 30
0.0
 11
7037.9038107213
 21
5391.1581123968
 31
0.0
  0
LINE
  5
B2
330
1F
100
AcDbEntity
  8
0
  6
Continuous
 62
     7
370
    25
100
AcDbLine
 10
7037.9038107213
 20
5391.1581123968
 30
0.0
 11
6683.4441406894
 21
5391.1581123968
 31
0.0
  0
LINE
  5
B3
330
1F
100
AcDbEntity
  8
0
  6
Continuous
 62
     7
370
    25
100
AcDbLine
 10
6683.4441406894
 20
5391.1581123968
 30
0.0
 11
6683.4441406894
 21
5393.6994545927
 31
0.0
  0
LINE
  5
B4
330
1F
100
AcDbEntity
  8
0
  6
Continuous
 62
     7
370
    25
100
AcDbLine
 10
7037.9038107213
 20
5393.6994545927
 30
0.0
 11
7039.6065536008
 21
5393.6994545927
 31
0.0
  0
ARC
  5
B5
330
1F
100
AcDbEntity
  8
0
  6
Continuous
 62
     7
370
    25
100
AcDbCircle
 10
7020.5298296023
 20
5391.9387159835
 30
0.0
 40
19.15780778078023
100
AcDbArc
 50
357.8332021182
 51
5.2733308398
  0
LINE
  5
B6
330
1F
100
AcDbEntity
  8
0
  6
Continuous
 62
     7
370
    25
100
AcDbLine
 10
7039.6065536008
 20
5393.6994545927
 30
0.0
 11
7210.8825878766
 21
5393.6994545927
 31
0.0
  0
LINE
  5
B7
330
1F
100
AcDbEntity
  8
0
  6
Continuous
 62
     7
370
    25
100
AcDbLine
 10
7069.5918385613
 20
5098.4983381379
 30
0.0
 11
7069.9964957355
 21
5098.5200807902
 31
0.0
  0
LINE
  5
B8
330
1F
100
AcDbEntity
  8
0
  6
Continuous
 62
     7
370
    25
100
AcDbLine
 10
6683.4441406894
 20
5098.4983381379
 30
0.0
 11
7069.5918385613
 21
5098.4983381379
 31
0.0
  0
LINE
  5
B9
330
1F
100
AcDbEntity
  8
0
  6
Continuous
 62
     7
370
    25
100
AcDbLine
 10
6683.4441406894
 20
5098.4983381379
 30
0.0
 11
6683.4441406894
 21
5132.7368351054
 31
0.0
  0
LINE
  5
BA
330
1F
100
AcDbEntity
  8
0
  6
Continuous
 62
     7
370
    25
100
AcDbLine
 10
6683.4441406894
 20
5383.6994545927
 30
0.0
 11
6683.4441406894
 21
5132.7368351054
 31
0.0
  0
LINE
  5
BB
330
1F
100
AcDbEntity
  8
0
  6
Continuous
 62
     7
370
    25
100
AcDbLine
 10
6683.4441406894
 20
5383.6994545927
 30
0.0
 11
6683.4441406894
 21
5391.1581123968
 31
0.0
  0
LINE
  5
BC
330
1F
100
AcDbEntity
  8
0
  6
Continuous
 62
     7
370
    25
100
AcDbLine
 10
6682.4441406894
 20
5133.0075062034
 30
0.0
 11
6682.4441406894
 21
5383.6994545927
 31
0.0
  0
ARC
  5
BD
330
1F
100
AcDbEntity
  8
0
  6
Continuous
 62
     7
370
    25
100
AcDbCircle
 10
6683.2124564002
 20
5133.8634686276
 30
0.0
 40
1.150208982363227
100
AcDbArc
 50
228.0887082275
 51
281.6204767241
  0
LINE
  5
BE
330
1F
100
AcDbEntity
  8
0
  6
Continuous
 62
     7
370
    25
100
AcDbLine
 10
6682.4441406894
 20
5383.6994545927
 30
0.0
 11
6683.4441406894
 21
5383.6994545927
 31
0.0
  0
LINE
  5
BF
330
1F
100
AcDbEntity
  8
0
  6
Continuous
 62
     7
370
    25
100
AcDbLine
 10
6683.4441406894
 20
5386.0309603551
 30
0.0
 11
6682.4441406894
 21
5386.0309603551
 31
0.0
  0
ARC
  5
C0
330
1F
100
AcDbEntity
  8
0
  6
Continuous
 62
     7
370
    25
100
AcDbCircle
 10
6683.4441406894
 20
5392.6994545927
 30
0.0
 40
1.0
100
AcDbArc
 50
90.0
 51
180.0
  0
LINE
  5
C1
330
1F
100
AcDbEntity
  8
0
  6
Continuous
 62
     7
370
    25
100
AcDbLine
 10
6682.4441406894
 20
5392.6994545927
 30
0.0
 11
6682.4441406894
 21
5386.0309603551
 31
0.0
  0
LINE
  5
C2
330
1F
100
AcDbEntity
  8
0
  6
Continuous
 62
     7
370
    25
100
AcDbLine
 10
6682.4441406894
 20
5386.0309603551
 30
0.0
 11
6682.4441406894
 21
5383.6994545927
 31
0.0
  0
ARC
  5
C3
330
1F
100
AcDbEntity
  8
0
  6
Continuous
 62
     7
370
    25
100
AcDbCircle
 10
7082.5935180244
 20
5084.6522674167
 30
0.0
 40
36.80252034028026
100
AcDbArc
 50
282.9961157423
 51
331.6990409708
  0
LWPOLYLINE
  5
C4
330
1F
100
AcDbEntity
  8
0
  6
Continuous
 62
     7
370
    25
100
AcDbPolyline
 90
       10
 70
   128
 43
0.0
 10
7090.8698527476
 20
5048.7924321278
 10
7090.2031744994
 20
5049.9392266186
 10
7087.1299160237
 20
5055.3415067883
 10
7083.8226565117
 20
5061.4216131336
 10
7080.3336777412
 20
5068.2635947716
 10
7076.8578111455
 20
5075.7685654531
 10
7073.3918289525
 20
5084.5213330421
 10
7071.8510561724
 20
5089.2150739906
 10
7070.5200877401
 20
5094.11042273
 10
7069.5918385613
 20
5098.4983381379
  0
LINE
  5
C5
330
1F
100
AcDbEntity
  8
0
  6
Continuous
 62
     7
370
    25
100
AcDbLine
 10
7091.6486408101
 20
5047.3712480646
 30
0.0
 11
7090.8698527476
 21
5048.7924321278
 31
0.0
  0
LINE
  5
C6
330
1F
100
AcDbEntity
  8
0
  6
Continuous
 62
     7
370
    25
100
AcDbLine
 10
6683.4441406894
 20
5033.6994545927
 30
0.0
 11
6683.4441406894
 21
5098.4983381379
 31
0.0
  0
LINE
  5
C7
330
1F
100
AcDbEntity
  8
0
  6
Continuous
 62
     7
370
    25
100
AcDbLine
 10
7114.9970116891
 20
5067.204084081
 30
0.0
 11
7115.9512329136
 21
5064.3609676976
 31
0.0
  0
ARC
  5
C8
330
1F
100
AcDbEntity
  8
0
  6
Continuous
 62
     7
370
    25
100
AcDbCircle
 10
7085.2275280512
 20
5082.4326248957
 30
0.0
 40
35.64450636997337
100
AcDbArc
 50
280.3780965277
 51
329.5359934869
  0
ARC
  5
C9
330
1F
100
AcDbEntity
  8
0
  6
Continuous
 62
     7
370
    25
100
AcDbCircle
 10
7103.1959977436
 20
5056.4135281227
 30
0.0
 40
16.58109661557886
100
AcDbArc
 50
304.6811146988
 51
305.2278594032
  0
ARC
  5
CA
330
1F
100
AcDbEntity
  8
0
  6
Continuous
 62
     7
370
    25
100
AcDbCircle
 10
7110.0397881866
 20
5046.8383778329
 30
0.0
 40
4.811598195354427
100
AcDbArc
 50
305.191619469
 51
306.1160079056
  0
ARC
  5
CB
330
1F
100
AcDbEntity
  8
0
  6
Continuous
 62
     7
370
    25
100
AcDbCircle
 10
7106.1324139111
 20
5052.1601315859
 30
0.0
 40
11.41254963564662
100
AcDbArc
 50
303.8155894265
 51
304.7087816808
  0
LINE
  5
CC
330
1F
100
AcDbEntity
  8
0
  6
Continuous
 62
     7
370
    25
100
AcDbLine
 10
6682.4441406894
 20
5106.9494545927
 30
0.0
 11
6682.4441406894
 21
5117.1994545927
 31
0.0
  0
LINE
  5
CD
330
1F
100
AcDbEntity
  8
0
  6
Continuous
 62
     7
370
    25
100
AcDbLine
 10
6682.4441406894
 20
5096.6994545927
 30
0.0
 11
6682.4441406894
 21
5106.9494545927
 31
0.0
  0
LWPOLYLINE
  5
CE
330
1F
100
AcDbEntity
  8
0
  6
Continuous
 62
     8
370
    25
100
AcDbPolyline
 90
       10
 70
   128
 43
0.0
 10
7114.9970116891
 20
5067.204084081
 10
7119.3972478788
 20
5068.1792603845
 10
7123.2685204964
 20
5069.1704785229
 10
7126.0585409635
 20
5069.9703839556
 10
7128.4225061479
 20
5070.7096399689
 10
7130.3521390689
 20
5071.3583822855
 10
7131.7919789376
 20
5071.8709162085
 10
7132.6804486693
 20
5072.2000077006
 10
7133.0851691281
 20
5072.3532854359
 10
7133.0592397596
 20
5072.3434100525
  0
LINE
  5
CF
330
1F
100
AcDbEntity
  8
0
  6
Continuous
 62
     8
370
    25
100
AcDbLine
 10
7212.8228728768
 20
5391.2143833426
 30
0.0
 11
7039.6739394325
 21
5391.2143833426
 31
0.0
  0
ARC
  5
D0
330
1F
100
AcDbEntity
  8
0
  6
Continuous
 62
     8
370
    25
100
AcDbCircle
 10
7020.863292226
 20
5079.9038813782
 30
0.0
 40
77.90338763163736
100
AcDbArc
 50
323.6287960148
 51
335.3166974847
  0
LWPOLYLINE
  5
D1
330
1F
100
AcDbEntity
  8
0
  6
Continuous
 62
     8
370
    25
100
AcDbPolyline
 90
       13
 70
   128
 43
0.0
 10
7115.9512329136
 20
5064.3609676976
 10
7116.9997300647
 20
5060.2562609309
 10
7117.6250864706
 20
5056.5617162714
 10
7117.8197381829
 20
5053.3055161686
 10
7117.3371035184
 20
5049.3215590014
 10
7116.066024582
 20
5046.2893069446
 10
7114.9296887027
 20
5044.7697929032
 10
7114.1019340581
 20
5043.9391011779
 10
7113.5504083083
 20
5043.4660358299
 10
7113.5489107299
 20
5043.4648213946
 10
7113.1986352405
 20
5043.1899123083
 10
7112.980763867
 20
5043.0274034298
 10
7112.8758503991
 20
5042.9514473833
  0
LWPOLYLINE
  5
D2
330
1F
100
AcDbEntity
  8
0
  6
Continuous
 62
     8
370
    25
100
AcDbPolyline
 90
       14
 70
   128
 43
0.0
 10
7112.4837453766
 20
5042.6782078465
 10
7112.4532131372
 20
5042.6576882522
 10
7112.338544277
 20
5042.582111055
 10
7112.1476672108
 20
5042.4604491278
 10
7111.8271980041
 20
5042.2679251623
 10
7111.2838377244
 20
5041.9751546947
 10
7110.3483949549
 20
5041.5679164569
 10
7108.6844261853
 20
5041.1205809349
 10
7105.4811101709
 20
5041.0627400583
 10
7101.609004327
 20
5041.997666262
 10
7099.3956747939
 20
5042.8854767787
 10
7097.0190824933
 20
5044.0588810514
 10
7094.4128645048
 20
5045.5643952767
 10
7091.6486408101
 20
5047.3712480646
  0
LINE
  5
D3
330
1F
100
AcDbEntity
  8
0
  6
Continuous
 62
     7
370
    25
100
AcDbLine
 10
6431.0148807297
 20
4482.2022825238
 30
0.0
 11
6431.0148807297
 21
4836.6619525558
 31
0.0
  0
LINE
  5
D4
330
1F
100
AcDbEntity
  8
0
  6
Continuous
 62
     7
370
    25
100
AcDbLine
 10
6072.2946489197
 20
4836.6619525558
 30
0.0
 11
6072.2946489197
 21
4482.2022825238
 31
0.0
  0
LWPOLYLINE
  5
D5
330
1F
100
AcDbEntity
  8
0
  6
Continuous
 62
     7
370
    25
100
AcDbPolyline
 90
        3
 70
   128
 43
0.0
 10
6430.9757369838
 20
4480.4304140903
 10
6431.0123220858
 20
4481.6730898322
 10
6431.0022688962
 20
4482.2022686176
  0
ARC
  5
D6
330
1F
100
AcDbEntity
  8
0
  6
Continuous
 62
     7
370
    25
100
AcDbCircle
 10
6251.6547648247
 20
4486.6619525558
 30
0.0
 40
179.4384471871912
100
AcDbArc
 50
181.990274793
 51
358.009725207
  0
LINE
  5
D7
330
1F
100
AcDbEntity
  8
0
  6
Continuous
 62
     7
370
    25
100
AcDbLine
 10
6072.3193936925
 20
4482.2024055663
 30
0.0
 11
6072.3368020357
 21
4480.4304958124
 31
0.0
  0
LINE
  5
D8
330
1F
100
AcDbEntity
  8
0
  6
Continuous
 62
     7
370
    25
100
AcDbLine
 10
6082.3236866724
 20
4837.6619525558
 30
0.0
 11
6420.9858429771
 21
4837.6619525558
 31
0.0
  0
ELLIPSE
  5
D9
330
1F
100
AcDbEntity
  8
0
  6
Continuous
 62
     7
370
    25
100
AcDbEllipse
 10
6420.9858429771
 20
4836.6619525558
 30
0.0
 11
0.0
 21
0.9999999999990905
 31
0.0
210
0.0
220
0.0
230
1.0
 40
0.2811665142
 41
4.712388980384693
 42
6.283185307179586
  0
LINE
  5
DA
330
1F
100
AcDbEntity
  8
0
  6
Continuous
 62
     7
370
    25
100
AcDbLine
 10
6421.2670094912
 20
4836.6619525558
 30
0.0
 11
6082.0425201582
 21
4836.6619525558
 31
0.0
  0
ELLIPSE
  5
DB
330
1F
100
AcDbEntity
  8
0
  6
Continuous
 62
     7
370
    25
100
AcDbEllipse
 10
6082.3236866724
 20
4836.6619525558
 30
0.0
 11
0.0
 21
1.0
 31
0.0
210
0.0
220
0.0
230
1.0
 40
0.2811665142
 41
0.0
 42
1.570796326794897
  0
LINE
  5
DC
330
1F
100
AcDbEntity
  8
0
  6
Continuous
 62
     7
370
    25
100
AcDbLine
 10
6385.6547648247
 20
4551.6619525558
 30
0.0
 11
6385.6547648247
 21
4486.6619525558
 31
0.0
  0
ARC
  5
DD
330
1F
100
AcDbEntity
  8
0
  6
Continuous
 62
     7
370
    25
100
AcDbCircle
 10
6251.6547648247
 20
4551.6619525558
 30
0.0
 40
134.0
100
AcDbArc
 50
0.0
 51
180.0
  0
LINE
  5
DE
330
1F
100
AcDbEntity
  8
0
  6
Continuous
 62
     7
370
    25
100
AcDbLine
 10
6117.6547648247
 20
4486.6619525558
 30
0.0
 11
6117.6547648247
 21
4551.6619525558
 31
0.0
  0
ARC
  5
DF
330
1F
100
AcDbEntity
  8
0
  6
Continuous
 62
     7
370
    25
100
AcDbCircle
 10
6251.6547648247
 20
4486.6619525558
 30
0.0
 40
134.0000000000009
100
AcDbArc
 50
180.0
 51
0.0
  0
LINE
  5
E0
330
1F
100
AcDbEntity
  8
0
  6
Continuous
 62
     7
370
    25
100
AcDbLine
 10
6429.0148807297
 20
4482.2022825238
 30
0.0
 11
6429.0148807297
 21
4836.6619525558
 31
0.0
  0
LINE
  5
E1
330
1F
100
AcDbEntity
  8
0
  6
Continuous
 62
     7
370
    25
100
AcDbLine
 10
6428.9861698474
 20
4480.4995396443
 30
0.0
 11
6429.0148807297
 21
4482.2022825238
 31
0.0
  0
ARC
  5
E2
330
1F
100
AcDbEntity
  8
0
  6
Continuous
 62
     7
370
    25
100
AcDbCircle
 10
6251.6547648247
 20
4486.6619525558
 30
0.0
 40
177.4384471871916
100
AcDbArc
 50
181.990274793
 51
358.009725207
  0
LINE
  5
E3
330
1F
100
AcDbEntity
  8
0
  6
Continuous
 62
     7
370
    25
100
AcDbLine
 10
6074.2946489197
 20
4482.2022825238
 30
0.0
 11
6074.3233598021
 21
4480.4995396443
 31
0.0
  0
LINE
  5
E4
330
1F
100
AcDbEntity
  8
0
  6
Continuous
 62
     7
370
    25
100
AcDbLine
 10
6074.2946489197
 20
4836.6619525558
 30
0.0
 11
6074.2946489197
 21
4482.2022825238
 31
0.0
  0
LINE
  5
E5
330
1F
100
AcDbEntity
  8
0
  6
Continuous
 62
     7
370
    25
100
AcDbLine
 10
6421.2670094912
 20
4836.6619525558
 30
0.0
 11
6429.0148807297
 21
4836.6619525558
 31
0.0
  0
LINE
  5
E6
330
1F
100
AcDbEntity
  8
0
  6
Continuous
 62
     7
370
    25
100
AcDbLine
 10
6074.2946489197
 20
4836.6619525558
 30
0.0
 11
6082.0425201582
 21
4836.6619525558
 31
0.0
  0
LINE
  5
E7
330
1F
100
AcDbEntity
  8
0
  6
Continuous
 62
     7
370
    25
100
AcDbLine
 10
6429.0148807297
 20
4836.6619525558
 30
0.0
 11
6431.0148807297
 21
4836.6619525558
 31
0.0
  0
LINE
  5
E8
330
1F
100
AcDbEntity
  8
0
  6
Continuous
 62
     7
370
    25
100
AcDbLine
 10
6072.2946489197
 20
4836.6619525558
 30
0.0
 11
6074.2946489197
 21
4836.6619525558
 31
0.0
  0
LINE
  5
E9
330
1F
100
AcDbEntity
  8
0
  6
Continuous
 62
     7
370
    25
100
AcDbLine
 10
6381.8215054347
 20
4551.6619525558
 30
0.0
 11
6385.6547648247
 21
4551.6619525558
 31
0.0
  0
ARC
  5
EA
330
1F
100
AcDbEntity
  8
0
  6
Continuous
 62
     7
370
    25
100
AcDbCircle
 10
6251.6547648247
 20
4551.6619525558
 30
0.0
 40
130.1667406100005
100
AcDbArc
 50
0.0
 51
180.0
  0
LINE
  5
EB
330
1F
100
AcDbEntity
  8
0
  6
Continuous
 62
     7
370
    25
100
AcDbLine
 10
6121.4880242147
 20
4551.6619525558
 30
0.0
 11
6117.6547648247
 21
4551.6619525558
 31
0.0
  0
LINE
  5
EC
330
1F
100
AcDbEntity
  8
0
  6
Continuous
 62
     7
370
    25
100
AcDbLine
 10
6385.6547648247
 20
4486.6619525558
 30
0.0
 11
6381.8215054347
 21
4486.6619525558
 31
0.0
  0
LINE
  5
ED
330
1F
100
AcDbEntity
  8
0
  6
Continuous
 62
     7
370
    25
100
AcDbLine
 10
6381.8215054347
 20
4551.6619525558
 30
0.0
 11
6381.8215054347
 21
4486.6619525558
 31
0.0
  0
LINE
  5
EE
330
1F
100
AcDbEntity
  8
0
  6
Continuous
 62
     7
370
    25
100
AcDbLine
 10
6121.4880242147
 20
4486.6619525558
 30
0.0
 11
6121.4880242147
 21
4551.6619525558
 31
0.0
  0
LINE
  5
EF
330
1F
100
AcDbEntity
  8
0
  6
Continuous
 62
     7
370
    25
100
AcDbLine
 10
6117.6547648247
 20
4486.6619525558
 30
0.0
 11
6121.4880242147
 21
4486.6619525558
 31
0.0
  0
ARC
  5
F0
330
1F
100
AcDbEntity
  8
0
  6
Continuous
 62
     7
370
    25
100
AcDbCircle
 10
6251.6547648247
 20
4486.6619525558
 30
0.0
 40
130.1667406100014
100
AcDbArc
 50
180.0
 51
0.0
  0
ARC
  5
F1
330
1F
100
AcDbEntity
  8
0
  6
Continuous
 62
     7
370
    25
100
AcDbCircle
 10
6251.6547648247
 20
4551.6619525558
 30
0.0
 40
127.2917960675013
100
AcDbArc
 50
0.0
 51
180.0
  0
LINE
  5
F2
330
1F
100
AcDbEntity
  8
0
  6
Continuous
 62
     7
370
    25
100
AcDbLine
 10
6124.3629687572
 20
4551.6619525558
 30
0.0
 11
6121.4880242147
 21
4551.6619525558
 31
0.0
  0
LINE
  5
F3
330
1F
100
AcDbEntity
  8
0
  6
Continuous
 62
     7
370
    25
100
AcDbLine
 10
6378.9465608922
 20
4551.6619525558
 30
0.0
 11
6381.8215054347
 21
4551.6619525558
 31
0.0
  0
LINE
  5
F4
330
1F
100
AcDbEntity
  8
0
  6
Continuous
 62
     7
370
    25
100
AcDbLine
 10
6378.9465608922
 20
4486.6619525558
 30
0.0
 11
6378.9465608922
 21
4551.6619525558
 31
0.0
  0
LINE
  5
F5
330
1F
100
AcDbEntity
  8
0
  6
Continuous
 62
     7
370
    25
100
AcDbLine
 10
6381.8215054347
 20
4486.6619525558
 30
0.0
 11
6378.9465608922
 21
4486.6619525558
 31
0.0
  0
LINE
  5
F6
330
1F
100
AcDbEntity
  8
0
  6
Continuous
 62
     7
370
    25
100
AcDbLine
 10
6124.3629687572
 20
4551.6619525558
 30
0.0
 11
6124.3629687572
 21
4486.6619525558
 31
0.0
  0
LINE
  5
F7
330
1F
100
AcDbEntity
  8
0
  6
Continuous
 62
     7
370
    25
100
AcDbLine
 10
6121.4880242147
 20
4486.6619525558
 30
0.0
 11
6124.3629687572
 21
4486.6619525558
 31
0.0
  0
ARC
  5
F8
330
1F
100
AcDbEntity
  8
0
  6
Continuous
 62
     7
370
    25
100
AcDbCircle
 10
6251.6547648247
 20
4486.6619525558
 30
0.0
 40
127.2917960675004
100
AcDbArc
 50
180.0
 51
0.0
  0
LINE
  5
F9
330
1F
100
AcDbEntity
  8
0
  6
Continuous
 62
     7
370
    25
100
AcDbLine
 10
6127.6547648247
 20
4486.6619525558
 30
0.0
 11
6127.6547648247
 21
4551.6619525558
 31
0.0
  0
ARC
  5
FA
330
1F
100
AcDbEntity
  8
0
  6
Continuous
 62
     7
370
    25
100
AcDbCircle
 10
6251.6547648247
 20
4486.6619525558
 30
0.0
 40
124.0
100
AcDbArc
 50
180.0
 51
0.0
  0
LINE
  5
FB
330
1F
100
AcDbEntity
  8
0
  6
Continuous
 62
     7
370
    25
100
AcDbLine
 10
6375.6547648247
 20
4551.6619525558
 30
0.0
 11
6375.6547648247
 21
4486.6619525558
 31
0.0
  0
ARC
  5
FC
330
1F
100
AcDbEntity
  8
0
  6
Continuous
 62
     7
370
    25
100
AcDbCircle
 10
6251.6547648247
 20
4551.6619525558
 30
0.0
 40
124.0
100
AcDbArc
 50
0.0
 51
180.0
  0
LINE
  5
FD
330
1F
100
AcDbEntity
  8
0
  6
Continuous
 62
     7
370
    25
100
AcDbLine
 10
6375.6547648247
 20
4551.6619525558
 30
0.0
 11
6371.6547648247
 21
4551.6619525558
 31
0.0
  0
ARC
  5
FE
330
1F
100
AcDbEntity
  8
0
  6
Continuous
 62
     7
370
    25
100
AcDbCircle
 10
6251.6547648247
 20
4551.6619525558
 30
0.0
 40
120.0
100
AcDbArc
 50
0.0
 51
180.0
  0
LINE
  5
FF
330
1F
100
AcDbEntity
  8
0
  6
Continuous
 62
     7
370
    25
100
AcDbLine
 10
6127.6547648247
 20
4551.6619525558
 30
0.0
 11
6131.6547648247
 21
4551.6619525558
 31
0.0
  0
LINE
  5
100
330
1F
100
AcDbEntity
  8
0
  6
Continuous
 62
     7
370
    25
100
AcDbLine
 10
6131.6547648247
 20
4551.6619525558
 30
0.0
 11
6131.6547648247
 21
4486.6619525558
 31
0.0
  0
LINE
  5
101
330
1F
100
AcDbEntity
  8
0
  6
Continuous
 62
     7
370
    25
100
AcDbLine
 10
6131.6547648247
 20
4486.6619525558
 30
0.0
 11
6127.6547648247
 21
4486.6619525558
 31
0.0
  0
LINE
  5
102
330
1F
100
AcDbEntity
  8
0
  6
Continuous
 62
     7
370
    25
100
AcDbLine
 10
6371.6547648247
 20
4486.6619525558
 30
0.0
 11
6375.6547648247
 21
4486.6619525558
 31
0.0
  0
LINE
  5
103
330
1F
100
AcDbEntity
  8
0
  6
Continuous
 62
     7
370
    25
100
AcDbLine
 10
6371.6547648247
 20
4486.6619525558
 30
0.0
 11
6371.6547648247
 21
4551.6619525558
 31
0.0
  0
ARC
  5
104
330
1F
100
AcDbEntity
  8
0
  6
Continuous
 62
     7
370
    25
100
AcDbCircle
 10
6251.6547648247
 20
4486.6619525558
 30
0.0
 40
120.0
100
AcDbArc
 50
180.0
 51
0.0
  0
LINE
  5
105
330
1F
100
AcDbEntity
  8
0
  6
Continuous
 62
     7
370
    25
100
AcDbLine
 10
6082.0425201582
 20
4836.6619525558
 30
0.0
 11
6082.0425201582
 21
4837.6619525558
 31
0.0
  0
LINE
  5
106
330
1F
100
AcDbEntity
  8
0
  6
Continuous
 62
     7
370
    25
100
AcDbLine
 10
6082.3236866724
 20
4837.6619525558
 30
0.0
 11
6082.0425201582
 21
4837.6619525558
 31
0.0
  0
LINE
  5
107
330
1F
100
AcDbEntity
  8
0
  6
Continuous
 62
     7
370
    25
100
AcDbLine
 10
6421.2670094912
 20
4836.6619525558
 30
0.0
 11
6421.2670094912
 21
4837.6619525558
 31
0.0
  0
LINE
  5
108
330
1F
100
AcDbEntity
  8
0
  6
Continuous
 62
     7
370
    25
100
AcDbLine
 10
6421.2670094912
 20
4837.6619525558
 30
0.0
 11
6420.9858429771
 21
4837.6619525558
 31
0.0
  0
ELLIPSE
  5
109
330
1F
100
AcDbEntity
  8
0
  6
Continuous
 62
     7
370
    25
100
AcDbEllipse
 10
6075.5052054997
 20
4836.6619525558
 30
0.0
 11
1.038775533348598
 21
0.0
 31
0.0
210
0.0
220
0.0
230
1.0
 40
0.9626718842
 41
1.570796326794897
 42
3.141592653589793
  0
LINE
  5
10A
330
1F
100
AcDbEntity
  8
0
  6
Continuous
 62
     7
370
    25
100
AcDbLine
 10
6082.0425201582
 20
4837.6619525558
 30
0.0
 11
6075.5052054997
 21
4837.6619525558
 31
0.0
  0
ELLIPSE
  5
10B
330
1F
100
AcDbEntity
  8
0
  6
Continuous
 62
     7
370
    25
100
AcDbEllipse
 10
6427.8043241498
 20
4836.6619525558
 30
0.0
 11
1.038775533348598
 21
0.0
 31
0.0
210
0.0
220
0.0
230
1.0
 40
0.9626718842
 41
0.0
 42
1.570796326794897
  0
LINE
  5
10C
330
1F
100
AcDbEntity
  8
0
  6
Continuous
 62
     7
370
    25
100
AcDbLine
 10
6427.8043241498
 20
4837.6619525558
 30
0.0
 11
6421.2670094912
 21
4837.6619525558
 31
0.0
  0
CIRCLE
  5
10D
330
1F
100
AcDbEntity
  8
0
  6
Continuous
 62
     7
370
    25
100
AcDbCircle
 10
6251.6547648247
 20
4561.6619525558
 30
0.0
 40
40.0
  0
CIRCLE
  5
10E
330
1F
100
AcDbEntity
  8
0
  6
Continuous
 62
     7
370
    25
100
AcDbCircle
 10
6251.6547648247
 20
4561.6619525558
 30
0.0
 40
34.99999999999727
  0
LINE
  5
10F
330
1F
100
AcDbEntity
  8
0
  6
Continuous
 62
     8
370
    25
100
AcDbLine
 10
6429.0148807297
 20
4482.2022825238
 30
0.0
 11
6431.0148807297
 21
4482.2022825238
 31
0.0
  0
LINE
  5
110
330
1F
100
AcDbEntity
  8
0
  6
Continuous
 62
     8
370
    25
100
AcDbLine
 10
6074.2946489197
 20
4482.2022825238
 30
0.0
 11
6072.2946489197
 21
4482.2022825238
 31
0.0
  0
LINE
  5
111
330
1F
100
AcDbEntity
  8
0
  6
Continuous
 62
     8
370
    25
100
AcDbLine
 10
6428.9861698474
 20
4480.4995396443
 30
0.0
 11
6430.9849631196
 21
4480.4300799259
 31
0.0
  0
LINE
  5
112
330
1F
100
AcDbEntity
  8
0
  6
Continuous
 62
     8
370
    25
100
AcDbLine
 10
6074.3233598021
 20
4480.4995396443
 30
0.0
 11
6072.3245663294
 21
4480.4300799189
 31
0.0
  0
ENDSEC
  0
SECTION
  2
OBJECTS
  0
DICTIONARY
  5
C
330
0
100
AcDbDictionary
281
     1
  3
ACAD_GROUP
350
D
  3
ACAD_LAYOUT
350
1A
  3
ACAD_MLINESTYLE
350
17
  3
ACAD_PLOTSETTINGS
350
19
  3
ACAD_PLOTSTYLENAME
350
E
  3
ACAD_SCALELIST
350
47
  3
DWGPROPS
350
113
  0
DICTIONARY
  5
D
102
{ACAD_REACTORS
330
C
102
}
330
C
100
AcDbDictionary
281
     1
  0
DICTIONARY
  5
1A
102
{ACAD_REACTORS
330
C
102
}
330
C
100
AcDbDictionary
281
     1
  3
Layout1
350
1E
  3
Layout2
350
26
  3
Model
350
22
  0
DICTIONARY
  5
17
102
{ACAD_REACTORS
330
C
102
}
330
C
100
AcDbDictionary
281
     1
  3
Standard
350
18
  0
DICTIONARY
  5
19
102
{ACAD_REACTORS
330
C
102
}
330
C
100
AcDbDictionary
281
     1
  0
ACDBDICTIONARYWDFLT
  5
E
102
{ACAD_REACTORS
330
C
102
}
330
C
100
AcDbDictionary
281
     1
  3
Normal
350
F
100
AcDbDictionaryWithDefault
340
F
  0
DICTIONARY
  5
47
102
{ACAD_REACTORS
330
C
102
}
330
C
100
AcDbDictionary
281
     1
  3
A0
350
48
  3
A1
350
49
  3
A2
350
4A
  3
A3
350
4B
  3
A4
350
4C
  3
A5
350
4D
  3
A6
350
4E
  3
A7
350
4F
  3
A8
350
50
  3
A9
350
51
  3
B0
350
52
  3
B1
350
53
  3
B2
350
54
  3
B3
350
55
  3
B4
350
56
  3
B5
350
57
  3
B6
350
58
  3
B7
350
59
  3
B8
350
5A
  3
B9
350
5B
  3
C0
350
5C
  3
C1
350
5D
  3
C2
350
5E
  3
C3
350
5F
  3
C4
350
60
  3
C5
350
61
  3
C6
350
62
  3
C7
350
63
  3
C8
350
64
  3
C9
350
65
  3
D0
350
66
  3
D1
350
67
  3
D2
350
68
  0
XRECORD
  5
113
102
{ACAD_REACTORS
330
C
102
}
330
C
100
AcDbXrecord
280
     1
  1
DWGPROPS COOKIE
  2

  3

  4

  6

  7

  8
radek.stransky
  9

300
=
301
=
302
=
303
=
304
=
305
=
306
=
307
=
308
=
309
=
 40
0.0
 41
2459746.269912893
 42
2459746.26991331
  1

 90
        0
  0
LAYOUT
  5
1E
102
{ACAD_REACTORS
330
1A
102
}
330
1A
100
AcDbPlotSettings
  1

  2
none_device
  4

  6

 40
0.0
 41
0.0
 42
0.0
 43
0.0
 44
0.0
 45
0.0
 46
0.0
 47
0.0
 48
0.0
 49
0.0
140
0.0
141
0.0
142
1.0
143
1.0
 70
   688
 72
     1
 73
     0
 74
     5
  7

 75
    16
147
1.0
148
0.0
149
0.0
100
AcDbLayout
  1
Layout1
 70
     1
 71
     1
 10
0.0
 20
0.0
 11
420.0
 21
297.0
 12
0.0
 22
0.0
 32
0.0
 14
1.0000000000E+20
 24
1.0000000000E+20
 34
1.0000000000E+20
 15
-1.0000000000E+20
 25
-1.0000000000E+20
 35
-1.0000000000E+20
146
0.0
 13
0.0
 23
0.0
 33
0.0
 16
1.0
 26
0.0
 36
0.0
 17
0.0
 27
1.0
 37
0.0
 76
     0
330
1B
  0
LAYOUT
  5
26
102
{ACAD_REACTORS
330
1A
102
}
330
1A
100
AcDbPlotSettings
  1

  2
none_device
  4

  6

 40
0.0
 41
0.0
 42
0.0
 43
0.0
 44
0.0
 45
0.0
 46
0.0
 47
0.0
 48
0.0
 49
0.0
140
0.0
141
0.0
142
1.0
143
1.0
 70
   688
 72
     1
 73
     0
 74
     5
  7

 75
    16
147
1.0
148
0.0
149
0.0
100
AcDbLayout
  1
Layout2
 70
     1
 71
     2
 10
0.0
 20
0.0
 11
0.0
 21
0.0
 12
0.0
 22
0.0
 32
0.0
 14
0.0
 24
0.0
 34
0.0
 15
0.0
 25
0.0
 35
0.0
146
0.0
 13
0.0
 23
0.0
 33
0.0
 16
1.0
 26
0.0
 36
0.0
 17
0.0
 27
1.0
 37
0.0
 76
     0
330
23
  0
LAYOUT
  5
22
102
{ACAD_REACTORS
330
1A
102
}
330
1A
100
AcDbPlotSettings
  1

  2
none_device
  4
Letter_(8.50_x_11.00_Inches)
  6

 40
6.35
 41
6.35
 42
6.35000508
 43
6.35000508
 44
215.9
 45
279.4
 46
0.0
 47
0.0
 48
0.0
 49
0.0
140
0.0
141
0.0
142
1.0
143
1.0
 70
  1712
 72
     1
 73
     0
 74
     0
  7

 75
     0
147
1.0
148
0.0
149
0.0
100
AcDbLayout
  1
Model
 70
     1
 71
     0
 10
0.0
 20
0.0
 11
20000.0
 21
10000.0
 12
0.0
 22
0.0
 32
0.0
 14
0.0
 24
0.0
 34
0.0
 15
20000.0
 25
10000.0
 35
0.0
146
0.0
 13
0.0
 23
0.0
 33
0.0
 16
1.0
 26
0.0
 36
0.0
 17
0.0
 27
1.0
 37
0.0
 76
     0
330
1F
331
29
  0
MLINESTYLE
  5
18
102
{ACAD_REACTORS
330
17
102
}
330
17
100
AcDbMlineStyle
  2
Standard
 70
     0
  3

 62
   256
 51
90.0
 52
90.0
 71
     2
 49
0.5
 62
   256
  6
BYLAYER
 49
-0.5
 62
   256
  6
BYLAYER
  0
ACDBPLACEHOLDER
  5
F
102
{ACAD_REACTORS
330
E
102
}
330
E
  0
SCALE
  5
48
102
{ACAD_REACTORS
330
47
102
}
330
47
100
AcDbScale
 70
     0
300
1:1
140
1.0
141
1.0
290
     1
  0
SCALE
  5
49
102
{ACAD_REACTORS
330
47
102
}
330
47
100
AcDbScale
 70
     0
300
1:2
140
1.0
141
2.0
290
     0
  0
SCALE
  5
4A
102
{ACAD_REACTORS
330
47
102
}
330
47
100
AcDbScale
 70
     0
300
1:4
140
1.0
141
4.0
290
     0
  0
SCALE
  5
4B
102
{ACAD_REACTORS
330
47
102
}
330
47
100
AcDbScale
 70
     0
300
1:5
140
1.0
141
5.0
290
     0
  0
SCALE
  5
4C
102
{ACAD_REACTORS
330
47
102
}
330
47
100
AcDbScale
 70
     0
300
1:8
140
1.0
141
8.0
290
     0
  0
SCALE
  5
4D
102
{ACAD_REACTORS
330
47
102
}
330
47
100
AcDbScale
 70
     0
300
1:10
140
1.0
141
10.0
290
     0
  0
SCALE
  5
4E
102
{ACAD_REACTORS
330
47
102
}
330
47
100
AcDbScale
 70
     0
300
1:16
140
1.0
141
16.0
290
     0
  0
SCALE
  5
4F
102
{ACAD_REACTORS
330
47
102
}
330
47
100
AcDbScale
 70
     0
300
1:20
140
1.0
141
20.0
290
     0
  0
SCALE
  5
50
102
{ACAD_REACTORS
330
47
102
}
330
47
100
AcDbScale
 70
     0
300
1:30
140
1.0
141
30.0
290
     0
  0
SCALE
  5
51
102
{ACAD_REACTORS
330
47
102
}
330
47
100
AcDbScale
 70
     0
300
1:40
140
1.0
141
40.0
290
     0
  0
SCALE
  5
52
102
{ACAD_REACTORS
330
47
102
}
330
47
100
AcDbScale
 70
     0
300
1:50
140
1.0
141
50.0
290
     0
  0
SCALE
  5
53
102
{ACAD_REACTORS
330
47
102
}
330
47
100
AcDbScale
 70
     0
300
1:100
140
1.0
141
100.0
290
     0
  0
SCALE
  5
54
102
{ACAD_REACTORS
330
47
102
}
330
47
100
AcDbScale
 70
     0
300
2:1
140
2.0
141
1.0
290
     0
  0
SCALE
  5
55
102
{ACAD_REACTORS
330
47
102
}
330
47
100
AcDbScale
 70
     0
300
4:1
140
4.0
141
1.0
290
     0
  0
SCALE
  5
56
102
{ACAD_REACTORS
330
47
102
}
330
47
100
AcDbScale
 70
     0
300
8:1
140
8.0
141
1.0
290
     0
  0
SCALE
  5
57
102
{ACAD_REACTORS
330
47
102
}
330
47
100
AcDbScale
 70
     0
300
10:1
140
10.0
141
1.0
290
     0
  0
SCALE
  5
58
102
{ACAD_REACTORS
330
47
102
}
330
47
100
AcDbScale
 70
     0
300
100:1
140
100.0
141
1.0
290
     0
  0
SCALE
  5
59
102
{ACAD_REACTORS
330
47
102
}
330
47
100
AcDbScale
 70
     0
300
1/128" = 1'-0"
140
0.0078125
141
12.0
290
     0
  0
SCALE
  5
5A
102
{ACAD_REACTORS
330
47
102
}
330
47
100
AcDbScale
 70
     0
300
1/64" = 1'-0"
140
0.015625
141
12.0
290
     0
  0
SCALE
  5
5B
102
{ACAD_REACTORS
330
47
102
}
330
47
100
AcDbScale
 70
     0
300
1/32" = 1'-0"
140
0.03125
141
12.0
290
     0
  0
SCALE
  5
5C
102
{ACAD_REACTORS
330
47
102
}
330
47
100
AcDbScale
 70
     0
300
1/16" = 1'-0"
140
0.0625
141
12.0
290
     0
  0
SCALE
  5
5D
102
{ACAD_REACTORS
330
47
102
}
330
47
100
AcDbScale
 70
     0
300
3/32" = 1'-0"
140
0.09375
141
12.0
290
     0
  0
SCALE
  5
5E
102
{ACAD_REACTORS
330
47
102
}
330
47
100
AcDbScale
 70
     0
300
1/8" = 1'-0"
140
0.125
141
12.0
290
     0
  0
SCALE
  5
5F
102
{ACAD_REACTORS
330
47
102
}
330
47
100
AcDbScale
 70
     0
300
3/16" = 1'-0"
140
0.1875
141
12.0
290
     0
  0
SCALE
  5
60
102
{ACAD_REACTORS
330
47
102
}
330
47
100
AcDbScale
 70
     0
300
1/4" = 1'-0"
140
0.25
141
12.0
290
     0
  0
SCALE
  5
61
102
{ACAD_REACTORS
330
47
102
}
330
47
100
AcDbScale
 70
     0
300
3/8" = 1'-0"
140
0.375
141
12.0
290
     0
  0
SCALE
  5
62
102
{ACAD_REACTORS
330
47
102
}
330
47
100
AcDbScale
 70
     0
300
1/2" = 1'-0"
140
0.5
141
12.0
290
     0
  0
SCALE
  5
63
102
{ACAD_REACTORS
330
47
102
}
330
47
100
AcDbScale
 70
     0
300
3/4" = 1'-0"
140
0.75
141
12.0
290
     0
  0
SCALE
  5
64
102
{ACAD_REACTORS
330
47
102
}
330
47
100
AcDbScale
 70
     0
300
1" = 1'-0"
140
1.0
141
12.0
290
     0
  0
SCALE
  5
65
102
{ACAD_REACTORS
330
47
102
}
330
47
100
AcDbScale
 70
     0
300
1-1/2" = 1'-0"
140
1.5
141
12.0
290
     0
  0
SCALE
  5
66
102
{ACAD_REACTORS
330
47
102
}
330
47
100
AcDbScale
 70
     0
300
3" = 1'-0"
140
3.0
141
12.0
290
     0
  0
SCALE
  5
67
102
{ACAD_REACTORS
330
47
102
}
330
47
100
AcDbScale
 70
     0
300
6" = 1'-0"
140
6.0
141
12.0
290
     0
  0
SCALE
  5
68
102
{ACAD_REACTORS
330
47
102
}
330
47
100
AcDbScale
 70
     0
300
1'-0" = 1'-0"
140
12.0
141
12.0
290
     0
  0
ENDSEC
  0
EOF
