  0
SECTION
  2
HEADER
  9
$ACADVER
  1
AC1015
  9
$ACADMAINTVER
 70
     6
  9
$DWGCODEPAGE
  3
ANSI_1250
  9
$INSBASE
 10
0.0
 20
0.0
 30
0.0
  9
$EXTMIN
 10
0.0
 20
0.0
 30
0.0
  9
$EXTMAX
 10
20000.0
 20
10000.0
 30
0.0
  9
$LIMMIN
 10
0.0
 20
0.0
  9
$LIMMAX
 10
20000.0
 20
10000.0
  9
$ORTHOMODE
 70
     0
  9
$REGENMODE
 70
     1
  9
$FILLMODE
 70
     1
  9
$QTEXTMODE
 70
     0
  9
$MIRRTEXT
 70
     1
  9
$LTSCALE
 40
1.0
  9
$ATTMODE
 70
     1
  9
$TEXTSIZE
 40
2.0
  9
$TRACEWID
 40
1.0
  9
$TEXTSTYLE
  7
Standard
  9
$CLAYER
  8
0
  9
$CELTYPE
  6
ByLayer
  9
$CECOLOR
 62
   256
  9
$CELTSCALE
 40
1.0
  9
$DISPSILH
 70
     0
  9
$DIMSCALE
 40
1.0
  9
$DIMASZ
 40
2.0
  9
$DIMEXO
 40
1.0
  9
$DIMDLI
 40
3.75
  9
$DIMRND
 40
0.0
  9
$DIMDLE
 40
0.0
  9
$DIMEXE
 40
1.0
  9
$DIMTP
 40
0.0
  9
$DIMTM
 40
0.0
  9
$DIMTXT
 40
2.0
  9
$DIMCEN
 40
2.5
  9
$DIMTSZ
 40
0.0
  9
$DIMTOL
 70
     0
  9
$DIMLIM
 70
     0
  9
$DIMTIH
 70
     1
  9
$DIMTOH
 70
     1
  9
$DIMSE1
 70
     0
  9
$DIMSE2
 70
     0
  9
$DIMTAD
 70
     1
  9
$DIMZIN
 70
     0
  9
$DIMBLK
  1

  9
$DIMASO
 70
     1
  9
$DIMSHO
 70
     1
  9
$DIMPOST
  1

  9
$DIMAPOST
  1

  9
$DIMALT
 70
     0
  9
$DIMALTD
 70
     3
  9
$DIMALTF
 40
0.0393700787
  9
$DIMLFAC
 40
1.0
  9
$DIMTOFL
 70
     1
  9
$DIMTVP
 40
0.0
  9
$DIMTIX
 70
     0
  9
$DIMSOXD
 70
     0
  9
$DIMSAH
 70
     0
  9
$DIMBLK1
  1

  9
$DIMBLK2
  1

  9
$DIMSTYLE
  2
ISO-25
  9
$DIMCLRD
 70
     0
  9
$DIMCLRE
 70
     0
  9
$DIMCLRT
 70
     0
  9
$DIMTFAC
 40
1.0
  9
$DIMGAP
 40
1.524
  9
$DIMJUST
 70
     0
  9
$DIMSD1
 70
     0
  9
$DIMSD2
 70
     0
  9
$DIMTOLJ
 70
     0
  9
$DIMTZIN
 70
     0
  9
$DIMALTZ
 70
     0
  9
$DIMALTTZ
 70
     0
  9
$DIMUPT
 70
     0
  9
$DIMDEC
 70
     2
  9
$DIMTDEC
 70
     0
  9
$DIMALTU
 70
     2
  9
$DIMALTTD
 70
     3
  9
$DIMTXSTY
  7
Standard
  9
$DIMAUNIT
 70
     0
  9
$DIMADEC
 70
     2
  9
$DIMALTRND
 40
0.0
  9
$DIMAZIN
 70
     0
  9
$DIMDSEP
 70
    44
  9
$DIMATFIT
 70
     3
  9
$DIMFRAC
 70
     0
  9
$DIMLDRBLK
  1

  9
$DIMLUNIT
 70
     2
  9
$DIMLWD
 70
    -2
  9
$DIMLWE
 70
    -2
  9
$DIMTMOVE
 70
     0
  9
$LUNITS
 70
     2
  9
$LUPREC
 70
     3
  9
$SKETCHINC
 40
1.0
  9
$FILLETRAD
 40
10.0
  9
$AUNITS
 70
     0
  9
$AUPREC
 70
     2
  9
$MENU
  1
.
  9
$ELEVATION
 40
0.0
  9
$PELEVATION
 40
0.0
  9
$THICKNESS
 40
0.0
  9
$LIMCHECK
 70
     0
  9
$CHAMFERA
 40
0.0
  9
$CHAMFERB
 40
0.0
  9
$CHAMFERC
 40
0.0
  9
$CHAMFERD
 40
0.0
  9
$SKPOLY
 70
     0
  9
$TDCREATE
 40
2459838.574534572
  9
$TDUCREATE
 40
2459838.491201238
  9
$TDUPDATE
 40
2459838.574534873
  9
$TDUUPDATE
 40
2459838.49120154
  9
$TDINDWG
 40
0.0000000116
  9
$TDUSRTIMER
 40
0.0000000116
  9
$USRTIMER
 70
     1
  9
$ANGBASE
 50
0.0
  9
$ANGDIR
 70
     0
  9
$PDMODE
 70
     0
  9
$PDSIZE
 40
-1.0
  9
$PLINEWID
 40
0.0
  9
$SPLFRAME
 70
     0
  9
$SPLINETYPE
 70
     6
  9
$SPLINESEGS
 70
     8
  9
$HANDSEED
  5
31F
  9
$SURFTAB1
 70
     6
  9
$SURFTAB2
 70
     6
  9
$SURFTYPE
 70
     6
  9
$SURFU
 70
     6
  9
$SURFV
 70
     6
  9
$UCSBASE
  2

  9
$UCSNAME
  2

  9
$UCSORG
 10
0.0
 20
0.0
 30
0.0
  9
$UCSXDIR
 10
1.0
 20
0.0
 30
0.0
  9
$UCSYDIR
 10
0.0
 20
1.0
 30
0.0
  9
$UCSORTHOREF
  2

  9
$UCSORTHOVIEW
 70
     0
  9
$UCSORGTOP
 10
0.0
 20
0.0
 30
0.0
  9
$UCSORGBOTTOM
 10
0.0
 20
0.0
 30
0.0
  9
$UCSORGLEFT
 10
0.0
 20
0.0
 30
0.0
  9
$UCSORGRIGHT
 10
0.0
 20
0.0
 30
0.0
  9
$UCSORGFRONT
 10
0.0
 20
0.0
 30
0.0
  9
$UCSORGBACK
 10
0.0
 20
0.0
 30
0.0
  9
$PUCSBASE
  2

  9
$PUCSNAME
  2

  9
$PUCSORG
 10
0.0
 20
0.0
 30
0.0
  9
$PUCSXDIR
 10
1.0
 20
0.0
 30
0.0
  9
$PUCSYDIR
 10
0.0
 20
1.0
 30
0.0
  9
$PUCSORTHOREF
  2

  9
$PUCSORTHOVIEW
 70
     0
  9
$PUCSORGTOP
 10
0.0
 20
0.0
 30
0.0
  9
$PUCSORGBOTTOM
 10
0.0
 20
0.0
 30
0.0
  9
$PUCSORGLEFT
 10
0.0
 20
0.0
 30
0.0
  9
$PUCSORGRIGHT
 10
0.0
 20
0.0
 30
0.0
  9
$PUCSORGFRONT
 10
0.0
 20
0.0
 30
0.0
  9
$PUCSORGBACK
 10
0.0
 20
0.0
 30
0.0
  9
$USERI1
 70
     0
  9
$USERI2
 70
     0
  9
$USERI3
 70
     0
  9
$USERI4
 70
     0
  9
$USERI5
 70
     0
  9
$USERR1
 40
0.0
  9
$USERR2
 40
0.0
  9
$USERR3
 40
0.0
  9
$USERR4
 40
0.0
  9
$USERR5
 40
0.0
  9
$WORLDVIEW
 70
     1
  9
$SHADEDGE
 70
     3
  9
$SHADEDIF
 70
    70
  9
$TILEMODE
 70
     1
  9
$MAXACTVP
 70
    64
  9
$PINSBASE
 10
0.0
 20
0.0
 30
0.0
  9
$PLIMCHECK
 70
     0
  9
$PEXTMIN
 10
1.0000000000E+20
 20
1.0000000000E+20
 30
1.0000000000E+20
  9
$PEXTMAX
 10
-1.0000000000E+20
 20
-1.0000000000E+20
 30
-1.0000000000E+20
  9
$PLIMMIN
 10
0.0
 20
0.0
  9
$PLIMMAX
 10
420.0
 20
297.0
  9
$UNITMODE
 70
     0
  9
$VISRETAIN
 70
     1
  9
$PLINEGEN
 70
     0
  9
$PSLTSCALE
 70
     1
  9
$TREEDEPTH
 70
  3020
  9
$CMLSTYLE
  2
Standard
  9
$CMLJUST
 70
     0
  9
$CMLSCALE
 40
20.0
  9
$PROXYGRAPHICS
 70
     1
  9
$MEASUREMENT
 70
     1
  9
$CELWEIGHT
370
    -1
  9
$ENDCAPS
280
     0
  9
$JOINSTYLE
280
     0
  9
$LWDISPLAY
290
     1
  9
$INSUNITS
 70
     4
  9
$HYPERLINKBASE
  1

  9
$STYLESHEET
  1

  9
$XEDIT
290
     1
  9
$CEPSNTYPE
380
     0
  9
$PSTYLEMODE
290
     1
  9
$FINGERPRINTGUID
  2
{4b6586a1-b70d-4d13-b233-7e159a25002b}
  9
$VERSIONGUID
  2
{FAEB1C32-E019-11D5-929B-00C0DF256EC4}
  9
$EXTNAMES
290
     1
  9
$PSVPSCALE
 40
0.0
  9
$OLESTARTUP
290
     0
  0
ENDSEC
  0
SECTION
  2
CLASSES
  0
CLASS
  1
ACDBDICTIONARYWDFLT
  2
AcDbDictionaryWithDefault
  3
ObjectDBX Classes
 90
        0
280
     0
281
     0
  0
CLASS
  1
VISUALSTYLE
  2
AcDbVisualStyle
  3
ObjectDBX Classes
 90
     4095
280
     0
281
     0
  0
CLASS
  1
MATERIAL
  2
AcDbMaterial
  3
ObjectDBX Classes
 90
     1153
280
     0
281
     0
  0
CLASS
  1
SCALE
  2
AcDbScale
  3
ObjectDBX Classes
 90
     1153
280
     0
281
     0
  0
CLASS
  1
TABLESTYLE
  2
AcDbTableStyle
  3
ObjectDBX Classes
 90
     4095
280
     0
281
     0
  0
CLASS
  1
MLEADERSTYLE
  2
AcDbMLeaderStyle
  3
ACDB_MLEADERSTYLE_CLASS
 90
     4095
280
     0
281
     0
  0
CLASS
  1
SUN
  2
AcDbSun
  3
SCENEOE
 90
     1153
280
     0
281
     0
  0
CLASS
  1
ACDBPLACEHOLDER
  2
AcDbPlaceHolder
  3
ObjectDBX Classes
 90
        0
280
     0
281
     0
  0
CLASS
  1
LAYOUT
  2
AcDbLayout
  3
ObjectDBX Classes
 90
        0
280
     0
281
     0
  0
ENDSEC
  0
SECTION
  2
TABLES
  0
TABLE
  2
VPORT
  5
8
330
0
100
AcDbSymbolTable
 70
     1
  0
VPORT
  5
29
330
8
100
AcDbSymbolTableRecord
100
AcDbViewportTableRecord
  2
*Active
 70
     0
 10
0.0
 20
0.0
 11
1.0
 21
1.0
 12
10000.0
 22
5000.0
 13
0.0
 23
0.0
 14
10.0
 24
10.0
 15
10.0
 25
10.0
 16
0.0
 26
0.0
 36
1.0
 17
0.0
 27
0.0
 37
0.0
 40
10000.0
 41
2.0
 42
50.0
 43
0.0
 44
0.0
 50
0.0
 51
0.0
 71
     0
 72
  2000
 73
     1
 74
     3
 75
     0
 76
     0
 77
     0
 78
     0
281
     0
 65
     1
110
0.0
120
0.0
130
0.0
111
1.0
121
0.0
131
0.0
112
0.0
122
1.0
132
0.0
 79
     0
146
0.0
  0
ENDTAB
  0
TABLE
  2
LTYPE
  5
5
330
0
100
AcDbSymbolTable
 70
     6
  0
LTYPE
  5
14
330
5
100
AcDbSymbolTableRecord
100
AcDbLinetypeTableRecord
  2
ByBlock
 70
     0
  3

 72
    65
 73
     0
 40
0.0
  0
LTYPE
  5
15
330
5
100
AcDbSymbolTableRecord
100
AcDbLinetypeTableRecord
  2
ByLayer
 70
     0
  3

 72
    65
 73
     0
 40
0.0
  0
LTYPE
  5
16
330
5
100
AcDbSymbolTableRecord
100
AcDbLinetypeTableRecord
  2
Continuous
 70
     0
  3
Solid line
 72
    65
 73
     0
 40
0.0
  0
LTYPE
  5
6E
330
5
100
AcDbSymbolTableRecord
100
AcDbLinetypeTableRecord
  2
HIDDEN
 70
     0
  3
Hidden __ __ __ __ __ __ __ __ __ __ __ __ __ __
 72
    65
 73
     2
 40
1.905
 49
1.27
 74
     0
 49
-0.635
 74
     0
  0
LTYPE
  5
6F
330
5
100
AcDbSymbolTableRecord
100
AcDbLinetypeTableRecord
  2
PHANTOM
 70
     0
  3
Phantom ______  __  __  ______  __  __  ______
 72
    65
 73
     6
 40
12.7
 49
6.35
 74
     0
 49
-1.27
 74
     0
 49
1.27
 74
     0
 49
-1.27
 74
     0
 49
1.27
 74
     0
 49
-1.27
 74
     0
  0
LTYPE
  5
70
330
5
100
AcDbSymbolTableRecord
100
AcDbLinetypeTableRecord
  2
CENTER
 70
     0
  3
Center ____ _ ____ _ ____ _ ____ _ ____ _ ____
 72
    65
 73
     4
 40
10.16
 49
6.35
 74
     0
 49
-1.27
 74
     0
 49
1.27
 74
     0
 49
-1.27
 74
     0
  0
LTYPE
  5
71
330
5
100
AcDbSymbolTableRecord
100
AcDbLinetypeTableRecord
  2
CENTERX2
 70
     0
  3
Center (2x) ________  __  ________  __  _____
 72
    65
 73
     4
 40
20.32
 49
12.7
 74
     0
 49
-2.54
 74
     0
 49
2.54
 74
     0
 49
-2.54
 74
     0
  0
LTYPE
  5
72
330
5
100
AcDbSymbolTableRecord
100
AcDbLinetypeTableRecord
  2
DOT2
 70
     0
  3
Dot (.5x) ........................................
 72
    65
 73
     2
 40
0.635
 49
0.0
 74
     0
 49
-0.635
 74
     0
  0
ENDTAB
  0
TABLE
  2
LAYER
  5
2
330
0
100
AcDbSymbolTable
 70
    13
  0
LAYER
  5
10
330
2
100
AcDbSymbolTableRecord
100
AcDbLayerTableRecord
  2
0
 70
     0
 62
     7
  6
Continuous
370
    -3
390
F
  0
LAYER
  5
73
330
2
100
AcDbSymbolTableRecord
100
AcDbLayerTableRecord
  2
FORMAT
 70
     0
 62
     7
  6
Continuous
370
    -3
390
F
  0
LAYER
  5
74
330
2
100
AcDbSymbolTableRecord
100
AcDbLayerTableRecord
  2
OSA
 70
     0
 62
     7
  6
CENTER
370
    -3
390
F
  0
LAYER
  5
75
330
2
100
AcDbSymbolTableRecord
100
AcDbLayerTableRecord
  2
0_35
 70
     0
 62
     7
  6
Continuous
370
    35
390
F
  0
LAYER
  5
76
330
2
100
AcDbSymbolTableRecord
100
AcDbLayerTableRecord
  2
0_5
 70
     0
 62
     7
  6
Continuous
370
    50
390
F
  0
LAYER
  5
77
330
2
100
AcDbSymbolTableRecord
100
AcDbLayerTableRecord
  2
0_25
 70
     0
 62
     7
  6
Continuous
370
    25
390
F
  0
LAYER
  5
78
330
2
100
AcDbSymbolTableRecord
100
AcDbLayerTableRecord
  2
0_18
 70
     0
 62
     7
  6
Continuous
370
    -3
390
F
  0
LAYER
  5
79
330
2
100
AcDbSymbolTableRecord
100
AcDbLayerTableRecord
  2
SLD-0
 70
     0
 62
   179
  6
Continuous
370
    -3
390
F
  0
LAYER
  5
7A
330
2
100
AcDbSymbolTableRecord
100
AcDbLayerTableRecord
  2
KOTY
 70
     0
 62
     7
  6
Continuous
370
    -3
390
F
  0
LAYER
  5
7B
330
2
100
AcDbSymbolTableRecord
100
AcDbLayerTableRecord
  2
SILNA
 70
     0
 62
   179
  6
Continuous
370
    -3
390
F
  0
LAYER
  5
7C
330
2
100
AcDbSymbolTableRecord
100
AcDbLayerTableRecord
  2
0_18_1
 70
     0
 62
   179
  6
Continuous
370
    -3
390
F
  0
LAYER
  5
7D
330
2
100
AcDbSymbolTableRecord
100
AcDbLayerTableRecord
  2
0_35_1
 70
     0
 62
   179
  6
Continuous
370
    35
390
F
  0
LAYER
  5
7E
330
2
100
AcDbSymbolTableRecord
100
AcDbLayerTableRecord
  2
0_5_1
 70
     0
 62
   179
  6
Continuous
370
    50
390
F
  0
ENDTAB
  0
TABLE
  2
STYLE
  5
3
330
0
100
AcDbSymbolTable
 70
     1
  0
STYLE
  5
11
330
3
100
AcDbSymbolTableRecord
100
AcDbTextStyleTableRecord
  2
Standard
 70
     0
 40
0.0
 41
1.0
 50
0.0
 71
     0
 42
2.0
  3
txt
  4

  0
ENDTAB
  0
TABLE
  2
VIEW
  5
6
330
0
100
AcDbSymbolTable
 70
     0
  0
ENDTAB
  0
TABLE
  2
UCS
  5
7
330
0
100
AcDbSymbolTable
 70
     0
  0
ENDTAB
  0
TABLE
  2
APPID
  5
9
330
0
100
AcDbSymbolTable
 70
     1
  0
APPID
  5
12
330
9
100
AcDbSymbolTableRecord
100
AcDbRegAppTableRecord
  2
ACAD
 70
     0
  0
ENDTAB
  0
TABLE
  2
DIMSTYLE
  5
A
330
0
100
AcDbSymbolTable
 70
     1
100
AcDbDimStyleTable
  0
DIMSTYLE
105
27
330
A
100
AcDbSymbolTableRecord
100
AcDbDimStyleTableRecord
  2
ISO-25
 70
     0
 41
2.5
 42
0.625
 43
3.75
 44
1.25
 73
     0
 74
     0
 77
     1
 78
     8
140
2.5
141
2.5
143
0.0393700787
147
0.625
171
     3
172
     1
178
     0
271
     2
272
     2
274
     3
278
    44
283
     0
284
     8
340
11
  0
ENDTAB
  0
TABLE
  2
BLOCK_RECORD
  5
1
330
0
100
AcDbSymbolTable
 70
     1
  0
BLOCK_RECORD
  5
1F
330
1
100
AcDbSymbolTableRecord
100
AcDbBlockTableRecord
  2
*Model_Space
340
22
  0
BLOCK_RECORD
  5
1B
330
1
100
AcDbSymbolTableRecord
100
AcDbBlockTableRecord
  2
*Paper_Space
340
1E
  0
BLOCK_RECORD
  5
23
330
1
100
AcDbSymbolTableRecord
100
AcDbBlockTableRecord
  2
*Paper_Space0
340
26
  0
ENDTAB
  0
ENDSEC
  0
SECTION
  2
BLOCKS
  0
BLOCK
  5
20
330
1F
100
AcDbEntity
  8
0
100
AcDbBlockBegin
  2
*Model_Space
 70
     0
 10
0.0
 20
0.0
 30
0.0
  3
*Model_Space
  1

  0
ENDBLK
  5
21
330
1F
100
AcDbEntity
  8
0
100
AcDbBlockEnd
  0
BLOCK
  5
1C
330
1B
100
AcDbEntity
 67
     1
  8
0
100
AcDbBlockBegin
  2
*Paper_Space
 70
     0
 10
0.0
 20
0.0
 30
0.0
  3
*Paper_Space
  1

  0
ENDBLK
  5
1D
330
1B
100
AcDbEntity
 67
     1
  8
0
100
AcDbBlockEnd
  0
BLOCK
  5
24
330
23
100
AcDbEntity
  8
0
100
AcDbBlockBegin
  2
*Paper_Space0
 70
     0
 10
0.0
 20
0.0
 30
0.0
  3
*Paper_Space0
  1

  0
ENDBLK
  5
25
330
23
100
AcDbEntity
  8
0
100
AcDbBlockEnd
  0
ENDSEC
  0
SECTION
  2
ENTITIES
  0
LINE
  5
7F
330
1F
100
AcDbEntity
  8
0
  6
Continuous
 62
     7
370
    25
100
AcDbLine
 10
6001.9404817582
 20
4589.2896677801
 30
0.0
 11
6001.9404817582
 21
4574.0455580074
 31
0.0
  0
LINE
  5
80
330
1F
100
AcDbEntity
  8
0
  6
Continuous
 62
     7
370
    25
100
AcDbLine
 10
6001.9404817582
 20
4560.0455580074
 30
0.0
 11
6001.9404817582
 21
4557.5455580074
 31
0.0
  0
LINE
  5
81
330
1F
100
AcDbEntity
  8
0
  6
Continuous
 62
     7
370
    25
100
AcDbLine
 10
6033.9404817582
 20
4557.5455580074
 30
0.0
 11
6033.9404817582
 21
4560.0455580074
 31
0.0
  0
LINE
  5
82
330
1F
100
AcDbEntity
  8
0
  6
Continuous
 62
     7
370
    25
100
AcDbLine
 10
6033.9404817582
 20
4574.0455580074
 30
0.0
 11
6033.9404817582
 21
4589.2896677801
 31
0.0
  0
LINE
  5
83
330
1F
100
AcDbEntity
  8
0
  6
Continuous
 62
     7
370
    25
100
AcDbLine
 10
6051.9404817582
 20
4497.5455580074
 30
0.0
 11
6045.2499235133
 21
4554.8932001061
 31
0.0
  0
LINE
  5
84
330
1F
100
AcDbEntity
  8
0
  6
Continuous
 62
     7
370
    25
100
AcDbLine
 10
5990.631040003
 20
4554.8932001061
 30
0.0
 11
5983.9404817582
 21
4497.5455580074
 31
0.0
  0
LINE
  5
85
330
1F
100
AcDbEntity
  8
0
  6
Continuous
 62
     7
370
    25
100
AcDbLine
 10
5983.9404817582
 20
4497.5455580074
 30
0.0
 11
5990.834267478
 21
4430.239882146
 31
0.0
  0
LINE
  5
86
330
1F
100
AcDbEntity
  8
0
  6
Continuous
 62
     7
370
    25
100
AcDbLine
 10
6045.0466960383
 20
4430.239882146
 30
0.0
 11
6051.9404817582
 21
4497.5455580074
 31
0.0
  0
ARC
  5
87
330
1F
100
AcDbEntity
  8
0
  6
Continuous
 62
     7
370
    25
100
AcDbCircle
 10
5993.6108294203
 20
4554.5455580074
 30
0.0
 40
3.000000000000909
100
AcDbArc
 50
90.0
 51
173.345574954
  0
ARC
  5
88
330
1F
100
AcDbEntity
  8
0
  6
Continuous
 62
     7
370
    25
100
AcDbCircle
 10
6042.2701340961
 20
4554.5455580074
 30
0.0
 40
3.000000000000909
100
AcDbArc
 50
6.654425046
 51
90.0
  0
ARC
  5
89
330
1F
100
AcDbEntity
  8
0
  6
Continuous
 62
     7
370
    25
100
AcDbCircle
 10
5993.818653892
 20
4430.5455580074
 30
0.0
 40
3.000000000000517
100
AcDbArc
 50
185.8481280262
 51
270.0
  0
ARC
  5
8A
330
1F
100
AcDbEntity
  8
0
  6
Continuous
 62
     7
370
    25
100
AcDbCircle
 10
6042.0623096244
 20
4430.5455580074
 30
0.0
 40
3.000000000000517
100
AcDbArc
 50
270.0
 51
354.1518719738
  0
LINE
  5
8B
330
1F
100
AcDbEntity
  8
0
  6
Continuous
 62
     7
370
    25
100
AcDbLine
 10
6042.9404817582
 20
4560.0455580074
 30
0.0
 11
6040.9404817582
 21
4564.0455580074
 31
0.0
  0
LINE
  5
8C
330
1F
100
AcDbEntity
  8
0
  6
Continuous
 62
     7
370
    25
100
AcDbLine
 10
5994.9404817582
 20
4564.0455580074
 30
0.0
 11
5992.9404817582
 21
4560.0455580074
 31
0.0
  0
ARC
  5
8D
330
1F
100
AcDbEntity
  8
0
  6
Continuous
 62
     7
370
    25
100
AcDbCircle
 10
5997.9404817582
 20
4571.0455580074
 30
0.0
 40
3.000000000000909
100
AcDbArc
 50
90.0
 51
180.0
  0
ARC
  5
8E
330
1F
100
AcDbEntity
  8
0
  6
Continuous
 62
     7
370
    25
100
AcDbCircle
 10
6037.9404817582
 20
4571.0455580074
 30
0.0
 40
3.0
100
AcDbArc
 50
0.0
 51
90.0
  0
LINE
  5
8F
330
1F
100
AcDbEntity
  8
0
  6
Continuous
 62
     7
370
    25
100
AcDbLine
 10
5994.9404817582
 20
4571.0455580074
 30
0.0
 11
5994.9404817582
 21
4564.0455580074
 31
0.0
  0
LINE
  5
90
330
1F
100
AcDbEntity
  8
0
  6
Continuous
 62
     7
370
    25
100
AcDbLine
 10
6040.9404817582
 20
4564.0455580074
 30
0.0
 11
6040.9404817582
 21
4571.0455580074
 31
0.0
  0
LINE
  5
91
330
1F
100
AcDbEntity
  8
0
  6
Continuous
 62
     7
370
    25
100
AcDbLine
 10
7115.4404817582
 20
5258.7728940357
 30
0.0
 11
7113.4404817582
 21
5258.7728940357
 31
0.0
  0
LINE
  5
92
330
1F
100
AcDbEntity
  8
0
  6
Continuous
 62
     7
370
    25
100
AcDbLine
 10
5867.4404817582
 20
5258.7728940357
 30
0.0
 11
5865.4404817582
 21
5258.7728940357
 31
0.0
  0
LINE
  5
93
330
1F
100
AcDbEntity
  8
0
  6
Continuous
 62
     7
370
    25
100
AcDbLine
 10
7113.4404817582
 20
5258.7728940357
 30
0.0
 11
5867.4404817582
 21
5258.7728940357
 31
0.0
  0
ARC
  5
94
330
1F
100
AcDbEntity
  8
0
  6
Continuous
 62
     7
370
    25
100
AcDbCircle
 10
5987.4404817582
 20
5219.7553671734
 30
0.0
 40
37.00000000000027
100
AcDbArc
 50
75.2574286589
 51
104.7425713411
  0
LINE
  5
95
330
1F
100
AcDbEntity
  8
0
  6
Continuous
 62
     7
370
    25
100
AcDbLine
 10
6788.8498242555
 20
5135.3803252827
 30
0.0
 11
6788.9404817582
 21
5135.28966778
 31
0.0
  0
LINE
  5
96
330
1F
100
AcDbEntity
  8
0
  6
Continuous
 62
     7
370
    25
100
AcDbLine
 10
6791.9404817582
 20
5135.28966778
 30
0.0
 11
6792.0311392609
 21
5135.3803252827
 31
0.0
  0
LINE
  5
97
330
1F
100
AcDbEntity
  8
0
  6
Continuous
 62
     7
370
    25
100
AcDbLine
 10
6188.8498242555
 20
5135.3803252827
 30
0.0
 11
6188.9404817582
 21
5135.28966778
 31
0.0
  0
LINE
  5
98
330
1F
100
AcDbEntity
  8
0
  6
Continuous
 62
     7
370
    25
100
AcDbLine
 10
6191.9404817582
 20
5135.28966778
 30
0.0
 11
6192.0311392609
 21
5135.3803252827
 31
0.0
  0
LINE
  5
99
330
1F
100
AcDbEntity
  8
0
  6
Continuous
 62
     7
370
    25
100
AcDbLine
 10
6181.1904817582
 20
5141.130488435
 30
0.0
 11
6181.1904817582
 21
5140.5267847935
 31
0.0
  0
LINE
  5
9A
330
1F
100
AcDbEntity
  8
0
  6
Continuous
 62
     7
370
    25
100
AcDbLine
 10
6199.6904817582
 20
5140.5267847935
 30
0.0
 11
6199.6904817582
 21
5141.130488435
 31
0.0
  0
LINE
  5
9B
330
1F
100
AcDbEntity
  8
0
  6
Continuous
 62
     7
370
    25
100
AcDbLine
 10
6197.9404817582
 20
5141.4927106198
 30
0.0
 11
6197.9404817582
 21
5141.6932664663
 31
0.0
  0
LINE
  5
9C
330
1F
100
AcDbEntity
  8
0
  6
Continuous
 62
     7
370
    25
100
AcDbLine
 10
6182.9404817582
 20
5142.1893950075
 30
0.0
 11
6182.9404817582
 21
5141.4927106198
 31
0.0
  0
LINE
  5
9D
330
1F
100
AcDbEntity
  8
0
  6
Continuous
 62
     7
370
    25
100
AcDbLine
 10
6781.1904817582
 20
5141.130488435
 30
0.0
 11
6781.1904817582
 21
5140.5267847935
 31
0.0
  0
LINE
  5
9E
330
1F
100
AcDbEntity
  8
0
  6
Continuous
 62
     7
370
    25
100
AcDbLine
 10
6799.6904817582
 20
5140.5267847935
 30
0.0
 11
6799.6904817582
 21
5141.130488435
 31
0.0
  0
LINE
  5
9F
330
1F
100
AcDbEntity
  8
0
  6
Continuous
 62
     7
370
    25
100
AcDbLine
 10
6797.9404817582
 20
5141.4927106198
 30
0.0
 11
6797.9404817582
 21
5141.6932664663
 31
0.0
  0
LINE
  5
A0
330
1F
100
AcDbEntity
  8
0
  6
Continuous
 62
     7
370
    25
100
AcDbLine
 10
6782.9404817582
 20
5142.1893950075
 30
0.0
 11
6782.9404817582
 21
5141.4927106198
 31
0.0
  0
LINE
  5
A1
330
1F
100
AcDbEntity
  8
0
  6
Continuous
 62
     7
370
    25
100
AcDbLine
 10
6792.0904817582
 20
5135.3847999932
 30
0.0
 11
6792.0904817582
 21
5135.3872399346
 31
0.0
  0
LINE
  5
A2
330
1F
100
AcDbEntity
  8
0
  6
Continuous
 62
     7
370
    25
100
AcDbLine
 10
6192.0904817582
 20
5135.3847999932
 30
0.0
 11
6192.0904817582
 21
5135.3872399346
 31
0.0
  0
ARC
  5
A3
330
1F
100
AcDbEntity
  8
0
  6
Continuous
 62
     7
370
    25
100
AcDbCircle
 10
6017.9404817582
 20
4535.5455580074
 30
0.0
 40
40.00000000000026
100
AcDbArc
 50
125.0996321954
 51
216.1070114058
  0
ARC
  5
A4
330
1F
100
AcDbEntity
  8
0
  6
Continuous
 62
     7
370
    25
100
AcDbCircle
 10
6017.9404817582
 20
4535.5455580074
 30
0.0
 40
40.00000000000009
100
AcDbArc
 50
323.8929885942
 51
54.9003678046
  0
LINE
  5
A5
330
1F
100
AcDbEntity
  8
0
  6
Continuous
 62
     7
370
    25
100
AcDbLine
 10
5983.9404817582
 20
4497.5455580074
 30
0.0
 11
6051.9404817582
 21
4497.5455580074
 31
0.0
  0
LINE
  5
A6
330
1F
100
AcDbEntity
  8
0
  6
Continuous
 62
     7
370
    25
100
AcDbLine
 10
5993.6108294203
 20
4557.5455580074
 30
0.0
 11
6042.2701340961
 21
4557.5455580074
 31
0.0
  0
LINE
  5
A7
330
1F
100
AcDbEntity
  8
0
  6
Continuous
 62
     7
370
    25
100
AcDbLine
 10
5993.818653892
 20
4427.5455580074
 30
0.0
 11
6042.0623096244
 21
4427.5455580074
 31
0.0
  0
LINE
  5
A8
330
1F
100
AcDbEntity
  8
0
  6
Continuous
 62
     7
370
    25
100
AcDbLine
 10
5994.9404817582
 20
4564.0455580074
 30
0.0
 11
6040.9404817582
 21
4564.0455580074
 31
0.0
  0
LINE
  5
A9
330
1F
100
AcDbEntity
  8
0
  6
Continuous
 62
     7
370
    25
100
AcDbLine
 10
5992.9404817582
 20
4560.0455580074
 30
0.0
 11
6042.9404817582
 21
4560.0455580074
 31
0.0
  0
LINE
  5
AA
330
1F
100
AcDbEntity
  8
0
  6
Continuous
 62
     7
370
    25
100
AcDbLine
 10
5997.9404817582
 20
4574.0455580074
 30
0.0
 11
6037.9404817582
 21
4574.0455580074
 31
0.0
  0
LINE
  5
AB
330
1F
100
AcDbEntity
  8
0
  6
Continuous
 62
     7
370
    25
100
AcDbLine
 10
6034.4404817582
 20
4557.5455580074
 30
0.0
 11
6033.9404817582
 21
4557.9118272537
 31
0.0
  0
LINE
  5
AC
330
1F
100
AcDbEntity
  8
0
  6
Continuous
 62
     7
370
    25
100
AcDbLine
 10
6001.9404817582
 20
4557.9118272537
 30
0.0
 11
6001.4404817582
 21
4557.5455580074
 31
0.0
  0
LINE
  5
AD
330
1F
100
AcDbEntity
  8
0
  6
Continuous
 62
     7
370
    25
100
AcDbLine
 10
7068.7904817582
 20
4812.6296677801
 30
0.0
 11
5912.0904817582
 21
4812.6296677801
 31
0.0
  0
LINE
  5
AE
330
1F
100
AcDbEntity
  8
0
  6
Continuous
 62
     7
370
    25
100
AcDbLine
 10
5912.0904817582
 20
4812.6296677801
 30
0.0
 11
5912.0904817582
 21
4814.2796677801
 31
0.0
  0
LINE
  5
AF
330
1F
100
AcDbEntity
  8
0
  6
Continuous
 62
     7
370
    25
100
AcDbLine
 10
7068.7904817582
 20
4814.2796677801
 30
0.0
 11
5912.0904817582
 21
4814.2796677801
 31
0.0
  0
LINE
  5
B0
330
1F
100
AcDbEntity
  8
0
  6
Continuous
 62
     7
370
    25
100
AcDbLine
 10
7068.7904817582
 20
4812.6296677801
 30
0.0
 11
7068.7904817582
 21
4814.2796677801
 31
0.0
  0
LINE
  5
B1
330
1F
100
AcDbEntity
  8
0
  6
Continuous
 62
     7
370
    25
100
AcDbLine
 10
7068.7904817582
 20
4590.9396677801
 30
0.0
 11
5912.0904817582
 21
4590.9396677801
 31
0.0
  0
LINE
  5
B2
330
1F
100
AcDbEntity
  8
0
  6
Continuous
 62
     7
370
    25
100
AcDbLine
 10
5912.0904817582
 20
4590.9396677801
 30
0.0
 11
5912.0904817582
 21
4812.6296677801
 31
0.0
  0
LINE
  5
B3
330
1F
100
AcDbEntity
  8
0
  6
Continuous
 62
     7
370
    25
100
AcDbLine
 10
7068.7904817582
 20
4590.9396677801
 30
0.0
 11
7068.7904817582
 21
4812.6296677801
 31
0.0
  0
LINE
  5
B4
330
1F
100
AcDbEntity
  8
0
  6
Continuous
 62
     7
370
    25
100
AcDbLine
 10
7068.7904817582
 20
4812.6296677801
 30
0.0
 11
7070.4404817582
 21
4812.6296677801
 31
0.0
  0
LINE
  5
B5
330
1F
100
AcDbEntity
  8
0
  6
Continuous
 62
     7
370
    25
100
AcDbLine
 10
7070.4404817582
 20
4590.9396677801
 30
0.0
 11
7070.4404817582
 21
4812.6296677801
 31
0.0
  0
LINE
  5
B6
330
1F
100
AcDbEntity
  8
0
  6
Continuous
 62
     7
370
    25
100
AcDbLine
 10
7070.4404817582
 20
4590.9396677801
 30
0.0
 11
7068.7904817582
 21
4590.9396677801
 31
0.0
  0
LINE
  5
B7
330
1F
100
AcDbEntity
  8
0
  6
Continuous
 62
     7
370
    25
100
AcDbLine
 10
5912.0904817582
 20
4590.9396677801
 30
0.0
 11
5910.4404817582
 21
4590.9396677801
 31
0.0
  0
LINE
  5
B8
330
1F
100
AcDbEntity
  8
0
  6
Continuous
 62
     7
370
    25
100
AcDbLine
 10
5910.4404817582
 20
4590.9396677801
 30
0.0
 11
5910.4404817582
 21
4812.6296677801
 31
0.0
  0
LINE
  5
B9
330
1F
100
AcDbEntity
  8
0
  6
Continuous
 62
     7
370
    25
100
AcDbLine
 10
5910.4404817582
 20
4812.6296677801
 30
0.0
 11
5912.0904817582
 21
4812.6296677801
 31
0.0
  0
LINE
  5
BA
330
1F
100
AcDbEntity
  8
0
  6
Continuous
 62
     7
370
    25
100
AcDbLine
 10
7068.7904817582
 20
4589.2896677801
 30
0.0
 11
5912.0904817582
 21
4589.2896677801
 31
0.0
  0
LINE
  5
BB
330
1F
100
AcDbEntity
  8
0
  6
Continuous
 62
     7
370
    25
100
AcDbLine
 10
7068.7904817582
 20
4589.2896677801
 30
0.0
 11
7068.7904817582
 21
4590.9396677801
 31
0.0
  0
LINE
  5
BC
330
1F
100
AcDbEntity
  8
0
  6
Continuous
 62
     7
370
    25
100
AcDbLine
 10
5912.0904817582
 20
4589.2896677801
 30
0.0
 11
5912.0904817582
 21
4590.9396677801
 31
0.0
  0
LINE
  5
BD
330
1F
100
AcDbEntity
  8
0
  6
Continuous
 62
     7
370
    25
100
AcDbLine
 10
7115.4404817582
 20
4589.2896677801
 30
0.0
 11
7115.4404817582
 21
4814.2796677801
 31
0.0
  0
LINE
  5
BE
330
1F
100
AcDbEntity
  8
0
  6
Continuous
 62
     7
370
    25
100
AcDbLine
 10
7112.3404817582
 20
4589.2896677801
 30
0.0
 11
7115.4404817582
 21
4589.2896677801
 31
0.0
  0
LINE
  5
BF
330
1F
100
AcDbEntity
  8
0
  6
Continuous
 62
     7
370
    25
100
AcDbLine
 10
7112.3404817582
 20
4589.2896677801
 30
0.0
 11
7112.3404817582
 21
4814.2796677801
 31
0.0
  0
LINE
  5
C0
330
1F
100
AcDbEntity
  8
0
  6
Continuous
 62
     7
370
    25
100
AcDbLine
 10
7115.4404817582
 20
4814.2796677801
 30
0.0
 11
7112.3404817582
 21
4814.2796677801
 31
0.0
  0
LINE
  5
C1
330
1F
100
AcDbEntity
  8
0
  6
Continuous
 62
     7
370
    25
100
AcDbLine
 10
7073.5404817582
 20
4589.2896677801
 30
0.0
 11
7112.3404817582
 21
4589.2896677801
 31
0.0
  0
LINE
  5
C2
330
1F
100
AcDbEntity
  8
0
  6
Continuous
 62
     7
370
    25
100
AcDbLine
 10
7073.5404817582
 20
4589.2896677801
 30
0.0
 11
7073.5404817582
 21
4814.2796677801
 31
0.0
  0
CIRCLE
  5
C3
330
1F
100
AcDbEntity
  8
0
  6
Continuous
 62
     7
370
    25
100
AcDbCircle
 10
7101.9404817582
 20
4629.2896677801
 30
0.0
 40
4.500000000000909
  0
LINE
  5
C4
330
1F
100
AcDbEntity
  8
0
  6
Continuous
 62
     7
370
    25
100
AcDbLine
 10
7112.3404817582
 20
4814.2796677801
 30
0.0
 11
7073.5404817582
 21
4814.2796677801
 31
0.0
  0
LINE
  5
C5
330
1F
100
AcDbEntity
  8
0
  6
Continuous
 62
     7
370
    25
100
AcDbLine
 10
7070.4404817582
 20
4814.2796677801
 30
0.0
 11
7073.5404817582
 21
4814.2796677801
 31
0.0
  0
LINE
  5
C6
330
1F
100
AcDbEntity
  8
0
  6
Continuous
 62
     7
370
    25
100
AcDbLine
 10
7073.5404817582
 20
4589.2896677801
 30
0.0
 11
7070.4404817582
 21
4589.2896677801
 31
0.0
  0
LINE
  5
C7
330
1F
100
AcDbEntity
  8
0
  6
Continuous
 62
     7
370
    25
100
AcDbLine
 10
7070.4404817582
 20
4589.2896677801
 30
0.0
 11
7070.4404817582
 21
4590.9396677801
 31
0.0
  0
LINE
  5
C8
330
1F
100
AcDbEntity
  8
0
  6
Continuous
 62
     7
370
    25
100
AcDbLine
 10
7070.4404817582
 20
4812.6296677801
 30
0.0
 11
7070.4404817582
 21
4814.2796677801
 31
0.0
  0
LINE
  5
C9
330
1F
100
AcDbEntity
  8
0
  6
Continuous
 62
     7
370
    25
100
AcDbLine
 10
7115.4404817582
 20
4837.0896677801
 30
0.0
 11
7113.4404817582
 21
4837.0896677801
 31
0.0
  0
LINE
  5
CA
330
1F
100
AcDbEntity
  8
0
  6
Continuous
 62
     7
370
    25
100
AcDbLine
 10
7115.4404817582
 20
4837.0896677801
 30
0.0
 11
7115.4404817582
 21
4814.2896677801
 31
0.0
  0
LINE
  5
CB
330
1F
100
AcDbEntity
  8
0
  6
Continuous
 62
     7
370
    25
100
AcDbLine
 10
7115.4404817582
 20
4814.2896677801
 30
0.0
 11
7113.4404817582
 21
4814.2896677801
 31
0.0
  0
LINE
  5
CC
330
1F
100
AcDbEntity
  8
0
  6
Continuous
 62
     7
370
    25
100
AcDbLine
 10
7113.4404817582
 20
4837.0896677801
 30
0.0
 11
7113.4404817582
 21
4814.2896677801
 31
0.0
  0
LINE
  5
CD
330
1F
100
AcDbEntity
  8
0
  6
Continuous
 62
     7
370
    25
100
AcDbLine
 10
7115.4404817582
 20
4839.2896677801
 30
0.0
 11
7113.4404817582
 21
4839.2896677801
 31
0.0
  0
LINE
  5
CE
330
1F
100
AcDbEntity
  8
0
  6
Continuous
 62
     7
370
    25
100
AcDbLine
 10
7113.4404817582
 20
4839.2896677801
 30
0.0
 11
7113.4404817582
 21
4837.0896677801
 31
0.0
  0
LINE
  5
CF
330
1F
100
AcDbEntity
  8
0
  6
Continuous
 62
     7
370
    25
100
AcDbLine
 10
7115.4404817582
 20
4839.2896677801
 30
0.0
 11
7115.4404817582
 21
4837.0896677801
 31
0.0
  0
LINE
  5
D0
330
1F
100
AcDbEntity
  8
0
  6
Continuous
 62
     7
370
    25
100
AcDbLine
 10
7113.4404817582
 20
4814.2896677801
 30
0.0
 11
7113.4404817582
 21
4814.2796677801
 31
0.0
  0
LINE
  5
D1
330
1F
100
AcDbEntity
  8
0
  6
Continuous
 62
     7
370
    25
100
AcDbLine
 10
7115.4404817582
 20
4814.2896677801
 30
0.0
 11
7115.4404817582
 21
4814.2796677801
 31
0.0
  0
LINE
  5
D2
330
1F
100
AcDbEntity
  8
0
  6
Continuous
 62
     7
370
    25
100
AcDbLine
 10
7115.4404817582
 20
5246.8803148236
 30
0.0
 11
7113.4404817582
 21
5246.8803148236
 31
0.0
  0
LINE
  5
D3
330
1F
100
AcDbEntity
  8
0
  6
Continuous
 62
     7
370
    25
100
AcDbLine
 10
7113.4404817582
 20
5246.8803148236
 30
0.0
 11
7113.4404817582
 21
4839.2896677801
 31
0.0
  0
LINE
  5
D4
330
1F
100
AcDbEntity
  8
0
  6
Continuous
 62
     7
370
    25
100
AcDbLine
 10
7115.4404817582
 20
5246.8803148236
 30
0.0
 11
7115.4404817582
 21
4839.2896677801
 31
0.0
  0
LINE
  5
D5
330
1F
100
AcDbEntity
  8
0
  6
Continuous
 62
     7
370
    25
100
AcDbLine
 10
7115.4404817582
 20
5249.0322395452
 30
0.0
 11
7113.4404817582
 21
5249.0322395452
 31
0.0
  0
LINE
  5
D6
330
1F
100
AcDbEntity
  8
0
  6
Continuous
 62
     7
370
    25
100
AcDbLine
 10
7113.4404817582
 20
5249.0322395452
 30
0.0
 11
7113.4404817582
 21
5246.8803148236
 31
0.0
  0
LINE
  5
D7
330
1F
100
AcDbEntity
  8
0
  6
Continuous
 62
     7
370
    25
100
AcDbLine
 10
7115.4404817582
 20
5249.0322395452
 30
0.0
 11
7115.4404817582
 21
5246.8803148236
 31
0.0
  0
LINE
  5
D8
330
1F
100
AcDbEntity
  8
0
  6
Continuous
 62
     7
370
    25
100
AcDbLine
 10
7115.4404817582
 20
5258.7248187573
 30
0.0
 11
7113.4404817582
 21
5258.7248187573
 31
0.0
  0
LINE
  5
D9
330
1F
100
AcDbEntity
  8
0
  6
Continuous
 62
     7
370
    25
100
AcDbLine
 10
7113.4404817582
 20
5258.7248187573
 30
0.0
 11
7113.4404817582
 21
5249.0322395452
 31
0.0
  0
LINE
  5
DA
330
1F
100
AcDbEntity
  8
0
  6
Continuous
 62
     7
370
    25
100
AcDbLine
 10
7115.4404817582
 20
5258.7248187573
 30
0.0
 11
7115.4404817582
 21
5249.0322395452
 31
0.0
  0
LINE
  5
DB
330
1F
100
AcDbEntity
  8
0
  6
Continuous
 62
     7
370
    25
100
AcDbLine
 10
7113.4404817582
 20
5258.7728940357
 30
0.0
 11
7113.4404817582
 21
5258.7248187573
 31
0.0
  0
LINE
  5
DC
330
1F
100
AcDbEntity
  8
0
  6
Continuous
 62
     7
370
    25
100
AcDbLine
 10
7115.4404817582
 20
5258.7728940357
 30
0.0
 11
7115.4404817582
 21
5258.7248187573
 31
0.0
  0
LINE
  5
DD
330
1F
100
AcDbEntity
  8
0
  6
Continuous
 62
     7
370
    25
100
AcDbLine
 10
5868.5404817582
 20
4589.2896677801
 30
0.0
 11
5868.5404817582
 21
4814.2796677801
 31
0.0
  0
LINE
  5
DE
330
1F
100
AcDbEntity
  8
0
  6
Continuous
 62
     7
370
    25
100
AcDbLine
 10
5868.5404817582
 20
4589.2896677801
 30
0.0
 11
5865.4404817582
 21
4589.2896677801
 31
0.0
  0
LINE
  5
DF
330
1F
100
AcDbEntity
  8
0
  6
Continuous
 62
     7
370
    25
100
AcDbLine
 10
5865.4404817582
 20
4589.2896677801
 30
0.0
 11
5865.4404817582
 21
4814.2796677801
 31
0.0
  0
LINE
  5
E0
330
1F
100
AcDbEntity
  8
0
  6
Continuous
 62
     7
370
    25
100
AcDbLine
 10
5865.4404817582
 20
4814.2796677801
 30
0.0
 11
5868.5404817582
 21
4814.2796677801
 31
0.0
  0
LINE
  5
E1
330
1F
100
AcDbEntity
  8
0
  6
Continuous
 62
     7
370
    25
100
AcDbLine
 10
5907.3404817582
 20
4589.2896677801
 30
0.0
 11
5907.3404817582
 21
4814.2796677801
 31
0.0
  0
LINE
  5
E2
330
1F
100
AcDbEntity
  8
0
  6
Continuous
 62
     7
370
    25
100
AcDbLine
 10
5907.3404817582
 20
4589.2896677801
 30
0.0
 11
5868.5404817582
 21
4589.2896677801
 31
0.0
  0
CIRCLE
  5
E3
330
1F
100
AcDbEntity
  8
0
  6
Continuous
 62
     7
370
    25
100
AcDbCircle
 10
5878.9404817582
 20
4629.2896677801
 30
0.0
 40
4.5
  0
LINE
  5
E4
330
1F
100
AcDbEntity
  8
0
  6
Continuous
 62
     7
370
    25
100
AcDbLine
 10
5868.5404817582
 20
4814.2796677801
 30
0.0
 11
5907.3404817582
 21
4814.2796677801
 31
0.0
  0
LINE
  5
E5
330
1F
100
AcDbEntity
  8
0
  6
Continuous
 62
     7
370
    25
100
AcDbLine
 10
5907.3404817582
 20
4589.2896677801
 30
0.0
 11
5910.4404817582
 21
4589.2896677801
 31
0.0
  0
LINE
  5
E6
330
1F
100
AcDbEntity
  8
0
  6
Continuous
 62
     7
370
    25
100
AcDbLine
 10
5910.4404817582
 20
4589.2896677801
 30
0.0
 11
5910.4404817582
 21
4590.9396677801
 31
0.0
  0
LINE
  5
E7
330
1F
100
AcDbEntity
  8
0
  6
Continuous
 62
     7
370
    25
100
AcDbLine
 10
5910.4404817582
 20
4812.6296677801
 30
0.0
 11
5910.4404817582
 21
4814.2796677801
 31
0.0
  0
LINE
  5
E8
330
1F
100
AcDbEntity
  8
0
  6
Continuous
 62
     7
370
    25
100
AcDbLine
 10
5910.4404817582
 20
4814.2796677801
 30
0.0
 11
5907.3404817582
 21
4814.2796677801
 31
0.0
  0
LINE
  5
E9
330
1F
100
AcDbEntity
  8
0
  6
Continuous
 62
     7
370
    25
100
AcDbLine
 10
5865.4404817582
 20
4814.2896677801
 30
0.0
 11
5867.4404817582
 21
4814.2896677801
 31
0.0
  0
LINE
  5
EA
330
1F
100
AcDbEntity
  8
0
  6
Continuous
 62
     7
370
    25
100
AcDbLine
 10
5865.4404817582
 20
4837.0896677801
 30
0.0
 11
5865.4404817582
 21
4814.2896677801
 31
0.0
  0
LINE
  5
EB
330
1F
100
AcDbEntity
  8
0
  6
Continuous
 62
     7
370
    25
100
AcDbLine
 10
5865.4404817582
 20
4837.0896677801
 30
0.0
 11
5867.4404817582
 21
4837.0896677801
 31
0.0
  0
LINE
  5
EC
330
1F
100
AcDbEntity
  8
0
  6
Continuous
 62
     7
370
    25
100
AcDbLine
 10
5867.4404817582
 20
4837.0896677801
 30
0.0
 11
5867.4404817582
 21
4814.2896677801
 31
0.0
  0
LINE
  5
ED
330
1F
100
AcDbEntity
  8
0
  6
Continuous
 62
     7
370
    25
100
AcDbLine
 10
5865.4404817582
 20
4839.2896677801
 30
0.0
 11
5865.4404817582
 21
4837.0896677801
 31
0.0
  0
LINE
  5
EE
330
1F
100
AcDbEntity
  8
0
  6
Continuous
 62
     7
370
    25
100
AcDbLine
 10
5865.4404817582
 20
4839.2896677801
 30
0.0
 11
5867.4404817582
 21
4839.2896677801
 31
0.0
  0
LINE
  5
EF
330
1F
100
AcDbEntity
  8
0
  6
Continuous
 62
     7
370
    25
100
AcDbLine
 10
5867.4404817582
 20
4839.2896677801
 30
0.0
 11
5867.4404817582
 21
4837.0896677801
 31
0.0
  0
LINE
  5
F0
330
1F
100
AcDbEntity
  8
0
  6
Continuous
 62
     7
370
    25
100
AcDbLine
 10
5867.4404817582
 20
4814.2896677801
 30
0.0
 11
5867.4404817582
 21
4814.2796677801
 31
0.0
  0
LINE
  5
F1
330
1F
100
AcDbEntity
  8
0
  6
Continuous
 62
     7
370
    25
100
AcDbLine
 10
5865.4404817582
 20
4814.2896677801
 30
0.0
 11
5865.4404817582
 21
4814.2796677801
 31
0.0
  0
LINE
  5
F2
330
1F
100
AcDbEntity
  8
0
  6
Continuous
 62
     7
370
    25
100
AcDbLine
 10
5865.4404817582
 20
5246.8803148236
 30
0.0
 11
5867.4404817582
 21
5246.8803148236
 31
0.0
  0
LINE
  5
F3
330
1F
100
AcDbEntity
  8
0
  6
Continuous
 62
     7
370
    25
100
AcDbLine
 10
5865.4404817582
 20
5249.0322395452
 30
0.0
 11
5867.4404817582
 21
5249.0322395452
 31
0.0
  0
LINE
  5
F4
330
1F
100
AcDbEntity
  8
0
  6
Continuous
 62
     7
370
    25
100
AcDbLine
 10
5867.4404817582
 20
5249.0322395452
 30
0.0
 11
5867.4404817582
 21
5246.8803148236
 31
0.0
  0
LINE
  5
F5
330
1F
100
AcDbEntity
  8
0
  6
Continuous
 62
     7
370
    25
100
AcDbLine
 10
5865.4404817582
 20
5249.0322395452
 30
0.0
 11
5865.4404817582
 21
5246.8803148236
 31
0.0
  0
LINE
  5
F6
330
1F
100
AcDbEntity
  8
0
  6
Continuous
 62
     7
370
    25
100
AcDbLine
 10
5867.4404817582
 20
5246.8803148236
 30
0.0
 11
5867.4404817582
 21
4839.2896677801
 31
0.0
  0
LINE
  5
F7
330
1F
100
AcDbEntity
  8
0
  6
Continuous
 62
     7
370
    25
100
AcDbLine
 10
5865.4404817582
 20
5246.8803148236
 30
0.0
 11
5865.4404817582
 21
4839.2896677801
 31
0.0
  0
LINE
  5
F8
330
1F
100
AcDbEntity
  8
0
  6
Continuous
 62
     7
370
    25
100
AcDbLine
 10
5865.4404817582
 20
5258.7248187573
 30
0.0
 11
5867.4404817582
 21
5258.7248187573
 31
0.0
  0
LINE
  5
F9
330
1F
100
AcDbEntity
  8
0
  6
Continuous
 62
     7
370
    25
100
AcDbLine
 10
5867.4404817582
 20
5258.7248187573
 30
0.0
 11
5867.4404817582
 21
5249.0322395452
 31
0.0
  0
LINE
  5
FA
330
1F
100
AcDbEntity
  8
0
  6
Continuous
 62
     7
370
    25
100
AcDbLine
 10
5865.4404817582
 20
5258.7248187573
 30
0.0
 11
5865.4404817582
 21
5249.0322395452
 31
0.0
  0
LINE
  5
FB
330
1F
100
AcDbEntity
  8
0
  6
Continuous
 62
     7
370
    25
100
AcDbLine
 10
5867.4404817582
 20
5258.7728940357
 30
0.0
 11
5867.4404817582
 21
5258.7248187573
 31
0.0
  0
LINE
  5
FC
330
1F
100
AcDbEntity
  8
0
  6
Continuous
 62
     7
370
    25
100
AcDbLine
 10
5865.4404817582
 20
5258.7728940357
 30
0.0
 11
5865.4404817582
 21
5258.7248187573
 31
0.0
  0
LINE
  5
FD
330
1F
100
AcDbEntity
  8
0
  6
Continuous
 62
     7
370
    25
100
AcDbLine
 10
5867.4404817582
 20
4837.0896677801
 30
0.0
 11
7113.4404817582
 21
4837.0896677801
 31
0.0
  0
LINE
  5
FE
330
1F
100
AcDbEntity
  8
0
  6
Continuous
 62
     7
370
    25
100
AcDbLine
 10
5867.4404817582
 20
4814.2896677801
 30
0.0
 11
7113.4404817582
 21
4814.2896677801
 31
0.0
  0
LINE
  5
FF
330
1F
100
AcDbEntity
  8
0
  6
Continuous
 62
     7
370
    25
100
AcDbLine
 10
7113.4404817582
 20
4839.2896677801
 30
0.0
 11
5867.4404817582
 21
4839.2896677801
 31
0.0
  0
LINE
  5
100
330
1F
100
AcDbEntity
  8
0
  6
Continuous
 62
     7
370
    25
100
AcDbLine
 10
5867.4404817582
 20
5246.8803148236
 30
0.0
 11
7113.4404817582
 21
5246.8803148236
 31
0.0
  0
LINE
  5
101
330
1F
100
AcDbEntity
  8
0
  6
Continuous
 62
     7
370
    25
100
AcDbLine
 10
7113.4404817582
 20
5249.0322395452
 30
0.0
 11
5867.4404817582
 21
5249.0322395452
 31
0.0
  0
LINE
  5
102
330
1F
100
AcDbEntity
  8
0
  6
Continuous
 62
     7
370
    25
100
AcDbLine
 10
5867.4404817582
 20
5258.7248187573
 30
0.0
 11
7113.4404817582
 21
5258.7248187573
 31
0.0
  0
LWPOLYLINE
  5
103
330
1F
100
AcDbEntity
  8
0
  6
Continuous
 62
     7
370
    25
100
AcDbPolyline
 90
       14
 70
   128
 43
0.0
 10
5987.4404817582
 20
5251.4955929093
 10
5989.5242598902
 20
5251.5334966584
 10
5991.5447234781
 20
5251.6460562194
 10
5993.4404817582
 20
5251.8298515272
 10
5995.1539330744
 20
5252.0792980541
 10
5996.6330150756
 20
5252.3868164939
 10
5997.8327866036
 20
5252.7430630542
 10
5998.7167932076
 20
5253.1372133636
 10
5999.2581747943
 20
5253.5572913644
 10
5999.4404817582
 20
5253.9905331991
 10
5999.2581747943
 20
5254.4237750338
 10
5998.7167932076
 20
5254.8438530346
 10
5997.8327866036
 20
5255.238003344
 10
5996.8561146319
 20
5255.5372879937
  0
LWPOLYLINE
  5
104
330
1F
100
AcDbEntity
  8
0
  6
Continuous
 62
     7
370
    25
100
AcDbPolyline
 90
       14
 70
   128
 43
0.0
 10
5978.0248488845
 20
5255.5372879937
 10
5977.0481769128
 20
5255.238003344
 10
5976.1641703088
 20
5254.8438530346
 10
5975.622788722
 20
5254.4237750338
 10
5975.4404817582
 20
5253.9905331991
 10
5975.622788722
 20
5253.5572913644
 10
5976.1641703088
 20
5253.1372133636
 10
5977.0481769128
 20
5252.7430630542
 10
5978.2479484408
 20
5252.3868164939
 10
5979.727030442
 20
5252.0792980541
 10
5981.4404817582
 20
5251.8298515272
 10
5983.3362400383
 20
5251.6460562194
 10
5985.3567036262
 20
5251.5334966584
 10
5987.4404817582
 20
5251.4955929093
  0
ARC
  5
105
330
1F
100
AcDbEntity
  8
0
  6
Continuous
 62
     7
370
    25
100
AcDbCircle
 10
6909.6885742115
 20
5150.3609409635
 30
0.0
 40
0.6676186886570576
100
AcDbArc
 50
180.0
 51
0.0
  0
LINE
  5
106
330
1F
100
AcDbEntity
  8
0
  6
Continuous
 62
     7
370
    25
100
AcDbLine
 10
6910.3561929001
 20
5153.3019724981
 30
0.0
 11
6910.3561929001
 21
5150.3609409635
 31
0.0
  0
ARC
  5
107
330
1F
100
AcDbEntity
  8
0
  6
Continuous
 62
     7
370
    25
100
AcDbCircle
 10
6910.5963030164
 20
5153.3019724981
 30
0.0
 40
0.2401101162886334
100
AcDbArc
 50
90.0
 51
180.0
  0
LINE
  5
108
330
1F
100
AcDbEntity
  8
0
  6
Continuous
 62
     7
370
    25
100
AcDbLine
 10
6911.2207161953
 20
5153.5420826143
 30
0.0
 11
6910.5963030164
 21
5153.5420826143
 31
0.0
  0
ARC
  5
109
330
1F
100
AcDbEntity
  8
0
  6
Continuous
 62
     7
370
    25
100
AcDbCircle
 10
6911.2207161953
 20
5153.3019724981
 30
0.0
 40
0.2401101162877239
100
AcDbArc
 50
0.0
 51
90.0
  0
LINE
  5
10A
330
1F
100
AcDbEntity
  8
0
  6
Continuous
 62
     7
370
    25
100
AcDbLine
 10
6911.4608263116
 20
5150.3609409635
 30
0.0
 11
6911.4608263116
 21
5153.3019724981
 31
0.0
  0
ARC
  5
10B
330
1F
100
AcDbEntity
  8
0
  6
Continuous
 62
     7
370
    25
100
AcDbCircle
 10
6912.1284450003
 20
5150.3609409635
 30
0.0
 40
0.6676186886570576
100
AcDbArc
 50
180.0
 51
0.0
  0
LINE
  5
10C
330
1F
100
AcDbEntity
  8
0
  6
Continuous
 62
     7
370
    25
100
AcDbLine
 10
6912.7960636889
 20
5152.7928182629
 30
0.0
 11
6912.7960636889
 21
5150.3609409635
 31
0.0
  0
ARC
  5
10D
330
1F
100
AcDbEntity
  8
0
  6
Continuous
 62
     7
370
    25
100
AcDbCircle
 10
6913.0361738052
 20
5152.7928182629
 30
0.0
 40
0.2401101162877239
100
AcDbArc
 50
90.0
 51
180.0
  0
LINE
  5
10E
330
1F
100
AcDbEntity
  8
0
  6
Continuous
 62
     7
370
    25
100
AcDbLine
 10
6913.7832933471
 20
5153.0329283792
 30
0.0
 11
6913.0361738052
 21
5153.0329283792
 31
0.0
  0
ARC
  5
10F
330
1F
100
AcDbEntity
  8
0
  6
Continuous
 62
     7
370
    25
100
AcDbCircle
 10
6913.7832933471
 20
5152.7928182629
 30
0.0
 40
0.2401101162877239
100
AcDbArc
 50
0.0
 51
90.0
  0
LINE
  5
110
330
1F
100
AcDbEntity
  8
0
  6
Continuous
 62
     7
370
    25
100
AcDbLine
 10
6914.0234034634
 20
5150.3609409635
 30
0.0
 11
6914.0234034634
 21
5152.7928182629
 31
0.0
  0
ARC
  5
111
330
1F
100
AcDbEntity
  8
0
  6
Continuous
 62
     7
370
    25
100
AcDbCircle
 10
6914.691022152
 20
5150.3609409635
 30
0.0
 40
0.6676186886570576
100
AcDbArc
 50
180.0
 51
0.0
  0
LINE
  5
112
330
1F
100
AcDbEntity
  8
0
  6
Continuous
 62
     7
370
    25
100
AcDbLine
 10
6915.3586408407
 20
5151.8764679542
 30
0.0
 11
6915.3586408407
 21
5150.3609409635
 31
0.0
  0
ARC
  5
113
330
1F
100
AcDbEntity
  8
0
  6
Continuous
 62
     7
370
    25
100
AcDbCircle
 10
6915.598750957
 20
5151.8764679542
 30
0.0
 40
0.2401101162877239
100
AcDbArc
 50
90.0
 51
180.0
  0
LINE
  5
114
330
1F
100
AcDbEntity
  8
0
  6
Continuous
 62
     7
370
    25
100
AcDbLine
 10
6916.2607786815
 20
5152.1165780705
 30
0.0
 11
6915.598750957
 21
5152.1165780705
 31
0.0
  0
ARC
  5
115
330
1F
100
AcDbEntity
  8
0
  6
Continuous
 62
     7
370
    25
100
AcDbCircle
 10
6916.2607786815
 20
5151.8764679542
 30
0.0
 40
0.2401101162868144
100
AcDbArc
 50
0.0
 51
90.0
  0
LINE
  5
116
330
1F
100
AcDbEntity
  8
0
  6
Continuous
 62
     7
370
    25
100
AcDbLine
 10
6916.5008887978
 20
5143.9933056734
 30
0.0
 11
6916.5008887978
 21
5151.8764679542
 31
0.0
  0
ARC
  5
117
330
1F
100
AcDbEntity
  8
0
  6
Continuous
 62
     7
370
    25
100
AcDbCircle
 10
6912.9748882472
 20
5143.9933056734
 30
0.0
 40
3.526000550638855
100
AcDbArc
 50
270.0
 51
0.0
  0
LINE
  5
118
330
1F
100
AcDbEntity
  8
0
  6
Continuous
 62
     7
370
    25
100
AcDbLine
 10
6910.6076638402
 20
5140.4673051227
 30
0.0
 11
6912.9748882472
 21
5140.4673051227
 31
0.0
  0
ARC
  5
119
330
1F
100
AcDbEntity
  8
0
  6
Continuous
 62
     7
370
    25
100
AcDbCircle
 10
6910.6076638402
 20
5145.7602354505
 30
0.0
 40
5.292930327734211
100
AcDbArc
 50
180.0
 51
270.0
  0
LINE
  5
11A
330
1F
100
AcDbEntity
  8
0
  6
Continuous
 62
     7
370
    25
100
AcDbLine
 10
6905.3147335125
 20
5150.2063432126
 30
0.0
 11
6905.3147335125
 21
5145.7602354505
 31
0.0
  0
ARC
  5
11B
330
1F
100
AcDbEntity
  8
0
  6
Continuous
 62
     7
370
    25
100
AcDbCircle
 10
6904.9714194691
 20
5148.7057008498
 30
0.0
 40
1.539412885870834
100
AcDbArc
 50
0.0
 51
77.1137478469
  0
LINE
  5
11C
330
1F
100
AcDbEntity
  8
0
  6
Continuous
 62
     7
370
    25
100
AcDbLine
 10
6906.510832355
 20
5146.7512799678
 30
0.0
 11
6906.510832355
 21
5148.7057008498
 31
0.0
  0
ARC
  5
11D
330
1F
100
AcDbEntity
  8
0
  6
Continuous
 62
     7
370
    25
100
AcDbCircle
 10
6907.1784510437
 20
5146.7512799678
 30
0.0
 40
0.6676186886570576
100
AcDbArc
 50
180.0
 51
0.0
  0
LINE
  5
11E
330
1F
100
AcDbEntity
  8
0
  6
Continuous
 62
     7
370
    25
100
AcDbLine
 10
6907.8460697323
 20
5158.0317812376
 30
0.0
 11
6907.8460697323
 21
5146.7512799678
 31
0.0
  0
ARC
  5
11F
330
1F
100
AcDbEntity
  8
0
  6
Continuous
 62
     7
370
    25
100
AcDbCircle
 10
6908.4335126276
 20
5158.0317812376
 30
0.0
 40
0.5874428952447488
100
AcDbArc
 50
0.0
 51
180.0
  0
LINE
  5
120
330
1F
100
AcDbEntity
  8
0
  6
Continuous
 62
     7
370
    25
100
AcDbLine
 10
6909.0209555228
 20
5150.3609409635
 30
0.0
 11
6909.0209555228
 21
5158.0317812376
 31
0.0
  0
CIRCLE
  5
121
330
1F
100
AcDbEntity
  8
0
  6
Continuous
 62
     7
370
    25
100
AcDbCircle
 10
6910.4404817582
 20
5149.2896677801
 30
0.0
 40
12.5
  0
LINE
  5
122
330
1F
100
AcDbEntity
  8
0
  6
Continuous
 62
     7
370
    25
100
AcDbLine
 10
6910.0505555228
 20
5154.4860615931
 30
0.0
 11
6910.0505555228
 21
5158.0317812376
 31
0.0
  0
ARC
  5
123
330
1F
100
AcDbEntity
  8
0
  6
Continuous
 62
     7
370
    25
100
AcDbCircle
 10
6908.4335126276
 20
5158.0317812376
 30
0.0
 40
1.617042895244595
100
AcDbArc
 50
0.0
 51
180.0
  0
LINE
  5
124
330
1F
100
AcDbEntity
  8
0
  6
Continuous
 62
     7
370
    25
100
AcDbLine
 10
6906.8164697323
 20
5158.0317812376
 30
0.0
 11
6906.8164697323
 21
5150.4933296519
 31
0.0
  0
ARC
  5
125
330
1F
100
AcDbEntity
  8
0
  6
Continuous
 62
     7
370
    25
100
AcDbCircle
 10
6904.9714194691
 20
5148.7057008498
 30
0.0
 40
2.569012885871402
100
AcDbArc
 50
44.0944057146
 51
105.4941474424
  0
LINE
  5
126
330
1F
100
AcDbEntity
  8
0
  6
Continuous
 62
     7
370
    25
100
AcDbLine
 10
6904.2851335125
 20
5151.1813500159
 30
0.0
 11
6904.2851335125
 21
5145.7602354505
 31
0.0
  0
ARC
  5
127
330
1F
100
AcDbEntity
  8
0
  6
Continuous
 62
     7
370
    25
100
AcDbCircle
 10
6910.6076638402
 20
5145.7602354505
 30
0.0
 40
6.322530327734057
100
AcDbArc
 50
180.0
 51
270.0
  0
LINE
  5
128
330
1F
100
AcDbEntity
  8
0
  6
Continuous
 62
     7
370
    25
100
AcDbLine
 10
6910.6076638402
 20
5139.4377051227
 30
0.0
 11
6912.9748882472
 21
5139.4377051227
 31
0.0
  0
ARC
  5
129
330
1F
100
AcDbEntity
  8
0
  6
Continuous
 62
     7
370
    25
100
AcDbCircle
 10
6912.9748882472
 20
5143.9933056734
 30
0.0
 40
4.555600550638701
100
AcDbArc
 50
270.0
 51
0.0
  0
LINE
  5
12A
330
1F
100
AcDbEntity
  8
0
  6
Continuous
 62
     7
370
    25
100
AcDbLine
 10
6917.5304887978
 20
5143.9933056734
 30
0.0
 11
6917.5304887978
 21
5151.8300762017
 31
0.0
  0
ARC
  5
12B
330
1F
100
AcDbEntity
  8
0
  6
Continuous
 62
     7
370
    25
100
AcDbCircle
 10
6916.1768775516
 20
5151.8300762017
 30
0.0
 40
1.353611246208857
100
AcDbArc
 50
0.0
 51
90.0
  0
LINE
  5
12C
330
1F
100
AcDbEntity
  8
0
  6
Continuous
 62
     7
370
    25
100
AcDbLine
 10
6916.1768775516
 20
5153.1836874479
 30
0.0
 11
6915.6826520869
 21
5153.1836874479
 31
0.0
  0
ARC
  5
12D
330
1F
100
AcDbEntity
  8
0
  6
Continuous
 62
     7
370
    25
100
AcDbCircle
 10
6915.6826520869
 20
5151.8300762017
 30
0.0
 40
1.353611246208857
100
AcDbArc
 50
90.0
 51
118.7365577358
  0
ARC
  5
12E
330
1F
100
AcDbEntity
  8
0
  6
Continuous
 62
     7
370
    25
100
AcDbCircle
 10
6913.6993922172
 20
5152.7786561251
 30
0.0
 40
1.353611246209073
100
AcDbArc
 50
10.1404867648
 51
90.0
  0
LINE
  5
12F
330
1F
100
AcDbEntity
  8
0
  6
Continuous
 62
     7
370
    25
100
AcDbLine
 10
6913.6993922172
 20
5154.1322673713
 30
0.0
 11
6913.1200749351
 21
5154.1322673713
 31
0.0
  0
ARC
  5
130
330
1F
100
AcDbEntity
  8
0
  6
Continuous
 62
     7
370
    25
100
AcDbCircle
 10
6913.1200749351
 20
5152.7786561251
 30
0.0
 40
1.353611246208857
100
AcDbArc
 50
90.0
 51
124.7440022271
  0
ARC
  5
131
330
1F
100
AcDbEntity
  8
0
  6
Continuous
 62
     7
370
    25
100
AcDbCircle
 10
6911.1368150654
 20
5153.2878103603
 30
0.0
 40
1.353611246208857
100
AcDbArc
 50
26.4592691593
 51
90.0
  0
LINE
  5
132
330
1F
100
AcDbEntity
  8
0
  6
Continuous
 62
     7
370
    25
100
AcDbLine
 10
6911.1368150654
 20
5154.6414216065
 30
0.0
 11
6910.6802041463
 21
5154.6414216065
 31
0.0
  0
ARC
  5
133
330
1F
100
AcDbEntity
  8
0
  6
Continuous
 62
     7
370
    25
100
AcDbCircle
 10
6910.6802041463
 20
5153.2878103603
 30
0.0
 40
1.353611246209766
100
AcDbArc
 50
90.0
 51
117.7207121261
  0
CIRCLE
  5
134
330
1F
100
AcDbEntity
  8
0
  6
Continuous
 62
     7
370
    25
100
AcDbCircle
 10
6910.4404817582
 20
5149.2896677801
 30
0.0
 40
14.0
  0
ARC
  5
135
330
1F
100
AcDbEntity
  8
0
  6
Continuous
 62
     7
370
    25
100
AcDbCircle
 10
6309.6885742115
 20
5150.3609409635
 30
0.0
 40
0.6676186886570576
100
AcDbArc
 50
180.0
 51
0.0
  0
LINE
  5
136
330
1F
100
AcDbEntity
  8
0
  6
Continuous
 62
     7
370
    25
100
AcDbLine
 10
6310.3561929001
 20
5153.3019724981
 30
0.0
 11
6310.3561929001
 21
5150.3609409635
 31
0.0
  0
ARC
  5
137
330
1F
100
AcDbEntity
  8
0
  6
Continuous
 62
     7
370
    25
100
AcDbCircle
 10
6310.5963030164
 20
5153.3019724981
 30
0.0
 40
0.2401101162886334
100
AcDbArc
 50
90.0
 51
180.0
  0
LINE
  5
138
330
1F
100
AcDbEntity
  8
0
  6
Continuous
 62
     7
370
    25
100
AcDbLine
 10
6311.2207161953
 20
5153.5420826143
 30
0.0
 11
6310.5963030164
 21
5153.5420826143
 31
0.0
  0
ARC
  5
139
330
1F
100
AcDbEntity
  8
0
  6
Continuous
 62
     7
370
    25
100
AcDbCircle
 10
6311.2207161953
 20
5153.3019724981
 30
0.0
 40
0.2401101162877239
100
AcDbArc
 50
0.0
 51
90.0
  0
LINE
  5
13A
330
1F
100
AcDbEntity
  8
0
  6
Continuous
 62
     7
370
    25
100
AcDbLine
 10
6311.4608263116
 20
5150.3609409635
 30
0.0
 11
6311.4608263116
 21
5153.3019724981
 31
0.0
  0
ARC
  5
13B
330
1F
100
AcDbEntity
  8
0
  6
Continuous
 62
     7
370
    25
100
AcDbCircle
 10
6312.1284450003
 20
5150.3609409635
 30
0.0
 40
0.6676186886570576
100
AcDbArc
 50
180.0
 51
0.0
  0
LINE
  5
13C
330
1F
100
AcDbEntity
  8
0
  6
Continuous
 62
     7
370
    25
100
AcDbLine
 10
6312.7960636889
 20
5152.7928182629
 30
0.0
 11
6312.7960636889
 21
5150.3609409635
 31
0.0
  0
ARC
  5
13D
330
1F
100
AcDbEntity
  8
0
  6
Continuous
 62
     7
370
    25
100
AcDbCircle
 10
6313.0361738052
 20
5152.7928182629
 30
0.0
 40
0.2401101162877239
100
AcDbArc
 50
90.0
 51
180.0
  0
LINE
  5
13E
330
1F
100
AcDbEntity
  8
0
  6
Continuous
 62
     7
370
    25
100
AcDbLine
 10
6313.7832933471
 20
5153.0329283792
 30
0.0
 11
6313.0361738052
 21
5153.0329283792
 31
0.0
  0
ARC
  5
13F
330
1F
100
AcDbEntity
  8
0
  6
Continuous
 62
     7
370
    25
100
AcDbCircle
 10
6313.7832933471
 20
5152.7928182629
 30
0.0
 40
0.2401101162877239
100
AcDbArc
 50
0.0
 51
90.0
  0
LINE
  5
140
330
1F
100
AcDbEntity
  8
0
  6
Continuous
 62
     7
370
    25
100
AcDbLine
 10
6314.0234034634
 20
5150.3609409635
 30
0.0
 11
6314.0234034634
 21
5152.7928182629
 31
0.0
  0
ARC
  5
141
330
1F
100
AcDbEntity
  8
0
  6
Continuous
 62
     7
370
    25
100
AcDbCircle
 10
6314.691022152
 20
5150.3609409635
 30
0.0
 40
0.6676186886570576
100
AcDbArc
 50
180.0
 51
0.0
  0
LINE
  5
142
330
1F
100
AcDbEntity
  8
0
  6
Continuous
 62
     7
370
    25
100
AcDbLine
 10
6315.3586408407
 20
5151.8764679542
 30
0.0
 11
6315.3586408407
 21
5150.3609409635
 31
0.0
  0
ARC
  5
143
330
1F
100
AcDbEntity
  8
0
  6
Continuous
 62
     7
370
    25
100
AcDbCircle
 10
6315.598750957
 20
5151.8764679542
 30
0.0
 40
0.2401101162886334
100
AcDbArc
 50
90.0
 51
180.0
  0
LINE
  5
144
330
1F
100
AcDbEntity
  8
0
  6
Continuous
 62
     7
370
    25
100
AcDbLine
 10
6316.2607786815
 20
5152.1165780705
 30
0.0
 11
6315.598750957
 21
5152.1165780705
 31
0.0
  0
ARC
  5
145
330
1F
100
AcDbEntity
  8
0
  6
Continuous
 62
     7
370
    25
100
AcDbCircle
 10
6316.2607786815
 20
5151.8764679542
 30
0.0
 40
0.2401101162877239
100
AcDbArc
 50
0.0
 51
90.0
  0
LINE
  5
146
330
1F
100
AcDbEntity
  8
0
  6
Continuous
 62
     7
370
    25
100
AcDbLine
 10
6316.5008887978
 20
5143.9933056734
 30
0.0
 11
6316.5008887978
 21
5151.8764679542
 31
0.0
  0
ARC
  5
147
330
1F
100
AcDbEntity
  8
0
  6
Continuous
 62
     7
370
    25
100
AcDbCircle
 10
6312.9748882472
 20
5143.9933056734
 30
0.0
 40
3.526000550638855
100
AcDbArc
 50
270.0
 51
0.0
  0
LINE
  5
148
330
1F
100
AcDbEntity
  8
0
  6
Continuous
 62
     7
370
    25
100
AcDbLine
 10
6310.6076638402
 20
5140.4673051227
 30
0.0
 11
6312.9748882472
 21
5140.4673051227
 31
0.0
  0
ARC
  5
149
330
1F
100
AcDbEntity
  8
0
  6
Continuous
 62
     7
370
    25
100
AcDbCircle
 10
6310.6076638402
 20
5145.7602354505
 30
0.0
 40
5.292930327734211
100
AcDbArc
 50
180.0
 51
270.0
  0
LINE
  5
14A
330
1F
100
AcDbEntity
  8
0
  6
Continuous
 62
     7
370
    25
100
AcDbLine
 10
6305.3147335125
 20
5150.2063432126
 30
0.0
 11
6305.3147335125
 21
5145.7602354505
 31
0.0
  0
ARC
  5
14B
330
1F
100
AcDbEntity
  8
0
  6
Continuous
 62
     7
370
    25
100
AcDbCircle
 10
6304.9714194691
 20
5148.7057008498
 30
0.0
 40
1.53941288587157
100
AcDbArc
 50
0.0
 51
77.1137478469
  0
LINE
  5
14C
330
1F
100
AcDbEntity
  8
0
  6
Continuous
 62
     7
370
    25
100
AcDbLine
 10
6306.510832355
 20
5146.7512799678
 30
0.0
 11
6306.510832355
 21
5148.7057008498
 31
0.0
  0
ARC
  5
14D
330
1F
100
AcDbEntity
  8
0
  6
Continuous
 62
     7
370
    25
100
AcDbCircle
 10
6307.1784510437
 20
5146.7512799678
 30
0.0
 40
0.6676186886561482
100
AcDbArc
 50
180.0
 51
0.0
  0
LINE
  5
14E
330
1F
100
AcDbEntity
  8
0
  6
Continuous
 62
     7
370
    25
100
AcDbLine
 10
6307.8460697323
 20
5158.0317812376
 30
0.0
 11
6307.8460697323
 21
5146.7512799678
 31
0.0
  0
ARC
  5
14F
330
1F
100
AcDbEntity
  8
0
  6
Continuous
 62
     7
370
    25
100
AcDbCircle
 10
6308.4335126276
 20
5158.0317812376
 30
0.0
 40
0.5874428952447488
100
AcDbArc
 50
0.0
 51
180.0
  0
LINE
  5
150
330
1F
100
AcDbEntity
  8
0
  6
Continuous
 62
     7
370
    25
100
AcDbLine
 10
6309.0209555228
 20
5150.3609409635
 30
0.0
 11
6309.0209555228
 21
5158.0317812376
 31
0.0
  0
CIRCLE
  5
151
330
1F
100
AcDbEntity
  8
0
  6
Continuous
 62
     7
370
    25
100
AcDbCircle
 10
6310.4404817582
 20
5149.2896677801
 30
0.0
 40
12.49999999999909
  0
LINE
  5
152
330
1F
100
AcDbEntity
  8
0
  6
Continuous
 62
     7
370
    25
100
AcDbLine
 10
6310.0505555228
 20
5154.4860615931
 30
0.0
 11
6310.0505555228
 21
5158.0317812376
 31
0.0
  0
LINE
  5
153
330
1F
100
AcDbEntity
  8
0
  6
Continuous
 62
     7
370
    25
100
AcDbLine
 10
6306.8164697323
 20
5158.0317812376
 30
0.0
 11
6306.8164697323
 21
5150.4933296519
 31
0.0
  0
ARC
  5
154
330
1F
100
AcDbEntity
  8
0
  6
Continuous
 62
     7
370
    25
100
AcDbCircle
 10
6304.9714194691
 20
5148.7057008498
 30
0.0
 40
2.56901288587183
100
AcDbArc
 50
44.0944057145
 51
105.4941474424
  0
LINE
  5
155
330
1F
100
AcDbEntity
  8
0
  6
Continuous
 62
     7
370
    25
100
AcDbLine
 10
6304.2851335125
 20
5151.1813500159
 30
0.0
 11
6304.2851335125
 21
5145.7602354505
 31
0.0
  0
ARC
  5
156
330
1F
100
AcDbEntity
  8
0
  6
Continuous
 62
     7
370
    25
100
AcDbCircle
 10
6310.6076638402
 20
5145.7602354505
 30
0.0
 40
6.322530327734057
100
AcDbArc
 50
180.0
 51
270.0
  0
LINE
  5
157
330
1F
100
AcDbEntity
  8
0
  6
Continuous
 62
     7
370
    25
100
AcDbLine
 10
6310.6076638402
 20
5139.4377051227
 30
0.0
 11
6312.9748882472
 21
5139.4377051227
 31
0.0
  0
ARC
  5
158
330
1F
100
AcDbEntity
  8
0
  6
Continuous
 62
     7
370
    25
100
AcDbCircle
 10
6312.9748882472
 20
5143.9933056734
 30
0.0
 40
4.555600550638701
100
AcDbArc
 50
270.0
 51
0.0
  0
LINE
  5
159
330
1F
100
AcDbEntity
  8
0
  6
Continuous
 62
     7
370
    25
100
AcDbLine
 10
6317.5304887978
 20
5143.9933056734
 30
0.0
 11
6317.5304887978
 21
5151.8300762017
 31
0.0
  0
ARC
  5
15A
330
1F
100
AcDbEntity
  8
0
  6
Continuous
 62
     7
370
    25
100
AcDbCircle
 10
6316.1768775516
 20
5151.8300762017
 30
0.0
 40
1.353611246209766
100
AcDbArc
 50
0.0
 51
90.0
  0
LINE
  5
15B
330
1F
100
AcDbEntity
  8
0
  6
Continuous
 62
     7
370
    25
100
AcDbLine
 10
6316.1768775516
 20
5153.1836874479
 30
0.0
 11
6315.6826520869
 21
5153.1836874479
 31
0.0
  0
ARC
  5
15C
330
1F
100
AcDbEntity
  8
0
  6
Continuous
 62
     7
370
    25
100
AcDbCircle
 10
6315.6826520869
 20
5151.8300762017
 30
0.0
 40
1.353611246208857
100
AcDbArc
 50
90.0
 51
118.7365577358
  0
ARC
  5
15D
330
1F
100
AcDbEntity
  8
0
  6
Continuous
 62
     7
370
    25
100
AcDbCircle
 10
6313.6993922172
 20
5152.7786561251
 30
0.0
 40
1.353611246208857
100
AcDbArc
 50
10.1404867648
 51
90.0
  0
LINE
  5
15E
330
1F
100
AcDbEntity
  8
0
  6
Continuous
 62
     7
370
    25
100
AcDbLine
 10
6313.6993922172
 20
5154.1322673713
 30
0.0
 11
6313.1200749351
 21
5154.1322673713
 31
0.0
  0
ARC
  5
15F
330
1F
100
AcDbEntity
  8
0
  6
Continuous
 62
     7
370
    25
100
AcDbCircle
 10
6313.1200749351
 20
5152.7786561251
 30
0.0
 40
1.353611246208857
100
AcDbArc
 50
90.0
 51
124.7440022271
  0
ARC
  5
160
330
1F
100
AcDbEntity
  8
0
  6
Continuous
 62
     7
370
    25
100
AcDbCircle
 10
6311.1368150654
 20
5153.2878103603
 30
0.0
 40
1.353611246208857
100
AcDbArc
 50
26.4592691593
 51
90.0
  0
LINE
  5
161
330
1F
100
AcDbEntity
  8
0
  6
Continuous
 62
     7
370
    25
100
AcDbLine
 10
6311.1368150654
 20
5154.6414216065
 30
0.0
 11
6310.6802041463
 21
5154.6414216065
 31
0.0
  0
ARC
  5
162
330
1F
100
AcDbEntity
  8
0
  6
Continuous
 62
     7
370
    25
100
AcDbCircle
 10
6310.6802041463
 20
5153.2878103603
 30
0.0
 40
1.353611246209766
100
AcDbArc
 50
90.0
 51
117.7207121261
  0
ARC
  5
163
330
1F
100
AcDbEntity
  8
0
  6
Continuous
 62
     7
370
    25
100
AcDbCircle
 10
6308.4335126276
 20
5158.0317812376
 30
0.0
 40
1.617042895244595
100
AcDbArc
 50
0.0
 51
180.0
  0
CIRCLE
  5
164
330
1F
100
AcDbEntity
  8
0
  6
Continuous
 62
     7
370
    25
100
AcDbCircle
 10
6310.4404817582
 20
5149.2896677801
 30
0.0
 40
13.99999999999909
  0
LINE
  5
165
330
1F
100
AcDbEntity
  8
0
  6
Continuous
 62
     7
370
    25
100
AcDbLine
 10
6791.9404817582
 20
5135.28966778
 30
0.0
 11
6788.9404817582
 21
5135.28966778
 31
0.0
  0
LINE
  5
166
330
1F
100
AcDbEntity
  8
0
  6
Continuous
 62
     7
370
    25
100
AcDbLine
 10
6191.9404817582
 20
5135.28966778
 30
0.0
 11
6188.9404817582
 21
5135.28966778
 31
0.0
  0
ARC
  5
167
330
1F
100
AcDbEntity
  8
0
  6
Continuous
 62
     7
370
    25
100
AcDbCircle
 10
6190.5500946309
 20
5171.4316563982
 30
0.0
 40
32.33234845707675
100
AcDbArc
 50
270.3195445578
 51
277.00524986
  0
ARC
  5
168
330
1F
100
AcDbEntity
  8
0
  6
Continuous
 62
     7
370
    25
100
AcDbCircle
 10
6192.3494582287
 20
5157.0189871869
 30
0.0
 40
18.76440461139072
100
AcDbArc
 50
277.5095473837
 51
284.9272291805
  0
LINE
  5
169
330
1F
100
AcDbEntity
  8
0
  6
Continuous
 62
     7
370
    25
100
AcDbLine
 10
6197.1830191835
 20
5139.8537363025
 30
0.0
 11
6197.1830191835
 21
5138.8878104762
 31
0.0
  0
ARC
  5
16A
330
1F
100
AcDbEntity
  8
0
  6
Continuous
 62
     7
370
    25
100
AcDbCircle
 10
6195.3079223964
 20
5147.230512016
 30
0.0
 40
7.61136044927873
100
AcDbArc
 50
284.2619248085
 51
297.222849775
  0
ARC
  5
16B
330
1F
100
AcDbEntity
  8
0
  6
Continuous
 62
     7
370
    25
100
AcDbCircle
 10
6198.7833815255
 20
5140.5777343017
 30
0.0
 40
0.902876727090765
100
AcDbArc
 50
304.3231205499
 51
1.5289520686
  0
LINE
  5
16C
330
1F
100
AcDbEntity
  8
0
  6
Continuous
 62
     7
370
    25
100
AcDbLine
 10
6199.6859368013
 20
5141.2055285728
 30
0.0
 11
6199.6859368013
 21
5140.6018249314
 31
0.0
  0
LINE
  5
16D
330
1F
100
AcDbEntity
  8
0
  6
Continuous
 62
     7
370
    25
100
AcDbLine
 10
6198.5977707639
 20
5141.9672298847
 30
0.0
 11
6198.5977707639
 21
5141.6555781815
 31
0.0
  0
ARC
  5
16E
330
1F
100
AcDbEntity
  8
0
  6
Continuous
 62
     7
370
    25
100
AcDbCircle
 10
6194.7089778332
 20
5133.1510660944
 30
0.0
 40
9.351440332799287
100
AcDbArc
 50
65.427167351
 51
77.2488974281
  0
LINE
  5
16F
330
1F
100
AcDbEntity
  8
0
  6
Continuous
 62
     7
370
    25
100
AcDbLine
 10
6196.7729922453
 20
5142.4879251325
 30
0.0
 11
6196.7729922453
 21
5142.2718818915
 31
0.0
  0
LINE
  5
170
330
1F
100
AcDbEntity
  8
0
  6
Continuous
 62
     7
370
    25
100
AcDbLine
 10
6193.1246352429
 20
5142.986395779
 30
0.0
 11
6193.1246352429
 21
5142.8178497538
 31
0.0
  0
ARC
  5
171
330
1F
100
AcDbEntity
  8
0
  6
Continuous
 62
     7
370
    25
100
AcDbCircle
 10
6190.4536684612
 20
5108.292295388
 30
0.0
 40
34.62871594230461
100
AcDbArc
 50
85.5762935841
 51
90.5015401573
  0
LINE
  5
172
330
1F
100
AcDbEntity
  8
0
  6
Continuous
 62
     7
370
    25
100
AcDbLine
 10
6190.1505489297
 20
5143.0815210265
 30
0.0
 11
6190.1505489297
 21
5142.9196846394
 31
0.0
  0
LINE
  5
173
330
1F
100
AcDbEntity
  8
0
  6
Continuous
 62
     7
370
    25
100
AcDbLine
 10
6186.0791590141
 20
5142.8198468793
 30
0.0
 11
6186.0791590141
 21
5142.6380465446
 31
0.0
  0
ARC
  5
174
330
1F
100
AcDbEntity
  8
0
  6
Continuous
 62
     7
370
    25
100
AcDbCircle
 10
6188.5315052875
 20
5124.0345824009
 30
0.0
 40
18.76440461064393
100
AcDbArc
 50
97.5095473836
 51
104.9272291806
  0
LINE
  5
175
330
1F
100
AcDbEntity
  8
0
  6
Continuous
 62
     7
370
    25
100
AcDbLine
 10
6183.6979443329
 20
5142.3941209606
 30
0.0
 11
6183.6979443329
 21
5142.1657591109
 31
0.0
  0
LINE
  5
176
330
1F
100
AcDbEntity
  8
0
  6
Continuous
 62
     7
370
    25
100
AcDbLine
 10
6181.5884864989
 20
5141.6596261725
 30
0.0
 11
6181.5884864989
 21
5141.2214948354
 31
0.0
  0
ARC
  5
177
330
1F
100
AcDbEntity
  8
0
  6
Continuous
 62
     7
370
    25
100
AcDbCircle
 10
6182.0975819908
 20
5140.4758352854
 30
0.0
 40
0.9028767270928938
100
AcDbArc
 50
124.3231205502
 51
181.5289520686
  0
ARC
  5
178
330
1F
100
AcDbEntity
  8
0
  6
Continuous
 62
     7
370
    25
100
AcDbCircle
 10
6183.8081243345
 20
5143.6078549929
 30
0.0
 40
3.584487205620611
100
AcDbArc
 50
234.2803061852
 51
244.8224128594
  0
LINE
  5
179
330
1F
100
AcDbEntity
  8
0
  6
Continuous
 62
     7
370
    25
100
AcDbLine
 10
6182.2831927525
 20
5140.3639172318
 30
0.0
 11
6182.2831927525
 21
5139.3979914055
 31
0.0
  0
ARC
  5
17A
330
1F
100
AcDbEntity
  8
0
  6
Continuous
 62
     7
370
    25
100
AcDbCircle
 10
6186.1719856832
 20
5147.9025034927
 30
0.0
 40
9.351440332844268
100
AcDbArc
 50
245.427167351
 51
257.2488974281
  0
ARC
  5
17B
330
1F
100
AcDbEntity
  8
0
  6
Continuous
 62
     7
370
    25
100
AcDbCircle
 10
6189.5006811963
 20
5163.5198309034
 30
0.0
 40
24.38066653463736
100
AcDbArc
 50
258.189300535
 51
265.8971784142
  0
LINE
  5
17C
330
1F
100
AcDbEntity
  8
0
  6
Continuous
 62
     7
370
    25
100
AcDbLine
 10
6187.7563282734
 20
5139.2016456596
 30
0.0
 11
6187.7563282734
 21
5138.2357198333
 31
0.0
  0
ARC
  5
17D
330
1F
100
AcDbEntity
  8
0
  6
Continuous
 62
     7
370
    25
100
AcDbCircle
 10
6190.4272950551
 20
5172.7612741989
 30
0.0
 40
34.62871594214654
100
AcDbArc
 50
265.5762935841
 51
270.5015401573
  0
LWPOLYLINE
  5
17E
330
1F
100
AcDbEntity
  8
0
  6
Continuous
 62
     7
370
    25
100
AcDbPolyline
 90
        6
 70
   128
 43
0.0
 10
6183.8921413849
 20
5140.1939201771
 10
6182.9919081685
 20
5140.574677917
 10
6182.4172133602
 20
5140.9955580913
 10
6182.1931738809
 20
5141.4381662166
 10
6182.3295813307
 20
5141.8831581941
 10
6182.4569782474
 20
5142.0310400291
  0
LWPOLYLINE
  5
17F
330
1F
100
AcDbEntity
  8
0
  6
Continuous
 62
     7
370
    25
100
AcDbPolyline
 90
       14
 70
   128
 43
0.0
 10
6198.5977707639
 20
5141.8119233951
 10
6198.6877896355
 20
5141.5472550231
 10
6198.5513821856
 20
5141.1022630456
 10
6198.0604894667
 20
5140.6743355007
 10
6197.236565846
 20
5140.2821748754
 10
6196.1156207395
 20
5139.9429204711
 10
6194.7466448271
 20
5139.6713993329
 10
6193.1894689254
 20
5139.4794782376
 10
6191.5121490934
 20
5139.375545058
 10
6189.7879922563
 20
5139.3641421727
 10
6188.0923523415
 20
5139.4457679425
 10
6186.4993369498
 20
5139.6168549297
 10
6185.078568498
 20
5139.8699258119
 10
6183.8921413849
 20
5140.1939201771
  0
LINE
  5
180
330
1F
100
AcDbEntity
  8
0
  6
Continuous
 62
     7
370
    25
100
AcDbLine
 10
6199.1832187566
 20
5141.5849641903
 30
0.0
 11
6199.4450299091
 21
5141.5759995854
 31
0.0
  0
ARC
  5
181
330
1F
100
AcDbEntity
  8
0
  6
Continuous
 62
     7
370
    25
100
AcDbCircle
 10
6198.1998728087
 20
5141.6366786993
 30
0.0
 40
1.011320879478982
100
AcDbArc
 50
305.6817763791
 51
346.492222801
  0
LINE
  5
182
330
1F
100
AcDbEntity
  8
0
  6
Continuous
 62
     7
370
    25
100
AcDbLine
 10
6197.1830191835
 20
5139.8537363025
 30
0.0
 11
6196.8745718177
 21
5139.9579118251
 31
0.0
  0
ARC
  5
183
330
1F
100
AcDbEntity
  8
0
  6
Continuous
 62
     7
370
    25
100
AcDbCircle
 10
6192.2425475095
 20
5157.0729657529
 30
0.0
 40
17.73078453268652
100
AcDbArc
 50
277.2930101398
 51
285.1437664244
  0
ARC
  5
184
330
1F
100
AcDbEntity
  8
0
  6
Continuous
 62
     7
370
    25
100
AcDbCircle
 10
6190.4287115295
 20
5171.9563277722
 30
0.0
 40
32.72847533045358
100
AcDbArc
 50
265.4332158269
 51
270.6446179146
  0
LINE
  5
185
330
1F
100
AcDbEntity
  8
0
  6
Continuous
 62
     7
370
    25
100
AcDbLine
 10
6187.8228358702
 20
5139.3317586639
 30
0.0
 11
6187.7563282734
 21
5139.2016456596
 31
0.0
  0
ARC
  5
186
330
1F
100
AcDbEntity
  8
0
  6
Continuous
 62
     7
370
    25
100
AcDbCircle
 10
6186.4080150021
 20
5148.4553580189
 30
0.0
 40
8.834111884727376
100
AcDbArc
 50
245.0796807338
 51
257.5963840453
  0
LINE
  5
187
330
1F
100
AcDbEntity
  8
0
  6
Continuous
 62
     7
370
    25
100
AcDbLine
 10
6182.2831927525
 20
5140.3639172318
 30
0.0
 11
6182.6856960636
 21
5140.4437492845
 31
0.0
  0
LWPOLYLINE
  5
188
330
1F
100
AcDbEntity
  8
0
  6
Continuous
 62
     7
370
    25
100
AcDbPolyline
 90
        3
 70
   128
 43
0.0
 10
6182.9404817582
 20
5141.569093047
 10
6182.4172133602
 20
5141.9614839176
 10
6182.3801971223
 20
5142.0033567818
  0
LINE
  5
189
330
1F
100
AcDbEntity
  8
0
  6
Continuous
 62
     7
370
    25
100
AcDbLine
 10
6198.0601989109
 20
5141.6400801226
 30
0.0
 11
6197.9404817582
 21
5141.569093047
 31
0.0
  0
LINE
  5
18A
330
1F
100
AcDbEntity
  8
0
  6
Continuous
 62
     7
370
    25
100
AcDbLine
 10
6193.0581276462
 20
5142.6877367495
 30
0.0
 11
6193.1246352429
 21
5142.8178497538
 31
0.0
  0
ARC
  5
18B
330
1F
100
AcDbEntity
  8
0
  6
Continuous
 62
     7
370
    25
100
AcDbCircle
 10
6190.4522519868
 20
5110.0631676405
 30
0.0
 40
32.72847533113269
100
AcDbArc
 50
85.4332158269
 51
90.6446179145
  0
LINE
  5
18C
330
1F
100
AcDbEntity
  8
0
  6
Continuous
 62
     7
370
    25
100
AcDbLine
 10
6190.084041333
 20
5142.7895716351
 30
0.0
 11
6190.1505489297
 21
5142.9196846394
 31
0.0
  0
LWPOLYLINE
  5
18D
330
1F
100
AcDbEntity
  8
0
  6
Continuous
 62
     7
370
    25
100
AcDbPolyline
 90
        7
 70
   128
 43
0.0
 10
6184.4874450552
 20
5140.3119920356
 10
6183.6459401415
 20
5140.6708142795
 10
6183.1221404423
 20
5141.0680674829
 10
6182.9405382493
 20
5141.4851765274
 10
6183.1096250791
 20
5141.9026378576
 10
6183.6214946196
 20
5142.3009314459
 10
6183.6979443329
 20
5142.3428115769
  0
LWPOLYLINE
  5
18E
330
1F
100
AcDbEntity
  8
0
  6
Continuous
 62
     7
370
    25
100
AcDbPolyline
 90
       14
 70
   128
 43
0.0
 10
6197.8915490939
 20
5141.7140872441
 10
6197.8933129866
 20
5141.7100734246
 10
6197.8996075673
 20
5141.2903276697
 10
6197.5571217154
 20
5140.8800451165
 10
6196.8818696886
 20
5140.4984101213
 10
6195.9054255214
 20
5140.1632675124
 10
6194.6734466576
 20
5139.8902881856
 10
6193.2435390597
 20
5139.6922363509
 10
6191.6825636178
 20
5139.5783726919
 10
6190.0635098086
 20
5139.5540213467
 10
6188.4620827888
 20
5139.6203209573
 10
6186.9531635059
 20
5139.7741714275
 10
6185.6073073487
 20
5140.0083788803
 10
6184.4874450552
 20
5140.3119920356
  0
LINE
  5
18F
330
1F
100
AcDbEntity
  8
0
  6
Continuous
 62
     7
370
    25
100
AcDbLine
 10
6190.084041333
 20
5143.0809573642
 30
0.0
 11
6190.084041333
 21
5142.7895716351
 31
0.0
  0
LINE
  5
190
330
1F
100
AcDbEntity
  8
0
  6
Continuous
 62
     7
370
    25
100
AcDbLine
 10
6186.0791590141
 20
5142.6380465446
 30
0.0
 11
6186.3876063799
 21
5142.533871022
 31
0.0
  0
ARC
  5
191
330
1F
100
AcDbEntity
  8
0
  6
Continuous
 62
     7
370
    25
100
AcDbCircle
 10
6188.638416007
 20
5124.9465296602
 30
0.0
 40
17.73078453289435
100
AcDbArc
 50
97.2930101399
 51
105.1437664243
  0
LINE
  5
192
330
1F
100
AcDbEntity
  8
0
  6
Continuous
 62
     7
370
    25
100
AcDbLine
 10
6183.6979443329
 20
5142.1657591109
 30
0.0
 11
6184.0063916987
 21
5142.0615835883
 31
0.0
  0
LINE
  5
193
330
1F
100
AcDbEntity
  8
0
  6
Continuous
 62
     7
370
    25
100
AcDbLine
 10
6186.3876063799
 20
5142.8574474373
 30
0.0
 11
6186.3876063799
 21
5142.533871022
 31
0.0
  0
LINE
  5
194
330
1F
100
AcDbEntity
  8
0
  6
Continuous
 62
     7
370
    25
100
AcDbLine
 10
6196.7729922453
 20
5142.2718818915
 30
0.0
 11
6196.3704889341
 21
5142.1920498388
 31
0.0
  0
LINE
  5
195
330
1F
100
AcDbEntity
  8
0
  6
Continuous
 62
     7
370
    25
100
AcDbLine
 10
6198.5977707639
 20
5141.6555781815
 30
0.0
 11
6198.1952674527
 21
5141.5757461289
 31
0.0
  0
ARC
  5
196
330
1F
100
AcDbEntity
  8
0
  6
Continuous
 62
     7
370
    25
100
AcDbCircle
 10
6194.4729485143
 20
5133.5641373946
 30
0.0
 40
8.834111884653648
100
AcDbArc
 50
65.0796807337
 51
77.5963840454
  0
LINE
  5
197
330
1F
100
AcDbEntity
  8
0
  6
Continuous
 62
     7
370
    25
100
AcDbLine
 10
6196.3704889341
 20
5142.5704826435
 30
0.0
 11
6196.3704889341
 21
5142.1920498388
 31
0.0
  0
LINE
  5
198
330
1F
100
AcDbEntity
  8
0
  6
Continuous
 62
     7
370
    25
100
AcDbLine
 10
6182.0912045437
 20
5141.8915539631
 30
0.0
 11
6182.0912045437
 21
5141.2042814027
 31
0.0
  0
LINE
  5
199
330
1F
100
AcDbEntity
  8
0
  6
Continuous
 62
     7
370
    25
100
AcDbLine
 10
6182.0912045437
 20
5141.2042814027
 30
0.0
 11
6181.5884864989
 21
5141.2214948354
 31
0.0
  0
ARC
  5
19A
330
1F
100
AcDbEntity
  8
0
  6
Continuous
 62
     7
370
    25
100
AcDbCircle
 10
6182.5559174563
 20
5140.4813081223
 30
0.0
 40
0.8594465983305144
100
AcDbArc
 50
122.732106952
 51
183.1199656665
  0
LINE
  5
19B
330
1F
100
AcDbEntity
  8
0
  6
Continuous
 62
     7
370
    25
100
AcDbLine
 10
6181.6977447598
 20
5140.4345312231
 30
0.0
 11
6181.195026715
 21
5140.4517446557
 31
0.0
  0
LINE
  5
19C
330
1F
100
AcDbEntity
  8
0
  6
Continuous
 62
     7
370
    25
100
AcDbLine
 10
6181.6977447598
 20
5140.619038364
 30
0.0
 11
6181.6977447598
 21
5140.4345312231
 31
0.0
  0
LINE
  5
19D
330
1F
100
AcDbEntity
  8
0
  6
Continuous
 62
     7
370
    25
100
AcDbLine
 10
6199.1832187566
 20
5141.5849641903
 30
0.0
 11
6199.1832187566
 21
5140.619038364
 31
0.0
  0
LINE
  5
19E
330
1F
100
AcDbEntity
  8
0
  6
Continuous
 62
     7
370
    25
100
AcDbLine
 10
6199.1832187566
 20
5140.619038364
 30
0.0
 11
6199.6859368013
 21
5140.6018249314
 31
0.0
  0
ARC
  5
19F
330
1F
100
AcDbEntity
  8
0
  6
Continuous
 62
     7
370
    25
100
AcDbCircle
 10
6198.3250460601
 20
5140.5722614648
 30
0.0
 40
0.8594465983382448
100
AcDbArc
 50
302.7321069522
 51
3.1199656663
  0
LINE
  5
1A0
330
1F
100
AcDbEntity
  8
0
  6
Continuous
 62
     7
370
    25
100
AcDbLine
 10
6198.7897589727
 20
5139.8492881844
 30
0.0
 11
6199.2924770175
 21
5139.8320747517
 31
0.0
  0
LINE
  5
1A1
330
1F
100
AcDbEntity
  8
0
  6
Continuous
 62
     7
370
    25
100
AcDbLine
 10
6198.7897589727
 20
5140.8152140107
 30
0.0
 11
6198.7897589727
 21
5139.8492881844
 31
0.0
  0
LINE
  5
1A2
330
1F
100
AcDbEntity
  8
0
  6
Continuous
 62
     7
370
    25
100
AcDbLine
 10
6182.6856960636
 20
5140.4437492845
 30
0.0
 11
6182.6856960636
 21
5139.4778234582
 31
0.0
  0
LINE
  5
1A3
330
1F
100
AcDbEntity
  8
0
  6
Continuous
 62
     7
370
    25
100
AcDbLine
 10
6182.2831927525
 20
5139.3979914055
 30
0.0
 11
6182.6856960636
 21
5139.4778234582
 31
0.0
  0
ARC
  5
1A4
330
1F
100
AcDbEntity
  8
0
  6
Continuous
 62
     7
370
    25
100
AcDbCircle
 10
6186.4080150021
 20
5147.4894321925
 30
0.0
 40
8.834111884685582
100
AcDbArc
 50
245.0796807338
 51
257.5963840454
  0
LINE
  5
1A5
330
1F
100
AcDbEntity
  8
0
  6
Continuous
 62
     7
370
    25
100
AcDbLine
 10
6184.5104745823
 20
5139.8274455745
 30
0.0
 11
6184.5104745823
 21
5138.8615197483
 31
0.0
  0
LINE
  5
1A6
330
1F
100
AcDbEntity
  8
0
  6
Continuous
 62
     7
370
    25
100
AcDbLine
 10
6184.1079712711
 20
5138.7816876956
 30
0.0
 11
6184.5104745823
 21
5138.8615197483
 31
0.0
  0
LINE
  5
1A7
330
1F
100
AcDbEntity
  8
0
  6
Continuous
 62
     7
370
    25
100
AcDbLine
 10
6196.8745718177
 20
5139.9579118251
 30
0.0
 11
6196.8745718177
 21
5138.9919859988
 31
0.0
  0
LINE
  5
1A8
330
1F
100
AcDbEntity
  8
0
  6
Continuous
 62
     7
370
    25
100
AcDbLine
 10
6197.1830191835
 20
5138.8878104762
 30
0.0
 11
6196.8745718177
 21
5138.9919859988
 31
0.0
  0
ARC
  5
1A9
330
1F
100
AcDbEntity
  8
0
  6
Continuous
 62
     7
370
    25
100
AcDbCircle
 10
6192.2425475094
 20
5156.1070399271
 30
0.0
 40
17.73078453317948
100
AcDbArc
 50
277.2930101399
 51
285.1437664243
  0
LINE
  5
1AA
330
1F
100
AcDbEntity
  8
0
  6
Continuous
 62
     7
370
    25
100
AcDbLine
 10
6194.4933571364
 20
5139.4856243914
 30
0.0
 11
6194.4933571364
 21
5138.5196985651
 31
0.0
  0
LINE
  5
1AB
330
1F
100
AcDbEntity
  8
0
  6
Continuous
 62
     7
370
    25
100
AcDbLine
 10
6194.8018045022
 20
5138.4155230425
 30
0.0
 11
6194.4933571364
 21
5138.5196985651
 31
0.0
  0
LINE
  5
1AC
330
1F
100
AcDbEntity
  8
0
  6
Continuous
 62
     7
370
    25
100
AcDbLine
 10
6187.8228358702
 20
5139.3317586639
 30
0.0
 11
6187.8228358702
 21
5138.3658328376
 31
0.0
  0
LINE
  5
1AD
330
1F
100
AcDbEntity
  8
0
  6
Continuous
 62
     7
370
    25
100
AcDbLine
 10
6190.7969221834
 20
5139.2299237783
 30
0.0
 11
6190.7969221834
 21
5138.263997952
 31
0.0
  0
ARC
  5
1AE
330
1F
100
AcDbEntity
  8
0
  6
Continuous
 62
     7
370
    25
100
AcDbCircle
 10
6190.4287115296
 20
5170.990401947
 30
0.0
 40
32.72847533151445
100
AcDbArc
 50
265.433215827
 51
270.6446179145
  0
LINE
  5
1AF
330
1F
100
AcDbEntity
  8
0
  6
Continuous
 62
     7
370
    25
100
AcDbLine
 10
6187.8228358702
 20
5138.3658328376
 30
0.0
 11
6187.7563282734
 21
5138.2357198333
 31
0.0
  0
LINE
  5
1B0
330
1F
100
AcDbEntity
  8
0
  6
Continuous
 62
     7
370
    25
100
AcDbLine
 10
6190.7969221834
 20
5138.263997952
 30
0.0
 11
6190.7304145867
 21
5138.1338849477
 31
0.0
  0
ARC
  5
1B1
330
1F
100
AcDbEntity
  8
0
  6
Continuous
 62
     7
370
    25
100
AcDbCircle
 10
6790.5500946309
 20
5171.4316563981
 30
0.0
 40
32.33234845701306
100
AcDbArc
 50
270.3195445578
 51
277.00524986
  0
ARC
  5
1B2
330
1F
100
AcDbEntity
  8
0
  6
Continuous
 62
     7
370
    25
100
AcDbCircle
 10
6792.3494582287
 20
5157.018987187
 30
0.0
 40
18.76440461142992
100
AcDbArc
 50
277.5095473837
 51
284.9272291804
  0
LINE
  5
1B3
330
1F
100
AcDbEntity
  8
0
  6
Continuous
 62
     7
370
    25
100
AcDbLine
 10
6797.1830191835
 20
5139.8537363025
 30
0.0
 11
6797.1830191835
 21
5138.8878104762
 31
0.0
  0
ARC
  5
1B4
330
1F
100
AcDbEntity
  8
0
  6
Continuous
 62
     7
370
    25
100
AcDbCircle
 10
6795.3079223963
 20
5147.2305120161
 30
0.0
 40
7.611360449396904
100
AcDbArc
 50
284.2619248086
 51
297.2228497749
  0
ARC
  5
1B5
330
1F
100
AcDbEntity
  8
0
  6
Continuous
 62
     7
370
    25
100
AcDbCircle
 10
6798.7833815255
 20
5140.5777343017
 30
0.0
 40
0.9028767270889883
100
AcDbArc
 50
304.3231205499
 51
1.5289520686
  0
LINE
  5
1B6
330
1F
100
AcDbEntity
  8
0
  6
Continuous
 62
     7
370
    25
100
AcDbLine
 10
6799.6859368013
 20
5141.2055285728
 30
0.0
 11
6799.6859368013
 21
5140.6018249314
 31
0.0
  0
LINE
  5
1B7
330
1F
100
AcDbEntity
  8
0
  6
Continuous
 62
     7
370
    25
100
AcDbLine
 10
6798.5977707639
 20
5141.9672298847
 30
0.0
 11
6798.5977707639
 21
5141.6555781815
 31
0.0
  0
ARC
  5
1B8
330
1F
100
AcDbEntity
  8
0
  6
Continuous
 62
     7
370
    25
100
AcDbCircle
 10
6794.7089778332
 20
5133.1510660945
 30
0.0
 40
9.351440332755347
100
AcDbArc
 50
65.427167351
 51
77.2488974281
  0
LINE
  5
1B9
330
1F
100
AcDbEntity
  8
0
  6
Continuous
 62
     7
370
    25
100
AcDbLine
 10
6796.7729922453
 20
5142.4879251325
 30
0.0
 11
6796.7729922453
 21
5142.2718818915
 31
0.0
  0
LINE
  5
1BA
330
1F
100
AcDbEntity
  8
0
  6
Continuous
 62
     7
370
    25
100
AcDbLine
 10
6793.1246352429
 20
5142.986395779
 30
0.0
 11
6793.1246352429
 21
5142.8178497538
 31
0.0
  0
ARC
  5
1BB
330
1F
100
AcDbEntity
  8
0
  6
Continuous
 62
     7
370
    25
100
AcDbCircle
 10
6790.4536684612
 20
5108.292295388
 30
0.0
 40
34.62871594230733
100
AcDbArc
 50
85.5762935841
 51
90.5015401573
  0
LINE
  5
1BC
330
1F
100
AcDbEntity
  8
0
  6
Continuous
 62
     7
370
    25
100
AcDbLine
 10
6790.1505489297
 20
5143.0815210265
 30
0.0
 11
6790.1505489297
 21
5142.9196846394
 31
0.0
  0
LINE
  5
1BD
330
1F
100
AcDbEntity
  8
0
  6
Continuous
 62
     7
370
    25
100
AcDbLine
 10
6786.0791590141
 20
5142.8198468793
 30
0.0
 11
6786.0791590141
 21
5142.6380465446
 31
0.0
  0
ARC
  5
1BE
330
1F
100
AcDbEntity
  8
0
  6
Continuous
 62
     7
370
    25
100
AcDbCircle
 10
6788.5315052875
 20
5124.0345824009
 30
0.0
 40
18.76440461065011
100
AcDbArc
 50
97.5095473836
 51
104.9272291806
  0
LINE
  5
1BF
330
1F
100
AcDbEntity
  8
0
  6
Continuous
 62
     7
370
    25
100
AcDbLine
 10
6783.6979443329
 20
5142.3941209606
 30
0.0
 11
6783.6979443329
 21
5142.1657591109
 31
0.0
  0
LINE
  5
1C0
330
1F
100
AcDbEntity
  8
0
  6
Continuous
 62
     7
370
    25
100
AcDbLine
 10
6781.5884864989
 20
5141.6596261725
 30
0.0
 11
6781.5884864989
 21
5141.2214948354
 31
0.0
  0
ARC
  5
1C1
330
1F
100
AcDbEntity
  8
0
  6
Continuous
 62
     7
370
    25
100
AcDbCircle
 10
6782.0975819908
 20
5140.4758352854
 30
0.0
 40
0.9028767270928938
100
AcDbArc
 50
124.3231205502
 51
181.5289520686
  0
ARC
  5
1C2
330
1F
100
AcDbEntity
  8
0
  6
Continuous
 62
     7
370
    25
100
AcDbCircle
 10
6783.8081243278
 20
5143.6078549804
 30
0.0
 40
3.584487191491199
100
AcDbArc
 50
234.2803060055
 51
244.8224128717
  0
LINE
  5
1C3
330
1F
100
AcDbEntity
  8
0
  6
Continuous
 62
     7
370
    25
100
AcDbLine
 10
6782.2831927525
 20
5140.3639172318
 30
0.0
 11
6782.2831927525
 21
5139.3979914055
 31
0.0
  0
ARC
  5
1C4
330
1F
100
AcDbEntity
  8
0
  6
Continuous
 62
     7
370
    25
100
AcDbCircle
 10
6786.1719856833
 20
5147.9025034927
 30
0.0
 40
9.351440332873004
100
AcDbArc
 50
245.427167351
 51
257.248897428
  0
ARC
  5
1C5
330
1F
100
AcDbEntity
  8
0
  6
Continuous
 62
     7
370
    25
100
AcDbCircle
 10
6789.5006811963
 20
5163.5198309035
 30
0.0
 40
24.38066653467419
100
AcDbArc
 50
258.189300535
 51
265.8971784142
  0
LINE
  5
1C6
330
1F
100
AcDbEntity
  8
0
  6
Continuous
 62
     7
370
    25
100
AcDbLine
 10
6787.7563282734
 20
5139.2016456596
 30
0.0
 11
6787.7563282734
 21
5138.2357198333
 31
0.0
  0
ARC
  5
1C7
330
1F
100
AcDbEntity
  8
0
  6
Continuous
 62
     7
370
    25
100
AcDbCircle
 10
6790.4272950551
 20
5172.7612741989
 30
0.0
 40
34.62871594212833
100
AcDbArc
 50
265.5762935841
 51
270.5015401573
  0
LWPOLYLINE
  5
1C8
330
1F
100
AcDbEntity
  8
0
  6
Continuous
 62
     7
370
    25
100
AcDbPolyline
 90
        6
 70
   128
 43
0.0
 10
6783.8921413849
 20
5140.1939201771
 10
6782.9919081685
 20
5140.574677917
 10
6782.4172133602
 20
5140.9955580913
 10
6782.1931738809
 20
5141.4381662166
 10
6782.3295813307
 20
5141.8831581941
 10
6782.4857480501
 20
5142.0588509775
  0
LWPOLYLINE
  5
1C9
330
1F
100
AcDbEntity
  8
0
  6
Continuous
 62
     7
370
    25
100
AcDbPolyline
 90
       14
 70
   128
 43
0.0
 10
6798.6151228196
 20
5141.7806569586
 10
6798.6877896355
 20
5141.5472550231
 10
6798.5513821856
 20
5141.1022630456
 10
6798.0604894667
 20
5140.6743355007
 10
6797.236565846
 20
5140.2821748754
 10
6796.1156207395
 20
5139.9429204711
 10
6794.7466448271
 20
5139.6713993329
 10
6793.1894689254
 20
5139.4794782376
 10
6791.5121490934
 20
5139.375545058
 10
6789.7879922563
 20
5139.3641421727
 10
6788.0923523415
 20
5139.4457679425
 10
6786.4993369498
 20
5139.6168549297
 10
6785.078568498
 20
5139.8699258119
 10
6783.8921413849
 20
5140.1939201771
  0
LINE
  5
1CA
330
1F
100
AcDbEntity
  8
0
  6
Continuous
 62
     7
370
    25
100
AcDbLine
 10
6799.1832187566
 20
5141.5849641903
 30
0.0
 11
6799.4450299091
 21
5141.5759995854
 31
0.0
  0
ARC
  5
1CB
330
1F
100
AcDbEntity
  8
0
  6
Continuous
 62
     7
370
    25
100
AcDbCircle
 10
6798.1998728086
 20
5141.6366786993
 30
0.0
 40
1.011320879480312
100
AcDbArc
 50
305.6817763792
 51
346.492222801
  0
LINE
  5
1CC
330
1F
100
AcDbEntity
  8
0
  6
Continuous
 62
     7
370
    25
100
AcDbLine
 10
6797.1830191835
 20
5139.8537363025
 30
0.0
 11
6796.8745718177
 21
5139.9579118251
 31
0.0
  0
ARC
  5
1CD
330
1F
100
AcDbEntity
  8
0
  6
Continuous
 62
     7
370
    25
100
AcDbCircle
 10
6792.2425475095
 20
5157.072965753
 30
0.0
 40
17.73078453272769
100
AcDbArc
 50
277.2930101398
 51
285.1437664244
  0
ARC
  5
1CE
330
1F
100
AcDbEntity
  8
0
  6
Continuous
 62
     7
370
    25
100
AcDbCircle
 10
6790.4287115295
 20
5171.9563277722
 30
0.0
 40
32.72847533045086
100
AcDbArc
 50
265.4332158269
 51
270.6446179146
  0
LINE
  5
1CF
330
1F
100
AcDbEntity
  8
0
  6
Continuous
 62
     7
370
    25
100
AcDbLine
 10
6787.8228358702
 20
5139.3317586639
 30
0.0
 11
6787.7563282734
 21
5139.2016456596
 31
0.0
  0
ARC
  5
1D0
330
1F
100
AcDbEntity
  8
0
  6
Continuous
 62
     7
370
    25
100
AcDbCircle
 10
6786.4080150021
 20
5148.4553580188
 30
0.0
 40
8.834111884654487
100
AcDbArc
 50
245.0796807338
 51
257.5963840454
  0
LINE
  5
1D1
330
1F
100
AcDbEntity
  8
0
  6
Continuous
 62
     7
370
    25
100
AcDbLine
 10
6782.2831927525
 20
5140.3639172318
 30
0.0
 11
6782.6856960636
 21
5140.4437492845
 31
0.0
  0
LWPOLYLINE
  5
1D2
330
1F
100
AcDbEntity
  8
0
  6
Continuous
 62
     7
370
    25
100
AcDbPolyline
 90
        3
 70
   128
 43
0.0
 10
6782.9404817582
 20
5141.569093047
 10
6782.4172133602
 20
5141.9614839176
 10
6782.4042855689
 20
5141.975673533
  0
LINE
  5
1D3
330
1F
100
AcDbEntity
  8
0
  6
Continuous
 62
     7
370
    25
100
AcDbLine
 10
6798.0601989113
 20
5141.6400801228
 30
0.0
 11
6797.9404817582
 21
5141.569093047
 31
0.0
  0
LINE
  5
1D4
330
1F
100
AcDbEntity
  8
0
  6
Continuous
 62
     7
370
    25
100
AcDbLine
 10
6793.0581276462
 20
5142.6877367495
 30
0.0
 11
6793.1246352429
 21
5142.8178497538
 31
0.0
  0
ARC
  5
1D5
330
1F
100
AcDbEntity
  8
0
  6
Continuous
 62
     7
370
    25
100
AcDbCircle
 10
6790.4522519868
 20
5110.0631676405
 30
0.0
 40
32.72847533111901
100
AcDbArc
 50
85.4332158269
 51
90.6446179145
  0
LINE
  5
1D6
330
1F
100
AcDbEntity
  8
0
  6
Continuous
 62
     7
370
    25
100
AcDbLine
 10
6790.084041333
 20
5142.7895716351
 30
0.0
 11
6790.1505489297
 21
5142.9196846394
 31
0.0
  0
LWPOLYLINE
  5
1D7
330
1F
100
AcDbEntity
  8
0
  6
Continuous
 62
     7
370
    25
100
AcDbPolyline
 90
        7
 70
   128
 43
0.0
 10
6784.4874450552
 20
5140.3119920356
 10
6783.6459401415
 20
5140.6708142795
 10
6783.1221404423
 20
5141.0680674829
 10
6782.9405382493
 20
5141.4851765274
 10
6783.1096250791
 20
5141.9026378576
 10
6783.6214946196
 20
5142.3009314459
 10
6783.6979443329
 20
5142.3428115769
  0
LWPOLYLINE
  5
1D8
330
1F
100
AcDbEntity
  8
0
  6
Continuous
 62
     7
370
    25
100
AcDbPolyline
 90
       14
 70
   128
 43
0.0
 10
6797.8915490964
 20
5141.7140872384
 10
6797.8933129866
 20
5141.7100734246
 10
6797.8996075673
 20
5141.2903276697
 10
6797.5571217154
 20
5140.8800451165
 10
6796.8818696886
 20
5140.4984101213
 10
6795.9054255214
 20
5140.1632675124
 10
6794.6734466576
 20
5139.8902881856
 10
6793.2435390597
 20
5139.6922363509
 10
6791.6825636178
 20
5139.5783726919
 10
6790.0635098086
 20
5139.5540213467
 10
6788.4620827888
 20
5139.6203209573
 10
6786.9531635059
 20
5139.7741714275
 10
6785.6073073487
 20
5140.0083788803
 10
6784.4874450552
 20
5140.3119920356
  0
LINE
  5
1D9
330
1F
100
AcDbEntity
  8
0
  6
Continuous
 62
     7
370
    25
100
AcDbLine
 10
6790.084041333
 20
5143.0809573642
 30
0.0
 11
6790.084041333
 21
5142.7895716351
 31
0.0
  0
LINE
  5
1DA
330
1F
100
AcDbEntity
  8
0
  6
Continuous
 62
     7
370
    25
100
AcDbLine
 10
6786.0791590141
 20
5142.6380465446
 30
0.0
 11
6786.3876063799
 21
5142.533871022
 31
0.0
  0
ARC
  5
1DB
330
1F
100
AcDbEntity
  8
0
  6
Continuous
 62
     7
370
    25
100
AcDbCircle
 10
6788.638416007
 20
5124.9465296602
 30
0.0
 40
17.73078453291565
100
AcDbArc
 50
97.2930101399
 51
105.1437664243
  0
LINE
  5
1DC
330
1F
100
AcDbEntity
  8
0
  6
Continuous
 62
     7
370
    25
100
AcDbLine
 10
6783.6979443329
 20
5142.1657591109
 30
0.0
 11
6784.0063916987
 21
5142.0615835883
 31
0.0
  0
LINE
  5
1DD
330
1F
100
AcDbEntity
  8
0
  6
Continuous
 62
     7
370
    25
100
AcDbLine
 10
6786.3876063799
 20
5142.8574474373
 30
0.0
 11
6786.3876063799
 21
5142.533871022
 31
0.0
  0
LINE
  5
1DE
330
1F
100
AcDbEntity
  8
0
  6
Continuous
 62
     7
370
    25
100
AcDbLine
 10
6796.7729922453
 20
5142.2718818915
 30
0.0
 11
6796.3704889341
 21
5142.1920498388
 31
0.0
  0
LINE
  5
1DF
330
1F
100
AcDbEntity
  8
0
  6
Continuous
 62
     7
370
    25
100
AcDbLine
 10
6798.5977707639
 20
5141.6555781815
 30
0.0
 11
6798.1952674527
 21
5141.5757461289
 31
0.0
  0
ARC
  5
1E0
330
1F
100
AcDbEntity
  8
0
  6
Continuous
 62
     7
370
    25
100
AcDbCircle
 10
6794.4729485143
 20
5133.5641373946
 30
0.0
 40
8.834111884654032
100
AcDbArc
 50
65.0796807337
 51
77.5963840454
  0
LINE
  5
1E1
330
1F
100
AcDbEntity
  8
0
  6
Continuous
 62
     7
370
    25
100
AcDbLine
 10
6796.3704889341
 20
5142.5704826435
 30
0.0
 11
6796.3704889341
 21
5142.1920498388
 31
0.0
  0
LINE
  5
1E2
330
1F
100
AcDbEntity
  8
0
  6
Continuous
 62
     7
370
    25
100
AcDbLine
 10
6782.0912045437
 20
5141.8915539631
 30
0.0
 11
6782.0912045437
 21
5141.2042814027
 31
0.0
  0
LINE
  5
1E3
330
1F
100
AcDbEntity
  8
0
  6
Continuous
 62
     7
370
    25
100
AcDbLine
 10
6782.0912045437
 20
5141.2042814027
 30
0.0
 11
6781.5884864989
 21
5141.2214948354
 31
0.0
  0
ARC
  5
1E4
330
1F
100
AcDbEntity
  8
0
  6
Continuous
 62
     7
370
    25
100
AcDbCircle
 10
6782.5559174563
 20
5140.4813081223
 30
0.0
 40
0.8594465983311281
100
AcDbArc
 50
122.7321069521
 51
183.1199656665
  0
LINE
  5
1E5
330
1F
100
AcDbEntity
  8
0
  6
Continuous
 62
     7
370
    25
100
AcDbLine
 10
6781.6977447598
 20
5140.4345312231
 30
0.0
 11
6781.195026715
 21
5140.4517446557
 31
0.0
  0
LINE
  5
1E6
330
1F
100
AcDbEntity
  8
0
  6
Continuous
 62
     7
370
    25
100
AcDbLine
 10
6781.6977447598
 20
5140.619038364
 30
0.0
 11
6781.6977447598
 21
5140.4345312231
 31
0.0
  0
LINE
  5
1E7
330
1F
100
AcDbEntity
  8
0
  6
Continuous
 62
     7
370
    25
100
AcDbLine
 10
6799.1832187566
 20
5141.5849641903
 30
0.0
 11
6799.1832187566
 21
5140.619038364
 31
0.0
  0
LINE
  5
1E8
330
1F
100
AcDbEntity
  8
0
  6
Continuous
 62
     7
370
    25
100
AcDbLine
 10
6799.1832187566
 20
5140.619038364
 30
0.0
 11
6799.6859368013
 21
5140.6018249314
 31
0.0
  0
ARC
  5
1E9
330
1F
100
AcDbEntity
  8
0
  6
Continuous
 62
     7
370
    25
100
AcDbCircle
 10
6798.3250460601
 20
5140.5722614648
 30
0.0
 40
0.8594465983347607
100
AcDbArc
 50
302.7321069523
 51
3.1199656665
  0
LINE
  5
1EA
330
1F
100
AcDbEntity
  8
0
  6
Continuous
 62
     7
370
    25
100
AcDbLine
 10
6798.7897589727
 20
5139.8492881844
 30
0.0
 11
6799.2924770175
 21
5139.8320747517
 31
0.0
  0
LINE
  5
1EB
330
1F
100
AcDbEntity
  8
0
  6
Continuous
 62
     7
370
    25
100
AcDbLine
 10
6798.7897589727
 20
5140.8152140107
 30
0.0
 11
6798.7897589727
 21
5139.8492881844
 31
0.0
  0
LINE
  5
1EC
330
1F
100
AcDbEntity
  8
0
  6
Continuous
 62
     7
370
    25
100
AcDbLine
 10
6782.6856960636
 20
5140.4437492845
 30
0.0
 11
6782.6856960636
 21
5139.4778234582
 31
0.0
  0
LINE
  5
1ED
330
1F
100
AcDbEntity
  8
0
  6
Continuous
 62
     7
370
    25
100
AcDbLine
 10
6782.2831927525
 20
5139.3979914055
 30
0.0
 11
6782.6856960636
 21
5139.4778234582
 31
0.0
  0
ARC
  5
1EE
330
1F
100
AcDbEntity
  8
0
  6
Continuous
 62
     7
370
    25
100
AcDbCircle
 10
6786.4080150021
 20
5147.4894321925
 30
0.0
 40
8.83411188464195
100
AcDbArc
 50
245.0796807338
 51
257.5963840454
  0
LINE
  5
1EF
330
1F
100
AcDbEntity
  8
0
  6
Continuous
 62
     7
370
    25
100
AcDbLine
 10
6784.5104745823
 20
5139.8274455745
 30
0.0
 11
6784.5104745823
 21
5138.8615197483
 31
0.0
  0
LINE
  5
1F0
330
1F
100
AcDbEntity
  8
0
  6
Continuous
 62
     7
370
    25
100
AcDbLine
 10
6784.1079712711
 20
5138.7816876956
 30
0.0
 11
6784.5104745823
 21
5138.8615197483
 31
0.0
  0
LINE
  5
1F1
330
1F
100
AcDbEntity
  8
0
  6
Continuous
 62
     7
370
    25
100
AcDbLine
 10
6796.8745718177
 20
5139.9579118251
 30
0.0
 11
6796.8745718177
 21
5138.9919859988
 31
0.0
  0
LINE
  5
1F2
330
1F
100
AcDbEntity
  8
0
  6
Continuous
 62
     7
370
    25
100
AcDbLine
 10
6797.1830191835
 20
5138.8878104762
 30
0.0
 11
6796.8745718177
 21
5138.9919859988
 31
0.0
  0
ARC
  5
1F3
330
1F
100
AcDbEntity
  8
0
  6
Continuous
 62
     7
370
    25
100
AcDbCircle
 10
6792.2425475094
 20
5156.1070399272
 30
0.0
 40
17.73078453322348
100
AcDbArc
 50
277.2930101399
 51
285.1437664242
  0
LINE
  5
1F4
330
1F
100
AcDbEntity
  8
0
  6
Continuous
 62
     7
370
    25
100
AcDbLine
 10
6794.4933571364
 20
5139.4856243914
 30
0.0
 11
6794.4933571364
 21
5138.5196985651
 31
0.0
  0
LINE
  5
1F5
330
1F
100
AcDbEntity
  8
0
  6
Continuous
 62
     7
370
    25
100
AcDbLine
 10
6794.8018045022
 20
5138.4155230425
 30
0.0
 11
6794.4933571364
 21
5138.5196985651
 31
0.0
  0
LINE
  5
1F6
330
1F
100
AcDbEntity
  8
0
  6
Continuous
 62
     7
370
    25
100
AcDbLine
 10
6787.8228358702
 20
5139.3317586639
 30
0.0
 11
6787.8228358702
 21
5138.3658328376
 31
0.0
  0
LINE
  5
1F7
330
1F
100
AcDbEntity
  8
0
  6
Continuous
 62
     7
370
    25
100
AcDbLine
 10
6790.7969221834
 20
5139.2299237783
 30
0.0
 11
6790.7969221834
 21
5138.263997952
 31
0.0
  0
ARC
  5
1F8
330
1F
100
AcDbEntity
  8
0
  6
Continuous
 62
     7
370
    25
100
AcDbCircle
 10
6790.4287115296
 20
5170.990401947
 30
0.0
 40
32.72847533152627
100
AcDbArc
 50
265.433215827
 51
270.6446179145
  0
LINE
  5
1F9
330
1F
100
AcDbEntity
  8
0
  6
Continuous
 62
     7
370
    25
100
AcDbLine
 10
6787.8228358702
 20
5138.3658328376
 30
0.0
 11
6787.7563282734
 21
5138.2357198333
 31
0.0
  0
LINE
  5
1FA
330
1F
100
AcDbEntity
  8
0
  6
Continuous
 62
     7
370
    25
100
AcDbLine
 10
6790.7969221834
 20
5138.263997952
 30
0.0
 11
6790.7304145867
 21
5138.1338849477
 31
0.0
  0
CIRCLE
  5
1FB
330
1F
100
AcDbEntity
  8
0
  6
Continuous
 62
     7
370
    25
100
AcDbCircle
 10
6790.4404817582
 20
5149.2896677801
 30
0.0
 40
29.49999999999986
  0
CIRCLE
  5
1FC
330
1F
100
AcDbEntity
  8
0
  6
Continuous
 62
     7
370
    25
100
AcDbCircle
 10
6790.4404817582
 20
5149.2896677801
 30
0.0
 40
30.00000000000118
  0
CIRCLE
  5
1FD
330
1F
100
AcDbEntity
  8
0
  6
Continuous
 62
     7
370
    25
100
AcDbCircle
 10
6190.4404817582
 20
5149.2896677801
 30
0.0
 40
29.50000000000038
  0
CIRCLE
  5
1FE
330
1F
100
AcDbEntity
  8
0
  6
Continuous
 62
     7
370
    25
100
AcDbCircle
 10
6190.4404817582
 20
5149.2896677801
 30
0.0
 40
30.00000000000118
  0
ARC
  5
1FF
330
1F
100
AcDbEntity
  8
0
  6
Continuous
 62
     7
370
    25
100
AcDbCircle
 10
6790.4404817582
 20
5149.2896677801
 30
0.0
 40
13.0000000000008
100
AcDbArc
 50
339.1745965348
 51
200.8254034652
  0
LINE
  5
200
330
1F
100
AcDbEntity
  8
0
  6
Continuous
 62
     7
370
    25
100
AcDbLine
 10
6778.2897959475
 20
5144.6678895152
 30
0.0
 11
6802.5911675689
 21
5144.6678895152
 31
0.0
  0
LINE
  5
201
330
1F
100
AcDbEntity
  8
0
  6
Continuous
 62
     7
370
    25
100
AcDbLine
 10
6803.5588111256
 20
5144.3999403228
 30
0.0
 11
6802.5911675689
 21
5144.6678895152
 31
0.0
  0
ARC
  5
202
330
1F
100
AcDbEntity
  8
0
  6
Continuous
 62
     7
370
    25
100
AcDbCircle
 10
6790.4404817582
 20
5149.2896677801
 30
0.0
 40
13.99999999999974
100
AcDbArc
 50
200.4424420745
 51
339.5575579255
  0
LINE
  5
203
330
1F
100
AcDbEntity
  8
0
  6
Continuous
 62
     7
370
    25
100
AcDbLine
 10
6778.2897959475
 20
5144.6678895152
 30
0.0
 11
6777.3221523907
 21
5144.3999403228
 31
0.0
  0
LWPOLYLINE
  5
204
330
1F
100
AcDbEntity
  8
0
  6
Continuous
 62
     7
370
    25
100
AcDbPolyline
 90
       34
 70
   128
 43
0.0
 10
6790.4404817582
 20
5143.0826228639
 10
6792.3093377963
 20
5143.0364355404
 10
6794.1106485078
 20
5142.8995429001
 10
6795.7793098306
 20
5142.6768925996
 10
6797.2550119966
 20
5142.376531801
 10
6798.4844192847
 20
5142.009316326
 10
6799.4230977123
 20
5141.5885182988
 10
6800.0371209954
 20
5141.1293464564
 10
6800.3042967326
 20
5140.6483964655
 10
6800.2149684968
 20
5140.1630511119
 10
6799.772364843
 20
5139.6908520413
 10
6798.9924826206
 20
5139.2488657584
 10
6797.9035088049
 20
5138.8530667989
 10
6796.5448017471
 20
5138.5177603687
 10
6794.9654686603
 20
5138.2550653156
 10
6793.222590757
 20
5138.0744761233
 10
6791.3791601858
 20
5137.9825197558
 10
6789.5018033306
 20
5137.9825197558
 10
6787.6583727594
 20
5138.0744761233
 10
6785.9154948561
 20
5138.2550653156
 10
6784.3361617693
 20
5138.5177603687
 10
6782.9774547114
 20
5138.8530667989
 10
6781.8884808958
 20
5139.2488657584
 10
6781.1085986734
 20
5139.6908520413
 10
6780.6659950196
 20
5140.1630511119
 10
6780.5766667838
 20
5140.6483964655
 10
6780.843842521
 20
5141.1293464564
 10
6781.4578658041
 20
5141.5885182988
 10
6782.3965442317
 20
5142.009316326
 10
6783.6259515198
 20
5142.376531801
 10
6785.1016536858
 20
5142.6768925996
 10
6786.7703150085
 20
5142.8995429001
 10
6788.5716257201
 20
5143.0364355404
 10
6790.4404817582
 20
5143.0826228639
  0
ARC
  5
205
330
1F
100
AcDbEntity
  8
0
  6
Continuous
 62
     7
370
    25
100
AcDbCircle
 10
6790.4404817582
 20
5149.2896677801
 30
0.0
 40
13.99999999999974
100
AcDbArc
 50
339.5575579255
 51
200.4424420745
  0
LWPOLYLINE
  5
206
330
1F
100
AcDbEntity
  8
0
  6
Continuous
 62
     7
370
    25
100
AcDbPolyline
 90
        3
 70
   128
 43
0.0
 10
6799.6904817582
 20
5141.4046588403
 10
6799.8154817582
 20
5141.0097477067
 10
6799.6904817582
 20
5140.6148365731
  0
LWPOLYLINE
  5
207
330
1F
100
AcDbEntity
  8
0
  6
Continuous
 62
     7
370
    25
100
AcDbPolyline
 90
        3
 70
   128
 43
0.0
 10
6798.7897589727
 20
5139.9061888538
 10
6798.2355093735
 20
5139.661696233
 10
6797.1830191835
 20
5139.3238676349
  0
ARC
  5
208
330
1F
100
AcDbEntity
  8
0
  6
Continuous
 62
     7
370
    25
100
AcDbCircle
 10
6790.5708159411
 20
5171.097328607
 30
0.0
 40
32.51304127675685
100
AcDbArc
 50
270.39845666
 51
276.9293382745
  0
ARC
  5
209
330
1F
100
AcDbEntity
  8
0
  6
Continuous
 62
     7
370
    25
100
AcDbCircle
 10
6789.5696341487
 20
5163.943387032
 30
0.0
 40
25.32349552595104
100
AcDbArc
 50
258.475832632
 51
265.8937831658
  0
LWPOLYLINE
  5
20A
330
1F
100
AcDbEntity
  8
0
  6
Continuous
 62
     7
370
    25
100
AcDbPolyline
 90
        3
 70
   128
 43
0.0
 10
6782.2831927525
 20
5139.8138675638
 10
6781.7791111409
 20
5140.0811937016
 10
6781.3206952952
 20
5140.4474416719
  0
LWPOLYLINE
  5
20B
330
1F
100
AcDbEntity
  8
0
  6
Continuous
 62
     7
370
    25
100
AcDbPolyline
 90
        3
 70
   128
 43
0.0
 10
6781.1904817582
 20
5140.6148365731
 10
6781.0654817582
 20
5141.0097477067
 10
6781.1904817582
 20
5141.4046588402
  0
LINE
  5
20C
330
1F
100
AcDbEntity
  8
0
  6
Continuous
 62
     7
370
    25
100
AcDbLine
 10
6178.2897959475
 20
5144.6678895152
 30
0.0
 11
6202.5911675689
 21
5144.6678895152
 31
0.0
  0
LINE
  5
20D
330
1F
100
AcDbEntity
  8
0
  6
Continuous
 62
     7
370
    25
100
AcDbLine
 10
6203.5588111256
 20
5144.3999403228
 30
0.0
 11
6202.5911675689
 21
5144.6678895152
 31
0.0
  0
ARC
  5
20E
330
1F
100
AcDbEntity
  8
0
  6
Continuous
 62
     7
370
    25
100
AcDbCircle
 10
6190.4404817582
 20
5149.2896677801
 30
0.0
 40
13.99999999999974
100
AcDbArc
 50
200.4424420745
 51
339.5575579255
  0
LINE
  5
20F
330
1F
100
AcDbEntity
  8
0
  6
Continuous
 62
     7
370
    25
100
AcDbLine
 10
6178.2897959475
 20
5144.6678895152
 30
0.0
 11
6177.3221523907
 21
5144.3999403228
 31
0.0
  0
LWPOLYLINE
  5
210
330
1F
100
AcDbEntity
  8
0
  6
Continuous
 62
     7
370
    25
100
AcDbPolyline
 90
       34
 70
   128
 43
0.0
 10
6190.4404817582
 20
5143.0826228639
 10
6192.3093377963
 20
5143.0364355404
 10
6194.1106485078
 20
5142.8995429001
 10
6195.7793098306
 20
5142.6768925996
 10
6197.2550119966
 20
5142.376531801
 10
6198.4844192847
 20
5142.009316326
 10
6199.4230977123
 20
5141.5885182988
 10
6200.0371209954
 20
5141.1293464564
 10
6200.3042967326
 20
5140.6483964655
 10
6200.2149684968
 20
5140.1630511119
 10
6199.772364843
 20
5139.6908520413
 10
6198.9924826206
 20
5139.2488657584
 10
6197.9035088049
 20
5138.8530667989
 10
6196.5448017471
 20
5138.5177603687
 10
6194.9654686603
 20
5138.2550653156
 10
6193.222590757
 20
5138.0744761233
 10
6191.3791601858
 20
5137.9825197558
 10
6189.5018033306
 20
5137.9825197558
 10
6187.6583727594
 20
5138.0744761233
 10
6185.9154948561
 20
5138.2550653156
 10
6184.3361617693
 20
5138.5177603687
 10
6182.9774547114
 20
5138.8530667989
 10
6181.8884808958
 20
5139.2488657584
 10
6181.1085986734
 20
5139.6908520413
 10
6180.6659950196
 20
5140.1630511119
 10
6180.5766667838
 20
5140.6483964655
 10
6180.843842521
 20
5141.1293464564
 10
6181.4578658041
 20
5141.5885182988
 10
6182.3965442317
 20
5142.009316326
 10
6183.6259515198
 20
5142.376531801
 10
6185.1016536858
 20
5142.6768925996
 10
6186.7703150085
 20
5142.8995429001
 10
6188.5716257201
 20
5143.0364355404
 10
6190.4404817582
 20
5143.0826228639
  0
ARC
  5
211
330
1F
100
AcDbEntity
  8
0
  6
Continuous
 62
     7
370
    25
100
AcDbCircle
 10
6190.4404817582
 20
5149.2896677801
 30
0.0
 40
13.00000000000028
100
AcDbArc
 50
339.1745965348
 51
200.8254034652
  0
ARC
  5
212
330
1F
100
AcDbEntity
  8
0
  6
Continuous
 62
     7
370
    25
100
AcDbCircle
 10
6190.4404817582
 20
5149.2896677801
 30
0.0
 40
13.99999999999974
100
AcDbArc
 50
339.5575579255
 51
200.4424420745
  0
LWPOLYLINE
  5
213
330
1F
100
AcDbEntity
  8
0
  6
Continuous
 62
     7
370
    25
100
AcDbPolyline
 90
        3
 70
   128
 43
0.0
 10
6199.6904817582
 20
5141.4046588403
 10
6199.8154817582
 20
5141.0097477067
 10
6199.6904817582
 20
5140.6148365731
  0
LWPOLYLINE
  5
214
330
1F
100
AcDbEntity
  8
0
  6
Continuous
 62
     7
370
    25
100
AcDbPolyline
 90
        3
 70
   128
 43
0.0
 10
6198.7897589727
 20
5139.9061888538
 10
6198.2355093735
 20
5139.661696233
 10
6197.1830191835
 20
5139.3238676349
  0
ARC
  5
215
330
1F
100
AcDbEntity
  8
0
  6
Continuous
 62
     7
370
    25
100
AcDbCircle
 10
6190.5708159411
 20
5171.0973286071
 30
0.0
 40
32.51304127683775
100
AcDbArc
 50
270.39845666
 51
276.9293382745
  0
ARC
  5
216
330
1F
100
AcDbEntity
  8
0
  6
Continuous
 62
     7
370
    25
100
AcDbCircle
 10
6189.5696341487
 20
5163.9433870319
 30
0.0
 40
25.32349552590361
100
AcDbArc
 50
258.475832632
 51
265.8937831658
  0
LWPOLYLINE
  5
217
330
1F
100
AcDbEntity
  8
0
  6
Continuous
 62
     7
370
    25
100
AcDbPolyline
 90
        3
 70
   128
 43
0.0
 10
6182.2831927525
 20
5139.8138675638
 10
6181.7791111409
 20
5140.0811937016
 10
6181.3206952952
 20
5140.4474416719
  0
LWPOLYLINE
  5
218
330
1F
100
AcDbEntity
  8
0
  6
Continuous
 62
     7
370
    25
100
AcDbPolyline
 90
        3
 70
   128
 43
0.0
 10
6181.1904817582
 20
5140.6148365731
 10
6181.0654817582
 20
5141.0097477067
 10
6181.195650831
 20
5141.4126854993
  0
LINE
  5
219
330
1F
100
AcDbEntity
  8
0
  6
Continuous
 62
     8
370
    25
100
AcDbLine
 10
6045.2499235133
 20
4554.8932001061
 30
0.0
 11
5990.631040003
 21
4554.8932001061
 31
0.0
  0
LINE
  5
21A
330
1F
100
AcDbEntity
  8
0
  6
Continuous
 62
     8
370
    25
100
AcDbLine
 10
5990.834267478
 20
4430.239882146
 30
0.0
 11
6045.0466960383
 21
4430.239882146
 31
0.0
  0
LINE
  5
21B
330
1F
100
AcDbEntity
  8
0
  6
Continuous
 62
     8
370
    25
100
AcDbLine
 10
5994.9404817582
 20
4571.0455580074
 30
0.0
 11
6040.9404817582
 21
4571.0455580074
 31
0.0
  0
ARC
  5
21C
330
1F
100
AcDbEntity
  8
0
  6
Continuous
 62
     7
370
    25
100
AcDbCircle
 10
7434.6997530817
 20
4555.5455580074
 30
0.0
 40
20.0
100
AcDbArc
 50
0.0
 51
90.0
  0
ARC
  5
21D
330
1F
100
AcDbEntity
  8
0
  6
Continuous
 62
     7
370
    25
100
AcDbCircle
 10
7434.6997530817
 20
4515.5455580074
 30
0.0
 40
20.0
100
AcDbArc
 50
270.0
 51
0.0
  0
LINE
  5
21E
330
1F
100
AcDbEntity
  8
0
  6
Continuous
 62
     7
370
    25
100
AcDbLine
 10
7434.6997530817
 20
4575.5455580074
 30
0.0
 11
7419.6997530817
 21
4575.5455580074
 31
0.0
  0
LINE
  5
21F
330
1F
100
AcDbEntity
  8
0
  6
Continuous
 62
     7
370
    25
100
AcDbLine
 10
7419.6997530817
 20
4495.5455580074
 30
0.0
 11
7434.6997530817
 21
4495.5455580074
 31
0.0
  0
LINE
  5
220
330
1F
100
AcDbEntity
  8
0
  6
Continuous
 62
     7
370
    25
100
AcDbLine
 10
7419.6997530818
 20
4555.5455580074
 30
0.0
 11
7409.6997530817
 21
4555.5455580074
 31
0.0
  0
LINE
  5
221
330
1F
100
AcDbEntity
  8
0
  6
Continuous
 62
     7
370
    25
100
AcDbLine
 10
7409.6997530817
 20
4515.5455580074
 30
0.0
 11
7419.6997530818
 21
4515.5455580074
 31
0.0
  0
LINE
  5
222
330
1F
100
AcDbEntity
  8
0
  6
Continuous
 62
     7
370
    25
100
AcDbLine
 10
7602.1997530818
 20
4555.5455580074
 30
0.0
 11
7454.6997530817
 21
4555.5455580074
 31
0.0
  0
LINE
  5
223
330
1F
100
AcDbEntity
  8
0
  6
Continuous
 62
     7
370
    25
100
AcDbLine
 10
7454.6997530817
 20
4515.5455580074
 30
0.0
 11
7602.1997530818
 21
4515.5455580074
 31
0.0
  0
LINE
  5
224
330
1F
100
AcDbEntity
  8
0
  6
Continuous
 62
     7
370
    25
100
AcDbLine
 10
7646.1997530818
 20
4589.2896677801
 30
0.0
 11
7646.1997530818
 21
4574.0455580074
 31
0.0
  0
LINE
  5
225
330
1F
100
AcDbEntity
  8
0
  6
Continuous
 62
     7
370
    25
100
AcDbLine
 10
7646.1997530818
 20
4560.0455580074
 30
0.0
 11
7646.1997530818
 21
4557.5455580074
 31
0.0
  0
LINE
  5
226
330
1F
100
AcDbEntity
  8
0
  6
Continuous
 62
     7
370
    25
100
AcDbLine
 10
7678.1997530818
 20
4557.5455580074
 30
0.0
 11
7678.1997530818
 21
4560.0455580074
 31
0.0
  0
LINE
  5
227
330
1F
100
AcDbEntity
  8
0
  6
Continuous
 62
     7
370
    25
100
AcDbLine
 10
7678.1997530818
 20
4574.0455580074
 30
0.0
 11
7678.1997530818
 21
4589.2896677801
 31
0.0
  0
LINE
  5
228
330
1F
100
AcDbEntity
  8
0
  6
Continuous
 62
     7
370
    25
100
AcDbLine
 10
7696.1997530818
 20
4497.5455580074
 30
0.0
 11
7689.5091948369
 21
4554.8932001061
 31
0.0
  0
LINE
  5
229
330
1F
100
AcDbEntity
  8
0
  6
Continuous
 62
     7
370
    25
100
AcDbLine
 10
7630.0708547168
 20
4513.5835720224
 30
0.0
 11
7628.1997530818
 21
4497.5455580074
 31
0.0
  0
LINE
  5
22A
330
1F
100
AcDbEntity
  8
0
  6
Continuous
 62
     7
370
    25
100
AcDbLine
 10
7628.1997530818
 20
4497.5455580074
 30
0.0
 11
7635.0935388016
 21
4430.239882146
 31
0.0
  0
LINE
  5
22B
330
1F
100
AcDbEntity
  8
0
  6
Continuous
 62
     7
370
    25
100
AcDbLine
 10
7689.3059673619
 20
4430.239882146
 30
0.0
 11
7696.1997530818
 21
4497.5455580074
 31
0.0
  0
LINE
  5
22C
330
1F
100
AcDbEntity
  8
0
  6
Continuous
 62
     7
370
    25
100
AcDbLine
 10
7618.1997530818
 20
4563.0455580074
 30
0.0
 11
7614.1997530818
 21
4561.5455580074
 31
0.0
  0
LINE
  5
22D
330
1F
100
AcDbEntity
  8
0
  6
Continuous
 62
     7
370
    25
100
AcDbLine
 10
7614.1997530818
 20
4509.5455580074
 30
0.0
 11
7618.1997530818
 21
4508.0455580074
 31
0.0
  0
ARC
  5
22E
330
1F
100
AcDbEntity
  8
0
  6
Continuous
 62
     7
370
    25
100
AcDbCircle
 10
7686.5294054196
 20
4554.5455580074
 30
0.0
 40
3.000000000000909
100
AcDbArc
 50
6.654425046
 51
90.0
  0
ARC
  5
22F
330
1F
100
AcDbEntity
  8
0
  6
Continuous
 62
     7
370
    25
100
AcDbCircle
 10
7638.0779252156
 20
4430.5455580074
 30
0.0
 40
3.0
100
AcDbArc
 50
185.8481280262
 51
270.0
  0
ARC
  5
230
330
1F
100
AcDbEntity
  8
0
  6
Continuous
 62
     7
370
    25
100
AcDbCircle
 10
7686.3215809479
 20
4430.5455580074
 30
0.0
 40
3.0
100
AcDbArc
 50
270.0
 51
354.1518719738
  0
ARC
  5
231
330
1F
100
AcDbEntity
  8
0
  6
Continuous
 62
     7
370
    25
100
AcDbCircle
 10
7605.1997530818
 20
4558.5455580074
 30
0.0
 40
3.0
100
AcDbArc
 50
90.0
 51
180.0
  0
ARC
  5
232
330
1F
100
AcDbEntity
  8
0
  6
Continuous
 62
     7
370
    25
100
AcDbCircle
 10
7605.1997530818
 20
4512.5455580074
 30
0.0
 40
3.0
100
AcDbArc
 50
180.0
 51
270.0
  0
LINE
  5
233
330
1F
100
AcDbEntity
  8
0
  6
Continuous
 62
     7
370
    25
100
AcDbLine
 10
7614.1997530818
 20
4561.5455580074
 30
0.0
 11
7605.1997530818
 21
4561.5455580074
 31
0.0
  0
LINE
  5
234
330
1F
100
AcDbEntity
  8
0
  6
Continuous
 62
     7
370
    25
100
AcDbLine
 10
7605.1997530818
 20
4509.5455580074
 30
0.0
 11
7614.1997530818
 21
4509.5455580074
 31
0.0
  0
LINE
  5
235
330
1F
100
AcDbEntity
  8
0
  6
Continuous
 62
     7
370
    25
100
AcDbLine
 10
7687.1997530818
 20
4560.0455580074
 30
0.0
 11
7685.1997530818
 21
4564.0455580074
 31
0.0
  0
LINE
  5
236
330
1F
100
AcDbEntity
  8
0
  6
Continuous
 62
     7
370
    25
100
AcDbLine
 10
7639.1997530818
 20
4564.0455580074
 30
0.0
 11
7637.1997530818
 21
4560.0455580074
 31
0.0
  0
ARC
  5
237
330
1F
100
AcDbEntity
  8
0
  6
Continuous
 62
     7
370
    25
100
AcDbCircle
 10
7642.1997530818
 20
4571.0455580074
 30
0.0
 40
3.0
100
AcDbArc
 50
90.0
 51
180.0
  0
ARC
  5
238
330
1F
100
AcDbEntity
  8
0
  6
Continuous
 62
     7
370
    25
100
AcDbCircle
 10
7682.1997530818
 20
4571.0455580074
 30
0.0
 40
3.0
100
AcDbArc
 50
0.0
 51
90.0
  0
LINE
  5
239
330
1F
100
AcDbEntity
  8
0
  6
Continuous
 62
     7
370
    25
100
AcDbLine
 10
7639.1997530818
 20
4571.0455580074
 30
0.0
 11
7639.1997530818
 21
4564.0455580074
 31
0.0
  0
LINE
  5
23A
330
1F
100
AcDbEntity
  8
0
  6
Continuous
 62
     7
370
    25
100
AcDbLine
 10
7685.1997530818
 20
4564.0455580074
 30
0.0
 11
7685.1997530818
 21
4571.0455580074
 31
0.0
  0
LINE
  5
23B
330
1F
100
AcDbEntity
  8
0
  6
Continuous
 62
     7
370
    25
100
AcDbLine
 10
7618.1997530818
 20
4513.5455580074
 30
0.0
 11
7630.0945982436
 21
4513.5455580074
 31
0.0
  0
LINE
  5
23C
330
1F
100
AcDbEntity
  8
0
  6
Continuous
 62
     7
370
    25
100
AcDbLine
 10
7635.1997530818
 20
4557.5455580074
 30
0.0
 11
7618.1997530818
 21
4557.5455580074
 31
0.0
  0
ARC
  5
23D
330
1F
100
AcDbEntity
  8
0
  6
Continuous
 62
     7
370
    25
100
AcDbCircle
 10
7437.3533120073
 20
5219.7553671734
 30
0.0
 40
37.00000000000023
100
AcDbArc
 50
59.0753555839
 51
96.9246444161
  0
LINE
  5
23E
330
1F
100
AcDbEntity
  8
0
  6
Continuous
 62
     7
370
    25
100
AcDbLine
 10
7472.1997530817
 20
5179.2896677801
 30
0.0
 11
7469.6997530817
 21
5179.2896677801
 31
0.0
  0
LINE
  5
23F
330
1F
100
AcDbEntity
  8
0
  6
Continuous
 62
     7
370
    25
100
AcDbLine
 10
7469.6997530817
 20
5119.2896677801
 30
0.0
 11
7472.1997530817
 21
5119.2896677801
 31
0.0
  0
LINE
  5
240
330
1F
100
AcDbEntity
  8
0
  6
Continuous
 62
     7
370
    25
100
AcDbLine
 10
7472.1997530817
 20
5119.2896677801
 30
0.0
 11
7472.6997530817
 21
5119.7896677801
 31
0.0
  0
LINE
  5
241
330
1F
100
AcDbEntity
  8
0
  6
Continuous
 62
     7
370
    25
100
AcDbLine
 10
7472.6997530817
 20
5178.7896677801
 30
0.0
 11
7472.1997530817
 21
5179.2896677801
 31
0.0
  0
LINE
  5
242
330
1F
100
AcDbEntity
  8
0
  6
Continuous
 62
     7
370
    25
100
AcDbLine
 10
7481.3497530817
 20
5135.2896677801
 30
0.0
 11
7603.6997530817
 21
5135.2896677801
 31
0.0
  0
LINE
  5
243
330
1F
100
AcDbEntity
  8
0
  6
Continuous
 62
     7
370
    25
100
AcDbLine
 10
7472.6997530817
 20
5135.2896677801
 30
0.0
 11
7478.0704425165
 21
5135.2896677801
 31
0.0
  0
LINE
  5
244
330
1F
100
AcDbEntity
  8
0
  6
Continuous
 62
     7
370
    25
100
AcDbLine
 10
7637.6997530818
 20
5163.2896677801
 30
0.0
 11
7472.6997530817
 21
5163.2896677801
 31
0.0
  0
LINE
  5
245
330
1F
100
AcDbEntity
  8
0
  6
Continuous
 62
     7
370
    25
100
AcDbLine
 10
7638.6997530817
 20
5162.2896677801
 30
0.0
 11
7637.6997530817
 21
5163.2896677801
 31
0.0
  0
LINE
  5
246
330
1F
100
AcDbEntity
  8
0
  6
Continuous
 62
     7
370
    25
100
AcDbLine
 10
7454.6997530817
 20
4555.5455580074
 30
0.0
 11
7454.6997530817
 21
4515.5455580074
 31
0.0
  0
LINE
  5
247
330
1F
100
AcDbEntity
  8
0
  6
Continuous
 62
     7
370
    25
100
AcDbLine
 10
7419.6997530817
 20
4575.5455580074
 30
0.0
 11
7419.6997530817
 21
4495.5455580074
 31
0.0
  0
LINE
  5
248
330
1F
100
AcDbEntity
  8
0
  6
Continuous
 62
     7
370
    25
100
AcDbLine
 10
7409.6997530817
 20
4555.5455580074
 30
0.0
 11
7409.6997530817
 21
4515.5455580074
 31
0.0
  0
LWPOLYLINE
  5
249
330
1F
100
AcDbEntity
  8
0
  6
Continuous
 62
     7
370
    25
100
AcDbPolyline
 90
       20
 70
   128
 43
0.0
 10
7636.9779993014
 20
4554.8932001061
 10
7637.9833973291
 20
4553.273141309
 10
7639.2577458814
 20
4551.0276279038
 10
7640.5683379286
 20
4548.3437770665
 10
7641.5809897418
 20
4545.7352583298
 10
7642.3651254939
 20
4542.7908983996
 10
7642.6925392186
 20
4540.3820481364
 10
7642.7127818781
 20
4537.8191726813
 10
7642.404503154
 20
4535.3123310673
 10
7641.7829689246
 20
4532.7939613354
 10
7640.5848443094
 20
4529.5911422034
 10
7639.0799648847
 20
4526.5398192326
 10
7636.9643477339
 20
4522.9828679707
 10
7634.7934989621
 20
4519.7744871712
 10
7633.1826410466
 20
4517.5636575483
 10
7631.7742770085
 20
4515.7126776909
 10
7630.907516819
 20
4514.6034974577
 10
7630.314710867
 20
4513.8561141637
 10
7630.0727019868
 20
4513.5533983722
 10
7630.0946313289
 20
4513.5807980844
  0
LINE
  5
24A
330
1F
100
AcDbEntity
  8
0
  6
Continuous
 62
     7
370
    25
100
AcDbLine
 10
7628.1997530818
 20
4497.5455580074
 30
0.0
 11
7696.1997530818
 21
4497.5455580074
 31
0.0
  0
LINE
  5
24B
330
1F
100
AcDbEntity
  8
0
  6
Continuous
 62
     7
370
    25
100
AcDbLine
 10
7618.1997530818
 20
4563.0455580074
 30
0.0
 11
7618.1997530818
 21
4508.0455580074
 31
0.0
  0
LINE
  5
24C
330
1F
100
AcDbEntity
  8
0
  6
Continuous
 62
     7
370
    25
100
AcDbLine
 10
7614.1997530818
 20
4561.5455580074
 30
0.0
 11
7614.1997530818
 21
4509.5455580074
 31
0.0
  0
ARC
  5
24D
330
1F
100
AcDbEntity
  8
0
  6
Continuous
 62
     7
370
    25
100
AcDbCircle
 10
7639.8310079654
 20
4554.6868831642
 30
0.0
 40
2.860458899833981
100
AcDbArc
 50
92.0237024967
 51
175.8638232391
  0
LINE
  5
24E
330
1F
100
AcDbEntity
  8
0
  6
Continuous
 62
     7
370
    25
100
AcDbLine
 10
7639.7299967854
 20
4557.5455580074
 30
0.0
 11
7686.5294054196
 21
4557.5455580074
 31
0.0
  0
LINE
  5
24F
330
1F
100
AcDbEntity
  8
0
  6
Continuous
 62
     7
370
    25
100
AcDbLine
 10
7638.0779252156
 20
4427.5455580074
 30
0.0
 11
7686.3215809337
 21
4427.5455580074
 31
0.0
  0
LINE
  5
250
330
1F
100
AcDbEntity
  8
0
  6
Continuous
 62
     7
370
    25
100
AcDbLine
 10
7602.1997530818
 20
4558.5455580074
 30
0.0
 11
7602.1997530818
 21
4512.5455580074
 31
0.0
  0
LINE
  5
251
330
1F
100
AcDbEntity
  8
0
  6
Continuous
 62
     7
370
    25
100
AcDbLine
 10
7639.1997530818
 20
4564.0455580074
 30
0.0
 11
7685.1997530818
 21
4564.0455580074
 31
0.0
  0
LINE
  5
252
330
1F
100
AcDbEntity
  8
0
  6
Continuous
 62
     7
370
    25
100
AcDbLine
 10
7637.1997530818
 20
4560.0455580074
 30
0.0
 11
7687.1997530818
 21
4560.0455580074
 31
0.0
  0
LINE
  5
253
330
1F
100
AcDbEntity
  8
0
  6
Continuous
 62
     7
370
    25
100
AcDbLine
 10
7642.1997530818
 20
4574.0455580074
 30
0.0
 11
7682.1997529079
 21
4574.0455580074
 31
0.0
  0
ARC
  5
254
330
1F
100
AcDbEntity
  8
0
  6
Continuous
 62
     7
370
    25
100
AcDbCircle
 10
7567.4104031261
 20
4510.174599414
 30
0.0
 40
82.70068733371195
100
AcDbArc
 50
32.7332300191
 51
34.9457141133
  0
LINE
  5
255
330
1F
100
AcDbEntity
  8
0
  6
Continuous
 62
     7
370
    25
100
AcDbLine
 10
7635.1997530818
 20
4557.5455580074
 30
0.0
 11
7639.7299967854
 21
4557.5455580074
 31
0.0
  0
LINE
  5
256
330
1F
100
AcDbEntity
  8
0
  6
Continuous
 62
     7
370
    25
100
AcDbLine
 10
7419.6997530818
 20
4589.2896677801
 30
0.0
 11
7419.6997530818
 21
5233.8896677801
 31
0.0
  0
LINE
  5
257
330
1F
100
AcDbEntity
  8
0
  6
Continuous
 62
     7
370
    25
100
AcDbLine
 10
7422.7997530818
 20
5233.8896677801
 30
0.0
 11
7422.7997530818
 21
4589.2896677801
 31
0.0
  0
LINE
  5
258
330
1F
100
AcDbEntity
  8
0
  6
Continuous
 62
     7
370
    25
100
AcDbLine
 10
7419.6997530818
 20
5233.8896677801
 30
0.0
 11
7422.7997530818
 21
5233.8896677801
 31
0.0
  0
LINE
  5
259
330
1F
100
AcDbEntity
  8
0
  6
Continuous
 62
     7
370
    25
100
AcDbLine
 10
7422.7997530818
 20
4589.2896677801
 30
0.0
 11
7419.6997530818
 21
4589.2896677801
 31
0.0
  0
LINE
  5
25A
330
1F
100
AcDbEntity
  8
0
  6
Continuous
 62
     7
370
    25
100
AcDbLine
 10
7419.6997530818
 20
5235.8896677801
 30
0.0
 11
7419.6997530818
 21
5256.5728940357
 31
0.0
  0
ARC
  5
25B
330
1F
100
AcDbEntity
  8
0
  6
Continuous
 62
     7
370
    25
100
AcDbCircle
 10
7421.8997530818
 20
5256.5728940357
 30
0.0
 40
2.199999999999818
100
AcDbArc
 50
78.0
 51
180.0
  0
LINE
  5
25C
330
1F
100
AcDbEntity
  8
0
  6
Continuous
 62
     7
370
    25
100
AcDbLine
 10
7422.3571588016
 20
5258.7248187573
 30
0.0
 11
7467.9571588016
 21
5249.0322395452
 31
0.0
  0
ARC
  5
25D
330
1F
100
AcDbEntity
  8
0
  6
Continuous
 62
     7
370
    25
100
AcDbCircle
 10
7467.4997530818
 20
5246.8803148236
 30
0.0
 40
2.200000000000263
100
AcDbArc
 50
0.0
 51
78.0
  0
LINE
  5
25E
330
1F
100
AcDbEntity
  8
0
  6
Continuous
 62
     7
370
    25
100
AcDbLine
 10
7469.6997530818
 20
5246.8803148236
 30
0.0
 11
7469.6997530818
 21
4839.2896677801
 31
0.0
  0
LINE
  5
25F
330
1F
100
AcDbEntity
  8
0
  6
Continuous
 62
     7
370
    25
100
AcDbLine
 10
7469.6997530818
 20
4839.2896677801
 30
0.0
 11
7897.4997530818
 21
4839.2896677801
 31
0.0
  0
ARC
  5
260
330
1F
100
AcDbEntity
  8
0
  6
Continuous
 62
     7
370
    25
100
AcDbCircle
 10
7897.4997530818
 20
4837.0896677801
 30
0.0
 40
2.199999999999818
100
AcDbArc
 50
0.0
 51
90.0
  0
LINE
  5
261
330
1F
100
AcDbEntity
  8
0
  6
Continuous
 62
     7
370
    25
100
AcDbLine
 10
7899.6997530818
 20
4837.0896677801
 30
0.0
 11
7899.6997530818
 21
4814.2896677801
 31
0.0
  0
LINE
  5
262
330
1F
100
AcDbEntity
  8
0
  6
Continuous
 62
     7
370
    25
100
AcDbLine
 10
7899.6997530818
 20
4814.2896677801
 30
0.0
 11
7896.6997530818
 21
4814.2896677801
 31
0.0
  0
LINE
  5
263
330
1F
100
AcDbEntity
  8
0
  6
Continuous
 62
     7
370
    25
100
AcDbLine
 10
7896.6997530818
 20
4814.2896677801
 30
0.0
 11
7896.6997530818
 21
4814.2796677801
 31
0.0
  0
LINE
  5
264
330
1F
100
AcDbEntity
  8
0
  6
Continuous
 62
     7
370
    25
100
AcDbLine
 10
7896.6997530818
 20
4589.2896677801
 30
0.0
 11
7896.6997530818
 21
4814.2796677801
 31
0.0
  0
LINE
  5
265
330
1F
100
AcDbEntity
  8
0
  6
Continuous
 62
     7
370
    25
100
AcDbLine
 10
7896.6997530818
 20
4589.2896677801
 30
0.0
 11
7422.7997530818
 21
4589.2896677801
 31
0.0
  0
LINE
  5
266
330
1F
100
AcDbEntity
  8
0
  6
Continuous
 62
     7
370
    25
100
AcDbLine
 10
7423.7997530818
 20
5233.8896677801
 30
0.0
 11
7423.7997530818
 21
5235.8896677801
 31
0.0
  0
LINE
  5
267
330
1F
100
AcDbEntity
  8
0
  6
Continuous
 62
     7
370
    25
100
AcDbLine
 10
7423.7997530818
 20
5235.8896677801
 30
0.0
 11
7419.6997530818
 21
5235.8896677801
 31
0.0
  0
LINE
  5
268
330
1F
100
AcDbEntity
  8
0
  6
Continuous
 62
     7
370
    25
100
AcDbLine
 10
7422.7997530818
 20
5233.8896677801
 30
0.0
 11
7423.7997530818
 21
5233.8896677801
 31
0.0
  0
LINE
  5
269
330
1F
100
AcDbEntity
  8
0
  6
Continuous
 62
     7
370
    25
100
AcDbLine
 10
7899.7997530818
 20
4589.2896677801
 30
0.0
 11
7899.7997530818
 21
4814.2796677801
 31
0.0
  0
LINE
  5
26A
330
1F
100
AcDbEntity
  8
0
  6
Continuous
 62
     7
370
    25
100
AcDbLine
 10
7899.7997530818
 20
4589.2896677801
 30
0.0
 11
7896.6997530818
 21
4589.2896677801
 31
0.0
  0
LINE
  5
26B
330
1F
100
AcDbEntity
  8
0
  6
Continuous
 62
     7
370
    25
100
AcDbLine
 10
7896.6997530818
 20
4814.2796677801
 30
0.0
 11
7899.7997530818
 21
4814.2796677801
 31
0.0
  0
LINE
  5
26C
330
1F
100
AcDbEntity
  8
0
  6
Continuous
 62
     7
370
    25
100
AcDbLine
 10
7420.8997530818
 20
5235.8896677801
 30
0.0
 11
7420.8997530818
 21
5234.2896677801
 31
0.0
  0
LINE
  5
26D
330
1F
100
AcDbEntity
  8
0
  6
Continuous
 62
     7
370
    25
100
AcDbLine
 10
7419.6997530818
 20
5235.8896677801
 30
0.0
 11
7419.6997530818
 21
5234.2896677801
 31
0.0
  0
LINE
  5
26E
330
1F
100
AcDbEntity
  8
0
  6
Continuous
 62
     7
370
    25
100
AcDbLine
 10
7419.6997530818
 20
5234.2896677801
 30
0.0
 11
7420.8997530818
 21
5234.2896677801
 31
0.0
  0
LINE
  5
26F
330
1F
100
AcDbEntity
  8
0
  6
Continuous
 62
     7
370
    25
100
AcDbLine
 10
7478.6455850108
 20
5135.28966778
 30
0.0
 11
7478.1997530818
 21
5135.28966778
 31
0.0
  0
LINE
  5
270
330
1F
100
AcDbEntity
  8
0
  6
Continuous
 62
     7
370
    25
100
AcDbLine
 10
7481.1997530818
 20
5135.28966778
 30
0.0
 11
7478.6455850108
 21
5135.28966778
 31
0.0
  0
LINE
  5
271
330
1F
100
AcDbEntity
  8
0
  6
Continuous
 62
     7
370
    25
100
AcDbLine
 10
7472.1997530817
 20
5119.2896677801
 30
0.0
 11
7472.1997530817
 21
5179.2896677801
 31
0.0
  0
LINE
  5
272
330
1F
100
AcDbEntity
  8
0
  6
Continuous
 62
     7
370
    25
100
AcDbLine
 10
7472.6997530817
 20
5178.7896677801
 30
0.0
 11
7472.6997530817
 21
5119.7896677801
 31
0.0
  0
LINE
  5
273
330
1F
100
AcDbEntity
  8
0
  6
Continuous
 62
     7
370
    25
100
AcDbLine
 10
7472.1997530817
 20
5160.8616241368
 30
0.0
 11
7472.1997530817
 21
5179.2896677801
 31
0.0
  0
LINE
  5
274
330
1F
100
AcDbEntity
  8
0
  6
Continuous
 62
     7
370
    25
100
AcDbLine
 10
7472.1997530817
 20
5119.2896677801
 30
0.0
 11
7472.1997530817
 21
5160.8616241368
 31
0.0
  0
LINE
  5
275
330
1F
100
AcDbEntity
  8
0
  6
Continuous
 62
     7
370
    25
100
AcDbLine
 10
7472.6997530817
 20
5160.6687581975
 30
0.0
 11
7472.6997530817
 21
5119.7896677801
 31
0.0
  0
LINE
  5
276
330
1F
100
AcDbEntity
  8
0
  6
Continuous
 62
     7
370
    25
100
AcDbLine
 10
7472.6997530817
 20
5178.7896677801
 30
0.0
 11
7472.6997530817
 21
5160.6687581975
 31
0.0
  0
LINE
  5
277
330
1F
100
AcDbEntity
  8
0
  6
Continuous
 62
     7
370
    25
100
AcDbLine
 10
7637.6997530818
 20
5144.3999403228
 30
0.0
 11
7637.6997530817
 21
5163.2896677801
 31
0.0
  0
LINE
  5
278
330
1F
100
AcDbEntity
  8
0
  6
Continuous
 62
     7
370
    25
100
AcDbLine
 10
7603.6997530817
 20
5135.2896677801
 30
0.0
 11
7637.6997530817
 21
5144.3999403228
 31
0.0
  0
ARC
  5
279
330
1F
100
AcDbEntity
  8
0
  6
Continuous
 62
     7
370
    25
100
AcDbCircle
 10
7479.6998216312
 20
5121.3417065537
 30
0.0
 40
14.04520901103644
100
AcDbArc
 50
83.253721142
 51
96.6618607909
  0
LINE
  5
27A
330
1F
100
AcDbEntity
  8
0
  6
Continuous
 62
     7
370
    25
100
AcDbLine
 10
7638.6997530817
 20
5162.2896677801
 30
0.0
 11
7638.6997530817
 21
5144.6678895152
 31
0.0
  0
LINE
  5
27B
330
1F
100
AcDbEntity
  8
0
  6
Continuous
 62
     7
370
    25
100
AcDbLine
 10
7638.6997530817
 20
5144.6678895152
 30
0.0
 11
7637.6997530818
 21
5144.3999403228
 31
0.0
  0
LINE
  5
27C
330
1F
100
AcDbEntity
  8
0
  6
Continuous
 62
     8
370
    25
100
AcDbLine
 10
7434.6997530817
 20
4575.5455580074
 30
0.0
 11
7434.6997530817
 21
4495.5455580074
 31
0.0
  0
LINE
  5
27D
330
1F
100
AcDbEntity
  8
0
  6
Continuous
 62
     8
370
    25
100
AcDbLine
 10
7689.5091948369
 20
4554.8932001061
 30
0.0
 11
7636.9779993014
 21
4554.8932001061
 31
0.0
  0
LINE
  5
27E
330
1F
100
AcDbEntity
  8
0
  6
Continuous
 62
     8
370
    25
100
AcDbLine
 10
7635.0935388016
 20
4430.239882146
 30
0.0
 11
7689.3059673619
 21
4430.239882146
 31
0.0
  0
LINE
  5
27F
330
1F
100
AcDbEntity
  8
0
  6
Continuous
 62
     8
370
    25
100
AcDbLine
 10
7605.1997530818
 20
4561.5455580074
 30
0.0
 11
7605.1997530818
 21
4509.5455580074
 31
0.0
  0
LINE
  5
280
330
1F
100
AcDbEntity
  8
0
  6
Continuous
 62
     8
370
    25
100
AcDbLine
 10
7639.1997530818
 20
4571.0455580074
 30
0.0
 11
7685.1997530818
 21
4571.0455580074
 31
0.0
  0
LINE
  5
281
330
1F
100
AcDbEntity
  8
0
  6
Continuous
 62
     7
370
    25
100
AcDbLine
 10
6037.9404817582
 20
4250.732869314
 30
0.0
 11
6037.9404817582
 21
4260.7328693141
 31
0.0
  0
LINE
  5
282
330
1F
100
AcDbEntity
  8
0
  6
Continuous
 62
     7
370
    25
100
AcDbLine
 10
5997.9404817582
 20
4260.7328693141
 30
0.0
 11
5997.9404817582
 21
4250.732869314
 31
0.0
  0
LINE
  5
283
330
1F
100
AcDbEntity
  8
0
  6
Continuous
 62
     7
370
    25
100
AcDbLine
 10
6896.4404817582
 20
4200.2328693141
 30
0.0
 11
6897.9404817582
 21
4198.7328693141
 31
0.0
  0
LINE
  5
284
330
1F
100
AcDbEntity
  8
0
  6
Continuous
 62
     7
370
    25
100
AcDbLine
 10
6922.9404817582
 20
4198.7328693141
 30
0.0
 11
6924.4404817582
 21
4200.2328693141
 31
0.0
  0
LINE
  5
285
330
1F
100
AcDbEntity
  8
0
  6
Continuous
 62
     7
370
    25
100
AcDbLine
 10
6896.4404817582
 20
4200.7328693141
 30
0.0
 11
6896.4404817582
 21
4200.2328693141
 31
0.0
  0
LINE
  5
286
330
1F
100
AcDbEntity
  8
0
  6
Continuous
 62
     7
370
    25
100
AcDbLine
 10
6924.4404817582
 20
4200.2328693141
 30
0.0
 11
6924.4404817582
 21
4200.7328693141
 31
0.0
  0
LINE
  5
287
330
1F
100
AcDbEntity
  8
0
  6
Continuous
 62
     7
370
    25
100
AcDbLine
 10
6296.4404817582
 20
4200.7328693141
 30
0.0
 11
6296.4404817582
 21
4200.2328693141
 31
0.0
  0
LINE
  5
288
330
1F
100
AcDbEntity
  8
0
  6
Continuous
 62
     7
370
    25
100
AcDbLine
 10
6324.4404817582
 20
4200.2328693141
 30
0.0
 11
6324.4404817582
 21
4200.7328693141
 31
0.0
  0
LINE
  5
289
330
1F
100
AcDbEntity
  8
0
  6
Continuous
 62
     7
370
    25
100
AcDbLine
 10
6296.4404817582
 20
4200.2328693141
 30
0.0
 11
6297.9404817582
 21
4198.7328693141
 31
0.0
  0
LINE
  5
28A
330
1F
100
AcDbEntity
  8
0
  6
Continuous
 62
     7
370
    25
100
AcDbLine
 10
6322.9404817582
 20
4198.7328693141
 30
0.0
 11
6324.4404817582
 21
4200.2328693141
 31
0.0
  0
LINE
  5
28B
330
1F
100
AcDbEntity
  8
0
  6
Continuous
 62
     7
370
    25
100
AcDbLine
 10
6820.4404817582
 20
4198.2328693141
 30
0.0
 11
6820.4404817582
 21
4200.7328693141
 31
0.0
  0
LINE
  5
28C
330
1F
100
AcDbEntity
  8
0
  6
Continuous
 62
     7
370
    25
100
AcDbLine
 10
6760.4404817582
 20
4200.7328693141
 30
0.0
 11
6760.4404817582
 21
4198.2328693141
 31
0.0
  0
LINE
  5
28D
330
1F
100
AcDbEntity
  8
0
  6
Continuous
 62
     7
370
    25
100
AcDbLine
 10
6760.4404817582
 20
4198.2328693141
 30
0.0
 11
6760.9404817582
 21
4197.7328693141
 31
0.0
  0
LINE
  5
28E
330
1F
100
AcDbEntity
  8
0
  6
Continuous
 62
     7
370
    25
100
AcDbLine
 10
6819.9404817582
 20
4197.7328693141
 30
0.0
 11
6820.4404817582
 21
4198.2328693141
 31
0.0
  0
LINE
  5
28F
330
1F
100
AcDbEntity
  8
0
  6
Continuous
 62
     7
370
    25
100
AcDbLine
 10
6220.4404817582
 20
4198.2328693141
 30
0.0
 11
6220.4404817582
 21
4200.7328693141
 31
0.0
  0
LINE
  5
290
330
1F
100
AcDbEntity
  8
0
  6
Continuous
 62
     7
370
    25
100
AcDbLine
 10
6160.4404817582
 20
4200.7328693141
 30
0.0
 11
6160.4404817582
 21
4198.2328693141
 31
0.0
  0
LINE
  5
291
330
1F
100
AcDbEntity
  8
0
  6
Continuous
 62
     7
370
    25
100
AcDbLine
 10
6160.4404817582
 20
4198.2328693141
 30
0.0
 11
6160.9404817582
 21
4197.7328693141
 31
0.0
  0
LINE
  5
292
330
1F
100
AcDbEntity
  8
0
  6
Continuous
 62
     7
370
    25
100
AcDbLine
 10
6219.9404817582
 20
4197.7328693141
 30
0.0
 11
6220.4404817582
 21
4198.2328693141
 31
0.0
  0
LINE
  5
293
330
1F
100
AcDbEntity
  8
0
  6
Continuous
 62
     7
370
    25
100
AcDbLine
 10
6776.4404817582
 20
4197.7328693141
 30
0.0
 11
6776.4404817582
 21
4032.7328693141
 31
0.0
  0
LINE
  5
294
330
1F
100
AcDbEntity
  8
0
  6
Continuous
 62
     7
370
    25
100
AcDbLine
 10
6804.4404817582
 20
4032.7328693141
 30
0.0
 11
6804.4404817582
 21
4197.7328693141
 31
0.0
  0
LINE
  5
295
330
1F
100
AcDbEntity
  8
0
  6
Continuous
 62
     7
370
    25
100
AcDbLine
 10
6776.4404817582
 20
4032.7328693141
 30
0.0
 11
6777.4404817582
 21
4031.7328693141
 31
0.0
  0
LINE
  5
296
330
1F
100
AcDbEntity
  8
0
  6
Continuous
 62
     7
370
    25
100
AcDbLine
 10
6803.4404817582
 20
4031.7328693141
 30
0.0
 11
6804.4404817582
 21
4032.7328693141
 31
0.0
  0
LINE
  5
297
330
1F
100
AcDbEntity
  8
0
  6
Continuous
 62
     7
370
    25
100
AcDbLine
 10
6176.4404817582
 20
4197.7328693141
 30
0.0
 11
6176.4404817582
 21
4032.7328693141
 31
0.0
  0
LINE
  5
298
330
1F
100
AcDbEntity
  8
0
  6
Continuous
 62
     7
370
    25
100
AcDbLine
 10
6204.4404817582
 20
4032.7328693141
 30
0.0
 11
6204.4404817582
 21
4197.7328693141
 31
0.0
  0
LINE
  5
299
330
1F
100
AcDbEntity
  8
0
  6
Continuous
 62
     7
370
    25
100
AcDbLine
 10
6176.4404817582
 20
4032.7328693141
 30
0.0
 11
6177.4404817582
 21
4031.7328693141
 31
0.0
  0
LINE
  5
29A
330
1F
100
AcDbEntity
  8
0
  6
Continuous
 62
     7
370
    25
100
AcDbLine
 10
6203.4404817582
 20
4031.7328693141
 30
0.0
 11
6204.4404817582
 21
4032.7328693141
 31
0.0
  0
LINE
  5
29B
330
1F
100
AcDbEntity
  8
0
  6
Continuous
 62
     7
370
    25
100
AcDbLine
 10
6022.3266168945
 20
4007.3385962213
 30
0.0
 11
6014.096028475
 21
4010.5259207202
 31
0.0
  0
LINE
  5
29C
330
1F
100
AcDbEntity
  8
0
  6
Continuous
 62
     7
370
    25
100
AcDbLine
 10
6013.5543466219
 20
4009.1271424068
 30
0.0
 11
6021.7849350414
 21
4005.9398179079
 31
0.0
  0
CIRCLE
  5
29D
330
1F
100
AcDbEntity
  8
0
  6
Continuous
 62
     7
370
    25
100
AcDbCircle
 10
6017.9404817582
 20
4008.2328693141
 30
0.0
 40
24.4999999999998
  0
CIRCLE
  5
29E
330
1F
100
AcDbEntity
  8
0
  6
Continuous
 62
     7
370
    25
100
AcDbCircle
 10
6017.9404817582
 20
4008.2328693141
 30
0.0
 40
34.99999999999941
  0
CIRCLE
  5
29F
330
1F
100
AcDbEntity
  8
0
  6
Continuous
 62
     7
370
    25
100
AcDbCircle
 10
6017.9404817582
 20
4008.2328693141
 30
0.0
 40
22.49999999999932
  0
CIRCLE
  5
2A0
330
1F
100
AcDbEntity
  8
0
  6
Continuous
 62
     7
370
    25
100
AcDbCircle
 10
6017.9404817582
 20
4008.2328693141
 30
0.0
 40
21.49999999999921
  0
CIRCLE
  5
2A1
330
1F
100
AcDbEntity
  8
0
  6
Continuous
 62
     7
370
    25
100
AcDbCircle
 10
6017.9404817582
 20
4008.2328693141
 30
0.0
 40
19.55298992456251
  0
CIRCLE
  5
2A2
330
1F
100
AcDbEntity
  8
0
  6
Continuous
 62
     7
370
    25
100
AcDbCircle
 10
6017.9404817582
 20
4008.2328693141
 30
0.0
 40
6.182050807567862
  0
ARC
  5
2A3
330
1F
100
AcDbEntity
  8
0
  6
Continuous
 62
     7
370
    25
100
AcDbCircle
 10
6017.9404817582
 20
4008.2328693141
 30
0.0
 40
19.5000000000006
100
AcDbArc
 50
110.4734666804
 51
136.5740765598
  0
ARC
  5
2A4
330
1F
100
AcDbEntity
  8
0
  6
Continuous
 62
     7
370
    25
100
AcDbCircle
 10
6006.6833940317
 20
4018.8878200844
 30
0.0
 40
4.000000000000754
100
AcDbArc
 50
136.5740765598
 51
316.5740765598
  0
ARC
  5
2A5
330
1F
100
AcDbEntity
  8
0
  6
Continuous
 62
     7
370
    25
100
AcDbCircle
 10
6017.9404817582
 20
4008.2328693141
 30
0.0
 40
11.50000000000006
100
AcDbArc
 50
110.4734666804
 51
136.5740765598
  0
ARC
  5
2A6
330
1F
100
AcDbEntity
  8
0
  6
Continuous
 62
     7
370
    25
100
AcDbCircle
 10
6012.5189913201
 20
4022.7538004629
 30
0.0
 40
4.000000000000624
100
AcDbArc
 50
290.4734666804
 51
110.4734666804
  0
ARC
  5
2A7
330
1F
100
AcDbEntity
  8
0
  6
Continuous
 62
     7
370
    25
100
AcDbCircle
 10
6017.9404817582
 20
4008.2328693141
 30
0.0
 40
19.50000000000031
100
AcDbArc
 50
200.4734666804
 51
226.5740765598
  0
ARC
  5
2A8
330
1F
100
AcDbEntity
  8
0
  6
Continuous
 62
     7
370
    25
100
AcDbCircle
 10
6007.2855309879
 20
3996.9757815875
 30
0.0
 40
4.000000000000093
100
AcDbArc
 50
226.5740765598
 51
46.5740765598
  0
ARC
  5
2A9
330
1F
100
AcDbEntity
  8
0
  6
Continuous
 62
     7
370
    25
100
AcDbCircle
 10
6017.9404817582
 20
4008.2328693141
 30
0.0
 40
11.50000000000041
100
AcDbArc
 50
200.4734666804
 51
226.5740765598
  0
ARC
  5
2AA
330
1F
100
AcDbEntity
  8
0
  6
Continuous
 62
     7
370
    25
100
AcDbCircle
 10
6003.4195506093
 20
4002.811378876
 30
0.0
 40
4.00000000000105
100
AcDbArc
 50
20.4734666804
 51
200.4734666804
  0
ARC
  5
2AB
330
1F
100
AcDbEntity
  8
0
  6
Continuous
 62
     7
370
    25
100
AcDbCircle
 10
6017.9404817582
 20
4008.2328693141
 30
0.0
 40
19.5000000000008
100
AcDbArc
 50
290.4734666804
 51
316.5740765598
  0
ARC
  5
2AC
330
1F
100
AcDbEntity
  8
0
  6
Continuous
 62
     7
370
    25
100
AcDbCircle
 10
6029.1975694847
 20
3997.5779185437
 30
0.0
 40
4.000000000000754
100
AcDbArc
 50
316.5740765598
 51
136.5740765598
  0
ARC
  5
2AD
330
1F
100
AcDbEntity
  8
0
  6
Continuous
 62
     7
370
    25
100
AcDbCircle
 10
6017.9404817582
 20
4008.2328693141
 30
0.0
 40
11.50000000000104
100
AcDbArc
 50
290.4734666804
 51
316.5740765598
  0
ARC
  5
2AE
330
1F
100
AcDbEntity
  8
0
  6
Continuous
 62
     7
370
    25
100
AcDbCircle
 10
6023.3619721963
 20
3993.7119381652
 30
0.0
 40
4.000000000000198
100
AcDbArc
 50
110.4734666804
 51
290.4734666804
  0
ARC
  5
2AF
330
1F
100
AcDbEntity
  8
0
  6
Continuous
 62
     7
370
    25
100
AcDbCircle
 10
6017.9404817582
 20
4008.2328693141
 30
0.0
 40
19.50000000000021
100
AcDbArc
 50
20.4734666804
 51
46.5740765598
  0
ARC
  5
2B0
330
1F
100
AcDbEntity
  8
0
  6
Continuous
 62
     7
370
    25
100
AcDbCircle
 10
6028.5954325285
 20
4019.4899570406
 30
0.0
 40
4.000000000000424
100
AcDbArc
 50
46.5740765598
 51
226.5740765598
  0
ARC
  5
2B1
330
1F
100
AcDbEntity
  8
0
  6
Continuous
 62
     7
370
    25
100
AcDbCircle
 10
6017.9404817582
 20
4008.2328693141
 30
0.0
 40
11.49999999999982
100
AcDbArc
 50
20.4734666804
 51
46.5740765598
  0
ARC
  5
2B2
330
1F
100
AcDbEntity
  8
0
  6
Continuous
 62
     7
370
    25
100
AcDbCircle
 10
6032.461412907
 20
4013.6543597521
 30
0.0
 40
4.000000000000198
100
AcDbArc
 50
200.4734666804
 51
20.4734666804
  0
CIRCLE
  5
2B3
330
1F
100
AcDbEntity
  8
0
  6
Continuous
 62
     7
370
    25
100
AcDbCircle
 10
6017.9404817582
 20
4008.2328693141
 30
0.0
 40
5.682050807567996
  0
LWPOLYLINE
  5
2B4
330
1F
100
AcDbEntity
  8
0
  6
Continuous
 62
     7
370
    25
100
AcDbPolyline
 90
        3
 70
   128
 43
0.0
 10
6015.0233217263
 20
4010.1668231263
 10
6014.6229318752
 20
4009.3481552747
 10
6014.4816398732
 20
4008.7680448129
  0
ARC
  5
2B5
330
1F
100
AcDbEntity
  8
0
  6
Continuous
 62
     7
370
    25
100
AcDbCircle
 10
6017.9404817582
 20
4008.2328693141
 30
0.0
 40
3.500000000000115
100
AcDbArc
 50
326.457303985
 51
351.2045542174
  0
LINE
  5
2B6
330
1F
100
AcDbEntity
  8
0
  6
Continuous
 62
     7
370
    25
100
AcDbLine
 10
6027.6952903018
 20
4260.7328693141
 30
0.0
 11
5997.9404817582
 21
4260.7328693141
 31
0.0
  0
LINE
  5
2B7
330
1F
100
AcDbEntity
  8
0
  6
Continuous
 62
     7
370
    25
100
AcDbLine
 10
6037.9404817582
 20
4260.7328693141
 30
0.0
 11
6027.6952903018
 21
4260.7328693141
 31
0.0
  0
LINE
  5
2B8
330
1F
100
AcDbEntity
  8
0
  6
Continuous
 62
     7
370
    25
100
AcDbLine
 10
6032.1225326949
 20
3998.9305723685
 30
0.0
 11
6032.5770454577
 21
3999.7178115663
 31
0.0
  0
LINE
  5
2B9
330
1F
100
AcDbEntity
  8
0
  6
Continuous
 62
     7
370
    25
100
AcDbLine
 10
6027.9074454348
 20
4001.3641541328
 30
0.0
 11
6032.1225326949
 21
3998.9305723685
 31
0.0
  0
LINE
  5
2BA
330
1F
100
AcDbEntity
  8
0
  6
Continuous
 62
     7
370
    25
100
AcDbLine
 10
6003.7584308215
 20
3998.9305723685
 30
0.0
 11
6008.4988152315
 21
4001.6674345837
 31
0.0
  0
LINE
  5
2BB
330
1F
100
AcDbEntity
  8
0
  6
Continuous
 62
     7
370
    25
100
AcDbLine
 10
6002.7934308215
 20
4000.6020013978
 30
0.0
 11
6003.7584308215
 21
3998.9305723685
 31
0.0
  0
LINE
  5
2BC
330
1F
100
AcDbEntity
  8
0
  6
Continuous
 62
     7
370
    25
100
AcDbLine
 10
6007.5338152315
 20
4003.338863613
 30
0.0
 11
6002.7934308215
 21
4000.6020013978
 31
0.0
  0
ARC
  5
2BD
330
1F
100
AcDbEntity
  8
0
  6
Continuous
 62
     7
370
    25
100
AcDbCircle
 10
6017.9404817582
 20
4008.2328693141
 30
0.0
 40
14.49999999999991
100
AcDbArc
 50
5.6300600617
 51
61.4174831803
  0
ARC
  5
2BE
330
1F
100
AcDbEntity
  8
0
  6
Continuous
 62
     7
370
    25
100
AcDbCircle
 10
6017.9404817582
 20
4008.2328693141
 30
0.0
 40
14.49999999999954
100
AcDbArc
 50
95.6300600628
 51
151.4174831746
  0
ARC
  5
2BF
330
1F
100
AcDbEntity
  8
0
  6
Continuous
 62
     7
370
    25
100
AcDbCircle
 10
6017.9404817582
 20
4008.2328693141
 30
0.0
 40
14.50000000000031
100
AcDbArc
 50
185.6300600628
 51
206.184046651
  0
ARC
  5
2C0
330
1F
100
AcDbEntity
  8
0
  6
Continuous
 62
     7
370
    25
100
AcDbCircle
 10
6017.9404817582
 20
4008.2328693141
 30
0.0
 40
14.50000000000072
100
AcDbArc
 50
213.815953349
 51
241.4174831897
  0
ARC
  5
2C1
330
1F
100
AcDbEntity
  8
0
  6
Continuous
 62
     7
370
    25
100
AcDbCircle
 10
6017.9404817582
 20
4008.2328693141
 30
0.0
 40
14.50000000000086
100
AcDbArc
 50
275.6300600668
 51
326.184046651
  0
LINE
  5
2C2
330
1F
100
AcDbEntity
  8
0
  6
Continuous
 62
     7
370
    25
100
AcDbLine
 10
7068.7904817582
 20
3770.6328693141
 30
0.0
 11
5912.0904817582
 21
3770.6328693141
 31
0.0
  0
LINE
  5
2C3
330
1F
100
AcDbEntity
  8
0
  6
Continuous
 62
     7
370
    25
100
AcDbLine
 10
5912.0904817582
 20
3770.6328693141
 30
0.0
 11
5912.0904817582
 21
3770.7328693141
 31
0.0
  0
LINE
  5
2C4
330
1F
100
AcDbEntity
  8
0
  6
Continuous
 62
     7
370
    25
100
AcDbLine
 10
7068.7904817582
 20
3770.6328693141
 30
0.0
 11
7068.7904817582
 21
3770.7328693141
 31
0.0
  0
LWPOLYLINE
  5
2C5
330
1F
100
AcDbEntity
  8
0
  6
Continuous
 62
     7
370
    25
100
AcDbPolyline
 90
        3
 70
   128
 43
0.0
 10
5911.5247963333
 20
3770.7328693141
 10
5911.7685827269
 20
3770.6645736014
 10
5912.0904817582
 20
3770.6328693141
  0
LWPOLYLINE
  5
2C6
330
1F
100
AcDbEntity
  8
0
  6
Continuous
 62
     7
370
    25
100
AcDbPolyline
 90
        3
 70
   128
 43
0.0
 10
7068.7904817582
 20
3770.6328693141
 10
7069.1123807895
 20
3770.6645736014
 10
7069.3561671831
 20
3770.7328693141
  0
LINE
  5
2C7
330
1F
100
AcDbEntity
  8
0
  6
Continuous
 62
     7
370
    25
100
AcDbLine
 10
7115.4404817582
 20
4250.7328693141
 30
0.0
 11
7113.4404817582
 21
4250.7328693141
 31
0.0
  0
LINE
  5
2C8
330
1F
100
AcDbEntity
  8
0
  6
Continuous
 62
     7
370
    25
100
AcDbLine
 10
7115.4404817582
 20
4248.0754635943
 30
0.0
 11
7113.4404817582
 21
4248.0754635943
 31
0.0
  0
LINE
  5
2C9
330
1F
100
AcDbEntity
  8
0
  6
Continuous
 62
     7
370
    25
100
AcDbLine
 10
7115.4404817582
 20
4250.7328693141
 30
0.0
 11
7115.4404817582
 21
4248.0754635943
 31
0.0
  0
LINE
  5
2CA
330
1F
100
AcDbEntity
  8
0
  6
Continuous
 62
     7
370
    25
100
AcDbLine
 10
7113.4404817582
 20
4250.7328693141
 30
0.0
 11
7113.4404817582
 21
4248.0754635943
 31
0.0
  0
LINE
  5
2CB
330
1F
100
AcDbEntity
  8
0
  6
Continuous
 62
     7
370
    25
100
AcDbLine
 10
7115.4404817582
 20
4202.4754635943
 30
0.0
 11
7113.4404817582
 21
4202.4754635943
 31
0.0
  0
LINE
  5
2CC
330
1F
100
AcDbEntity
  8
0
  6
Continuous
 62
     7
370
    25
100
AcDbLine
 10
7115.4404817582
 20
4248.0754635943
 30
0.0
 11
7115.4404817582
 21
4202.4754635943
 31
0.0
  0
LINE
  5
2CD
330
1F
100
AcDbEntity
  8
0
  6
Continuous
 62
     7
370
    25
100
AcDbLine
 10
7113.4404817582
 20
4248.0754635943
 30
0.0
 11
7113.4404817582
 21
4202.4754635943
 31
0.0
  0
LINE
  5
2CE
330
1F
100
AcDbEntity
  8
0
  6
Continuous
 62
     7
370
    25
100
AcDbLine
 10
7115.4404817582
 20
4200.7328693141
 30
0.0
 11
7113.4404817582
 21
4200.7328693141
 31
0.0
  0
LINE
  5
2CF
330
1F
100
AcDbEntity
  8
0
  6
Continuous
 62
     7
370
    25
100
AcDbLine
 10
7115.4404817582
 20
4202.4754635943
 30
0.0
 11
7115.4404817582
 21
4200.7328693141
 31
0.0
  0
LINE
  5
2D0
330
1F
100
AcDbEntity
  8
0
  6
Continuous
 62
     7
370
    25
100
AcDbLine
 10
7113.4404817582
 20
4202.4754635943
 30
0.0
 11
7113.4404817582
 21
4200.7328693141
 31
0.0
  0
LINE
  5
2D1
330
1F
100
AcDbEntity
  8
0
  6
Continuous
 62
     7
370
    25
100
AcDbLine
 10
7115.4404817582
 20
3772.9328693141
 30
0.0
 11
7113.4404817582
 21
3772.9328693141
 31
0.0
  0
LINE
  5
2D2
330
1F
100
AcDbEntity
  8
0
  6
Continuous
 62
     7
370
    25
100
AcDbLine
 10
7115.4404817582
 20
4200.7328693141
 30
0.0
 11
7115.4404817582
 21
3772.9328693141
 31
0.0
  0
LINE
  5
2D3
330
1F
100
AcDbEntity
  8
0
  6
Continuous
 62
     7
370
    25
100
AcDbLine
 10
7113.4404817582
 20
4200.7328693141
 30
0.0
 11
7113.4404817582
 21
3772.9328693141
 31
0.0
  0
LINE
  5
2D4
330
1F
100
AcDbEntity
  8
0
  6
Continuous
 62
     7
370
    25
100
AcDbLine
 10
7115.4404817582
 20
3770.7328693141
 30
0.0
 11
7113.4404817582
 21
3770.7328693141
 31
0.0
  0
LINE
  5
2D5
330
1F
100
AcDbEntity
  8
0
  6
Continuous
 62
     7
370
    25
100
AcDbLine
 10
7115.4404817582
 20
3772.9328693141
 30
0.0
 11
7115.4404817582
 21
3770.7328693141
 31
0.0
  0
LINE
  5
2D6
330
1F
100
AcDbEntity
  8
0
  6
Continuous
 62
     7
370
    25
100
AcDbLine
 10
7113.4404817582
 20
3772.9328693141
 30
0.0
 11
7113.4404817582
 21
3770.7328693141
 31
0.0
  0
LWPOLYLINE
  5
2D7
330
1F
100
AcDbEntity
  8
0
  6
Continuous
 62
     7
370
    25
100
AcDbPolyline
 90
        3
 70
   128
 43
0.0
 10
7113.1215067258
 20
3770.7328693141
 10
7112.9452617564
 20
3770.6924349448
 10
7112.3404817582
 20
3770.6328693141
  0
LINE
  5
2D8
330
1F
100
AcDbEntity
  8
0
  6
Continuous
 62
     7
370
    25
100
AcDbLine
 10
7112.3404817582
 20
3770.6328693141
 30
0.0
 11
7073.5404817582
 21
3770.6328693141
 31
0.0
  0
LWPOLYLINE
  5
2D9
330
1F
100
AcDbEntity
  8
0
  6
Continuous
 62
     7
370
    25
100
AcDbPolyline
 90
        3
 70
   128
 43
0.0
 10
7072.7594567907
 20
3770.7328693141
 10
7072.9357017599
 20
3770.6924349448
 10
7073.5404817582
 20
3770.6328693141
  0
LINE
  5
2DA
330
1F
100
AcDbEntity
  8
0
  6
Continuous
 62
     7
370
    25
100
AcDbLine
 10
5865.4404817582
 20
4248.0754635943
 30
0.0
 11
5867.4404817582
 21
4248.0754635943
 31
0.0
  0
LINE
  5
2DB
330
1F
100
AcDbEntity
  8
0
  6
Continuous
 62
     7
370
    25
100
AcDbLine
 10
5865.4404817582
 20
4250.7328693141
 30
0.0
 11
5865.4404817582
 21
4248.0754635943
 31
0.0
  0
LINE
  5
2DC
330
1F
100
AcDbEntity
  8
0
  6
Continuous
 62
     7
370
    25
100
AcDbLine
 10
5865.4404817582
 20
4250.7328693141
 30
0.0
 11
5867.4404817582
 21
4250.7328693141
 31
0.0
  0
LINE
  5
2DD
330
1F
100
AcDbEntity
  8
0
  6
Continuous
 62
     7
370
    25
100
AcDbLine
 10
5867.4404817582
 20
4250.7328693141
 30
0.0
 11
5867.4404817582
 21
4248.0754635943
 31
0.0
  0
LINE
  5
2DE
330
1F
100
AcDbEntity
  8
0
  6
Continuous
 62
     7
370
    25
100
AcDbLine
 10
5865.4404817582
 20
4202.4754635943
 30
0.0
 11
5867.4404817582
 21
4202.4754635943
 31
0.0
  0
LINE
  5
2DF
330
1F
100
AcDbEntity
  8
0
  6
Continuous
 62
     7
370
    25
100
AcDbLine
 10
5867.4404817582
 20
4248.0754635943
 30
0.0
 11
5867.4404817582
 21
4202.4754635943
 31
0.0
  0
LINE
  5
2E0
330
1F
100
AcDbEntity
  8
0
  6
Continuous
 62
     7
370
    25
100
AcDbLine
 10
5865.4404817582
 20
4248.0754635943
 30
0.0
 11
5865.4404817582
 21
4202.4754635943
 31
0.0
  0
LINE
  5
2E1
330
1F
100
AcDbEntity
  8
0
  6
Continuous
 62
     7
370
    25
100
AcDbLine
 10
5865.4404817582
 20
4200.7328693141
 30
0.0
 11
5867.4404817582
 21
4200.7328693141
 31
0.0
  0
LINE
  5
2E2
330
1F
100
AcDbEntity
  8
0
  6
Continuous
 62
     7
370
    25
100
AcDbLine
 10
5867.4404817582
 20
4202.4754635943
 30
0.0
 11
5867.4404817582
 21
4200.7328693141
 31
0.0
  0
LINE
  5
2E3
330
1F
100
AcDbEntity
  8
0
  6
Continuous
 62
     7
370
    25
100
AcDbLine
 10
5865.4404817582
 20
4202.4754635943
 30
0.0
 11
5865.4404817582
 21
4200.7328693141
 31
0.0
  0
LINE
  5
2E4
330
1F
100
AcDbEntity
  8
0
  6
Continuous
 62
     7
370
    25
100
AcDbLine
 10
5865.4404817582
 20
3772.9328693141
 30
0.0
 11
5867.4404817582
 21
3772.9328693141
 31
0.0
  0
LINE
  5
2E5
330
1F
100
AcDbEntity
  8
0
  6
Continuous
 62
     7
370
    25
100
AcDbLine
 10
5867.4404817582
 20
4200.7328693141
 30
0.0
 11
5867.4404817582
 21
3772.9328693141
 31
0.0
  0
LINE
  5
2E6
330
1F
100
AcDbEntity
  8
0
  6
Continuous
 62
     7
370
    25
100
AcDbLine
 10
5865.4404817582
 20
4200.7328693141
 30
0.0
 11
5865.4404817582
 21
3772.9328693141
 31
0.0
  0
LINE
  5
2E7
330
1F
100
AcDbEntity
  8
0
  6
Continuous
 62
     7
370
    25
100
AcDbLine
 10
5865.4404817582
 20
3770.7328693141
 30
0.0
 11
5867.4404817582
 21
3770.7328693141
 31
0.0
  0
LINE
  5
2E8
330
1F
100
AcDbEntity
  8
0
  6
Continuous
 62
     7
370
    25
100
AcDbLine
 10
5867.4404817582
 20
3772.9328693141
 30
0.0
 11
5867.4404817582
 21
3770.7328693141
 31
0.0
  0
LINE
  5
2E9
330
1F
100
AcDbEntity
  8
0
  6
Continuous
 62
     7
370
    25
100
AcDbLine
 10
5865.4404817582
 20
3772.9328693141
 30
0.0
 11
5865.4404817582
 21
3770.7328693141
 31
0.0
  0
LWPOLYLINE
  5
2EA
330
1F
100
AcDbEntity
  8
0
  6
Continuous
 62
     7
370
    25
100
AcDbPolyline
 90
        3
 70
   128
 43
0.0
 10
5867.7594567906
 20
3770.7328693141
 10
5867.9357017599
 20
3770.6924349448
 10
5868.5404817582
 20
3770.6328693141
  0
LINE
  5
2EB
330
1F
100
AcDbEntity
  8
0
  6
Continuous
 62
     7
370
    25
100
AcDbLine
 10
5868.5404817582
 20
3770.6328693141
 30
0.0
 11
5907.3404817582
 21
3770.6328693141
 31
0.0
  0
LWPOLYLINE
  5
2EC
330
1F
100
AcDbEntity
  8
0
  6
Continuous
 62
     7
370
    25
100
AcDbPolyline
 90
        3
 70
   128
 43
0.0
 10
5908.1215067257
 20
3770.7328693141
 10
5907.9452617564
 20
3770.6924349448
 10
5907.3404817582
 20
3770.6328693141
  0
LINE
  5
2ED
330
1F
100
AcDbEntity
  8
0
  6
Continuous
 62
     7
370
    25
100
AcDbLine
 10
7113.4404817582
 20
4250.7328693141
 30
0.0
 11
5867.4404817582
 21
4250.7328693141
 31
0.0
  0
LINE
  5
2EE
330
1F
100
AcDbEntity
  8
0
  6
Continuous
 62
     7
370
    25
100
AcDbLine
 10
5867.4404817582
 20
4248.0754635943
 30
0.0
 11
7113.4404817582
 21
4248.0754635943
 31
0.0
  0
LINE
  5
2EF
330
1F
100
AcDbEntity
  8
0
  6
Continuous
 62
     7
370
    25
100
AcDbLine
 10
7113.4404817582
 20
4202.4754635943
 30
0.0
 11
5867.4404817582
 21
4202.4754635943
 31
0.0
  0
LINE
  5
2F0
330
1F
100
AcDbEntity
  8
0
  6
Continuous
 62
     7
370
    25
100
AcDbLine
 10
5867.4404817582
 20
4200.7328693141
 30
0.0
 11
7113.4404817582
 21
4200.7328693141
 31
0.0
  0
LINE
  5
2F1
330
1F
100
AcDbEntity
  8
0
  6
Continuous
 62
     7
370
    25
100
AcDbLine
 10
7113.4404817582
 20
3815.7328693141
 30
0.0
 11
5867.4404817582
 21
3815.7328693141
 31
0.0
  0
LINE
  5
2F2
330
1F
100
AcDbEntity
  8
0
  6
Continuous
 62
     7
370
    25
100
AcDbLine
 10
5867.4404817582
 20
3813.5328693141
 30
0.0
 11
7113.4404817582
 21
3813.5328693141
 31
0.0
  0
LINE
  5
2F3
330
1F
100
AcDbEntity
  8
0
  6
Continuous
 62
     7
370
    25
100
AcDbLine
 10
7113.4404817582
 20
3772.9328693141
 30
0.0
 11
5867.4404817582
 21
3772.9328693141
 31
0.0
  0
LINE
  5
2F4
330
1F
100
AcDbEntity
  8
0
  6
Continuous
 62
     7
370
    25
100
AcDbLine
 10
5867.4404817582
 20
3772.9328693141
 30
0.0
 11
5867.4404817582
 21
3813.5328693141
 31
0.0
  0
LINE
  5
2F5
330
1F
100
AcDbEntity
  8
0
  6
Continuous
 62
     7
370
    25
100
AcDbLine
 10
7113.4404817582
 20
3772.9328693141
 30
0.0
 11
7113.4404817582
 21
3813.5328693141
 31
0.0
  0
LINE
  5
2F6
330
1F
100
AcDbEntity
  8
0
  6
Continuous
 62
     7
370
    25
100
AcDbLine
 10
5867.4404817582
 20
3770.7328693141
 30
0.0
 11
7113.4404817582
 21
3770.7328693141
 31
0.0
  0
LINE
  5
2F7
330
1F
100
AcDbEntity
  8
0
  6
Continuous
 62
     7
370
    25
100
AcDbLine
 10
7113.4404817582
 20
3816.0753198147
 30
0.0
 11
5867.4404817582
 21
3816.0753198147
 31
0.0
  0
LINE
  5
2F8
330
1F
100
AcDbEntity
  8
0
  6
Continuous
 62
     7
370
    25
100
AcDbLine
 10
5867.4404817582
 20
3941.4503313606
 30
0.0
 11
7113.4404817582
 21
3941.4503313606
 31
0.0
  0
LINE
  5
2F9
330
1F
100
AcDbEntity
  8
0
  6
Continuous
 62
     7
370
    25
100
AcDbLine
 10
7113.4404817582
 20
3942.1078808599
 30
0.0
 11
5867.4404817582
 21
3942.1078808599
 31
0.0
  0
LWPOLYLINE
  5
2FA
330
1F
100
AcDbEntity
  8
0
  6
Continuous
 62
     7
370
    25
100
AcDbPolyline
 90
       37
 70
   128
 43
0.0
 10
5987.4404817582
 20
4214.0646300011
 10
5989.5242598902
 20
4214.2429531204
 10
5991.5447234781
 20
4214.7725042205
 10
5993.4404817582
 20
4215.6371931593
 10
5995.1539330744
 20
4216.8107468008
 10
5996.6330150756
 20
4218.2575073116
 10
5997.8327866036
 20
4219.9335156055
 10
5998.7167932076
 20
4221.7878470188
 10
5999.2581747943
 20
4223.7641586296
 10
5999.4404817582
 20
4225.8024012099
 10
5999.2581747943
 20
4227.8406437902
 10
5998.7167932076
 20
4229.8169554011
 10
5997.8327866036
 20
4231.6712868143
 10
5996.6330150756
 20
4233.3472951083
 10
5995.1539330744
 20
4234.794055619
 10
5993.4404817582
 20
4235.9676092606
 10
5991.5447234781
 20
4236.8322981993
 10
5989.5242598902
 20
4237.3618492994
 10
5987.4404817582
 20
4237.5401724187
 10
5985.3567036262
 20
4237.3618492994
 10
5983.3362400383
 20
4236.8322981993
 10
5981.4404817582
 20
4235.9676092606
 10
5979.727030442
 20
4234.794055619
 10
5978.2479484408
 20
4233.3472951083
 10
5977.0481769128
 20
4231.6712868143
 10
5976.1641703088
 20
4229.8169554011
 10
5975.622788722
 20
4227.8406437902
 10
5975.4404817582
 20
4225.8024012099
 10
5975.622788722
 20
4223.7641586296
 10
5976.1641703088
 20
4221.7878470188
 10
5977.0481769128
 20
4219.9335156055
 10
5978.2479484408
 20
4218.2575073116
 10
5979.727030442
 20
4216.8107468008
 10
5981.4404817582
 20
4215.6371931593
 10
5983.3362400383
 20
4214.7725042205
 10
5985.3567036262
 20
4214.2429531204
 10
5987.4404817582
 20
4214.0646300011
  0
LINE
  5
2FB
330
1F
100
AcDbEntity
  8
0
  6
Continuous
 62
     7
370
    25
100
AcDbLine
 10
6922.9404817582
 20
4198.7328693141
 30
0.0
 11
6897.9404817582
 21
4198.7328693141
 31
0.0
  0
LINE
  5
2FC
330
1F
100
AcDbEntity
  8
0
  6
Continuous
 62
     7
370
    25
100
AcDbLine
 10
6896.4404817582
 20
4200.2328693141
 30
0.0
 11
6924.4404817582
 21
4200.2328693141
 31
0.0
  0
LINE
  5
2FD
330
1F
100
AcDbEntity
  8
0
  6
Continuous
 62
     7
370
    25
100
AcDbLine
 10
6296.4404817582
 20
4200.2328693141
 30
0.0
 11
6324.4404817582
 21
4200.2328693141
 31
0.0
  0
LINE
  5
2FE
330
1F
100
AcDbEntity
  8
0
  6
Continuous
 62
     7
370
    25
100
AcDbLine
 10
6322.9404817582
 20
4198.7328693141
 30
0.0
 11
6297.9404817582
 21
4198.7328693141
 31
0.0
  0
LINE
  5
2FF
330
1F
100
AcDbEntity
  8
0
  6
Continuous
 62
     7
370
    25
100
AcDbLine
 10
6760.4404817582
 20
4198.2328693141
 30
0.0
 11
6820.4404817582
 21
4198.2328693141
 31
0.0
  0
LINE
  5
300
330
1F
100
AcDbEntity
  8
0
  6
Continuous
 62
     7
370
    25
100
AcDbLine
 10
6819.9404817582
 20
4197.7328693141
 30
0.0
 11
6760.9404817582
 21
4197.7328693141
 31
0.0
  0
LINE
  5
301
330
1F
100
AcDbEntity
  8
0
  6
Continuous
 62
     7
370
    25
100
AcDbLine
 10
6160.4404817582
 20
4198.2328693141
 30
0.0
 11
6220.4404817582
 21
4198.2328693141
 31
0.0
  0
LINE
  5
302
330
1F
100
AcDbEntity
  8
0
  6
Continuous
 62
     7
370
    25
100
AcDbLine
 10
6219.9404817582
 20
4197.7328693141
 30
0.0
 11
6160.9404817582
 21
4197.7328693141
 31
0.0
  0
LINE
  5
303
330
1F
100
AcDbEntity
  8
0
  6
Continuous
 62
     7
370
    25
100
AcDbLine
 10
6162.7621540255
 20
4198.2328693141
 30
0.0
 11
6220.4404817582
 21
4198.2328693141
 31
0.0
  0
LINE
  5
304
330
1F
100
AcDbEntity
  8
0
  6
Continuous
 62
     7
370
    25
100
AcDbLine
 10
6160.4404817582
 20
4198.2328693141
 30
0.0
 11
6162.7621540255
 21
4198.2328693141
 31
0.0
  0
LINE
  5
305
330
1F
100
AcDbEntity
  8
0
  6
Continuous
 62
     7
370
    25
100
AcDbLine
 10
6163.2234594877
 20
4197.7328693141
 30
0.0
 11
6160.9404817582
 21
4197.7328693141
 31
0.0
  0
LINE
  5
306
330
1F
100
AcDbEntity
  8
0
  6
Continuous
 62
     7
370
    25
100
AcDbLine
 10
6219.9404817582
 20
4197.7328693141
 30
0.0
 11
6163.2234594877
 21
4197.7328693141
 31
0.0
  0
LINE
  5
307
330
1F
100
AcDbEntity
  8
0
  6
Continuous
 62
     7
370
    25
100
AcDbLine
 10
6762.7621540255
 20
4198.2328693141
 30
0.0
 11
6820.4404817582
 21
4198.2328693141
 31
0.0
  0
LINE
  5
308
330
1F
100
AcDbEntity
  8
0
  6
Continuous
 62
     7
370
    25
100
AcDbLine
 10
6760.4404817582
 20
4198.2328693141
 30
0.0
 11
6762.7621540255
 21
4198.2328693141
 31
0.0
  0
LINE
  5
309
330
1F
100
AcDbEntity
  8
0
  6
Continuous
 62
     7
370
    25
100
AcDbLine
 10
6763.2234594877
 20
4197.7328693141
 30
0.0
 11
6760.9404817582
 21
4197.7328693141
 31
0.0
  0
LINE
  5
30A
330
1F
100
AcDbEntity
  8
0
  6
Continuous
 62
     7
370
    25
100
AcDbLine
 10
6819.9404817582
 20
4197.7328693141
 30
0.0
 11
6763.2234594877
 21
4197.7328693141
 31
0.0
  0
LINE
  5
30B
330
1F
100
AcDbEntity
  8
0
  6
Continuous
 62
     7
370
    25
100
AcDbLine
 10
6776.4404817582
 20
4032.7328693141
 30
0.0
 11
6804.4404817582
 21
4032.7328693141
 31
0.0
  0
LINE
  5
30C
330
1F
100
AcDbEntity
  8
0
  6
Continuous
 62
     7
370
    25
100
AcDbLine
 10
6803.4404817582
 20
4031.7328693141
 30
0.0
 11
6777.4404817582
 21
4031.7328693141
 31
0.0
  0
LINE
  5
30D
330
1F
100
AcDbEntity
  8
0
  6
Continuous
 62
     7
370
    25
100
AcDbLine
 10
6176.4404817582
 20
4032.7328693141
 30
0.0
 11
6204.4404817582
 21
4032.7328693141
 31
0.0
  0
LINE
  5
30E
330
1F
100
AcDbEntity
  8
0
  6
Continuous
 62
     7
370
    25
100
AcDbLine
 10
6203.4404817582
 20
4031.7328693141
 30
0.0
 11
6177.4404817582
 21
4031.7328693141
 31
0.0
  0
LINE
  5
30F
330
1F
100
AcDbEntity
  8
0
  6
Continuous
 62
     8
370
    25
100
AcDbLine
 10
7112.3404817582
 20
3770.7328693141
 30
0.0
 11
7112.3404817582
 21
3770.6328693141
 31
0.0
  0
LINE
  5
310
330
1F
100
AcDbEntity
  8
0
  6
Continuous
 62
     8
370
    25
100
AcDbLine
 10
7073.5404817582
 20
3770.7328693141
 30
0.0
 11
7073.5404817582
 21
3770.6328693141
 31
0.0
  0
LINE
  5
311
330
1F
100
AcDbEntity
  8
0
  6
Continuous
 62
     8
370
    25
100
AcDbLine
 10
5868.5404817582
 20
3770.7328693141
 30
0.0
 11
5868.5404817582
 21
3770.6328693141
 31
0.0
  0
LINE
  5
312
330
1F
100
AcDbEntity
  8
0
  6
Continuous
 62
     8
370
    25
100
AcDbLine
 10
5907.3404817582
 20
3770.7328693141
 30
0.0
 11
5907.3404817582
 21
3770.6328693141
 31
0.0
  0
LINE
  5
313
330
1F
100
AcDbEntity
  8
0
  6
Continuous
 62
     8
370
    25
100
AcDbLine
 10
5867.4404817582
 20
4200.3904188134
 30
0.0
 11
6160.4404817582
 21
4200.3904188134
 31
0.0
  0
LINE
  5
314
330
1F
100
AcDbEntity
  8
0
  6
Continuous
 62
     8
370
    25
100
AcDbLine
 10
6220.4404817582
 20
4200.3904188134
 30
0.0
 11
6296.4404817582
 21
4200.3904188134
 31
0.0
  0
LINE
  5
315
330
1F
100
AcDbEntity
  8
0
  6
Continuous
 62
     8
370
    25
100
AcDbLine
 10
6324.4404817582
 20
4200.3904188134
 30
0.0
 11
6760.4404817582
 21
4200.3904188134
 31
0.0
  0
LINE
  5
316
330
1F
100
AcDbEntity
  8
0
  6
Continuous
 62
     8
370
    25
100
AcDbLine
 10
6820.4404817582
 20
4200.3904188134
 30
0.0
 11
6896.4404817582
 21
4200.3904188134
 31
0.0
  0
LINE
  5
317
330
1F
100
AcDbEntity
  8
0
  6
Continuous
 62
     8
370
    25
100
AcDbLine
 10
6924.4404817582
 20
4200.3904188134
 30
0.0
 11
7113.4404817582
 21
4200.3904188134
 31
0.0
  0
LINE
  5
318
330
1F
100
AcDbEntity
  8
0
  6
Continuous
 62
     8
370
    25
100
AcDbLine
 10
7113.4404817582
 20
4075.0154072675
 30
0.0
 11
6804.4404817582
 21
4075.0154072675
 31
0.0
  0
LINE
  5
319
330
1F
100
AcDbEntity
  8
0
  6
Continuous
 62
     8
370
    25
100
AcDbLine
 10
6776.4404817582
 20
4075.0154072675
 30
0.0
 11
6204.4404817582
 21
4075.0154072675
 31
0.0
  0
LINE
  5
31A
330
1F
100
AcDbEntity
  8
0
  6
Continuous
 62
     8
370
    25
100
AcDbLine
 10
6176.4404817582
 20
4075.0154072675
 30
0.0
 11
5867.4404817582
 21
4075.0154072675
 31
0.0
  0
LINE
  5
31B
330
1F
100
AcDbEntity
  8
0
  6
Continuous
 62
     8
370
    25
100
AcDbLine
 10
5867.4404817582
 20
4074.3578577682
 30
0.0
 11
6176.4404817582
 21
4074.3578577682
 31
0.0
  0
LINE
  5
31C
330
1F
100
AcDbEntity
  8
0
  6
Continuous
 62
     8
370
    25
100
AcDbLine
 10
6204.4404817582
 20
4074.3578577682
 30
0.0
 11
6776.4404817582
 21
4074.3578577682
 31
0.0
  0
LINE
  5
31D
330
1F
100
AcDbEntity
  8
0
  6
Continuous
 62
     8
370
    25
100
AcDbLine
 10
6804.4404817582
 20
4074.3578577682
 30
0.0
 11
7113.4404817582
 21
4074.3578577682
 31
0.0
  0
ENDSEC
  0
SECTION
  2
OBJECTS
  0
DICTIONARY
  5
C
330
0
100
AcDbDictionary
281
     1
  3
ACAD_GROUP
350
D
  3
ACAD_LAYOUT
350
1A
  3
ACAD_MLINESTYLE
350
17
  3
ACAD_PLOTSETTINGS
350
19
  3
ACAD_PLOTSTYLENAME
350
E
  3
ACAD_SCALELIST
350
47
  3
DWGPROPS
350
31E
  0
DICTIONARY
  5
D
102
{ACAD_REACTORS
330
C
102
}
330
C
100
AcDbDictionary
281
     1
  0
DICTIONARY
  5
1A
102
{ACAD_REACTORS
330
C
102
}
330
C
100
AcDbDictionary
281
     1
  3
Layout1
350
1E
  3
Layout2
350
26
  3
Model
350
22
  0
DICTIONARY
  5
17
102
{ACAD_REACTORS
330
C
102
}
330
C
100
AcDbDictionary
281
     1
  3
Standard
350
18
  0
DICTIONARY
  5
19
102
{ACAD_REACTORS
330
C
102
}
330
C
100
AcDbDictionary
281
     1
  0
ACDBDICTIONARYWDFLT
  5
E
102
{ACAD_REACTORS
330
C
102
}
330
C
100
AcDbDictionary
281
     1
  3
Normal
350
F
100
AcDbDictionaryWithDefault
340
F
  0
DICTIONARY
  5
47
102
{ACAD_REACTORS
330
C
102
}
330
C
100
AcDbDictionary
281
     1
  3
A0
350
48
  3
A1
350
49
  3
A2
350
4A
  3
A3
350
4B
  3
A4
350
4C
  3
A5
350
4D
  3
A6
350
4E
  3
A7
350
4F
  3
A8
350
50
  3
A9
350
51
  3
B0
350
52
  3
B1
350
53
  3
B2
350
54
  3
B3
350
55
  3
B4
350
56
  3
B5
350
57
  3
B6
350
58
  3
B7
350
59
  3
B8
350
5A
  3
B9
350
5B
  3
C0
350
5C
  3
C1
350
5D
  3
C2
350
5E
  3
C3
350
5F
  3
C4
350
60
  3
C5
350
61
  3
C6
350
62
  3
C7
350
63
  3
C8
350
64
  3
C9
350
65
  3
D0
350
66
  3
D1
350
67
  3
D2
350
68
  0
XRECORD
  5
31E
102
{ACAD_REACTORS
330
C
102
}
330
C
100
AcDbXrecord
280
     1
  1
DWGPROPS COOKIE
  2

  3

  4

  6

  7

  8
radek.stransky
  9

300
=
301
=
302
=
303
=
304
=
305
=
306
=
307
=
308
=
309
=
 40
0.0
 41
2459838.491201238
 42
2459838.49120154
  1

 90
        0
  0
LAYOUT
  5
1E
102
{ACAD_REACTORS
330
1A
102
}
330
1A
100
AcDbPlotSettings
  1

  2
none_device
  4

  6

 40
0.0
 41
0.0
 42
0.0
 43
0.0
 44
0.0
 45
0.0
 46
0.0
 47
0.0
 48
0.0
 49
0.0
140
0.0
141
0.0
142
1.0
143
1.0
 70
   688
 72
     1
 73
     0
 74
     5
  7

 75
    16
147
1.0
148
0.0
149
0.0
100
AcDbLayout
  1
Layout1
 70
     1
 71
     1
 10
0.0
 20
0.0
 11
420.0
 21
297.0
 12
0.0
 22
0.0
 32
0.0
 14
1.0000000000E+20
 24
1.0000000000E+20
 34
1.0000000000E+20
 15
-1.0000000000E+20
 25
-1.0000000000E+20
 35
-1.0000000000E+20
146
0.0
 13
0.0
 23
0.0
 33
0.0
 16
1.0
 26
0.0
 36
0.0
 17
0.0
 27
1.0
 37
0.0
 76
     0
330
1B
  0
LAYOUT
  5
26
102
{ACAD_REACTORS
330
1A
102
}
330
1A
100
AcDbPlotSettings
  1

  2
none_device
  4

  6

 40
0.0
 41
0.0
 42
0.0
 43
0.0
 44
0.0
 45
0.0
 46
0.0
 47
0.0
 48
0.0
 49
0.0
140
0.0
141
0.0
142
1.0
143
1.0
 70
   688
 72
     1
 73
     0
 74
     5
  7

 75
    16
147
1.0
148
0.0
149
0.0
100
AcDbLayout
  1
Layout2
 70
     1
 71
     2
 10
0.0
 20
0.0
 11
0.0
 21
0.0
 12
0.0
 22
0.0
 32
0.0
 14
0.0
 24
0.0
 34
0.0
 15
0.0
 25
0.0
 35
0.0
146
0.0
 13
0.0
 23
0.0
 33
0.0
 16
1.0
 26
0.0
 36
0.0
 17
0.0
 27
1.0
 37
0.0
 76
     0
330
23
  0
LAYOUT
  5
22
102
{ACAD_REACTORS
330
1A
102
}
330
1A
100
AcDbPlotSettings
  1

  2
none_device
  4
Letter_(8.50_x_11.00_Inches)
  6

 40
6.35
 41
6.35
 42
6.35000508
 43
6.35000508
 44
215.9
 45
279.4
 46
0.0
 47
0.0
 48
0.0
 49
0.0
140
0.0
141
0.0
142
1.0
143
1.0
 70
  1712
 72
     1
 73
     0
 74
     0
  7

 75
     0
147
1.0
148
0.0
149
0.0
100
AcDbLayout
  1
Model
 70
     1
 71
     0
 10
0.0
 20
0.0
 11
20000.0
 21
10000.0
 12
0.0
 22
0.0
 32
0.0
 14
0.0
 24
0.0
 34
0.0
 15
20000.0
 25
10000.0
 35
0.0
146
0.0
 13
0.0
 23
0.0
 33
0.0
 16
1.0
 26
0.0
 36
0.0
 17
0.0
 27
1.0
 37
0.0
 76
     0
330
1F
331
29
  0
MLINESTYLE
  5
18
102
{ACAD_REACTORS
330
17
102
}
330
17
100
AcDbMlineStyle
  2
Standard
 70
     0
  3

 62
   256
 51
90.0
 52
90.0
 71
     2
 49
0.5
 62
   256
  6
BYLAYER
 49
-0.5
 62
   256
  6
BYLAYER
  0
ACDBPLACEHOLDER
  5
F
102
{ACAD_REACTORS
330
E
102
}
330
E
  0
SCALE
  5
48
102
{ACAD_REACTORS
330
47
102
}
330
47
100
AcDbScale
 70
     0
300
1:1
140
1.0
141
1.0
290
     1
  0
SCALE
  5
49
102
{ACAD_REACTORS
330
47
102
}
330
47
100
AcDbScale
 70
     0
300
1:2
140
1.0
141
2.0
290
     0
  0
SCALE
  5
4A
102
{ACAD_REACTORS
330
47
102
}
330
47
100
AcDbScale
 70
     0
300
1:4
140
1.0
141
4.0
290
     0
  0
SCALE
  5
4B
102
{ACAD_REACTORS
330
47
102
}
330
47
100
AcDbScale
 70
     0
300
1:5
140
1.0
141
5.0
290
     0
  0
SCALE
  5
4C
102
{ACAD_REACTORS
330
47
102
}
330
47
100
AcDbScale
 70
     0
300
1:8
140
1.0
141
8.0
290
     0
  0
SCALE
  5
4D
102
{ACAD_REACTORS
330
47
102
}
330
47
100
AcDbScale
 70
     0
300
1:10
140
1.0
141
10.0
290
     0
  0
SCALE
  5
4E
102
{ACAD_REACTORS
330
47
102
}
330
47
100
AcDbScale
 70
     0
300
1:16
140
1.0
141
16.0
290
     0
  0
SCALE
  5
4F
102
{ACAD_REACTORS
330
47
102
}
330
47
100
AcDbScale
 70
     0
300
1:20
140
1.0
141
20.0
290
     0
  0
SCALE
  5
50
102
{ACAD_REACTORS
330
47
102
}
330
47
100
AcDbScale
 70
     0
300
1:30
140
1.0
141
30.0
290
     0
  0
SCALE
  5
51
102
{ACAD_REACTORS
330
47
102
}
330
47
100
AcDbScale
 70
     0
300
1:40
140
1.0
141
40.0
290
     0
  0
SCALE
  5
52
102
{ACAD_REACTORS
330
47
102
}
330
47
100
AcDbScale
 70
     0
300
1:50
140
1.0
141
50.0
290
     0
  0
SCALE
  5
53
102
{ACAD_REACTORS
330
47
102
}
330
47
100
AcDbScale
 70
     0
300
1:100
140
1.0
141
100.0
290
     0
  0
SCALE
  5
54
102
{ACAD_REACTORS
330
47
102
}
330
47
100
AcDbScale
 70
     0
300
2:1
140
2.0
141
1.0
290
     0
  0
SCALE
  5
55
102
{ACAD_REACTORS
330
47
102
}
330
47
100
AcDbScale
 70
     0
300
4:1
140
4.0
141
1.0
290
     0
  0
SCALE
  5
56
102
{ACAD_REACTORS
330
47
102
}
330
47
100
AcDbScale
 70
     0
300
8:1
140
8.0
141
1.0
290
     0
  0
SCALE
  5
57
102
{ACAD_REACTORS
330
47
102
}
330
47
100
AcDbScale
 70
     0
300
10:1
140
10.0
141
1.0
290
     0
  0
SCALE
  5
58
102
{ACAD_REACTORS
330
47
102
}
330
47
100
AcDbScale
 70
     0
300
100:1
140
100.0
141
1.0
290
     0
  0
SCALE
  5
59
102
{ACAD_REACTORS
330
47
102
}
330
47
100
AcDbScale
 70
     0
300
1/128" = 1'-0"
140
0.0078125
141
12.0
290
     0
  0
SCALE
  5
5A
102
{ACAD_REACTORS
330
47
102
}
330
47
100
AcDbScale
 70
     0
300
1/64" = 1'-0"
140
0.015625
141
12.0
290
     0
  0
SCALE
  5
5B
102
{ACAD_REACTORS
330
47
102
}
330
47
100
AcDbScale
 70
     0
300
1/32" = 1'-0"
140
0.03125
141
12.0
290
     0
  0
SCALE
  5
5C
102
{ACAD_REACTORS
330
47
102
}
330
47
100
AcDbScale
 70
     0
300
1/16" = 1'-0"
140
0.0625
141
12.0
290
     0
  0
SCALE
  5
5D
102
{ACAD_REACTORS
330
47
102
}
330
47
100
AcDbScale
 70
     0
300
3/32" = 1'-0"
140
0.09375
141
12.0
290
     0
  0
SCALE
  5
5E
102
{ACAD_REACTORS
330
47
102
}
330
47
100
AcDbScale
 70
     0
300
1/8" = 1'-0"
140
0.125
141
12.0
290
     0
  0
SCALE
  5
5F
102
{ACAD_REACTORS
330
47
102
}
330
47
100
AcDbScale
 70
     0
300
3/16" = 1'-0"
140
0.1875
141
12.0
290
     0
  0
SCALE
  5
60
102
{ACAD_REACTORS
330
47
102
}
330
47
100
AcDbScale
 70
     0
300
1/4" = 1'-0"
140
0.25
141
12.0
290
     0
  0
SCALE
  5
61
102
{ACAD_REACTORS
330
47
102
}
330
47
100
AcDbScale
 70
     0
300
3/8" = 1'-0"
140
0.375
141
12.0
290
     0
  0
SCALE
  5
62
102
{ACAD_REACTORS
330
47
102
}
330
47
100
AcDbScale
 70
     0
300
1/2" = 1'-0"
140
0.5
141
12.0
290
     0
  0
SCALE
  5
63
102
{ACAD_REACTORS
330
47
102
}
330
47
100
AcDbScale
 70
     0
300
3/4" = 1'-0"
140
0.75
141
12.0
290
     0
  0
SCALE
  5
64
102
{ACAD_REACTORS
330
47
102
}
330
47
100
AcDbScale
 70
     0
300
1" = 1'-0"
140
1.0
141
12.0
290
     0
  0
SCALE
  5
65
102
{ACAD_REACTORS
330
47
102
}
330
47
100
AcDbScale
 70
     0
300
1-1/2" = 1'-0"
140
1.5
141
12.0
290
     0
  0
SCALE
  5
66
102
{ACAD_REACTORS
330
47
102
}
330
47
100
AcDbScale
 70
     0
300
3" = 1'-0"
140
3.0
141
12.0
290
     0
  0
SCALE
  5
67
102
{ACAD_REACTORS
330
47
102
}
330
47
100
AcDbScale
 70
     0
300
6" = 1'-0"
140
6.0
141
12.0
290
     0
  0
SCALE
  5
68
102
{ACAD_REACTORS
330
47
102
}
330
47
100
AcDbScale
 70
     0
300
1'-0" = 1'-0"
140
12.0
141
12.0
290
     0
  0
ENDSEC
  0
EOF
