  0
SECTION
  2
HEADER
  9
$ACADVER
  1
AC1015
  9
$ACADMAINTVER
 70
     6
  9
$DWGCODEPAGE
  3
ANSI_1250
  9
$INSBASE
 10
0.0
 20
0.0
 30
0.0
  9
$EXTMIN
 10
0.0
 20
0.0
 30
0.0
  9
$EXTMAX
 10
20000.0
 20
10000.0
 30
0.0
  9
$LIMMIN
 10
0.0
 20
0.0
  9
$LIMMAX
 10
20000.0
 20
10000.0
  9
$ORTHOMODE
 70
     0
  9
$REGENMODE
 70
     1
  9
$FILLMODE
 70
     1
  9
$QTEXTMODE
 70
     0
  9
$MIRRTEXT
 70
     1
  9
$LTSCALE
 40
1.0
  9
$ATTMODE
 70
     1
  9
$TEXTSIZE
 40
2.0
  9
$TRACEWID
 40
1.0
  9
$TEXTSTYLE
  7
Standard
  9
$CLAYER
  8
0
  9
$CELTYPE
  6
ByLayer
  9
$CECOLOR
 62
   256
  9
$CELTSCALE
 40
1.0
  9
$DISPSILH
 70
     0
  9
$DIMSCALE
 40
1.0
  9
$DIMASZ
 40
2.0
  9
$DIMEXO
 40
1.0
  9
$DIMDLI
 40
3.75
  9
$DIMRND
 40
0.0
  9
$DIMDLE
 40
0.0
  9
$DIMEXE
 40
1.0
  9
$DIMTP
 40
0.0
  9
$DIMTM
 40
0.0
  9
$DIMTXT
 40
2.0
  9
$DIMCEN
 40
2.5
  9
$DIMTSZ
 40
0.0
  9
$DIMTOL
 70
     0
  9
$DIMLIM
 70
     0
  9
$DIMTIH
 70
     1
  9
$DIMTOH
 70
     1
  9
$DIMSE1
 70
     0
  9
$DIMSE2
 70
     0
  9
$DIMTAD
 70
     1
  9
$DIMZIN
 70
     0
  9
$DIMBLK
  1

  9
$DIMASO
 70
     1
  9
$DIMSHO
 70
     1
  9
$DIMPOST
  1

  9
$DIMAPOST
  1

  9
$DIMALT
 70
     0
  9
$DIMALTD
 70
     3
  9
$DIMALTF
 40
0.0393700787
  9
$DIMLFAC
 40
1.0
  9
$DIMTOFL
 70
     1
  9
$DIMTVP
 40
0.0
  9
$DIMTIX
 70
     0
  9
$DIMSOXD
 70
     0
  9
$DIMSAH
 70
     0
  9
$DIMBLK1
  1

  9
$DIMBLK2
  1

  9
$DIMSTYLE
  2
ISO-25
  9
$DIMCLRD
 70
     0
  9
$DIMCLRE
 70
     0
  9
$DIMCLRT
 70
     0
  9
$DIMTFAC
 40
1.0
  9
$DIMGAP
 40
1.524
  9
$DIMJUST
 70
     0
  9
$DIMSD1
 70
     0
  9
$DIMSD2
 70
     0
  9
$DIMTOLJ
 70
     0
  9
$DIMTZIN
 70
     0
  9
$DIMALTZ
 70
     0
  9
$DIMALTTZ
 70
     0
  9
$DIMUPT
 70
     0
  9
$DIMDEC
 70
     2
  9
$DIMTDEC
 70
     0
  9
$DIMALTU
 70
     2
  9
$DIMALTTD
 70
     3
  9
$DIMTXSTY
  7
Standard
  9
$DIMAUNIT
 70
     0
  9
$DIMADEC
 70
     2
  9
$DIMALTRND
 40
0.0
  9
$DIMAZIN
 70
     0
  9
$DIMDSEP
 70
    44
  9
$DIMATFIT
 70
     3
  9
$DIMFRAC
 70
     0
  9
$DIMLDRBLK
  1

  9
$DIMLUNIT
 70
     2
  9
$DIMLWD
 70
    -2
  9
$DIMLWE
 70
    -2
  9
$DIMTMOVE
 70
     0
  9
$LUNITS
 70
     2
  9
$LUPREC
 70
     3
  9
$SKETCHINC
 40
1.0
  9
$FILLETRAD
 40
10.0
  9
$AUNITS
 70
     0
  9
$AUPREC
 70
     2
  9
$MENU
  1
.
  9
$ELEVATION
 40
0.0
  9
$PELEVATION
 40
0.0
  9
$THICKNESS
 40
0.0
  9
$LIMCHECK
 70
     0
  9
$CHAMFERA
 40
0.0
  9
$CHAMFERB
 40
0.0
  9
$CHAMFERC
 40
0.0
  9
$CHAMFERD
 40
0.0
  9
$SKPOLY
 70
     0
  9
$TDCREATE
 40
2460318.405854526
  9
$TDUCREATE
 40
2460318.364187859
  9
$TDUPDATE
 40
2460318.405855081
  9
$TDUUPDATE
 40
2460318.364188415
  9
$TDINDWG
 40
0.0000000116
  9
$TDUSRTIMER
 40
0.0000000116
  9
$USRTIMER
 70
     1
  9
$ANGBASE
 50
0.0
  9
$ANGDIR
 70
     0
  9
$PDMODE
 70
     0
  9
$PDSIZE
 40
-1.0
  9
$PLINEWID
 40
0.0
  9
$SPLFRAME
 70
     0
  9
$SPLINETYPE
 70
     6
  9
$SPLINESEGS
 70
     8
  9
$HANDSEED
  5
E2
  9
$SURFTAB1
 70
     6
  9
$SURFTAB2
 70
     6
  9
$SURFTYPE
 70
     6
  9
$SURFU
 70
     6
  9
$SURFV
 70
     6
  9
$UCSBASE
  2

  9
$UCSNAME
  2

  9
$UCSORG
 10
0.0
 20
0.0
 30
0.0
  9
$UCSXDIR
 10
1.0
 20
0.0
 30
0.0
  9
$UCSYDIR
 10
0.0
 20
1.0
 30
0.0
  9
$UCSORTHOREF
  2

  9
$UCSORTHOVIEW
 70
     0
  9
$UCSORGTOP
 10
0.0
 20
0.0
 30
0.0
  9
$UCSORGBOTTOM
 10
0.0
 20
0.0
 30
0.0
  9
$UCSORGLEFT
 10
0.0
 20
0.0
 30
0.0
  9
$UCSORGRIGHT
 10
0.0
 20
0.0
 30
0.0
  9
$UCSORGFRONT
 10
0.0
 20
0.0
 30
0.0
  9
$UCSORGBACK
 10
0.0
 20
0.0
 30
0.0
  9
$PUCSBASE
  2

  9
$PUCSNAME
  2

  9
$PUCSORG
 10
0.0
 20
0.0
 30
0.0
  9
$PUCSXDIR
 10
1.0
 20
0.0
 30
0.0
  9
$PUCSYDIR
 10
0.0
 20
1.0
 30
0.0
  9
$PUCSORTHOREF
  2

  9
$PUCSORTHOVIEW
 70
     0
  9
$PUCSORGTOP
 10
0.0
 20
0.0
 30
0.0
  9
$PUCSORGBOTTOM
 10
0.0
 20
0.0
 30
0.0
  9
$PUCSORGLEFT
 10
0.0
 20
0.0
 30
0.0
  9
$PUCSORGRIGHT
 10
0.0
 20
0.0
 30
0.0
  9
$PUCSORGFRONT
 10
0.0
 20
0.0
 30
0.0
  9
$PUCSORGBACK
 10
0.0
 20
0.0
 30
0.0
  9
$USERI1
 70
     0
  9
$USERI2
 70
     0
  9
$USERI3
 70
     0
  9
$USERI4
 70
     0
  9
$USERI5
 70
     0
  9
$USERR1
 40
0.0
  9
$USERR2
 40
0.0
  9
$USERR3
 40
0.0
  9
$USERR4
 40
0.0
  9
$USERR5
 40
0.0
  9
$WORLDVIEW
 70
     1
  9
$SHADEDGE
 70
     3
  9
$SHADEDIF
 70
    70
  9
$TILEMODE
 70
     1
  9
$MAXACTVP
 70
    64
  9
$PINSBASE
 10
0.0
 20
0.0
 30
0.0
  9
$PLIMCHECK
 70
     0
  9
$PEXTMIN
 10
1.0000000000E+20
 20
1.0000000000E+20
 30
1.0000000000E+20
  9
$PEXTMAX
 10
-1.0000000000E+20
 20
-1.0000000000E+20
 30
-1.0000000000E+20
  9
$PLIMMIN
 10
0.0
 20
0.0
  9
$PLIMMAX
 10
420.0
 20
297.0
  9
$UNITMODE
 70
     0
  9
$VISRETAIN
 70
     1
  9
$PLINEGEN
 70
     0
  9
$PSLTSCALE
 70
     1
  9
$TREEDEPTH
 70
  3020
  9
$CMLSTYLE
  2
Standard
  9
$CMLJUST
 70
     0
  9
$CMLSCALE
 40
20.0
  9
$PROXYGRAPHICS
 70
     1
  9
$MEASUREMENT
 70
     1
  9
$CELWEIGHT
370
    -1
  9
$ENDCAPS
280
     0
  9
$JOINSTYLE
280
     0
  9
$LWDISPLAY
290
     1
  9
$INSUNITS
 70
     4
  9
$HYPERLINKBASE
  1

  9
$STYLESHEET
  1

  9
$XEDIT
290
     1
  9
$CEPSNTYPE
380
     0
  9
$PSTYLEMODE
290
     1
  9
$FINGERPRINTGUID
  2
{8d6e70d4-9bd8-4e01-a59c-ca1b26b47b62}
  9
$VERSIONGUID
  2
{FAEB1C32-E019-11D5-929B-00C0DF256EC4}
  9
$EXTNAMES
290
     1
  9
$PSVPSCALE
 40
0.0
  9
$OLESTARTUP
290
     0
  0
ENDSEC
  0
SECTION
  2
CLASSES
  0
CLASS
  1
ACDBDICTIONARYWDFLT
  2
AcDbDictionaryWithDefault
  3
ObjectDBX Classes
 90
        0
280
     0
281
     0
  0
CLASS
  1
VISUALSTYLE
  2
AcDbVisualStyle
  3
ObjectDBX Classes
 90
     4095
280
     0
281
     0
  0
CLASS
  1
MATERIAL
  2
AcDbMaterial
  3
ObjectDBX Classes
 90
     1153
280
     0
281
     0
  0
CLASS
  1
SCALE
  2
AcDbScale
  3
ObjectDBX Classes
 90
     1153
280
     0
281
     0
  0
CLASS
  1
TABLESTYLE
  2
AcDbTableStyle
  3
ObjectDBX Classes
 90
     4095
280
     0
281
     0
  0
CLASS
  1
MLEADERSTYLE
  2
AcDbMLeaderStyle
  3
ACDB_MLEADERSTYLE_CLASS
 90
     4095
280
     0
281
     0
  0
CLASS
  1
SUN
  2
AcDbSun
  3
SCENEOE
 90
     1153
280
     0
281
     0
  0
CLASS
  1
ACDBPLACEHOLDER
  2
AcDbPlaceHolder
  3
ObjectDBX Classes
 90
        0
280
     0
281
     0
  0
CLASS
  1
LAYOUT
  2
AcDbLayout
  3
ObjectDBX Classes
 90
        0
280
     0
281
     0
  0
ENDSEC
  0
SECTION
  2
TABLES
  0
TABLE
  2
VPORT
  5
8
330
0
100
AcDbSymbolTable
 70
     1
  0
VPORT
  5
29
330
8
100
AcDbSymbolTableRecord
100
AcDbViewportTableRecord
  2
*Active
 70
     0
 10
0.0
 20
0.0
 11
1.0
 21
1.0
 12
10000.0
 22
5000.0
 13
0.0
 23
0.0
 14
10.0
 24
10.0
 15
10.0
 25
10.0
 16
0.0
 26
0.0
 36
1.0
 17
0.0
 27
0.0
 37
0.0
 40
10000.0
 41
2.0
 42
50.0
 43
0.0
 44
0.0
 50
0.0
 51
0.0
 71
     0
 72
  2000
 73
     1
 74
     3
 75
     0
 76
     0
 77
     0
 78
     0
281
     0
 65
     1
110
0.0
120
0.0
130
0.0
111
1.0
121
0.0
131
0.0
112
0.0
122
1.0
132
0.0
 79
     0
146
0.0
  0
ENDTAB
  0
TABLE
  2
LTYPE
  5
5
330
0
100
AcDbSymbolTable
 70
     6
  0
LTYPE
  5
14
330
5
100
AcDbSymbolTableRecord
100
AcDbLinetypeTableRecord
  2
ByBlock
 70
     0
  3

 72
    65
 73
     0
 40
0.0
  0
LTYPE
  5
15
330
5
100
AcDbSymbolTableRecord
100
AcDbLinetypeTableRecord
  2
ByLayer
 70
     0
  3

 72
    65
 73
     0
 40
0.0
  0
LTYPE
  5
16
330
5
100
AcDbSymbolTableRecord
100
AcDbLinetypeTableRecord
  2
Continuous
 70
     0
  3
Solid line
 72
    65
 73
     0
 40
0.0
  0
LTYPE
  5
6E
330
5
100
AcDbSymbolTableRecord
100
AcDbLinetypeTableRecord
  2
HIDDEN
 70
     0
  3
Hidden __ __ __ __ __ __ __ __ __ __ __ __ __ __
 72
    65
 73
     2
 40
1.905
 49
1.27
 74
     0
 49
-0.635
 74
     0
  0
LTYPE
  5
6F
330
5
100
AcDbSymbolTableRecord
100
AcDbLinetypeTableRecord
  2
PHANTOM
 70
     0
  3
Phantom ______  __  __  ______  __  __  ______
 72
    65
 73
     6
 40
12.7
 49
6.35
 74
     0
 49
-1.27
 74
     0
 49
1.27
 74
     0
 49
-1.27
 74
     0
 49
1.27
 74
     0
 49
-1.27
 74
     0
  0
LTYPE
  5
70
330
5
100
AcDbSymbolTableRecord
100
AcDbLinetypeTableRecord
  2
CENTER
 70
     0
  3
Center ____ _ ____ _ ____ _ ____ _ ____ _ ____
 72
    65
 73
     4
 40
10.16
 49
6.35
 74
     0
 49
-1.27
 74
     0
 49
1.27
 74
     0
 49
-1.27
 74
     0
  0
LTYPE
  5
71
330
5
100
AcDbSymbolTableRecord
100
AcDbLinetypeTableRecord
  2
CENTERX2
 70
     0
  3
Center (2x) ________  __  ________  __  _____
 72
    65
 73
     4
 40
20.32
 49
12.7
 74
     0
 49
-2.54
 74
     0
 49
2.54
 74
     0
 49
-2.54
 74
     0
  0
LTYPE
  5
72
330
5
100
AcDbSymbolTableRecord
100
AcDbLinetypeTableRecord
  2
DOT2
 70
     0
  3
Dot (.5x) ........................................
 72
    65
 73
     2
 40
0.635
 49
0.0
 74
     0
 49
-0.635
 74
     0
  0
ENDTAB
  0
TABLE
  2
LAYER
  5
2
330
0
100
AcDbSymbolTable
 70
    13
  0
LAYER
  5
10
330
2
100
AcDbSymbolTableRecord
100
AcDbLayerTableRecord
  2
0
 70
     0
 62
     7
  6
Continuous
370
    -3
390
F
  0
LAYER
  5
73
330
2
100
AcDbSymbolTableRecord
100
AcDbLayerTableRecord
  2
FORMAT
 70
     0
 62
     7
  6
Continuous
370
    -3
390
F
  0
LAYER
  5
74
330
2
100
AcDbSymbolTableRecord
100
AcDbLayerTableRecord
  2
OSA
 70
     0
 62
     7
  6
CENTER
370
    -3
390
F
  0
LAYER
  5
75
330
2
100
AcDbSymbolTableRecord
100
AcDbLayerTableRecord
  2
0_35
 70
     0
 62
     7
  6
Continuous
370
    35
390
F
  0
LAYER
  5
76
330
2
100
AcDbSymbolTableRecord
100
AcDbLayerTableRecord
  2
0_5
 70
     0
 62
     7
  6
Continuous
370
    50
390
F
  0
LAYER
  5
77
330
2
100
AcDbSymbolTableRecord
100
AcDbLayerTableRecord
  2
0_25
 70
     0
 62
     7
  6
Continuous
370
    25
390
F
  0
LAYER
  5
78
330
2
100
AcDbSymbolTableRecord
100
AcDbLayerTableRecord
  2
0_18
 70
     0
 62
     7
  6
Continuous
370
    -3
390
F
  0
LAYER
  5
79
330
2
100
AcDbSymbolTableRecord
100
AcDbLayerTableRecord
  2
SLD-0
 70
     0
 62
   179
  6
Continuous
370
    -3
390
F
  0
LAYER
  5
7A
330
2
100
AcDbSymbolTableRecord
100
AcDbLayerTableRecord
  2
KOTY
 70
     0
 62
     7
  6
Continuous
370
    -3
390
F
  0
LAYER
  5
7B
330
2
100
AcDbSymbolTableRecord
100
AcDbLayerTableRecord
  2
SILNA
 70
     0
 62
   179
  6
Continuous
370
    -3
390
F
  0
LAYER
  5
7C
330
2
100
AcDbSymbolTableRecord
100
AcDbLayerTableRecord
  2
0_18_1
 70
     0
 62
   179
  6
Continuous
370
    -3
390
F
  0
LAYER
  5
7D
330
2
100
AcDbSymbolTableRecord
100
AcDbLayerTableRecord
  2
0_35_1
 70
     0
 62
   179
  6
Continuous
370
    35
390
F
  0
LAYER
  5
7E
330
2
100
AcDbSymbolTableRecord
100
AcDbLayerTableRecord
  2
0_5_1
 70
     0
 62
   179
  6
Continuous
370
    50
390
F
  0
ENDTAB
  0
TABLE
  2
STYLE
  5
3
330
0
100
AcDbSymbolTable
 70
     1
  0
STYLE
  5
11
330
3
100
AcDbSymbolTableRecord
100
AcDbTextStyleTableRecord
  2
Standard
 70
     0
 40
0.0
 41
1.0
 50
0.0
 71
     0
 42
2.0
  3
txt
  4

  0
ENDTAB
  0
TABLE
  2
VIEW
  5
6
330
0
100
AcDbSymbolTable
 70
     0
  0
ENDTAB
  0
TABLE
  2
UCS
  5
7
330
0
100
AcDbSymbolTable
 70
     0
  0
ENDTAB
  0
TABLE
  2
APPID
  5
9
330
0
100
AcDbSymbolTable
 70
     1
  0
APPID
  5
12
330
9
100
AcDbSymbolTableRecord
100
AcDbRegAppTableRecord
  2
ACAD
 70
     0
  0
ENDTAB
  0
TABLE
  2
DIMSTYLE
  5
A
330
0
100
AcDbSymbolTable
 70
     1
100
AcDbDimStyleTable
  0
DIMSTYLE
105
27
330
A
100
AcDbSymbolTableRecord
100
AcDbDimStyleTableRecord
  2
ISO-25
 70
     0
 41
2.5
 42
0.625
 43
3.75
 44
1.25
 73
     0
 74
     0
 77
     1
 78
     8
140
2.5
141
2.5
143
0.0393700787
147
0.625
171
     3
172
     1
178
     0
271
     2
272
     2
274
     3
278
    44
283
     0
284
     8
340
11
  0
ENDTAB
  0
TABLE
  2
BLOCK_RECORD
  5
1
330
0
100
AcDbSymbolTable
 70
     1
  0
BLOCK_RECORD
  5
1F
330
1
100
AcDbSymbolTableRecord
100
AcDbBlockTableRecord
  2
*Model_Space
340
22
  0
BLOCK_RECORD
  5
1B
330
1
100
AcDbSymbolTableRecord
100
AcDbBlockTableRecord
  2
*Paper_Space
340
1E
  0
BLOCK_RECORD
  5
23
330
1
100
AcDbSymbolTableRecord
100
AcDbBlockTableRecord
  2
*Paper_Space0
340
26
  0
ENDTAB
  0
ENDSEC
  0
SECTION
  2
BLOCKS
  0
BLOCK
  5
20
330
1F
100
AcDbEntity
  8
0
100
AcDbBlockBegin
  2
*Model_Space
 70
     0
 10
0.0
 20
0.0
 30
0.0
  3
*Model_Space
  1

  0
ENDBLK
  5
21
330
1F
100
AcDbEntity
  8
0
100
AcDbBlockEnd
  0
BLOCK
  5
1C
330
1B
100
AcDbEntity
 67
     1
  8
0
100
AcDbBlockBegin
  2
*Paper_Space
 70
     0
 10
0.0
 20
0.0
 30
0.0
  3
*Paper_Space
  1

  0
ENDBLK
  5
1D
330
1B
100
AcDbEntity
 67
     1
  8
0
100
AcDbBlockEnd
  0
BLOCK
  5
24
330
23
100
AcDbEntity
  8
0
100
AcDbBlockBegin
  2
*Paper_Space0
 70
     0
 10
0.0
 20
0.0
 30
0.0
  3
*Paper_Space0
  1

  0
ENDBLK
  5
25
330
23
100
AcDbEntity
  8
0
100
AcDbBlockEnd
  0
ENDSEC
  0
SECTION
  2
ENTITIES
  0
ARC
  5
7F
330
1F
100
AcDbEntity
  8
0
  6
Continuous
 62
     7
370
    25
100
AcDbCircle
 10
6244.734652558
 20
5182.1795168638
 30
0.0
 40
39.99999999999968
100
AcDbArc
 50
225.0
 51
270.0
  0
ARC
  5
80
330
1F
100
AcDbEntity
  8
0
  6
Continuous
 62
     7
370
    25
100
AcDbCircle
 10
6244.734652558
 20
5182.1795168638
 30
0.0
 40
71.99999999999929
100
AcDbArc
 50
225.0
 51
270.0
  0
LINE
  5
81
330
1F
100
AcDbEntity
  8
0
  6
Continuous
 62
     7
370
    25
100
AcDbLine
 10
6451.5386930651
 20
5142.1795168638
 30
0.0
 11
6244.734652558
 21
5142.1795168638
 31
0.0
  0
LINE
  5
82
330
1F
100
AcDbEntity
  8
0
  6
Continuous
 62
     7
370
    25
100
AcDbLine
 10
6244.734652558
 20
5110.1795168638
 30
0.0
 11
6451.5386930651
 21
5110.1795168638
 31
0.0
  0
LINE
  5
83
330
1F
100
AcDbEntity
  8
0
  6
Continuous
 62
     7
370
    25
100
AcDbLine
 10
6020.2249845661
 20
5304.8658083648
 30
0.0
 11
6055.5803236254
 21
5269.5104693054
 31
0.0
  0
LINE
  5
84
330
1F
100
AcDbEntity
  8
0
  6
Continuous
 62
     7
370
    25
100
AcDbLine
 10
6078.2077406234
 20
5292.1378863034
 30
0.0
 11
6042.852401564
 21
5327.4932253627
 31
0.0
  0
LINE
  5
85
330
1F
100
AcDbEntity
  8
0
  6
Continuous
 62
     7
370
    25
100
AcDbLine
 10
6216.4503813105
 20
5153.8952456163
 30
0.0
 11
6078.2077406234
 21
5292.1378863034
 31
0.0
  0
LINE
  5
86
330
1F
100
AcDbEntity
  8
0
  6
Continuous
 62
     7
370
    25
100
AcDbLine
 10
6055.5803236254
 20
5269.5104693054
 30
0.0
 11
6193.8229643125
 21
5131.2678286183
 31
0.0
  0
LINE
  5
87
330
1F
100
AcDbEntity
  8
0
  6
Continuous
 62
     7
370
    25
100
AcDbLine
 10
6451.5386930651
 20
5110.1795168638
 30
0.0
 11
6501.5386930651
 21
5110.1795168638
 31
0.0
  0
LINE
  5
88
330
1F
100
AcDbEntity
  8
0
  6
Continuous
 62
     7
370
    25
100
AcDbLine
 10
6501.5386930651
 20
5142.1795168638
 30
0.0
 11
6451.5386930651
 21
5142.1795168638
 31
0.0
  0
ARC
  5
89
330
1F
100
AcDbEntity
  8
0
  6
Continuous
 62
     7
370
    25
100
AcDbCircle
 10
6031.5386930651
 20
5316.1795168638
 30
0.0
 40
16.50000000000079
100
AcDbArc
 50
30.8588897661
 51
239.1411102339
  0
ARC
  5
8A
330
1F
100
AcDbEntity
  8
0
  6
Continuous
 62
     7
370
    25
100
AcDbCircle
 10
6031.5386930651
 20
5316.1795168638
 30
0.0
 40
41.24999999999977
100
AcDbArc
 50
337.8225756208
 51
269.884422613
  0
ARC
  5
8B
330
1F
100
AcDbEntity
  8
0
  6
Continuous
 62
     7
370
    25
100
AcDbCircle
 10
6031.5386930651
 20
5316.1795168638
 30
0.0
 40
41.24999999999977
100
AcDbArc
 50
269.884422613
 51
292.1774243792
  0
ARC
  5
8C
330
1F
100
AcDbEntity
  8
0
  6
Continuous
 62
     7
370
    25
100
AcDbCircle
 10
6501.5386930651
 20
5126.1795168638
 30
0.0
 40
16.49999999999984
100
AcDbArc
 50
255.8588897661
 51
330.2084282581
  0
ARC
  5
8D
330
1F
100
AcDbEntity
  8
0
  6
Continuous
 62
     7
370
    25
100
AcDbCircle
 10
6501.5386930651
 20
5126.1795168638
 30
0.0
 40
16.49999999999984
100
AcDbArc
 50
330.2084282581
 51
104.1411102339
  0
ARC
  5
8E
330
1F
100
AcDbEntity
  8
0
  6
Continuous
 62
     7
370
    25
100
AcDbCircle
 10
6501.5386930651
 20
5126.1795168638
 30
0.0
 40
41.25000000000034
100
AcDbArc
 50
202.8225756208
 51
330.2084282581
  0
ARC
  5
8F
330
1F
100
AcDbEntity
  8
0
  6
Continuous
 62
     7
370
    25
100
AcDbCircle
 10
6501.5386930651
 20
5126.1795168638
 30
0.0
 40
41.25000000000034
100
AcDbArc
 50
330.2084282581
 51
157.1774243792
  0
ARC
  5
90
330
1F
100
AcDbEntity
  8
0
  6
Continuous
 62
     7
370
    25
100
AcDbCircle
 10
6031.5386930651
 20
5316.1795168638
 30
0.0
 40
16.00000000000077
100
AcDbArc
 50
45.0
 51
135.0
  0
ARC
  5
91
330
1F
100
AcDbEntity
  8
0
  6
Continuous
 62
     7
370
    25
100
AcDbCircle
 10
6031.5386930651
 20
5316.1795168638
 30
0.0
 40
16.00000000000077
100
AcDbArc
 50
135.0
 51
225.0
  0
ARC
  5
92
330
1F
100
AcDbEntity
  8
0
  6
Continuous
 62
     7
370
    25
100
AcDbCircle
 10
6501.5386930651
 20
5126.1795168638
 30
0.0
 40
16.0
100
AcDbArc
 50
0.0
 51
90.0
  0
ARC
  5
93
330
1F
100
AcDbEntity
  8
0
  6
Continuous
 62
     7
370
    25
100
AcDbCircle
 10
6501.5386930651
 20
5126.1795168638
 30
0.0
 40
16.0
100
AcDbArc
 50
270.0
 51
0.0
  0
ARC
  5
94
330
1F
100
AcDbEntity
  8
0
  6
Continuous
 62
     8
370
    25
100
AcDbCircle
 10
6031.5386930651
 20
5316.1795168638
 30
0.0
 40
39.10005251181605
100
AcDbArc
 50
339.1550051199
 51
269.884422613
  0
ARC
  5
95
330
1F
100
AcDbEntity
  8
0
  6
Continuous
 62
     8
370
    25
100
AcDbCircle
 10
6031.5386930651
 20
5316.1795168638
 30
0.0
 40
39.10005251181605
100
AcDbArc
 50
269.884422613
 51
290.8449948801
  0
ARC
  5
96
330
1F
100
AcDbEntity
  8
0
  6
Continuous
 62
     8
370
    25
100
AcDbCircle
 10
6501.5386930651
 20
5126.1795168638
 30
0.0
 40
39.10005251181523
100
AcDbArc
 50
204.1550051199
 51
330.2084282581
  0
ARC
  5
97
330
1F
100
AcDbEntity
  8
0
  6
Continuous
 62
     8
370
    25
100
AcDbCircle
 10
6501.5386930651
 20
5126.1795168638
 30
0.0
 40
39.10005251181523
100
AcDbArc
 50
330.2084282581
 51
155.8449948801
  0
LINE
  5
98
330
1F
100
AcDbEntity
  8
0
  6
Continuous
 62
     8
370
    25
100
AcDbLine
 10
6205.1366728115
 20
5142.5815371173
 30
0.0
 11
6216.4503813105
 21
5153.8952456163
 31
0.0
  0
LINE
  5
99
330
1F
100
AcDbEntity
  8
0
  6
Continuous
 62
     8
370
    25
100
AcDbLine
 10
6193.8229643125
 20
5131.2678286183
 30
0.0
 11
6205.1366728115
 21
5142.5815371173
 31
0.0
  0
LINE
  5
9A
330
1F
100
AcDbEntity
  8
0
  6
Continuous
 62
     8
370
    25
100
AcDbLine
 10
6244.734652558
 20
5126.1795168638
 30
0.0
 11
6244.734652558
 21
5142.1795168638
 31
0.0
  0
LINE
  5
9B
330
1F
100
AcDbEntity
  8
0
  6
Continuous
 62
     8
370
    25
100
AcDbLine
 10
6244.734652558
 20
5110.1795168638
 30
0.0
 11
6244.734652558
 21
5126.1795168638
 31
0.0
  0
LINE
  5
9C
330
1F
100
AcDbEntity
  8
0
  6
Continuous
 62
     8
370
    25
100
AcDbLine
 10
6451.5386930651
 20
5126.1795168638
 30
0.0
 11
6451.5386930651
 21
5142.1795168638
 31
0.0
  0
LINE
  5
9D
330
1F
100
AcDbEntity
  8
0
  6
Continuous
 62
     8
370
    25
100
AcDbLine
 10
6451.5386930651
 20
5110.1795168638
 30
0.0
 11
6451.5386930651
 21
5126.1795168638
 31
0.0
  0
LINE
  5
9E
330
1F
100
AcDbEntity
  8
0
  6
Continuous
 62
     8
370
    25
100
AcDbLine
 10
6066.8940321244
 20
5280.8241778044
 30
0.0
 11
6078.2077406234
 21
5292.1378863034
 31
0.0
  0
LINE
  5
9F
330
1F
100
AcDbEntity
  8
0
  6
Continuous
 62
     8
370
    25
100
AcDbLine
 10
6055.5803236254
 20
5269.5104693054
 30
0.0
 11
6066.8940321244
 21
5280.8241778044
 31
0.0
  0
LINE
  5
A0
330
1F
100
AcDbEntity
  8
0
  6
Continuous
 62
     7
370
    25
100
AcDbLine
 10
6752.8367682693
 20
5274.9295168638
 30
0.0
 11
6761.6654299139
 21
5274.9295168638
 31
0.0
  0
LINE
  5
A1
330
1F
100
AcDbEntity
  8
0
  6
Continuous
 62
     7
370
    25
100
AcDbLine
 10
6761.6654299139
 20
5357.4295168638
 30
0.0
 11
6752.8367682693
 21
5357.4295168638
 31
0.0
  0
ARC
  5
A2
330
1F
100
AcDbEntity
  8
0
  6
Continuous
 62
     7
370
    25
100
AcDbCircle
 10
6761.6654299139
 20
5277.4295168638
 30
0.0
 40
2.5
100
AcDbArc
 50
270.0
 51
351.9509382983
  0
ARC
  5
A3
330
1F
100
AcDbEntity
  8
0
  6
Continuous
 62
     7
370
    25
100
AcDbCircle
 10
6761.6654299139
 20
5354.9295168638
 30
0.0
 40
2.499999999999099
100
AcDbArc
 50
8.0490617017
 51
90.0
  0
LINE
  5
A4
330
1F
100
AcDbEntity
  8
0
  6
Continuous
 62
     7
370
    25
100
AcDbLine
 10
6764.1408012474
 20
5277.0794643519
 30
0.0
 11
6767.3367682693
 21
5299.6795168638
 31
0.0
  0
LINE
  5
A5
330
1F
100
AcDbEntity
  8
0
  6
Continuous
 62
     7
370
    25
100
AcDbLine
 10
6767.3367682693
 20
5332.6795168638
 30
0.0
 11
6764.1408012474
 21
5355.2795693756
 31
0.0
  0
LINE
  5
A6
330
1F
100
AcDbEntity
  8
0
  6
Continuous
 62
     7
370
    25
100
AcDbLine
 10
6752.8367682693
 20
5084.9295168638
 30
0.0
 11
6761.6654299139
 21
5084.9295168638
 31
0.0
  0
LINE
  5
A7
330
1F
100
AcDbEntity
  8
0
  6
Continuous
 62
     7
370
    25
100
AcDbLine
 10
6761.6654299139
 20
5167.4295168638
 30
0.0
 11
6752.8367682693
 21
5167.4295168638
 31
0.0
  0
ARC
  5
A8
330
1F
100
AcDbEntity
  8
0
  6
Continuous
 62
     7
370
    25
100
AcDbCircle
 10
6761.6654299139
 20
5087.4295168638
 30
0.0
 40
2.5
100
AcDbArc
 50
270.0
 51
351.9509382983
  0
ARC
  5
A9
330
1F
100
AcDbEntity
  8
0
  6
Continuous
 62
     7
370
    25
100
AcDbCircle
 10
6761.6654299139
 20
5164.9295168638
 30
0.0
 40
2.5
100
AcDbArc
 50
8.0490617017
 51
90.0
  0
LINE
  5
AA
330
1F
100
AcDbEntity
  8
0
  6
Continuous
 62
     7
370
    25
100
AcDbLine
 10
6764.1408012474
 20
5087.0794643519
 30
0.0
 11
6767.3367682693
 21
5109.6795168638
 31
0.0
  0
LINE
  5
AB
330
1F
100
AcDbEntity
  8
0
  6
Continuous
 62
     7
370
    25
100
AcDbLine
 10
6767.3367682693
 20
5142.6795168638
 30
0.0
 11
6764.1408012474
 21
5165.2795693756
 31
0.0
  0
SPLINE
  5
AC
330
1F
100
AcDbEntity
  8
0
  6
Continuous
 62
     7
370
    25
100
AcDbSpline
210
0.0
220
0.0
230
1.0
 70
     8
 71
     3
 72
    25
 73
    21
 74
     0
 42
0.00000001
 43
0.00000001
 40
0.0
 40
0.0
 40
0.0
 40
0.0
 40
0.0329124377667731
 40
0.0903751619771805
 40
0.1477136106436452
 40
0.2048855649991449
 40
0.2618590685868992
 40
0.3186176868224738
 40
0.3751675489367654
 40
0.4315468497840723
 40
0.4878387476894194
 40
0.54415618466331
 40
0.6006820305496374
 40
0.6577257556635122
 40
0.7157493733885922
 40
0.7754368858909232
 40
0.8378087603802092
 40
0.904411863135246
 40
0.9775530913618501
 40
1.0
 40
1.0
 40
1.0
 40
1.0
 10
6767.3367682693
 20
5300.073437030415
 30
0.0
 10
6767.954844623882
 20
5300.042510611218
 30
0.0
 10
6769.652037370756
 20
5299.957588911885
 30
0.0
 10
6772.382423616305
 20
5299.607405690506
 30
0.0
 10
6775.490367975714
 20
5299.048573478001
 30
0.0
 10
6778.482764669756
 20
5298.307316346499
 30
0.0
 10
6781.331599082025
 20
5297.407774603508
 30
0.0
 10
6784.009036636889
 20
5296.362921830278
 30
0.0
 10
6786.490796550508
 20
5295.192301975887
 30
0.0
 10
6788.756073287018
 20
5293.916882949229
 30
0.0
 10
6790.78800499658
 20
5292.5600654752
 30
0.0
 10
6792.574344455987
 20
5291.146771468035
 30
0.0
 10
6794.108526914756
 20
5289.702340527515
 30
0.0
 10
6795.390419880504
 20
5288.250605140772
 30
0.0
 10
6796.4264254206
 20
5286.811437368155
 30
0.0
 10
6797.2284506476
 20
5285.397412787093
 30
0.0
 10
6797.812780215851
 20
5284.008430992608
 30
0.0
 10
6798.191428916574
 20
5282.623514131086
 30
0.0
 10
6798.32553387428
 20
5281.577062059494
 30
0.0
 10
6798.334631806883
 20
5280.967354977081
 30
0.0
 10
6798.336768269301
 20
5280.824177804433
 30
0.0
  0
SPLINE
  5
AD
330
1F
100
AcDbEntity
  8
0
  6
Continuous
 62
     7
370
    25
100
AcDbSpline
210
0.0
220
0.0
230
1.0
 70
     8
 71
     3
 72
    30
 73
    26
 74
     0
 42
0.00000001
 43
0.00000001
 40
0.0
 40
0.0
 40
0.0
 40
0.0
 40
0.0290823835093338
 40
0.0722339842846374
 40
0.1153800423811289
 40
0.1586252794042338
 40
0.2020716081596126
 40
0.2458097330875582
 40
0.2899142044922374
 40
0.3344387075296857
 40
0.3794122553900023
 40
0.4248371922571726
 40
0.4706898773412955
 40
0.5169244795721272
 40
0.5634795222128335
 40
0.6102859890729698
 40
0.6572753577847563
 40
0.7043860936594649
 40
0.7515677907101835
 40
0.7987777675646748
 40
0.8459907371194452
 40
0.8931965806422483
 40
0.940393802311713
 40
0.9875874679508044
 40
1.0
 40
1.0
 40
1.0
 40
1.0
 10
6830.336768269301
 20
5280.824177804433
 30
0.0
 10
6830.322595046316
 20
5281.631886085501
 30
0.0
 10
6830.287392004378
 20
5283.63804858805
 30
0.0
 10
6829.94482652049
 20
5286.830831640764
 30
0.0
 10
6829.26775850655
 20
5290.374710844203
 30
0.0
 10
6828.279522553358
 20
5293.863319067609
 30
0.0
 10
6826.991113981298
 20
5297.283036071551
 30
0.0
 10
6825.405580579433
 20
5300.620736730719
 30
0.0
 10
6823.528403637425
 20
5303.86322815953
 30
0.0
 10
6821.365165878123
 20
5306.996995359605
 30
0.0
 10
6818.922815917414
 20
5310.008013265156
 30
0.0
 10
6816.210033966835
 20
5312.881746369564
 30
0.0
 10
6813.237770956551
 20
5315.603353088327
 30
0.0
 10
6810.019514627355
 20
5318.158079716762
 30
0.0
 10
6806.571290368466
 20
5320.531764611758
 30
0.0
 10
6802.911370259581
 20
5322.711346058185
 30
0.0
 10
6799.059773007527
 20
5324.685245188666
 30
0.0
 10
6795.037681045301
 20
5326.443635483207
 30
0.0
 10
6790.867035553578
 20
5327.978244924087
 30
0.0
 10
6786.570020072995
 20
5329.283016096985
 30
0.0
 10
6782.168532391192
 20
5330.351428040201
 30
0.0
 10
6777.684301507459
 20
5331.185686793677
 30
0.0
 10
6773.137377233034
 20
5331.761270309684
 30
0.0
 10
6769.67881507498
 20
5332.060497072689
 30
0.0
 10
6767.740423417651
 20
5332.09865392409
 30
0.0
 10
6767.3367682693
 20
5332.10659979481
 30
0.0
  0
LINE
  5
AE
330
1F
100
AcDbEntity
  8
0
  6
Continuous
 62
     7
370
    25
100
AcDbLine
 10
6830.3367682693
 20
5142.5815371173
 30
0.0
 11
6830.3367682693
 21
5280.8241778044
 31
0.0
  0
LINE
  5
AF
330
1F
100
AcDbEntity
  8
0
  6
Continuous
 62
     7
370
    25
100
AcDbLine
 10
6798.3367682693
 20
5280.8241778044
 30
0.0
 11
6798.3367682693
 21
5142.5815371173
 31
0.0
  0
LINE
  5
B0
330
1F
100
AcDbEntity
  8
0
  6
Continuous
 62
     7
370
    25
100
AcDbLine
 10
6798.3367682693
 20
5142.5815371173
 30
0.0
 11
6798.3367682693
 21
5126.1795168638
 31
0.0
  0
LINE
  5
B1
330
1F
100
AcDbEntity
  8
0
  6
Continuous
 62
     7
370
    25
100
AcDbLine
 10
6830.3367682693
 20
5126.1795168638
 30
0.0
 11
6830.3367682693
 21
5142.5815371173
 31
0.0
  0
LINE
  5
B2
330
1F
100
AcDbEntity
  8
0
  6
Continuous
 62
     7
370
    25
100
AcDbLine
 10
6767.3367682693
 20
5110.1795168638
 30
0.0
 11
6814.3367682693
 21
5110.1795168638
 31
0.0
  0
LINE
  5
B3
330
1F
100
AcDbEntity
  8
0
  6
Continuous
 62
     7
370
    25
100
AcDbLine
 10
6798.3367682693
 20
5142.1795168638
 30
0.0
 11
6767.3367682693
 21
5142.1795168638
 31
0.0
  0
LINE
  5
B4
330
1F
100
AcDbEntity
  8
0
  6
Continuous
 62
     7
370
    25
100
AcDbLine
 10
6752.8367682693
 20
5274.9296007893
 30
0.0
 11
6752.8367682693
 21
5357.4295168638
 31
0.0
  0
LINE
  5
B5
330
1F
100
AcDbEntity
  8
0
  6
Continuous
 62
     7
370
    25
100
AcDbLine
 10
6767.3367682693
 20
5299.679550434
 30
0.0
 11
6767.3367682693
 21
5332.6795168638
 31
0.0
  0
LINE
  5
B6
330
1F
100
AcDbEntity
  8
0
  6
Continuous
 62
     7
370
    25
100
AcDbLine
 10
6752.8367682693
 20
5084.9295168638
 30
0.0
 11
6752.8367682693
 21
5167.4295168638
 31
0.0
  0
LINE
  5
B7
330
1F
100
AcDbEntity
  8
0
  6
Continuous
 62
     7
370
    25
100
AcDbLine
 10
6767.3367682693
 20
5109.6795168638
 30
0.0
 11
6767.3367682693
 21
5142.6795168638
 31
0.0
  0
ARC
  5
B8
330
1F
100
AcDbEntity
  8
0
  6
Continuous
 62
     7
370
    25
100
AcDbCircle
 10
6814.3367682693
 20
5126.1795168638
 30
0.0
 40
16.0
100
AcDbArc
 50
180.0
 51
0.0
  0
LINE
  5
B9
330
1F
100
AcDbEntity
  8
0
  6
Continuous
 62
     8
370
    25
100
AcDbLine
 10
6761.6654299139
 20
5274.9296007893
 30
0.0
 11
6761.6654299139
 21
5357.4295168638
 31
0.0
  0
LINE
  5
BA
330
1F
100
AcDbEntity
  8
0
  6
Continuous
 62
     8
370
    25
100
AcDbLine
 10
6764.1408012474
 20
5277.0795439033
 30
0.0
 11
6764.1408012474
 21
5355.2795693756
 31
0.0
  0
LINE
  5
BB
330
1F
100
AcDbEntity
  8
0
  6
Continuous
 62
     8
370
    25
100
AcDbLine
 10
6761.6654299139
 20
5084.9295168638
 30
0.0
 11
6761.6654299139
 21
5167.4295168638
 31
0.0
  0
LINE
  5
BC
330
1F
100
AcDbEntity
  8
0
  6
Continuous
 62
     8
370
    25
100
AcDbLine
 10
6764.1408012474
 20
5087.0794643519
 30
0.0
 11
6764.1408012474
 21
5165.2795693756
 31
0.0
  0
LWPOLYLINE
  5
BD
330
1F
100
AcDbEntity
  8
0
  6
Continuous
 62
     8
370
    25
100
AcDbPolyline
 90
       22
 70
   128
 43
0.0
 10
6798.33676844
 20
5280.82252519
 10
6798.5154750497
 20
5279.1379570509
 10
6799.0476033767
 20
5277.4894036826
 10
6799.9212663829
 20
5275.9153436576
 10
6801.1169478802
 20
5274.4509388759
 10
6802.60793832
 20
5273.1289017203
 10
6804.3609314396
 20
5271.9787643165
 10
6806.3367682693
 20
5271.0262188333
 10
6808.4913118794
 20
5270.2925435629
 10
6810.776433326
 20
5269.7941275985
 10
6813.1410867719
 20
5269.542104729
 10
6815.5324497667
 20
5269.542104729
 10
6817.8971032126
 20
5269.7941275985
 10
6820.1822246592
 20
5270.2925435629
 10
6822.3367682693
 20
5271.0262188333
 10
6824.312605099
 20
5271.9787643165
 10
6826.0655982186
 20
5273.1289017203
 10
6827.5565886584
 20
5274.4509388759
 10
6828.7522701557
 20
5275.9153436576
 10
6829.6259331619
 20
5277.4894036826
 10
6830.1580614889
 20
5279.1379570509
 10
6830.3367682693
 20
5280.8241778044
  0
LWPOLYLINE
  5
BE
330
1F
100
AcDbEntity
  8
0
  6
Continuous
 62
     8
370
    25
100
AcDbPolyline
 90
       22
 70
   128
 43
0.0
 10
6798.3367682693
 20
5142.5815371173
 10
6798.5154750497
 20
5140.8953163638
 10
6799.0476033767
 20
5139.2467629955
 10
6799.9212663829
 20
5137.6727029705
 10
6801.1169478802
 20
5136.2082981888
 10
6802.60793832
 20
5134.8862610332
 10
6804.3609314396
 20
5133.7361236293
 10
6806.3367682693
 20
5132.7835781462
 10
6808.4913118794
 20
5132.0499028758
 10
6810.776433326
 20
5131.5514869114
 10
6813.1410867719
 20
5131.2994640419
 10
6815.5324497667
 20
5131.2994640419
 10
6817.8971032126
 20
5131.5514869114
 10
6820.1822246592
 20
5132.0499028758
 10
6822.3367682693
 20
5132.7835781462
 10
6824.312605099
 20
5133.7361236293
 10
6826.0655982186
 20
5134.8862610332
 10
6827.5565886584
 20
5136.2082981888
 10
6828.7522701557
 20
5137.6727029705
 10
6829.6259331619
 20
5139.2467629955
 10
6830.1580614889
 20
5140.8953163638
 10
6830.3367682693
 20
5142.5815371173
  0
LINE
  5
BF
330
1F
100
AcDbEntity
  8
0
  6
Continuous
 62
     7
370
    25
100
AcDbLine
 10
5990.2886930651
 20
4871.8207746365
 30
0.0
 11
5990.2886930651
 21
4862.992112992
 31
0.0
  0
LINE
  5
C0
330
1F
100
AcDbEntity
  8
0
  6
Continuous
 62
     7
370
    25
100
AcDbLine
 10
6072.7886930651
 20
4862.992112992
 30
0.0
 11
6072.7886930651
 21
4871.8207746365
 31
0.0
  0
ARC
  5
C1
330
1F
100
AcDbEntity
  8
0
  6
Continuous
 62
     7
370
    25
100
AcDbCircle
 10
5992.7886930651
 20
4862.992112992
 30
0.0
 40
2.5
100
AcDbArc
 50
180.0
 51
261.9509382983
  0
ARC
  5
C2
330
1F
100
AcDbEntity
  8
0
  6
Continuous
 62
     7
370
    25
100
AcDbCircle
 10
6070.2886930651
 20
4862.992112992
 30
0.0
 40
2.5
100
AcDbArc
 50
278.0490617017
 51
0.0
  0
LINE
  5
C3
330
1F
100
AcDbEntity
  8
0
  6
Continuous
 62
     7
370
    25
100
AcDbLine
 10
5992.4386405532
 20
4860.5167416584
 30
0.0
 11
6015.0386930651
 21
4857.3207746365
 31
0.0
  0
LINE
  5
C4
330
1F
100
AcDbEntity
  8
0
  6
Continuous
 62
     7
370
    25
100
AcDbLine
 10
6048.0386930651
 20
4857.3207746365
 30
0.0
 11
6070.6387455769
 21
4860.5167416584
 31
0.0
  0
LINE
  5
C5
330
1F
100
AcDbEntity
  8
0
  6
Continuous
 62
     7
370
    25
100
AcDbLine
 10
6460.2886930651
 20
4871.8207746365
 30
0.0
 11
6460.2886930651
 21
4862.992112992
 31
0.0
  0
LINE
  5
C6
330
1F
100
AcDbEntity
  8
0
  6
Continuous
 62
     7
370
    25
100
AcDbLine
 10
6542.7886930651
 20
4862.992112992
 30
0.0
 11
6542.7886930651
 21
4871.8207746365
 31
0.0
  0
ARC
  5
C7
330
1F
100
AcDbEntity
  8
0
  6
Continuous
 62
     7
370
    25
100
AcDbCircle
 10
6462.7886930651
 20
4862.992112992
 30
0.0
 40
2.499999999999099
100
AcDbArc
 50
180.0
 51
261.9509382983
  0
ARC
  5
C8
330
1F
100
AcDbEntity
  8
0
  6
Continuous
 62
     7
370
    25
100
AcDbCircle
 10
6540.2886930651
 20
4862.992112992
 30
0.0
 40
2.5
100
AcDbArc
 50
278.0490617017
 51
0.0
  0
LINE
  5
C9
330
1F
100
AcDbEntity
  8
0
  6
Continuous
 62
     7
370
    25
100
AcDbLine
 10
6462.4386405532
 20
4860.5167416584
 30
0.0
 11
6485.0386930651
 21
4857.3207746365
 31
0.0
  0
LINE
  5
CA
330
1F
100
AcDbEntity
  8
0
  6
Continuous
 62
     7
370
    25
100
AcDbLine
 10
6518.0386930651
 20
4857.3207746365
 30
0.0
 11
6540.6387455769
 21
4860.5167416584
 31
0.0
  0
SPLINE
  5
CB
330
1F
100
AcDbEntity
  8
0
  6
Continuous
 62
     7
370
    25
100
AcDbSpline
210
0.0
220
0.0
230
1.0
 70
     8
 71
     3
 72
    29
 73
    25
 74
     0
 42
0.00000001
 43
0.00000001
 40
0.0
 40
0.0
 40
0.0
 40
0.0
 40
0.0427266255865159
 40
0.0899936741624485
 40
0.1373091679888304
 40
0.184684789658145
 40
0.2321284360570001
 40
0.2796421519482721
 40
0.327219760802379
 40
0.3748434454151777
 40
0.4224705184057643
 40
0.4700502563954788
 40
0.517516444032596
 40
0.5647900559668122
 40
0.6117851114260059
 40
0.6584173890255216
 40
0.7046146070730253
 40
0.7503258844288209
 40
0.7955283594341159
 40
0.8402297992678783
 40
0.8844673335705961
 40
0.9283034050736201
 40
0.9718203125857577
 40
1.0
 40
1.0
 40
1.0
 40
1.0
 10
6015.601189627915
 20
4857.320774636549
 30
0.0
 10
6015.664315369625
 20
4855.932914977575
 30
0.0
 10
6015.797275025406
 20
4853.0097122154
 30
0.0
 10
6016.301462892437
 20
4848.585492526735
 30
0.0
 10
6017.043797398595
 20
4844.065316041472
 30
0.0
 10
6018.034275215659
 20
4839.6164276857
 30
0.0
 10
6019.263307777238
 20
4835.25874580848
 30
0.0
 10
6020.730146062295
 20
4831.012992705481
 30
0.0
 10
6022.43061344905
 20
4826.900051113414
 30
0.0
 10
6024.359955019861
 20
4822.941562157485
 30
0.0
 10
6026.511654926342
 20
4819.159611853032
 30
0.0
 10
6028.877282139701
 20
4815.576562321603
 30
0.0
 10
6031.446273166997
 20
4812.214452772953
 30
0.0
 10
6034.205596582252
 20
4809.094677951093
 30
0.0
 10
6037.139693455637
 20
4806.237282786852
 30
0.0
 10
6040.230687975078
 20
4803.660192574208
 30
0.0
 10
6043.45886416358
 20
4801.378508337863
 30
0.0
 10
6046.803331444877
 20
4799.404111998606
 30
0.0
 10
6050.242749264065
 20
4797.745336673602
 30
0.0
 10
6053.75595739574
 20
4796.40792502001
 30
0.0
 10
6057.322489728715
 20
4795.392671138868
 30
0.0
 10
6060.922714219868
 20
4794.706222106774
 30
0.0
 10
6064.120196748481
 20
4794.368066278876
 30
0.0
 10
6066.111405739025
 20
4794.334117781355
 30
0.0
 10
6066.894032124386
 20
4794.320774636549
 30
0.0
  0
SPLINE
  5
CC
330
1F
100
AcDbEntity
  8
0
  6
Continuous
 62
     7
370
    25
100
AcDbSpline
210
0.0
220
0.0
230
1.0
 70
     8
 71
     3
 72
    25
 73
    21
 74
     0
 42
0.00000001
 43
0.00000001
 40
0.0
 40
0.0
 40
0.0
 40
0.0
 40
0.0277975134404506
 40
0.1036723043801426
 40
0.1709135107807536
 40
0.2327609329346738
 40
0.2911710556711427
 40
0.3530605313133148
 40
0.4125084249258932
 40
0.4705062074794953
 40
0.5277297791498776
 40
0.5845932662543958
 40
0.6413503028312667
 40
0.6981216106823689
 40
0.7549930755282906
 40
0.8120130823417345
 40
0.8691933847029248
 40
0.9265207236859502
 40
0.9839649853804843
 40
1.0
 40
1.0
 40
1.0
 40
1.0
 10
6066.894032124385
 20
4826.320774636548
 30
0.0
 10
6066.716725382609
 20
4826.324016235817
 30
0.0
 10
6066.055450461692
 20
4826.336105952645
 30
0.0
 10
6064.94853098927
 20
4826.494355791757
 30
0.0
 10
6063.53154638288
 20
4826.907667786064
 30
0.0
 10
6062.137941675505
 20
4827.521596606678
 30
0.0
 10
6060.697646997623
 20
4828.365937335149
 30
0.0
 10
6059.208543219842
 20
4829.473131446108
 30
0.0
 10
6057.68646306018
 20
4830.871809642301
 30
0.0
 10
6056.204355681181
 20
4832.516012494611
 30
0.0
 10
6054.778399519153
 20
4834.402641710836
 30
0.0
 10
6053.427562921313
 20
4836.524520134263
 30
0.0
 10
6052.172354689566
 20
4838.869046320496
 30
0.0
 10
6051.033028366369
 20
4841.418949154863
 30
0.0
 10
6050.027936393617
 20
4844.152985115583
 30
0.0
 10
6049.174798192471
 20
4847.047334466264
 30
0.0
 10
6048.483114788802
 20
4850.0746906637
 30
0.0
 10
6047.981781525826
 20
4853.208124925857
 30
0.0
 10
6047.70288110749
 20
4855.637773377251
 30
0.0
 10
6047.650562391799
 20
4857.019292610427
 30
0.0
 10
6047.639145140391
 20
4857.320774636549
 30
0.0
  0
LINE
  5
CD
330
1F
100
AcDbEntity
  8
0
  6
Continuous
 62
     7
370
    25
100
AcDbLine
 10
6205.1366728115
 20
4826.3207746365
 30
0.0
 11
6066.8940321244
 21
4826.3207746365
 31
0.0
  0
LINE
  5
CE
330
1F
100
AcDbEntity
  8
0
  6
Continuous
 62
     7
370
    25
100
AcDbLine
 10
6066.8940321244
 20
4794.3207746365
 30
0.0
 11
6205.1366728115
 21
4794.3207746365
 31
0.0
  0
LINE
  5
CF
330
1F
100
AcDbEntity
  8
0
  6
Continuous
 62
     7
370
    25
100
AcDbLine
 10
6244.734652558
 20
4826.3207746365
 30
0.0
 11
6205.1366728115
 21
4826.3207746365
 31
0.0
  0
LINE
  5
D0
330
1F
100
AcDbEntity
  8
0
  6
Continuous
 62
     7
370
    25
100
AcDbLine
 10
6205.1366728115
 20
4794.3207746365
 30
0.0
 11
6244.734652558
 21
4794.3207746365
 31
0.0
  0
ARC
  5
D1
330
1F
100
AcDbEntity
  8
0
  6
Continuous
 62
     7
370
    25
100
AcDbCircle
 10
6451.5386930651
 20
4860.3207746365
 30
0.0
 40
34.0
100
AcDbArc
 50
270.0
 51
354.9379070357
  0
ARC
  5
D2
330
1F
100
AcDbEntity
  8
0
  6
Continuous
 62
     7
370
    25
100
AcDbCircle
 10
6451.5386930651
 20
4860.3207746365
 30
0.0
 40
66.0
100
AcDbArc
 50
270.0
 51
357.3947487349
  0
LINE
  5
D3
330
1F
100
AcDbEntity
  8
0
  6
Continuous
 62
     7
370
    25
100
AcDbLine
 10
6451.5386930651
 20
4826.3207746365
 30
0.0
 11
6244.734652558
 21
4826.3207746365
 31
0.0
  0
LINE
  5
D4
330
1F
100
AcDbEntity
  8
0
  6
Continuous
 62
     7
370
    25
100
AcDbLine
 10
6244.734652558
 20
4794.3207746365
 30
0.0
 11
6451.5386930651
 21
4794.3207746365
 31
0.0
  0
LINE
  5
D5
330
1F
100
AcDbEntity
  8
0
  6
Continuous
 62
     7
370
    25
100
AcDbLine
 10
5990.2886930651
 20
4871.8207746365
 30
0.0
 11
6072.7886930651
 21
4871.8207746365
 31
0.0
  0
LINE
  5
D6
330
1F
100
AcDbEntity
  8
0
  6
Continuous
 62
     7
370
    25
100
AcDbLine
 10
6015.0386930651
 20
4857.3207746365
 30
0.0
 11
6048.0386930651
 21
4857.3207746365
 31
0.0
  0
LINE
  5
D7
330
1F
100
AcDbEntity
  8
0
  6
Continuous
 62
     7
370
    25
100
AcDbLine
 10
6460.2886930651
 20
4871.8207746365
 30
0.0
 11
6542.7886930651
 21
4871.8207746365
 31
0.0
  0
LINE
  5
D8
330
1F
100
AcDbEntity
  8
0
  6
Continuous
 62
     7
370
    25
100
AcDbLine
 10
6485.0386930651
 20
4857.3207746365
 30
0.0
 11
6518.0386930651
 21
4857.3207746365
 31
0.0
  0
LINE
  5
D9
330
1F
100
AcDbEntity
  8
0
  6
Continuous
 62
     8
370
    25
100
AcDbLine
 10
5990.2886930651
 20
4862.992112992
 30
0.0
 11
6072.7886930651
 21
4862.992112992
 31
0.0
  0
LINE
  5
DA
330
1F
100
AcDbEntity
  8
0
  6
Continuous
 62
     8
370
    25
100
AcDbLine
 10
5992.4386405532
 20
4860.5167416584
 30
0.0
 11
6070.6387455769
 21
4860.5167416584
 31
0.0
  0
LINE
  5
DB
330
1F
100
AcDbEntity
  8
0
  6
Continuous
 62
     8
370
    25
100
AcDbLine
 10
6460.2886930651
 20
4862.992112992
 30
0.0
 11
6542.7886930651
 21
4862.992112992
 31
0.0
  0
LINE
  5
DC
330
1F
100
AcDbEntity
  8
0
  6
Continuous
 62
     8
370
    25
100
AcDbLine
 10
6462.4386405532
 20
4860.5167416584
 30
0.0
 11
6540.6387455769
 21
4860.5167416584
 31
0.0
  0
LWPOLYLINE
  5
DD
330
1F
100
AcDbEntity
  8
0
  6
Continuous
 62
     8
370
    25
100
AcDbPolyline
 90
       22
 70
   128
 43
0.0
 10
6066.8940321244
 20
4794.3207746365
 10
6068.5802528779
 20
4794.4994814169
 10
6070.2288062462
 20
4795.031609744
 10
6071.8028662712
 20
4795.9052727501
 10
6073.2672710529
 20
4797.1009542475
 10
6074.5893082085
 20
4798.5919446873
 10
6075.7394456124
 20
4800.3449378068
 10
6076.6919910955
 20
4802.3207746365
 10
6077.4256663659
 20
4804.4753182467
 10
6077.9240823303
 20
4806.7604396932
 10
6078.1761051998
 20
4809.1250931392
 10
6078.1761051998
 20
4811.5164561339
 10
6077.9240823303
 20
4813.8811095798
 10
6077.4256663659
 20
4816.1662310264
 10
6076.6919910955
 20
4818.3207746365
 10
6075.7394456124
 20
4820.2966114663
 10
6074.5893082085
 20
4822.0496045858
 10
6073.2672710529
 20
4823.5405950256
 10
6071.8028662712
 20
4824.736276523
 10
6070.2288062462
 20
4825.6099395291
 10
6068.5802528779
 20
4826.1420678561
 10
6066.9432784215
 20
4826.320623061
  0
LWPOLYLINE
  5
DE
330
1F
100
AcDbEntity
  8
0
  6
Continuous
 62
     8
370
    25
100
AcDbPolyline
 90
       22
 70
   128
 43
0.0
 10
6205.1366728115
 20
4794.3207746365
 10
6206.822893565
 20
4794.4994814169
 10
6208.4714469334
 20
4795.031609744
 10
6210.0455069583
 20
4795.9052727501
 10
6211.5099117401
 20
4797.1009542475
 10
6212.8319488956
 20
4798.5919446873
 10
6213.9820862995
 20
4800.3449378068
 10
6214.9346317826
 20
4802.3207746365
 10
6215.668307053
 20
4804.4753182467
 10
6216.1667230175
 20
4806.7604396932
 10
6216.4187458869
 20
4809.1250931392
 10
6216.4187458869
 20
4811.5164561339
 10
6216.1667230175
 20
4813.8811095798
 10
6215.668307053
 20
4816.1662310264
 10
6214.9346317826
 20
4818.3207746365
 10
6213.9820862995
 20
4820.2966114663
 10
6212.8319488956
 20
4822.0496045858
 10
6211.5099117401
 20
4823.5405950256
 10
6210.0455069583
 20
4824.736276523
 10
6208.4714469334
 20
4825.6099395291
 10
6206.822893565
 20
4826.1420678561
 10
6205.1366728115
 20
4826.3207746365
  0
LINE
  5
DF
330
1F
100
AcDbEntity
  8
0
  6
Continuous
 62
     8
370
    25
100
AcDbLine
 10
6244.734652558
 20
4794.3207746365
 30
0.0
 11
6244.734652558
 21
4826.3207746365
 31
0.0
  0
LINE
  5
E0
330
1F
100
AcDbEntity
  8
0
  6
Continuous
 62
     8
370
    25
100
AcDbLine
 10
6451.5386930651
 20
4794.3207746365
 30
0.0
 11
6451.5386930651
 21
4826.3207746365
 31
0.0
  0
ENDSEC
  0
SECTION
  2
OBJECTS
  0
DICTIONARY
  5
C
330
0
100
AcDbDictionary
281
     1
  3
ACAD_GROUP
350
D
  3
ACAD_LAYOUT
350
1A
  3
ACAD_MLINESTYLE
350
17
  3
ACAD_PLOTSETTINGS
350
19
  3
ACAD_PLOTSTYLENAME
350
E
  3
ACAD_SCALELIST
350
47
  3
DWGPROPS
350
E1
  0
DICTIONARY
  5
D
102
{ACAD_REACTORS
330
C
102
}
330
C
100
AcDbDictionary
281
     1
  0
DICTIONARY
  5
1A
102
{ACAD_REACTORS
330
C
102
}
330
C
100
AcDbDictionary
281
     1
  3
Layout1
350
1E
  3
Layout2
350
26
  3
Model
350
22
  0
DICTIONARY
  5
17
102
{ACAD_REACTORS
330
C
102
}
330
C
100
AcDbDictionary
281
     1
  3
Standard
350
18
  0
DICTIONARY
  5
19
102
{ACAD_REACTORS
330
C
102
}
330
C
100
AcDbDictionary
281
     1
  0
ACDBDICTIONARYWDFLT
  5
E
102
{ACAD_REACTORS
330
C
102
}
330
C
100
AcDbDictionary
281
     1
  3
Normal
350
F
100
AcDbDictionaryWithDefault
340
F
  0
DICTIONARY
  5
47
102
{ACAD_REACTORS
330
C
102
}
330
C
100
AcDbDictionary
281
     1
  3
A0
350
48
  3
A1
350
49
  3
A2
350
4A
  3
A3
350
4B
  3
A4
350
4C
  3
A5
350
4D
  3
A6
350
4E
  3
A7
350
4F
  3
A8
350
50
  3
A9
350
51
  3
B0
350
52
  3
B1
350
53
  3
B2
350
54
  3
B3
350
55
  3
B4
350
56
  3
B5
350
57
  3
B6
350
58
  3
B7
350
59
  3
B8
350
5A
  3
B9
350
5B
  3
C0
350
5C
  3
C1
350
5D
  3
C2
350
5E
  3
C3
350
5F
  3
C4
350
60
  3
C5
350
61
  3
C6
350
62
  3
C7
350
63
  3
C8
350
64
  3
C9
350
65
  3
D0
350
66
  3
D1
350
67
  3
D2
350
68
  0
XRECORD
  5
E1
102
{ACAD_REACTORS
330
C
102
}
330
C
100
AcDbXrecord
280
     1
  1
DWGPROPS COOKIE
  2

  3

  4

  6

  7

  8
radek.stransky
  9

300
=
301
=
302
=
303
=
304
=
305
=
306
=
307
=
308
=
309
=
 40
0.0
 41
2460318.364187859
 42
2460318.364188415
  1

 90
        0
  0
LAYOUT
  5
1E
102
{ACAD_REACTORS
330
1A
102
}
330
1A
100
AcDbPlotSettings
  1

  2
none_device
  4

  6

 40
0.0
 41
0.0
 42
0.0
 43
0.0
 44
0.0
 45
0.0
 46
0.0
 47
0.0
 48
0.0
 49
0.0
140
0.0
141
0.0
142
1.0
143
1.0
 70
   688
 72
     1
 73
     0
 74
     5
  7

 75
    16
147
1.0
148
0.0
149
0.0
100
AcDbLayout
  1
Layout1
 70
     1
 71
     1
 10
0.0
 20
0.0
 11
420.0
 21
297.0
 12
0.0
 22
0.0
 32
0.0
 14
1.0000000000E+20
 24
1.0000000000E+20
 34
1.0000000000E+20
 15
-1.0000000000E+20
 25
-1.0000000000E+20
 35
-1.0000000000E+20
146
0.0
 13
0.0
 23
0.0
 33
0.0
 16
1.0
 26
0.0
 36
0.0
 17
0.0
 27
1.0
 37
0.0
 76
     0
330
1B
  0
LAYOUT
  5
26
102
{ACAD_REACTORS
330
1A
102
}
330
1A
100
AcDbPlotSettings
  1

  2
none_device
  4

  6

 40
0.0
 41
0.0
 42
0.0
 43
0.0
 44
0.0
 45
0.0
 46
0.0
 47
0.0
 48
0.0
 49
0.0
140
0.0
141
0.0
142
1.0
143
1.0
 70
   688
 72
     1
 73
     0
 74
     5
  7

 75
    16
147
1.0
148
0.0
149
0.0
100
AcDbLayout
  1
Layout2
 70
     1
 71
     2
 10
0.0
 20
0.0
 11
0.0
 21
0.0
 12
0.0
 22
0.0
 32
0.0
 14
0.0
 24
0.0
 34
0.0
 15
0.0
 25
0.0
 35
0.0
146
0.0
 13
0.0
 23
0.0
 33
0.0
 16
1.0
 26
0.0
 36
0.0
 17
0.0
 27
1.0
 37
0.0
 76
     0
330
23
  0
LAYOUT
  5
22
102
{ACAD_REACTORS
330
1A
102
}
330
1A
100
AcDbPlotSettings
  1

  2
none_device
  4
Letter_(8.50_x_11.00_Inches)
  6

 40
6.35
 41
6.35
 42
6.35000508
 43
6.35000508
 44
215.9
 45
279.4
 46
0.0
 47
0.0
 48
0.0
 49
0.0
140
0.0
141
0.0
142
1.0
143
1.0
 70
  1712
 72
     1
 73
     0
 74
     0
  7

 75
     0
147
1.0
148
0.0
149
0.0
100
AcDbLayout
  1
Model
 70
     1
 71
     0
 10
0.0
 20
0.0
 11
20000.0
 21
10000.0
 12
0.0
 22
0.0
 32
0.0
 14
0.0
 24
0.0
 34
0.0
 15
20000.0
 25
10000.0
 35
0.0
146
0.0
 13
0.0
 23
0.0
 33
0.0
 16
1.0
 26
0.0
 36
0.0
 17
0.0
 27
1.0
 37
0.0
 76
     0
330
1F
331
29
  0
MLINESTYLE
  5
18
102
{ACAD_REACTORS
330
17
102
}
330
17
100
AcDbMlineStyle
  2
Standard
 70
     0
  3

 62
   256
 51
90.0
 52
90.0
 71
     2
 49
0.5
 62
   256
  6
BYLAYER
 49
-0.5
 62
   256
  6
BYLAYER
  0
ACDBPLACEHOLDER
  5
F
102
{ACAD_REACTORS
330
E
102
}
330
E
  0
SCALE
  5
48
102
{ACAD_REACTORS
330
47
102
}
330
47
100
AcDbScale
 70
     0
300
1:1
140
1.0
141
1.0
290
     1
  0
SCALE
  5
49
102
{ACAD_REACTORS
330
47
102
}
330
47
100
AcDbScale
 70
     0
300
1:2
140
1.0
141
2.0
290
     0
  0
SCALE
  5
4A
102
{ACAD_REACTORS
330
47
102
}
330
47
100
AcDbScale
 70
     0
300
1:4
140
1.0
141
4.0
290
     0
  0
SCALE
  5
4B
102
{ACAD_REACTORS
330
47
102
}
330
47
100
AcDbScale
 70
     0
300
1:5
140
1.0
141
5.0
290
     0
  0
SCALE
  5
4C
102
{ACAD_REACTORS
330
47
102
}
330
47
100
AcDbScale
 70
     0
300
1:8
140
1.0
141
8.0
290
     0
  0
SCALE
  5
4D
102
{ACAD_REACTORS
330
47
102
}
330
47
100
AcDbScale
 70
     0
300
1:10
140
1.0
141
10.0
290
     0
  0
SCALE
  5
4E
102
{ACAD_REACTORS
330
47
102
}
330
47
100
AcDbScale
 70
     0
300
1:16
140
1.0
141
16.0
290
     0
  0
SCALE
  5
4F
102
{ACAD_REACTORS
330
47
102
}
330
47
100
AcDbScale
 70
     0
300
1:20
140
1.0
141
20.0
290
     0
  0
SCALE
  5
50
102
{ACAD_REACTORS
330
47
102
}
330
47
100
AcDbScale
 70
     0
300
1:30
140
1.0
141
30.0
290
     0
  0
SCALE
  5
51
102
{ACAD_REACTORS
330
47
102
}
330
47
100
AcDbScale
 70
     0
300
1:40
140
1.0
141
40.0
290
     0
  0
SCALE
  5
52
102
{ACAD_REACTORS
330
47
102
}
330
47
100
AcDbScale
 70
     0
300
1:50
140
1.0
141
50.0
290
     0
  0
SCALE
  5
53
102
{ACAD_REACTORS
330
47
102
}
330
47
100
AcDbScale
 70
     0
300
1:100
140
1.0
141
100.0
290
     0
  0
SCALE
  5
54
102
{ACAD_REACTORS
330
47
102
}
330
47
100
AcDbScale
 70
     0
300
2:1
140
2.0
141
1.0
290
     0
  0
SCALE
  5
55
102
{ACAD_REACTORS
330
47
102
}
330
47
100
AcDbScale
 70
     0
300
4:1
140
4.0
141
1.0
290
     0
  0
SCALE
  5
56
102
{ACAD_REACTORS
330
47
102
}
330
47
100
AcDbScale
 70
     0
300
8:1
140
8.0
141
1.0
290
     0
  0
SCALE
  5
57
102
{ACAD_REACTORS
330
47
102
}
330
47
100
AcDbScale
 70
     0
300
10:1
140
10.0
141
1.0
290
     0
  0
SCALE
  5
58
102
{ACAD_REACTORS
330
47
102
}
330
47
100
AcDbScale
 70
     0
300
100:1
140
100.0
141
1.0
290
     0
  0
SCALE
  5
59
102
{ACAD_REACTORS
330
47
102
}
330
47
100
AcDbScale
 70
     0
300
1/128" = 1'-0"
140
0.0078125
141
12.0
290
     0
  0
SCALE
  5
5A
102
{ACAD_REACTORS
330
47
102
}
330
47
100
AcDbScale
 70
     0
300
1/64" = 1'-0"
140
0.015625
141
12.0
290
     0
  0
SCALE
  5
5B
102
{ACAD_REACTORS
330
47
102
}
330
47
100
AcDbScale
 70
     0
300
1/32" = 1'-0"
140
0.03125
141
12.0
290
     0
  0
SCALE
  5
5C
102
{ACAD_REACTORS
330
47
102
}
330
47
100
AcDbScale
 70
     0
300
1/16" = 1'-0"
140
0.0625
141
12.0
290
     0
  0
SCALE
  5
5D
102
{ACAD_REACTORS
330
47
102
}
330
47
100
AcDbScale
 70
     0
300
3/32" = 1'-0"
140
0.09375
141
12.0
290
     0
  0
SCALE
  5
5E
102
{ACAD_REACTORS
330
47
102
}
330
47
100
AcDbScale
 70
     0
300
1/8" = 1'-0"
140
0.125
141
12.0
290
     0
  0
SCALE
  5
5F
102
{ACAD_REACTORS
330
47
102
}
330
47
100
AcDbScale
 70
     0
300
3/16" = 1'-0"
140
0.1875
141
12.0
290
     0
  0
SCALE
  5
60
102
{ACAD_REACTORS
330
47
102
}
330
47
100
AcDbScale
 70
     0
300
1/4" = 1'-0"
140
0.25
141
12.0
290
     0
  0
SCALE
  5
61
102
{ACAD_REACTORS
330
47
102
}
330
47
100
AcDbScale
 70
     0
300
3/8" = 1'-0"
140
0.375
141
12.0
290
     0
  0
SCALE
  5
62
102
{ACAD_REACTORS
330
47
102
}
330
47
100
AcDbScale
 70
     0
300
1/2" = 1'-0"
140
0.5
141
12.0
290
     0
  0
SCALE
  5
63
102
{ACAD_REACTORS
330
47
102
}
330
47
100
AcDbScale
 70
     0
300
3/4" = 1'-0"
140
0.75
141
12.0
290
     0
  0
SCALE
  5
64
102
{ACAD_REACTORS
330
47
102
}
330
47
100
AcDbScale
 70
     0
300
1" = 1'-0"
140
1.0
141
12.0
290
     0
  0
SCALE
  5
65
102
{ACAD_REACTORS
330
47
102
}
330
47
100
AcDbScale
 70
     0
300
1-1/2" = 1'-0"
140
1.5
141
12.0
290
     0
  0
SCALE
  5
66
102
{ACAD_REACTORS
330
47
102
}
330
47
100
AcDbScale
 70
     0
300
3" = 1'-0"
140
3.0
141
12.0
290
     0
  0
SCALE
  5
67
102
{ACAD_REACTORS
330
47
102
}
330
47
100
AcDbScale
 70
     0
300
6" = 1'-0"
140
6.0
141
12.0
290
     0
  0
SCALE
  5
68
102
{ACAD_REACTORS
330
47
102
}
330
47
100
AcDbScale
 70
     0
300
1'-0" = 1'-0"
140
12.0
141
12.0
290
     0
  0
ENDSEC
  0
EOF
