  0
SECTION
  2
HEADER
  9
$ACADVER
  1
AC1015
  9
$ACADMAINTVER
 70
     6
  9
$DWGCODEPAGE
  3
ANSI_1250
  9
$INSBASE
 10
0.0
 20
0.0
 30
0.0
  9
$EXTMIN
 10
0.0
 20
0.0
 30
0.0
  9
$EXTMAX
 10
20000.0
 20
10000.0
 30
0.0
  9
$LIMMIN
 10
0.0
 20
0.0
  9
$LIMMAX
 10
20000.0
 20
10000.0
  9
$ORTHOMODE
 70
     0
  9
$REGENMODE
 70
     1
  9
$FILLMODE
 70
     1
  9
$QTEXTMODE
 70
     0
  9
$MIRRTEXT
 70
     1
  9
$LTSCALE
 40
1.0
  9
$ATTMODE
 70
     1
  9
$TEXTSIZE
 40
2.0
  9
$TRACEWID
 40
1.0
  9
$TEXTSTYLE
  7
Standard
  9
$CLAYER
  8
0
  9
$CELTYPE
  6
ByLayer
  9
$CECOLOR
 62
   256
  9
$CELTSCALE
 40
1.0
  9
$DISPSILH
 70
     0
  9
$DIMSCALE
 40
1.0
  9
$DIMASZ
 40
2.0
  9
$DIMEXO
 40
1.0
  9
$DIMDLI
 40
3.75
  9
$DIMRND
 40
0.0
  9
$DIMDLE
 40
0.0
  9
$DIMEXE
 40
1.0
  9
$DIMTP
 40
0.0
  9
$DIMTM
 40
0.0
  9
$DIMTXT
 40
2.0
  9
$DIMCEN
 40
2.5
  9
$DIMTSZ
 40
0.0
  9
$DIMTOL
 70
     0
  9
$DIMLIM
 70
     0
  9
$DIMTIH
 70
     1
  9
$DIMTOH
 70
     1
  9
$DIMSE1
 70
     0
  9
$DIMSE2
 70
     0
  9
$DIMTAD
 70
     1
  9
$DIMZIN
 70
     0
  9
$DIMBLK
  1

  9
$DIMASO
 70
     1
  9
$DIMSHO
 70
     1
  9
$DIMPOST
  1

  9
$DIMAPOST
  1

  9
$DIMALT
 70
     0
  9
$DIMALTD
 70
     3
  9
$DIMALTF
 40
0.0393700787
  9
$DIMLFAC
 40
1.0
  9
$DIMTOFL
 70
     1
  9
$DIMTVP
 40
0.0
  9
$DIMTIX
 70
     0
  9
$DIMSOXD
 70
     0
  9
$DIMSAH
 70
     0
  9
$DIMBLK1
  1

  9
$DIMBLK2
  1

  9
$DIMSTYLE
  2
ISO-25
  9
$DIMCLRD
 70
     0
  9
$DIMCLRE
 70
     0
  9
$DIMCLRT
 70
     0
  9
$DIMTFAC
 40
1.0
  9
$DIMGAP
 40
1.524
  9
$DIMJUST
 70
     0
  9
$DIMSD1
 70
     0
  9
$DIMSD2
 70
     0
  9
$DIMTOLJ
 70
     0
  9
$DIMTZIN
 70
     0
  9
$DIMALTZ
 70
     0
  9
$DIMALTTZ
 70
     0
  9
$DIMUPT
 70
     0
  9
$DIMDEC
 70
     2
  9
$DIMTDEC
 70
     0
  9
$DIMALTU
 70
     2
  9
$DIMALTTD
 70
     3
  9
$DIMTXSTY
  7
Standard
  9
$DIMAUNIT
 70
     0
  9
$DIMADEC
 70
     2
  9
$DIMALTRND
 40
0.0
  9
$DIMAZIN
 70
     0
  9
$DIMDSEP
 70
    44
  9
$DIMATFIT
 70
     3
  9
$DIMFRAC
 70
     0
  9
$DIMLDRBLK
  1

  9
$DIMLUNIT
 70
     2
  9
$DIMLWD
 70
    -2
  9
$DIMLWE
 70
    -2
  9
$DIMTMOVE
 70
     0
  9
$LUNITS
 70
     2
  9
$LUPREC
 70
     3
  9
$SKETCHINC
 40
1.0
  9
$FILLETRAD
 40
10.0
  9
$AUNITS
 70
     0
  9
$AUPREC
 70
     2
  9
$MENU
  1
.
  9
$ELEVATION
 40
0.0
  9
$PELEVATION
 40
0.0
  9
$THICKNESS
 40
0.0
  9
$LIMCHECK
 70
     0
  9
$CHAMFERA
 40
0.0
  9
$CHAMFERB
 40
0.0
  9
$CHAMFERC
 40
0.0
  9
$CHAMFERD
 40
0.0
  9
$SKPOLY
 70
     0
  9
$TDCREATE
 40
2459089.307443287
  9
$TDUCREATE
 40
2459089.224109954
  9
$TDUPDATE
 40
2459089.307444329
  9
$TDUUPDATE
 40
2459089.224110995
  9
$TDINDWG
 40
0.0000000116
  9
$TDUSRTIMER
 40
0.0000000116
  9
$USRTIMER
 70
     1
  9
$ANGBASE
 50
0.0
  9
$ANGDIR
 70
     0
  9
$PDMODE
 70
     0
  9
$PDSIZE
 40
-1.0
  9
$PLINEWID
 40
0.0
  9
$SPLFRAME
 70
     0
  9
$SPLINETYPE
 70
     6
  9
$SPLINESEGS
 70
     8
  9
$HANDSEED
  5
312
  9
$SURFTAB1
 70
     6
  9
$SURFTAB2
 70
     6
  9
$SURFTYPE
 70
     6
  9
$SURFU
 70
     6
  9
$SURFV
 70
     6
  9
$UCSBASE
  2

  9
$UCSNAME
  2

  9
$UCSORG
 10
0.0
 20
0.0
 30
0.0
  9
$UCSXDIR
 10
1.0
 20
0.0
 30
0.0
  9
$UCSYDIR
 10
0.0
 20
1.0
 30
0.0
  9
$UCSORTHOREF
  2

  9
$UCSORTHOVIEW
 70
     0
  9
$UCSORGTOP
 10
0.0
 20
0.0
 30
0.0
  9
$UCSORGBOTTOM
 10
0.0
 20
0.0
 30
0.0
  9
$UCSORGLEFT
 10
0.0
 20
0.0
 30
0.0
  9
$UCSORGRIGHT
 10
0.0
 20
0.0
 30
0.0
  9
$UCSORGFRONT
 10
0.0
 20
0.0
 30
0.0
  9
$UCSORGBACK
 10
0.0
 20
0.0
 30
0.0
  9
$PUCSBASE
  2

  9
$PUCSNAME
  2

  9
$PUCSORG
 10
0.0
 20
0.0
 30
0.0
  9
$PUCSXDIR
 10
1.0
 20
0.0
 30
0.0
  9
$PUCSYDIR
 10
0.0
 20
1.0
 30
0.0
  9
$PUCSORTHOREF
  2

  9
$PUCSORTHOVIEW
 70
     0
  9
$PUCSORGTOP
 10
0.0
 20
0.0
 30
0.0
  9
$PUCSORGBOTTOM
 10
0.0
 20
0.0
 30
0.0
  9
$PUCSORGLEFT
 10
0.0
 20
0.0
 30
0.0
  9
$PUCSORGRIGHT
 10
0.0
 20
0.0
 30
0.0
  9
$PUCSORGFRONT
 10
0.0
 20
0.0
 30
0.0
  9
$PUCSORGBACK
 10
0.0
 20
0.0
 30
0.0
  9
$USERI1
 70
     0
  9
$USERI2
 70
     0
  9
$USERI3
 70
     0
  9
$USERI4
 70
     0
  9
$USERI5
 70
     0
  9
$USERR1
 40
0.0
  9
$USERR2
 40
0.0
  9
$USERR3
 40
0.0
  9
$USERR4
 40
0.0
  9
$USERR5
 40
0.0
  9
$WORLDVIEW
 70
     1
  9
$SHADEDGE
 70
     3
  9
$SHADEDIF
 70
    70
  9
$TILEMODE
 70
     1
  9
$MAXACTVP
 70
    64
  9
$PINSBASE
 10
0.0
 20
0.0
 30
0.0
  9
$PLIMCHECK
 70
     0
  9
$PEXTMIN
 10
1.0000000000E+20
 20
1.0000000000E+20
 30
1.0000000000E+20
  9
$PEXTMAX
 10
-1.0000000000E+20
 20
-1.0000000000E+20
 30
-1.0000000000E+20
  9
$PLIMMIN
 10
0.0
 20
0.0
  9
$PLIMMAX
 10
420.0
 20
297.0
  9
$UNITMODE
 70
     0
  9
$VISRETAIN
 70
     1
  9
$PLINEGEN
 70
     0
  9
$PSLTSCALE
 70
     1
  9
$TREEDEPTH
 70
  3020
  9
$CMLSTYLE
  2
Standard
  9
$CMLJUST
 70
     0
  9
$CMLSCALE
 40
20.0
  9
$PROXYGRAPHICS
 70
     1
  9
$MEASUREMENT
 70
     1
  9
$CELWEIGHT
370
    -1
  9
$ENDCAPS
280
     0
  9
$JOINSTYLE
280
     0
  9
$LWDISPLAY
290
     1
  9
$INSUNITS
 70
     4
  9
$HYPERLINKBASE
  1

  9
$STYLESHEET
  1

  9
$XEDIT
290
     1
  9
$CEPSNTYPE
380
     0
  9
$PSTYLEMODE
290
     1
  9
$FINGERPRINTGUID
  2
{5a81d738-f0aa-4367-a578-06068ee30667}
  9
$VERSIONGUID
  2
{FAEB1C32-E019-11D5-929B-00C0DF256EC4}
  9
$EXTNAMES
290
     1
  9
$PSVPSCALE
 40
0.0
  9
$OLESTARTUP
290
     0
  0
ENDSEC
  0
SECTION
  2
CLASSES
  0
CLASS
  1
ACDBDICTIONARYWDFLT
  2
AcDbDictionaryWithDefault
  3
ObjectDBX Classes
 90
        0
280
     0
281
     0
  0
CLASS
  1
VISUALSTYLE
  2
AcDbVisualStyle
  3
ObjectDBX Classes
 90
     4095
280
     0
281
     0
  0
CLASS
  1
MATERIAL
  2
AcDbMaterial
  3
ObjectDBX Classes
 90
     1153
280
     0
281
     0
  0
CLASS
  1
SCALE
  2
AcDbScale
  3
ObjectDBX Classes
 90
     1153
280
     0
281
     0
  0
CLASS
  1
TABLESTYLE
  2
AcDbTableStyle
  3
ObjectDBX Classes
 90
     4095
280
     0
281
     0
  0
CLASS
  1
MLEADERSTYLE
  2
AcDbMLeaderStyle
  3
ACDB_MLEADERSTYLE_CLASS
 90
     4095
280
     0
281
     0
  0
CLASS
  1
SUN
  2
AcDbSun
  3
SCENEOE
 90
     1153
280
     0
281
     0
  0
CLASS
  1
ACDBPLACEHOLDER
  2
AcDbPlaceHolder
  3
ObjectDBX Classes
 90
        0
280
     0
281
     0
  0
CLASS
  1
LAYOUT
  2
AcDbLayout
  3
ObjectDBX Classes
 90
        0
280
     0
281
     0
  0
ENDSEC
  0
SECTION
  2
TABLES
  0
TABLE
  2
VPORT
  5
8
330
0
100
AcDbSymbolTable
 70
     1
  0
VPORT
  5
29
330
8
100
AcDbSymbolTableRecord
100
AcDbViewportTableRecord
  2
*Active
 70
     0
 10
0.0
 20
0.0
 11
1.0
 21
1.0
 12
10000.0
 22
5000.0
 13
0.0
 23
0.0
 14
10.0
 24
10.0
 15
10.0
 25
10.0
 16
0.0
 26
0.0
 36
1.0
 17
0.0
 27
0.0
 37
0.0
 40
10000.0
 41
2.0
 42
50.0
 43
0.0
 44
0.0
 50
0.0
 51
0.0
 71
     0
 72
  2000
 73
     1
 74
     3
 75
     0
 76
     0
 77
     0
 78
     0
281
     0
 65
     1
110
0.0
120
0.0
130
0.0
111
1.0
121
0.0
131
0.0
112
0.0
122
1.0
132
0.0
 79
     0
146
0.0
  0
ENDTAB
  0
TABLE
  2
LTYPE
  5
5
330
0
100
AcDbSymbolTable
 70
     6
  0
LTYPE
  5
14
330
5
100
AcDbSymbolTableRecord
100
AcDbLinetypeTableRecord
  2
ByBlock
 70
     0
  3

 72
    65
 73
     0
 40
0.0
  0
LTYPE
  5
15
330
5
100
AcDbSymbolTableRecord
100
AcDbLinetypeTableRecord
  2
ByLayer
 70
     0
  3

 72
    65
 73
     0
 40
0.0
  0
LTYPE
  5
16
330
5
100
AcDbSymbolTableRecord
100
AcDbLinetypeTableRecord
  2
Continuous
 70
     0
  3
Solid line
 72
    65
 73
     0
 40
0.0
  0
LTYPE
  5
6E
330
5
100
AcDbSymbolTableRecord
100
AcDbLinetypeTableRecord
  2
HIDDEN
 70
     0
  3
Hidden __ __ __ __ __ __ __ __ __ __ __ __ __ __
 72
    65
 73
     2
 40
1.905
 49
1.27
 74
     0
 49
-0.635
 74
     0
  0
LTYPE
  5
6F
330
5
100
AcDbSymbolTableRecord
100
AcDbLinetypeTableRecord
  2
PHANTOM
 70
     0
  3
Phantom ______  __  __  ______  __  __  ______
 72
    65
 73
     6
 40
12.7
 49
6.35
 74
     0
 49
-1.27
 74
     0
 49
1.27
 74
     0
 49
-1.27
 74
     0
 49
1.27
 74
     0
 49
-1.27
 74
     0
  0
LTYPE
  5
70
330
5
100
AcDbSymbolTableRecord
100
AcDbLinetypeTableRecord
  2
CENTER
 70
     0
  3
Center ____ _ ____ _ ____ _ ____ _ ____ _ ____
 72
    65
 73
     4
 40
10.16
 49
6.35
 74
     0
 49
-1.27
 74
     0
 49
1.27
 74
     0
 49
-1.27
 74
     0
  0
LTYPE
  5
71
330
5
100
AcDbSymbolTableRecord
100
AcDbLinetypeTableRecord
  2
CENTERX2
 70
     0
  3
Center (2x) ________  __  ________  __  _____
 72
    65
 73
     4
 40
20.32
 49
12.7
 74
     0
 49
-2.54
 74
     0
 49
2.54
 74
     0
 49
-2.54
 74
     0
  0
LTYPE
  5
72
330
5
100
AcDbSymbolTableRecord
100
AcDbLinetypeTableRecord
  2
DOT2
 70
     0
  3
Dot (.5x) ........................................
 72
    65
 73
     2
 40
0.635
 49
0.0
 74
     0
 49
-0.635
 74
     0
  0
ENDTAB
  0
TABLE
  2
LAYER
  5
2
330
0
100
AcDbSymbolTable
 70
    13
  0
LAYER
  5
10
330
2
100
AcDbSymbolTableRecord
100
AcDbLayerTableRecord
  2
0
 70
     0
 62
     7
  6
Continuous
370
    -3
390
F
  0
LAYER
  5
73
330
2
100
AcDbSymbolTableRecord
100
AcDbLayerTableRecord
  2
FORMAT
 70
     0
 62
     7
  6
Continuous
370
    -3
390
F
  0
LAYER
  5
74
330
2
100
AcDbSymbolTableRecord
100
AcDbLayerTableRecord
  2
OSA
 70
     0
 62
     7
  6
CENTER
370
    -3
390
F
  0
LAYER
  5
75
330
2
100
AcDbSymbolTableRecord
100
AcDbLayerTableRecord
  2
0_35
 70
     0
 62
     7
  6
Continuous
370
    35
390
F
  0
LAYER
  5
76
330
2
100
AcDbSymbolTableRecord
100
AcDbLayerTableRecord
  2
0_5
 70
     0
 62
     7
  6
Continuous
370
    50
390
F
  0
LAYER
  5
77
330
2
100
AcDbSymbolTableRecord
100
AcDbLayerTableRecord
  2
0_25
 70
     0
 62
     7
  6
Continuous
370
    25
390
F
  0
LAYER
  5
78
330
2
100
AcDbSymbolTableRecord
100
AcDbLayerTableRecord
  2
0_18
 70
     0
 62
     7
  6
Continuous
370
    -3
390
F
  0
LAYER
  5
79
330
2
100
AcDbSymbolTableRecord
100
AcDbLayerTableRecord
  2
SLD-0
 70
     0
 62
   179
  6
Continuous
370
    -3
390
F
  0
LAYER
  5
7A
330
2
100
AcDbSymbolTableRecord
100
AcDbLayerTableRecord
  2
KOTY
 70
     0
 62
     7
  6
Continuous
370
    -3
390
F
  0
LAYER
  5
7B
330
2
100
AcDbSymbolTableRecord
100
AcDbLayerTableRecord
  2
SILNA
 70
     0
 62
   179
  6
Continuous
370
    -3
390
F
  0
LAYER
  5
7C
330
2
100
AcDbSymbolTableRecord
100
AcDbLayerTableRecord
  2
0_18_1
 70
     0
 62
   179
  6
Continuous
370
    -3
390
F
  0
LAYER
  5
7D
330
2
100
AcDbSymbolTableRecord
100
AcDbLayerTableRecord
  2
0_35_1
 70
     0
 62
   179
  6
Continuous
370
    35
390
F
  0
LAYER
  5
7E
330
2
100
AcDbSymbolTableRecord
100
AcDbLayerTableRecord
  2
0_5_1
 70
     0
 62
   179
  6
Continuous
370
    50
390
F
  0
ENDTAB
  0
TABLE
  2
STYLE
  5
3
330
0
100
AcDbSymbolTable
 70
     1
  0
STYLE
  5
11
330
3
100
AcDbSymbolTableRecord
100
AcDbTextStyleTableRecord
  2
Standard
 70
     0
 40
0.0
 41
1.0
 50
0.0
 71
     0
 42
2.0
  3
txt
  4

  0
ENDTAB
  0
TABLE
  2
VIEW
  5
6
330
0
100
AcDbSymbolTable
 70
     0
  0
ENDTAB
  0
TABLE
  2
UCS
  5
7
330
0
100
AcDbSymbolTable
 70
     0
  0
ENDTAB
  0
TABLE
  2
APPID
  5
9
330
0
100
AcDbSymbolTable
 70
     1
  0
APPID
  5
12
330
9
100
AcDbSymbolTableRecord
100
AcDbRegAppTableRecord
  2
ACAD
 70
     0
  0
ENDTAB
  0
TABLE
  2
DIMSTYLE
  5
A
330
0
100
AcDbSymbolTable
 70
     1
100
AcDbDimStyleTable
  0
DIMSTYLE
105
27
330
A
100
AcDbSymbolTableRecord
100
AcDbDimStyleTableRecord
  2
ISO-25
 70
     0
 41
2.5
 42
0.625
 43
3.75
 44
1.25
 73
     0
 74
     0
 77
     1
 78
     8
140
2.5
141
2.5
143
0.0393700787
147
0.625
171
     3
172
     1
178
     0
271
     2
272
     2
274
     3
278
    44
283
     0
284
     8
340
11
  0
ENDTAB
  0
TABLE
  2
BLOCK_RECORD
  5
1
330
0
100
AcDbSymbolTable
 70
     1
  0
BLOCK_RECORD
  5
1F
330
1
100
AcDbSymbolTableRecord
100
AcDbBlockTableRecord
  2
*Model_Space
340
22
  0
BLOCK_RECORD
  5
1B
330
1
100
AcDbSymbolTableRecord
100
AcDbBlockTableRecord
  2
*Paper_Space
340
1E
  0
BLOCK_RECORD
  5
23
330
1
100
AcDbSymbolTableRecord
100
AcDbBlockTableRecord
  2
*Paper_Space0
340
26
  0
ENDTAB
  0
ENDSEC
  0
SECTION
  2
BLOCKS
  0
BLOCK
  5
20
330
1F
100
AcDbEntity
  8
0
100
AcDbBlockBegin
  2
*Model_Space
 70
     0
 10
0.0
 20
0.0
 30
0.0
  3
*Model_Space
  1

  0
ENDBLK
  5
21
330
1F
100
AcDbEntity
  8
0
100
AcDbBlockEnd
  0
BLOCK
  5
1C
330
1B
100
AcDbEntity
 67
     1
  8
0
100
AcDbBlockBegin
  2
*Paper_Space
 70
     0
 10
0.0
 20
0.0
 30
0.0
  3
*Paper_Space
  1

  0
ENDBLK
  5
1D
330
1B
100
AcDbEntity
 67
     1
  8
0
100
AcDbBlockEnd
  0
BLOCK
  5
24
330
23
100
AcDbEntity
  8
0
100
AcDbBlockBegin
  2
*Paper_Space0
 70
     0
 10
0.0
 20
0.0
 30
0.0
  3
*Paper_Space0
  1

  0
ENDBLK
  5
25
330
23
100
AcDbEntity
  8
0
100
AcDbBlockEnd
  0
ENDSEC
  0
SECTION
  2
ENTITIES
  0
LINE
  5
7F
330
1F
100
AcDbEntity
  8
0
  6
Continuous
 62
     7
370
    25
100
AcDbLine
 10
3906.3774429384
 20
4559.5748299982
 30
0.0
 11
3906.3774429384
 21
5255.5748299982
 31
0.0
  0
LINE
  5
80
330
1F
100
AcDbEntity
  8
0
  6
Continuous
 62
     7
370
    25
100
AcDbLine
 10
2596.3774429384
 20
5255.5748299982
 30
0.0
 11
2596.3774429384
 21
4559.5748299982
 31
0.0
  0
LINE
  5
81
330
1F
100
AcDbEntity
  8
0
  6
Continuous
 62
     7
370
    25
100
AcDbLine
 10
2657.3774429384
 20
4525.5748299981
 30
0.0
 11
2657.3774429384
 21
4528.4254595677
 31
0.0
  0
LINE
  5
82
330
1F
100
AcDbEntity
  8
0
  6
Continuous
 62
     7
370
    25
100
AcDbLine
 10
2621.0068566567
 20
4526.8157147001
 30
0.0
 11
2618.8862787145
 21
4525.5748299981
 31
0.0
  0
SPLINE
  5
83
330
1F
100
AcDbEntity
  8
0
  6
Continuous
 62
     7
370
    25
100
AcDbSpline
210
0.0
220
0.0
230
1.0
 70
     8
 71
     3
 72
     9
 73
     5
 74
     0
 42
0.00000001
 43
0.00000001
 40
0.0
 40
0.0
 40
0.0
 40
0.0
 40
0.8191611662441449
 40
1.0
 40
1.0
 40
1.0
 40
1.0
 10
2657.202033791855
 20
4528.629292628184
 30
0.0
 10
2656.291071888221
 20
4529.159975780331
 30
0.0
 10
2655.179005128744
 20
4529.807813072935
 30
0.0
 10
2654.069287249445
 20
4530.45736566495
 30
0.0
 10
2653.868607162354
 20
4530.574829998153
 30
0.0
  0
SPLINE
  5
84
330
1F
100
AcDbEntity
  8
0
  6
Continuous
 62
     7
370
    25
100
AcDbSpline
210
0.0
220
0.0
230
1.0
 70
     8
 71
     3
 72
     9
 73
     5
 74
     0
 42
0.00000001
 43
0.00000001
 40
0.0
 40
0.0
 40
0.0
 40
0.0
 40
0.5116553569188178
 40
1.0
 40
1.0
 40
1.0
 40
1.0
 10
2615.614350670345
 20
4530.679048274696
 30
0.0
 10
2616.49728872172
 20
4530.164691072137
 30
0.0
 10
2618.222938691834
 20
4529.15941047534
 30
0.0
 10
2619.947783212554
 20
4528.150526596331
 30
0.0
 10
2620.790101794395
 20
4527.657843558526
 30
0.0
  0
LINE
  5
85
330
1F
100
AcDbEntity
  8
0
  6
Continuous
 62
     7
370
    25
100
AcDbLine
 10
2620.7901017944
 20
4527.7945639934
 30
0.0
 11
2620.7901017944
 21
4526.6888776774
 31
0.0
  0
LINE
  5
86
330
1F
100
AcDbEntity
  8
0
  6
Continuous
 62
     7
370
    25
100
AcDbLine
 10
3887.3774429384
 20
4525.5748299981
 30
0.0
 11
3887.3774429384
 21
4526.0389743549
 31
0.0
  0
LINE
  5
87
330
1F
100
AcDbEntity
  8
0
  6
Continuous
 62
     7
370
    25
100
AcDbLine
 10
3845.3774429384
 20
4530.5748299982
 30
0.0
 11
3845.3774429384
 21
4528.5389743853
 31
0.0
  0
SPLINE
  5
88
330
1F
100
AcDbEntity
  8
0
  6
Continuous
 62
     7
370
    25
100
AcDbSpline
210
0.0
220
0.0
230
1.0
 70
     8
 71
     3
 72
     9
 73
     5
 74
     0
 42
0.00000001
 43
0.00000001
 40
0.0
 40
0.0
 40
0.0
 40
0.0
 40
0.4932294357122058
 40
0.9999999999999999
 40
0.9999999999999999
 40
0.9999999999999999
 40
0.9999999999999999
 10
3845.752517975604
 20
4528.769197653375
 30
0.0
 10
3846.608089382915
 20
4528.25788230205
 30
0.0
 10
3848.342721068219
 20
4527.221213939816
 30
0.0
 10
3850.087271127557
 20
4526.18393371013
 30
0.0
 10
3850.971357745556
 20
4525.658270622807
 30
0.0
  0
SPLINE
  5
89
330
1F
100
AcDbEntity
  8
0
  6
Continuous
 62
     7
370
    25
100
AcDbSpline
210
0.0
220
0.0
230
1.0
 70
     8
 71
     3
 72
     9
 73
     5
 74
     0
 42
0.00000001
 43
0.00000001
 40
0.0
 40
0.0
 40
0.0
 40
0.0
 40
0.6127181915301558
 40
1.0
 40
1.0
 40
1.0
 40
1.0
 10
3881.770189835369
 20
4530.155413450824
 30
0.0
 10
3882.680700033032
 20
4530.688271320741
 30
0.0
 10
3884.166717928779
 20
4531.557933552552
 30
0.0
 10
3885.653298389442
 20
4532.424574019499
 30
0.0
 10
3886.229023958683
 20
4532.760208106832
 30
0.0
  0
SPLINE
  5
8A
330
1F
100
AcDbEntity
  8
0
  6
Continuous
 62
     7
370
    25
100
AcDbSpline
210
0.0
220
0.0
230
1.0
 70
     8
 71
     3
 72
     9
 73
     5
 74
     0
 42
0.00000001
 43
0.00000001
 40
0.0
 40
0.0
 40
0.0
 40
0.0
 40
0.5192322294151468
 40
1.0
 40
1.0
 40
1.0
 40
1.0
 10
3887.223801963406
 20
4526.231677064342
 30
0.0
 10
3886.312871449286
 20
4526.762658670081
 30
0.0
 10
3884.558491689103
 20
4527.785287034922
 30
0.0
 10
3882.806895005615
 20
4528.810676089774
 30
0.0
 10
3881.964783773131
 20
4529.303650099657
 30
0.0
  0
LINE
  5
8B
330
1F
100
AcDbEntity
  8
0
  6
Continuous
 62
     7
370
    25
100
AcDbLine
 10
3881.9647837731
 20
4529.158931404
 30
0.0
 11
3881.9647837731
 21
4530.2692060424
 31
0.0
  0
LINE
  5
8C
330
1F
100
AcDbEntity
  8
0
  6
Continuous
 62
     7
370
    25
100
AcDbLine
 10
3225.8774429043
 20
5007.0748299981
 30
0.0
 11
3211.9091011793
 21
5007.0748299981
 31
0.0
  0
LINE
  5
8D
330
1F
100
AcDbEntity
  8
0
  6
Continuous
 62
     7
370
    25
100
AcDbLine
 10
3211.9091011793
 20
4994.0748299981
 30
0.0
 11
3225.8774429043
 21
4994.0748299981
 31
0.0
  0
LINE
  5
8E
330
1F
100
AcDbEntity
  8
0
  6
Continuous
 62
     7
370
    25
100
AcDbLine
 10
3393.8865716118
 20
4530.5748299982
 30
0.0
 11
3403.3872611401
 21
4525.5748299981
 31
0.0
  0
SPLINE
  5
8F
330
1F
100
AcDbEntity
  8
0
  6
Continuous
 62
     7
370
    25
100
AcDbSpline
210
0.0
220
0.0
230
1.0
 70
     8
 71
     3
 72
     9
 73
     5
 74
     0
 42
0.00000001
 43
0.00000001
 40
0.0
 40
0.0
 40
0.0
 40
0.0
 40
0.4027762762112085
 40
1.0
 40
1.0
 40
1.0
 40
1.0
 10
3446.263362199502
 20
4525.574829998146
 30
0.0
 10
3446.49477128576
 20
4526.374030515538
 30
0.0
 10
3447.069306331453
 20
4528.358259887013
 30
0.0
 10
3446.915452841415
 20
4529.746024217161
 30
0.0
 10
3446.823567887177
 20
4530.574829998153
 30
0.0
  0
LINE
  5
90
330
1F
100
AcDbEntity
  8
0
  6
Continuous
 62
     7
370
    25
100
AcDbLine
 10
3471.6813061988
 20
4530.5748299982
 30
0.0
 11
3469.8842191684
 21
4525.3239669484
 31
0.0
  0
LINE
  5
91
330
1F
100
AcDbEntity
  8
0
  6
Continuous
 62
     7
370
    25
100
AcDbLine
 10
3483.0880759377
 20
4525.5748299981
 30
0.0
 11
3484.9596137625
 21
4531.0685027982
 31
0.0
  0
LINE
  5
92
330
1F
100
AcDbEntity
  8
0
  6
Continuous
 62
     7
370
    25
100
AcDbLine
 10
3494.8984135853
 20
4525.5748299981
 30
0.0
 11
3496.5746398748
 21
4530.5748299982
 31
0.0
  0
LINE
  5
93
330
1F
100
AcDbEntity
  8
0
  6
Continuous
 62
     7
370
    25
100
AcDbLine
 10
3572.6104145421
 20
4530.5748299982
 30
0.0
 11
3572.6104145421
 21
4525.5748299981
 31
0.0
  0
LINE
  5
94
330
1F
100
AcDbEntity
  8
0
  6
Continuous
 62
     7
370
    25
100
AcDbLine
 10
3760.152046194
 20
4559.5748299982
 30
0.0
 11
3760.152046194
 21
4530.5748299982
 31
0.0
  0
LINE
  5
95
330
1F
100
AcDbEntity
  8
0
  6
Continuous
 62
     7
370
    25
100
AcDbLine
 10
3951.3774429384
 20
4559.5748299982
 30
0.0
 11
3951.3774429384
 21
4530.5748299982
 31
0.0
  0
LINE
  5
96
330
1F
100
AcDbEntity
  8
0
  6
Continuous
 62
     7
370
    25
100
AcDbLine
 10
3760.152046194
 20
4530.5748299982
 30
0.0
 11
3951.3774429384
 21
4530.5748299982
 31
0.0
  0
LINE
  5
97
330
1F
100
AcDbEntity
  8
0
  6
Continuous
 62
     7
370
    25
100
AcDbLine
 10
3760.152046194
 20
4559.5748299982
 30
0.0
 11
3951.3774429384
 21
4559.5748299982
 31
0.0
  0
LINE
  5
98
330
1F
100
AcDbEntity
  8
0
  6
Continuous
 62
     7
370
    25
100
AcDbLine
 10
2742.6028396828
 20
4559.5748299982
 30
0.0
 11
2742.6028396828
 21
4530.5748299982
 31
0.0
  0
LINE
  5
99
330
1F
100
AcDbEntity
  8
0
  6
Continuous
 62
     7
370
    25
100
AcDbLine
 10
2742.6028396828
 20
4530.5748299982
 30
0.0
 11
3760.152046194
 21
4530.5748299982
 31
0.0
  0
LINE
  5
9A
330
1F
100
AcDbEntity
  8
0
  6
Continuous
 62
     7
370
    25
100
AcDbLine
 10
2742.6028396828
 20
4559.5748299982
 30
0.0
 11
3760.152046194
 21
4559.5748299982
 31
0.0
  0
LINE
  5
9B
330
1F
100
AcDbEntity
  8
0
  6
Continuous
 62
     7
370
    25
100
AcDbLine
 10
2551.3774429384
 20
4559.5748299982
 30
0.0
 11
2551.3774429384
 21
4530.5748299982
 31
0.0
  0
LINE
  5
9C
330
1F
100
AcDbEntity
  8
0
  6
Continuous
 62
     7
370
    25
100
AcDbLine
 10
2742.6028396828
 20
4530.5748299982
 30
0.0
 11
2551.3774429384
 21
4530.5748299982
 31
0.0
  0
LINE
  5
9D
330
1F
100
AcDbEntity
  8
0
  6
Continuous
 62
     7
370
    25
100
AcDbLine
 10
2742.6028396828
 20
4559.5748299982
 30
0.0
 11
2551.3774429384
 21
4559.5748299982
 31
0.0
  0
LINE
  5
9E
330
1F
100
AcDbEntity
  8
0
  6
Continuous
 62
     7
370
    25
100
AcDbLine
 10
2761.2302566808
 20
4559.5748299982
 30
0.0
 11
2761.2302566808
 21
5255.5748299982
 31
0.0
  0
LINE
  5
9F
330
1F
100
AcDbEntity
  8
0
  6
Continuous
 62
     7
370
    25
100
AcDbLine
 10
3741.524629196
 20
5255.5748299982
 30
0.0
 11
2761.2302566808
 21
5255.5748299982
 31
0.0
  0
LINE
  5
A0
330
1F
100
AcDbEntity
  8
0
  6
Continuous
 62
     7
370
    25
100
AcDbLine
 10
3741.524629196
 20
4559.5748299982
 30
0.0
 11
3741.524629196
 21
5255.5748299982
 31
0.0
  0
CIRCLE
  5
A1
330
1F
100
AcDbEntity
  8
0
  6
Continuous
 62
     7
370
    25
100
AcDbCircle
 10
2931.3774429384
 20
4760.5748299982
 30
0.0
 40
50.00000000000045
  0
LINE
  5
A2
330
1F
100
AcDbEntity
  8
0
  6
Continuous
 62
     7
370
    25
100
AcDbLine
 10
2707.0881210571
 20
5255.5748299982
 30
0.0
 11
2761.2302566808
 21
5255.5748299982
 31
0.0
  0
LINE
  5
A3
330
1F
100
AcDbEntity
  8
0
  6
Continuous
 62
     7
370
    25
100
AcDbLine
 10
2707.0881210571
 20
4559.5748299982
 30
0.0
 11
2707.0881210571
 21
5255.5748299982
 31
0.0
  0
LINE
  5
A4
330
1F
100
AcDbEntity
  8
0
  6
Continuous
 62
     7
370
    25
100
AcDbLine
 10
3795.6667648198
 20
4559.5748299982
 30
0.0
 11
3795.6667648198
 21
5255.5748299982
 31
0.0
  0
LINE
  5
A5
330
1F
100
AcDbEntity
  8
0
  6
Continuous
 62
     7
370
    25
100
AcDbLine
 10
3795.6667648198
 20
5255.5748299982
 30
0.0
 11
3741.524629196
 21
5255.5748299982
 31
0.0
  0
LINE
  5
A6
330
1F
100
AcDbEntity
  8
0
  6
Continuous
 62
     7
370
    25
100
AcDbLine
 10
3838.093171691
 20
4559.5748299982
 30
0.0
 11
3838.093171691
 21
5255.5748299982
 31
0.0
  0
LINE
  5
A7
330
1F
100
AcDbEntity
  8
0
  6
Continuous
 62
     7
370
    25
100
AcDbLine
 10
3906.3774429384
 20
5255.5748299982
 30
0.0
 11
3838.093171691
 21
5255.5748299982
 31
0.0
  0
LINE
  5
A8
330
1F
100
AcDbEntity
  8
0
  6
Continuous
 62
     7
370
    25
100
AcDbLine
 10
2664.6617141859
 20
4559.5748299982
 30
0.0
 11
2664.6617141859
 21
5255.5748299982
 31
0.0
  0
LINE
  5
A9
330
1F
100
AcDbEntity
  8
0
  6
Continuous
 62
     7
370
    25
100
AcDbLine
 10
2596.3774429384
 20
5255.5748299982
 30
0.0
 11
2664.6617141859
 21
5255.5748299982
 31
0.0
  0
LINE
  5
AA
330
1F
100
AcDbEntity
  8
0
  6
Continuous
 62
     7
370
    25
100
AcDbLine
 10
3838.093171691
 20
5255.5748299982
 30
0.0
 11
3795.6667648198
 21
5255.5748299982
 31
0.0
  0
LINE
  5
AB
330
1F
100
AcDbEntity
  8
0
  6
Continuous
 62
     7
370
    25
100
AcDbLine
 10
2664.6617141859
 20
5255.5748299982
 30
0.0
 11
2707.0881210571
 21
5255.5748299982
 31
0.0
  0
LINE
  5
AC
330
1F
100
AcDbEntity
  8
0
  6
Continuous
 62
     7
370
    25
100
AcDbLine
 10
2596.3774429384
 20
4559.5748299982
 30
0.0
 11
2596.3774429384
 21
5255.5748299982
 31
0.0
  0
LINE
  5
AD
330
1F
100
AcDbEntity
  8
0
  6
Continuous
 62
     7
370
    25
100
AcDbLine
 10
3906.3774429384
 20
4559.5748299982
 30
0.0
 11
3906.3774429384
 21
5255.5748299982
 31
0.0
  0
SPLINE
  5
AE
330
1F
100
AcDbEntity
  8
0
  6
Continuous
 62
     7
370
    25
100
AcDbSpline
210
0.0
220
0.0
230
1.0
 70
     8
 71
     3
 72
    12
 73
     8
 74
     0
 42
0.00000001
 43
0.00000001
 40
0.0
 40
0.0
 40
0.0
 40
0.0
 40
0.2192498129781574
 40
0.4384996259563251
 40
0.65774943893448
 40
0.8769992519126354
 40
1.0
 40
1.0
 40
1.0
 40
1.0
 10
2631.791430807978
 20
4525.574829998151
 30
0.0
 10
2634.540445016136
 20
4525.783163331483
 30
0.0
 10
2640.038473432454
 20
4526.19982999815
 30
0.0
 10
2647.9520910764
 20
4526.824829998151
 30
0.0
 10
2653.906017340883
 20
4527.449829998149
 30
0.0
 10
2657.194052357076
 20
4527.983373188011
 30
0.0
 10
2657.036587761973
 20
4528.308583044536
 30
0.0
 10
2656.979996874482
 20
4528.425459567728
 30
0.0
  0
SPLINE
  5
AF
330
1F
100
AcDbEntity
  8
0
  6
Continuous
 62
     7
370
    25
100
AcDbSpline
210
0.0
220
0.0
230
1.0
 70
     8
 71
     3
 72
    14
 73
    10
 74
     0
 42
0.00000001
 43
0.00000001
 40
0.0
 40
0.0
 40
0.0
 40
0.0
 40
0.002277002134892
 40
0.1685641684457503
 40
0.334851334756595
 40
0.5011385010674346
 40
0.6674256673782957
 40
0.8337128336891502
 40
0.9999999999999999
 40
0.9999999999999999
 40
0.9999999999999999
 40
0.9999999999999999
 10
2621.02353623389
 20
4526.816271768213
 30
0.0
 10
2621.022808352746
 20
4526.819124516596
 30
0.0
 10
2620.968924046788
 20
4527.030310598311
 30
0.0
 10
2623.052791065043
 20
4527.449830013364
 30
0.0
 10
2627.128048564569
 20
4528.07483001336
 30
0.0
 10
2632.904172068255
 20
4528.699830013364
 30
0.0
 10
2639.095996271617
 20
4529.32483001336
 30
0.0
 10
2645.033509037144
 20
4529.949830013363
 30
0.0
 10
2647.763191584384
 20
4530.366496680029
 30
0.0
 10
2649.128032858006
 20
4530.574830013362
 30
0.0
  0
SPLINE
  5
B0
330
1F
100
AcDbEntity
  8
0
  6
Continuous
 62
     7
370
    25
100
AcDbSpline
210
0.0
220
0.0
230
1.0
 70
     8
 71
     3
 72
    12
 73
     8
 74
     0
 42
0.00000001
 43
0.00000001
 40
0.0
 40
0.0
 40
0.0
 40
0.0
 40
0.0999305384188755
 40
0.3249479038141446
 40
0.5499652692094514
 40
0.7749826346047338
 40
1.0
 40
1.0
 40
1.0
 40
1.0
 10
2621.085847412476
 20
4527.797266606635
 30
0.0
 10
2621.017016117058
 20
4527.889787742211
 30
0.0
 10
2620.793194795599
 20
4528.190642211119
 30
0.0
 10
2622.959180202872
 20
4528.699830013363
 30
0.0
 10
2627.150185778506
 20
4529.32483001336
 30
0.0
 10
2632.909234074681
 20
4529.949830013363
 30
0.0
 10
2637.005485379545
 20
4530.366496680029
 30
0.0
 10
2639.053611031978
 20
4530.574830013362
 30
0.0
  0
SPLINE
  5
B1
330
1F
100
AcDbEntity
  8
0
  6
Continuous
 62
     7
370
    25
100
AcDbSpline
210
0.0
220
0.0
230
1.0
 70
     8
 71
     3
 72
    11
 73
     7
 74
     0
 42
0.00000001
 43
0.00000001
 40
0.0
 40
0.0
 40
0.0
 40
0.0
 40
0.0790113207860862
 40
0.386007547190684
 40
0.6930037735953433
 40
1.0
 40
1.0
 40
1.0
 40
1.0
 10
3845.685246467441
 20
4528.538974385273
 30
0.0
 10
3845.593509278341
 20
4528.592592933042
 30
0.0
 10
3845.145329865592
 20
4528.854544814145
 30
0.0
 10
3847.578852043222
 20
4529.324830028582
 30
0.0
 10
3852.682791624758
 20
4529.94983002858
 30
0.0
 10
3857.793649599596
 20
4530.366496695247
 30
0.0
 10
3860.349078587016
 20
4530.574830028581
 30
0.0
  0
LINE
  5
B2
330
1F
100
AcDbEntity
  8
0
  6
Continuous
 62
     7
370
    25
100
AcDbLine
 10
3846.2613095314
 20
4525.5748299981
 30
0.0
 11
3846.2613095314
 21
4528.0748300286
 31
0.0
  0
SPLINE
  5
B3
330
1F
100
AcDbEntity
  8
0
  6
Continuous
 62
     7
370
    25
100
AcDbSpline
210
0.0
220
0.0
230
1.0
 70
     8
 71
     3
 72
     9
 73
     5
 74
     0
 42
0.00000001
 43
0.00000001
 40
0.0
 40
0.0
 40
0.0
 40
0.0
 40
0.9509488195721347
 40
1.0
 40
1.0
 40
1.0
 40
1.0
 10
3886.493576345376
 20
4525.574829998158
 30
0.0
 10
3887.256241784483
 20
4525.783163331491
 30
0.0
 10
3888.058246501676
 20
4526.002242769884
 30
0.0
 10
3887.187925089996
 20
4526.221322208279
 30
0.0
 10
3887.145234797401
 20
4526.232068313339
 30
0.0
  0
SPLINE
  5
B4
330
1F
100
AcDbEntity
  8
0
  6
Continuous
 62
     7
370
    25
100
AcDbSpline
210
0.0
220
0.0
230
1.0
 70
     8
 71
     3
 72
    15
 73
    11
 74
     0
 42
0.00000001
 43
0.00000001
 40
0.0
 40
0.0
 40
0.0
 40
0.0
 40
0.1208869237788091
 40
0.2593707786133661
 40
0.3978546334479068
 40
0.5363384882824673
 40
0.6748223431170083
 40
0.8133061979515681
 40
0.9517900527861195
 40
1.0
 40
1.0
 40
1.0
 40
1.0
 10
3851.097206703118
 20
4525.654247804873
 30
0.0
 10
3851.489792209018
 20
4525.836108541038
 30
0.0
 10
3852.332110014408
 20
4526.226302610538
 30
0.0
 10
3856.310712549855
 20
4526.824830013368
 30
0.0
 10
3861.778096215347
 20
4527.449830013372
 30
0.0
 10
3867.99408249833
 20
4528.074830013368
 30
0.0
 10
3873.990134087621
 20
4528.699830013371
 30
0.0
 10
3878.674092588849
 20
4529.324830013368
 30
0.0
 10
3881.333925847381
 20
4529.814023105698
 30
0.0
 10
3881.473205453413
 20
4530.094882864691
 30
0.0
 10
3881.509171631085
 20
4530.167409290352
 30
0.0
  0
SPLINE
  5
B5
330
1F
100
AcDbEntity
  8
0
  6
Continuous
 62
     7
370
    25
100
AcDbSpline
210
0.0
220
0.0
230
1.0
 70
     8
 71
     3
 72
    13
 73
     9
 74
     0
 42
0.00000001
 43
0.00000001
 40
0.0
 40
0.0
 40
0.0
 40
0.0
 40
0.1741529624995686
 40
0.3483059249991534
 40
0.5224588874987408
 40
0.6966118499983172
 40
0.8707648124978821
 40
0.9999999999999999
 40
0.9999999999999999
 40
0.9999999999999999
 40
0.9999999999999999
 10
3856.529514105479
 20
4525.574830013369
 30
0.0
 10
3858.259200520242
 20
4525.783163346703
 30
0.0
 10
3861.718573349765
 20
4526.19983001337
 30
0.0
 10
3868.013372405037
 20
4526.824830013368
 30
0.0
 10
3873.97249732638
 20
4527.449830013371
 30
0.0
 10
3878.725349727111
 20
4528.074830013368
 30
0.0
 10
3881.613299223588
 20
4528.646096389453
 30
0.0
 10
3881.699344586985
 20
4529.009029432201
 30
0.0
 10
3881.735997596248
 20
4529.163629141616
 30
0.0
  0
SPLINE
  5
B6
330
1F
100
AcDbEntity
  8
0
  6
Continuous
 62
     7
370
    25
100
AcDbSpline
210
0.0
220
0.0
230
1.0
 70
     8
 71
     3
 72
    39
 73
    35
 74
     0
 42
0.00000001
 43
0.00000001
 40
0.0
 40
0.0
 40
0.0
 40
0.0
 40
0.0308463666923023
 40
0.0621059531080588
 40
0.0933651313913542
 40
0.1258167812818299
 40
0.158268431170947
 40
0.1904165776432667
 40
0.2225647241164332
 40
0.254720446531302
 40
0.2868744395110672
 40
0.3187996008823333
 40
0.3507247622537029
 40
0.3825674317668841
 40
0.4144079551167555
 40
0.4461267762733881
 40
0.4778455974292997
 40
0.5093762419773601
 40
0.5409061057305486
 40
0.5724168448405997
 40
0.6039275839492357
 40
0.6351484337549099
 40
0.6663692835616097
 40
0.6975983681282056
 40
0.728825932155945
 40
0.7598088499406801
 40
0.7907917677256548
 40
0.8217076556761421
 40
0.852621345368832
 40
0.8833979739471063
 40
0.914174602524714
 40
0.9447783172890464
 40
0.9753809411205674
 40
1.0
 40
1.0
 40
1.0
 40
1.0
 10
3192.099420510468
 20
4882.404283405397
 30
0.0
 10
3198.588853399148
 20
4879.611466780663
 30
0.0
 10
3211.654651997167
 20
4873.988420797152
 30
0.0
 10
3232.699692971675
 20
4869.700873661637
 30
0.0
 10
3254.449296396674
 20
4868.558598194397
 30
0.0
 10
3276.380909717809
 20
4871.20608919624
 30
0.0
 10
3297.757692152919
 20
4877.501208916256
 30
0.0
 10
3317.668569289853
 20
4887.354815742435
 30
0.0
 10
3335.633210780959
 20
4900.306960571664
 30
0.0
 10
3351.111893880204
 20
4916.150293002157
 30
0.0
 10
3363.722811835757
 20
4934.298678532981
 30
0.0
 10
3372.987239342521
 20
4954.302472853167
 30
0.0
 10
3378.808069217478
 20
4975.490623538702
 30
0.0
 10
3380.909668433902
 20
4997.343294712784
 30
0.0
 10
3379.378871042871
 20
5019.197752312698
 30
0.0
 10
3374.100456118148
 20
5040.43042308041
 30
0.0
 10
3365.411726648225
 20
5060.432382731334
 30
0.0
 10
3353.440526798271
 20
5078.606694930672
 30
0.0
 10
3338.676116538331
 20
5094.531548899025
 30
0.0
 10
3321.388928596084
 20
5107.668847567777
 30
0.0
 10
3302.222923217973
 20
5117.720414260456
 30
0.0
 10
3281.678339072545
 20
5124.301302201891
 30
0.0
 10
3260.395165684059
 20
5127.406441918855
 30
0.0
 10
3238.892269379773
 20
5126.812769493734
 30
0.0
 10
3217.837851991925
 20
5122.671416488033
 30
0.0
 10
3197.869375291078
 20
5114.977956268855
 30
0.0
 10
3179.503555444822
 20
5104.135467329647
 30
0.0
 10
3163.279821704377
 20
5090.316571645361
 30
0.0
 10
3149.589514982858
 20
5074.042328026744
 30
0.0
 10
3138.940003619213
 20
5055.675477821542
 30
0.0
 10
3131.48334733538
 20
5035.863523683918
 30
0.0
 10
3127.60449366958
 20
5015.121035845839
 30
0.0
 10
3127.018781454348
 20
4995.382049353696
 30
0.0
 10
3129.057902041553
 20
4982.908209190368
 30
0.0
 10
3129.966987519108
 20
4977.347092789027
 30
0.0
  0
ARC
  5
B7
330
1F
100
AcDbEntity
  8
0
  6
Continuous
 62
     7
370
    25
100
AcDbCircle
 10
3251.3774429384
 20
5000.5748299982
 30
0.0
 40
132.205
100
AcDbArc
 50
153.3602341195
 51
243.3602330491
  0
SPLINE
  5
B8
330
1F
100
AcDbEntity
  8
0
  6
Continuous
 62
     7
370
    25
100
AcDbSpline
210
0.0
220
0.0
230
1.0
 70
     8
 71
     3
 72
    15
 73
    11
 74
     0
 42
0.00000001
 43
0.00000001
 40
0.0
 40
0.0
 40
0.0
 40
0.0
 40
0.114879590940704
 40
0.2308094293795708
 40
0.3467445633524898
 40
0.4628718006299685
 40
0.5789990386605912
 40
0.6952569038231227
 40
0.811541513472203
 40
1.0
 40
1.0
 40
1.0
 40
1.0
 10
3181.95177709667
 20
4898.300183172028
 30
0.0
 10
3176.114266899265
 20
4902.27739720513
 30
0.0
 10
3164.385879057461
 20
4910.268185594816
 30
0.0
 10
3149.725473395555
 20
4925.889143449337
 30
0.0
 10
3137.614760736164
 20
4943.557675853427
 30
0.0
 10
3128.747092730201
 20
4963.100252539686
 30
0.0
 10
3123.174000256697
 20
4983.849080761758
 30
0.0
 10
3121.316830742719
 20
5005.228622386962
 30
0.0
 10
3122.92462884319
 20
5031.203631951797
 30
0.0
 10
3129.277912788004
 20
5048.905625992006
 30
0.0
 10
3133.206895238277
 20
5059.852850218558
 30
0.0
  0
SPLINE
  5
B9
330
1F
100
AcDbEntity
  8
0
  6
Continuous
 62
     7
370
    25
100
AcDbSpline
210
0.0
220
0.0
230
1.0
 70
     8
 71
     3
 72
    13
 73
     9
 74
     0
 42
0.00000001
 43
0.00000001
 40
0.0
 40
0.0
 40
0.0
 40
0.0
 40
0.0409240791469152
 40
0.2049391948398897
 40
0.419657789091034
 40
0.6343763833421785
 40
0.8171881916711121
 40
0.9999999999999999
 40
0.9999999999999999
 40
0.9999999999999999
 40
0.9999999999999999
 10
3129.966987519108
 20
4977.347092789027
 30
0.0
 10
3130.22875705401
 20
4976.050110873487
 30
0.0
 10
3131.539643916577
 20
4969.555097789912
 30
0.0
 10
3135.407285519986
 20
4956.50508842543
 30
0.0
 10
3143.518059731536
 20
4939.014271727958
 30
0.0
 10
3154.803681493193
 20
4922.654202421808
 30
0.0
 10
3167.690232545987
 20
4908.886139320305
 30
0.0
 10
3177.19792891311
 20
4901.828835221453
 30
0.0
 10
3181.95177709667
 20
4898.300183172028
 30
0.0
  0
CIRCLE
  5
BA
330
1F
100
AcDbEntity
  8
0
  6
Continuous
 62
     7
370
    25
100
AcDbCircle
 10
3251.3774429384
 20
5000.5748299982
 30
0.0
 40
117.2050000000006
  0
CIRCLE
  5
BB
330
1F
100
AcDbEntity
  8
0
  6
Continuous
 62
     7
370
    25
100
AcDbCircle
 10
3251.3774429384
 20
5000.5748299982
 30
0.0
 40
97.50000000000104
  0
SPLINE
  5
BC
330
1F
100
AcDbEntity
  8
0
  6
Continuous
 62
     7
370
    25
100
AcDbSpline
210
0.0
220
0.0
230
1.0
 70
     8
 71
     3
 72
    28
 73
    24
 74
     0
 42
0.00000001
 43
0.00000001
 40
0.0
 40
0.0
 40
0.0
 40
0.0
 40
0.0280927491692317
 40
0.0779666120526234
 40
0.1281601747948662
 40
0.1791841724378777
 40
0.2297895644782953
 40
0.2794320123906951
 40
0.3301452744725627
 40
0.3811380282503997
 40
0.4311657138856689
 40
0.4811933995209397
 40
0.5321861532987782
 40
0.5828994153806467
 40
0.6325418632930466
 40
0.6831472553334641
 40
0.734171252976475
 40
0.7843648157187163
 40
0.8342386786021087
 40
0.8851846378662988
 40
0.9359907246673854
 40
0.985671798621574
 40
1.0
 40
1.0
 40
1.0
 40
1.0
 10
3133.206895238275
 20
5059.852850218558
 30
0.0
 10
3135.812256096018
 20
5064.601486517151
 30
0.0
 10
3143.042988767607
 20
5077.780512957072
 30
0.0
 10
3159.221834405867
 20
5096.771652832776
 30
0.0
 10
3182.426791526131
 20
5114.661761618841
 30
0.0
 10
3209.209286297064
 20
5127.02748051081
 30
0.0
 10
3237.931636229087
 20
5133.166234621702
 30
0.0
 10
3267.236385390475
 20
5132.901054777046
 30
0.0
 10
3295.861584616287
 20
5126.236091633945
 30
0.0
 10
3322.377358685966
 20
5113.378240620317
 30
0.0
 10
3345.313923563659
 20
5095.105037836081
 30
0.0
 10
3363.731291643604
 20
5072.284028366317
 30
0.0
 10
3376.755909852993
 20
5045.849893731438
 30
0.0
 10
3383.601231152353
 20
5017.26687719019
 30
0.0
 10
3384.050532224382
 20
4987.965768111221
 30
0.0
 10
3378.094787985636
 20
4959.200043926659
 30
0.0
 10
3365.89082838799
 20
4932.359960641596
 30
0.0
 10
3348.173814346003
 20
4908.970092491098
 30
0.0
 10
3325.817993144246
 20
4890.036113325751
 30
0.0
 10
3299.716603336037
 20
4876.267624185977
 30
0.0
 10
3271.356038674477
 20
4869.099219099581
 30
0.0
 10
3248.912851074362
 20
4867.143721345162
 30
0.0
 10
3236.813635175015
 20
4869.611897072507
 30
0.0
 10
3234.105277659232
 20
4870.164387608838
 30
0.0
  0
LINE
  5
BD
330
1F
100
AcDbEntity
  8
0
  6
Continuous
 62
     7
370
    25
100
AcDbLine
 10
3173.0102600379
 20
5135.3286226878
 30
0.0
 11
3095.4936437626
 21
5000.0837551281
 31
0.0
  0
LINE
  5
BE
330
1F
100
AcDbEntity
  8
0
  6
Continuous
 62
     7
370
    25
100
AcDbLine
 10
3328.8940592136
 20
5135.8196975579
 30
0.0
 11
3173.0102600379
 21
5135.3286226878
 31
0.0
  0
LINE
  5
BF
330
1F
100
AcDbEntity
  8
0
  6
Continuous
 62
     7
370
    25
100
AcDbLine
 10
3407.2612421142
 20
5001.0659048683
 30
0.0
 11
3328.8940592136
 21
5135.8196975579
 31
0.0
  0
LINE
  5
C0
330
1F
100
AcDbEntity
  8
0
  6
Continuous
 62
     7
370
    25
100
AcDbLine
 10
3329.744625839
 20
4865.8210373086
 30
0.0
 11
3407.2612421142
 21
5001.0659048683
 31
0.0
  0
LINE
  5
C1
330
1F
100
AcDbEntity
  8
0
  6
Continuous
 62
     7
370
    25
100
AcDbLine
 10
3173.8608266632
 20
4865.3299624385
 30
0.0
 11
3329.744625839
 21
4865.8210373086
 31
0.0
  0
LINE
  5
C2
330
1F
100
AcDbEntity
  8
0
  6
Continuous
 62
     7
370
    25
100
AcDbLine
 10
3095.4936437626
 20
5000.0837551281
 30
0.0
 11
3173.8608266632
 21
4865.3299624385
 31
0.0
  0
CIRCLE
  5
C3
330
1F
100
AcDbEntity
  8
0
  6
Continuous
 62
     7
370
    25
100
AcDbCircle
 10
3251.3774429384
 20
5000.5748299982
 30
0.0
 40
93.00000000000016
  0
CIRCLE
  5
C4
330
1F
100
AcDbEntity
  8
0
  6
Continuous
 62
     7
370
    25
100
AcDbCircle
 10
3251.3774429384
 20
5000.5748299982
 30
0.0
 40
78.0000000000001
  0
CIRCLE
  5
C5
330
1F
100
AcDbEntity
  8
0
  6
Continuous
 62
     7
370
    25
100
AcDbCircle
 10
3251.3774429384
 20
5000.5748299982
 30
0.0
 40
75.00000000000102
  0
CIRCLE
  5
C6
330
1F
100
AcDbEntity
  8
0
  6
Continuous
 62
     7
370
    25
100
AcDbCircle
 10
3251.3774429384
 20
5000.5748299982
 30
0.0
 40
72.00000000000047
  0
CIRCLE
  5
C7
330
1F
100
AcDbEntity
  8
0
  6
Continuous
 62
     7
370
    25
100
AcDbCircle
 10
3251.3774429384
 20
5000.5748299982
 30
0.0
 40
40.00000000000045
  0
LINE
  5
C8
330
1F
100
AcDbEntity
  8
0
  6
Continuous
 62
     7
370
    25
100
AcDbLine
 10
3225.8774429384
 20
5007.0748299982
 30
0.0
 11
3225.8774429384
 21
4994.0748299982
 31
0.0
  0
LINE
  5
C9
330
1F
100
AcDbEntity
  8
0
  6
Continuous
 62
     7
370
    25
100
AcDbLine
 10
3885.6104145421
 20
4527.1728187783
 30
0.0
 11
3885.6104145421
 21
4530.5748299982
 31
0.0
  0
LINE
  5
CA
330
1F
100
AcDbEntity
  8
0
  6
Continuous
 62
     7
370
    25
100
AcDbLine
 10
3900.6104145421
 20
4525.5748299981
 30
0.0
 11
3900.6104145421
 21
4530.5748299982
 31
0.0
  0
LINE
  5
CB
330
1F
100
AcDbEntity
  8
0
  6
Continuous
 62
     7
370
    25
100
AcDbLine
 10
3520.6104145421
 20
4530.5748299982
 30
0.0
 11
3520.6104145421
 21
4525.5748299981
 31
0.0
  0
LINE
  5
CC
330
1F
100
AcDbEntity
  8
0
  6
Continuous
 62
     7
370
    25
100
AcDbLine
 10
3535.6104145421
 20
4530.5748299982
 30
0.0
 11
3535.6104145421
 21
4525.5748299981
 31
0.0
  0
LINE
  5
CD
330
1F
100
AcDbEntity
  8
0
  6
Continuous
 62
     7
370
    25
100
AcDbLine
 10
3587.2737070094
 20
4530.5748299982
 30
0.0
 11
3587.360982334
 21
4525.5748299981
 31
0.0
  0
LINE
  5
CE
330
1F
100
AcDbEntity
  8
0
  6
Continuous
 62
     7
370
    25
100
AcDbLine
 10
3833.8434080796
 20
4525.5748299981
 30
0.0
 11
3833.9260534559
 21
4530.5748299982
 31
0.0
  0
LINE
  5
CF
330
1F
100
AcDbEntity
  8
0
  6
Continuous
 62
     7
370
    25
100
AcDbLine
 10
3556.6104145421
 20
4530.5748299982
 30
0.0
 11
3556.6104145421
 21
4529.4326943732
 31
0.0
  0
LINE
  5
D0
330
1F
100
AcDbEntity
  8
0
  6
Continuous
 62
     7
370
    25
100
AcDbLine
 10
3560.4682789175
 20
4525.5748299981
 30
0.0
 11
3556.6104145421
 21
4529.4326943732
 31
0.0
  0
LINE
  5
D1
330
1F
100
AcDbEntity
  8
0
  6
Continuous
 62
     7
370
    25
100
AcDbLine
 10
3570.1104145421
 20
4530.5748299982
 30
0.0
 11
3570.1104145421
 21
4525.5748299981
 31
0.0
  0
LINE
  5
D2
330
1F
100
AcDbEntity
  8
0
  6
Continuous
 62
     7
370
    25
100
AcDbLine
 10
3844.5580533353
 20
4530.5748299982
 30
0.0
 11
3844.5144189964
 21
4525.5748299981
 31
0.0
  0
LINE
  5
D3
330
1F
100
AcDbEntity
  8
0
  6
Continuous
 62
     7
370
    25
100
AcDbLine
 10
3576.7064100878
 20
4525.5748299981
 30
0.0
 11
3576.6627757488
 21
4530.5748299982
 31
0.0
  0
LINE
  5
D4
330
1F
100
AcDbEntity
  8
0
  6
Continuous
 62
     7
370
    25
100
AcDbLine
 10
3833.9471220748
 20
4530.5748299982
 30
0.0
 11
3833.8598467502
 21
4525.5748299981
 31
0.0
  0
LINE
  5
D5
330
1F
100
AcDbEntity
  8
0
  6
Continuous
 62
     7
370
    25
100
AcDbLine
 10
3909.4355035421
 20
4425.3248299981
 30
0.0
 11
3909.4355035421
 21
4425.5748299981
 31
0.0
  0
LINE
  5
D6
330
1F
100
AcDbEntity
  8
0
  6
Continuous
 62
     7
370
    25
100
AcDbLine
 10
3882.4622905421
 20
4425.3248299981
 30
0.0
 11
3882.4622905421
 21
4425.5748299981
 31
0.0
  0
LINE
  5
D7
330
1F
100
AcDbEntity
  8
0
  6
Continuous
 62
     7
370
    25
100
AcDbLine
 10
3930.6578045421
 20
4425.3248299981
 30
0.0
 11
3930.6578045421
 21
4425.5748299981
 31
0.0
  0
LINE
  5
D8
330
1F
100
AcDbEntity
  8
0
  6
Continuous
 62
     7
370
    25
100
AcDbLine
 10
3869.5114435421
 20
4425.3248299981
 30
0.0
 11
3869.5114435421
 21
4425.5748299981
 31
0.0
  0
LINE
  5
D9
330
1F
100
AcDbEntity
  8
0
  6
Continuous
 62
     7
370
    25
100
AcDbLine
 10
3852.9680335421
 20
4425.3248299981
 30
0.0
 11
3852.9680335421
 21
4425.5748299981
 31
0.0
  0
LINE
  5
DA
330
1F
100
AcDbEntity
  8
0
  6
Continuous
 62
     7
370
    25
100
AcDbLine
 10
3878.3182805421
 20
4425.3248299981
 30
0.0
 11
3878.3182805421
 21
4425.5748299981
 31
0.0
  0
LINE
  5
DB
330
1F
100
AcDbEntity
  8
0
  6
Continuous
 62
     7
370
    25
100
AcDbLine
 10
3862.1320435421
 20
4425.3248299981
 30
0.0
 11
3862.1320435421
 21
4425.5748299981
 31
0.0
  0
LINE
  5
DC
330
1F
100
AcDbEntity
  8
0
  6
Continuous
 62
     7
370
    25
100
AcDbLine
 10
3859.1079955421
 20
4425.3248299981
 30
0.0
 11
3859.1079955421
 21
4425.5748299981
 31
0.0
  0
LINE
  5
DD
330
1F
100
AcDbEntity
  8
0
  6
Continuous
 62
     7
370
    25
100
AcDbLine
 10
3858.3810995421
 20
4425.3248299981
 30
0.0
 11
3858.3810995421
 21
4425.5748299981
 31
0.0
  0
LINE
  5
DE
330
1F
100
AcDbEntity
  8
0
  6
Continuous
 62
     7
370
    25
100
AcDbLine
 10
3857.3078235421
 20
4425.3248299981
 30
0.0
 11
3857.3078235421
 21
4425.5748299981
 31
0.0
  0
SPLINE
  5
DF
330
1F
100
AcDbEntity
  8
0
  6
Continuous
 62
     7
370
    25
100
AcDbSpline
210
0.0
220
0.0
230
1.0
 70
    24
 71
     3
 72
     9
 73
     5
 74
     0
 42
0.00000001
 43
0.00000001
 40
0.0
 40
0.0
 40
0.0
 40
0.0
 40
0.5472914857492175
 40
0.9999999999999999
 40
0.9999999999999999
 40
0.9999999999999999
 40
0.9999999999999999
 10
3858.381099542087
 20
4425.324829998145
 30
0.0
 10
3858.196086205067
 20
4425.324829998145
 30
0.0
 10
3857.858033555178
 20
4425.324829998145
 30
0.0
 10
3857.479285852047
 20
4425.324829998145
 30
0.0
 10
3857.307823542087
 20
4425.324829998145
 30
0.0
  0
LINE
  5
E0
330
1F
100
AcDbEntity
  8
0
  6
Continuous
 62
     7
370
    25
100
AcDbLine
 10
3855.8372145421
 20
4425.3248299981
 30
0.0
 11
3855.8372145421
 21
4425.5748299981
 31
0.0
  0
SPLINE
  5
E1
330
1F
100
AcDbEntity
  8
0
  6
Continuous
 62
     7
370
    25
100
AcDbSpline
210
0.0
220
0.0
230
1.0
 70
    24
 71
     3
 72
    10
 73
     6
 74
     0
 42
0.00000001
 43
0.00000001
 40
0.0
 40
0.0
 40
0.0
 40
0.0
 40
0.3157269506952642
 40
0.594685950977058
 40
1.0
 40
1.0
 40
1.0
 40
1.0
 10
3857.307823542087
 20
4425.324829998145
 30
0.0
 10
3857.135348532182
 20
4425.324829998145
 30
0.0
 10
3856.810484072374
 20
4425.324829998145
 30
0.0
 10
3856.273650076535
 20
4425.324829998145
 30
0.0
 10
3855.99956361347
 20
4425.324829998145
 30
0.0
 10
3855.837214542087
 20
4425.324829998145
 30
0.0
  0
SPLINE
  5
E2
330
1F
100
AcDbEntity
  8
0
  6
Continuous
 62
     7
370
    25
100
AcDbSpline
210
0.0
220
0.0
230
1.0
 70
    24
 71
     3
 72
     9
 73
     5
 74
     0
 42
0.00000001
 43
0.00000001
 40
0.0
 40
0.0
 40
0.0
 40
0.0
 40
0.5724410375885217
 40
0.9999999999999999
 40
0.9999999999999999
 40
0.9999999999999999
 40
0.9999999999999999
 10
3859.107995542087
 20
4425.324829998145
 30
0.0
 10
3859.002062843151
 20
4425.324829998145
 30
0.0
 10
3858.817008502214
 20
4425.324829998145
 30
0.0
 10
3858.511655818644
 20
4425.324829998145
 30
0.0
 10
3858.381099542087
 20
4425.324829998145
 30
0.0
  0
LINE
  5
E3
330
1F
100
AcDbEntity
  8
0
  6
Continuous
 62
     7
370
    25
100
AcDbLine
 10
3855.3598125421
 20
4425.3248299981
 30
0.0
 11
3855.3598125421
 21
4425.5748299981
 31
0.0
  0
SPLINE
  5
E4
330
1F
100
AcDbEntity
  8
0
  6
Continuous
 62
     7
370
    25
100
AcDbSpline
210
0.0
220
0.0
230
1.0
 70
    24
 71
     3
 72
     9
 73
     5
 74
     0
 42
0.00000001
 43
0.00000001
 40
0.0
 40
0.0
 40
0.0
 40
0.0
 40
0.511905552898834
 40
1.0
 40
1.0
 40
1.0
 40
1.0
 10
3855.837214542087
 20
4425.324829998145
 30
0.0
 10
3855.684355223076
 20
4425.324829998145
 30
0.0
 10
3855.385746782233
 20
4425.324829998145
 30
0.0
 10
3855.368318963591
 20
4425.324829998145
 30
0.0
 10
3855.359812542087
 20
4425.324829998145
 30
0.0
  0
LINE
  5
E5
330
1F
100
AcDbEntity
  8
0
  6
Continuous
 62
     7
370
    25
100
AcDbLine
 10
3864.4418715804
 20
4425.3248299981
 30
0.0
 11
3852.9316385421
 21
4425.3248299981
 31
0.0
  0
ARC
  5
E6
330
1F
100
AcDbEntity
  8
0
  6
Continuous
 62
     7
370
    25
100
AcDbCircle
 10
2520.6104145421
 20
4525.5748299981
 30
0.0
 40
100.0
100
AcDbArc
 50
180.0
 51
270.0
  0
LINE
  5
E7
330
1F
100
AcDbEntity
  8
0
  6
Continuous
 62
     7
370
    25
100
AcDbLine
 10
2520.6104145421
 20
4525.5748299981
 30
0.0
 11
2420.6104145421
 21
4525.5748299981
 31
0.0
  0
LINE
  5
E8
330
1F
100
AcDbEntity
  8
0
  6
Continuous
 62
     7
370
    25
100
AcDbLine
 10
2520.6104145421
 20
4425.5748299981
 30
0.0
 11
2520.6104145421
 21
4525.5748299981
 31
0.0
  0
LINE
  5
E9
330
1F
100
AcDbEntity
  8
0
  6
Continuous
 62
     7
370
    25
100
AcDbLine
 10
4020.6104145421
 20
4425.5748299981
 30
0.0
 11
2520.6104145421
 21
4425.5748299981
 31
0.0
  0
LINE
  5
EA
330
1F
100
AcDbEntity
  8
0
  6
Continuous
 62
     7
370
    25
100
AcDbLine
 10
4020.6104145421
 20
4525.5748299981
 30
0.0
 11
2520.6104145421
 21
4525.5748299981
 31
0.0
  0
LINE
  5
EB
330
1F
100
AcDbEntity
  8
0
  6
Continuous
 62
     7
370
    25
100
AcDbLine
 10
4020.6104145421
 20
4425.5748299981
 30
0.0
 11
4020.6104145421
 21
4525.5748299981
 31
0.0
  0
LINE
  5
EC
330
1F
100
AcDbEntity
  8
0
  6
Continuous
 62
     7
370
    25
100
AcDbLine
 10
4120.6104145421
 20
4525.5748299981
 30
0.0
 11
4020.6104145421
 21
4525.5748299981
 31
0.0
  0
ARC
  5
ED
330
1F
100
AcDbEntity
  8
0
  6
Continuous
 62
     7
370
    25
100
AcDbCircle
 10
4020.6104145421
 20
4525.5748299981
 30
0.0
 40
100.0000000000005
100
AcDbArc
 50
270.0
 51
0.0
  0
LINE
  5
EE
330
1F
100
AcDbEntity
  8
0
  6
Continuous
 62
     7
370
    25
100
AcDbLine
 10
2421.6304227427
 20
7359.2710710642
 30
0.0
 11
2419.5904063415
 21
7357.231054663
 31
0.0
  0
LINE
  5
EF
330
1F
100
AcDbEntity
  8
0
  6
Continuous
 62
     7
370
    25
100
AcDbLine
 10
2419.5904063415
 20
7112.821054663
 30
0.0
 11
2421.6304227427
 21
7110.7810382617
 31
0.0
  0
LINE
  5
F0
330
1F
100
AcDbEntity
  8
0
  6
Continuous
 62
     7
370
    25
100
AcDbLine
 10
2419.5904063415
 20
7116.7689187264
 30
0.0
 11
2419.5904063415
 21
7357.231054663
 31
0.0
  0
LINE
  5
F1
330
1F
100
AcDbEntity
  8
0
  6
Continuous
 62
     7
370
    25
100
AcDbLine
 10
2419.5904063415
 20
7112.821054663
 30
0.0
 11
2419.5904063415
 21
7116.7689187264
 31
0.0
  0
ARC
  5
F2
330
1F
100
AcDbEntity
  8
0
  6
Continuous
 62
     7
370
    25
100
AcDbCircle
 10
3428.6304227427
 20
6711.2930830593
 30
0.0
 40
11.00000000000136
100
AcDbArc
 50
270.0
 51
0.0
  0
LINE
  5
F3
330
1F
100
AcDbEntity
  8
0
  6
Continuous
 62
     7
370
    25
100
AcDbLine
 10
3439.6304227427
 20
6840.2930830593
 30
0.0
 11
3439.6304227427
 21
6711.2930830593
 31
0.0
  0
ARC
  5
F4
330
1F
100
AcDbEntity
  8
0
  6
Continuous
 62
     7
370
    25
100
AcDbCircle
 10
3428.6304227427
 20
6840.2930830593
 30
0.0
 40
11.00000000000045
100
AcDbArc
 50
0.0
 51
90.0
  0
LINE
  5
F5
330
1F
100
AcDbEntity
  8
0
  6
Continuous
 62
     7
370
    25
100
AcDbLine
 10
3114.6304227427
 20
6851.2930830593
 30
0.0
 11
3428.6304227427
 21
6851.2930830593
 31
0.0
  0
ARC
  5
F6
330
1F
100
AcDbEntity
  8
0
  6
Continuous
 62
     7
370
    25
100
AcDbCircle
 10
3114.6304227427
 20
6840.2930830593
 30
0.0
 40
11.0
100
AcDbArc
 50
90.0
 51
180.0
  0
LINE
  5
F7
330
1F
100
AcDbEntity
  8
0
  6
Continuous
 62
     7
370
    25
100
AcDbLine
 10
3103.6304227427
 20
6711.2930830593
 30
0.0
 11
3103.6304227427
 21
6840.2930830593
 31
0.0
  0
ARC
  5
F8
330
1F
100
AcDbEntity
  8
0
  6
Continuous
 62
     7
370
    25
100
AcDbCircle
 10
3114.6304227427
 20
6711.2930830593
 30
0.0
 40
11.00000000000091
100
AcDbArc
 50
180.0
 51
270.0
  0
LINE
  5
F9
330
1F
100
AcDbEntity
  8
0
  6
Continuous
 62
     7
370
    25
100
AcDbLine
 10
3428.6304227427
 20
6700.2930830593
 30
0.0
 11
3114.6304227427
 21
6700.2930830593
 31
0.0
  0
ARC
  5
FA
330
1F
100
AcDbEntity
  8
0
  6
Continuous
 62
     7
370
    25
100
AcDbCircle
 10
3428.6304227427
 20
6840.2930830593
 30
0.0
 40
10.00000000000045
100
AcDbArc
 50
0.0
 51
90.0
  0
LINE
  5
FB
330
1F
100
AcDbEntity
  8
0
  6
Continuous
 62
     7
370
    25
100
AcDbLine
 10
3438.6304227427
 20
6711.2930830593
 30
0.0
 11
3438.6304227427
 21
6840.2930830593
 31
0.0
  0
ARC
  5
FC
330
1F
100
AcDbEntity
  8
0
  6
Continuous
 62
     7
370
    25
100
AcDbCircle
 10
3428.6304227427
 20
6711.2930830593
 30
0.0
 40
10.00000000000045
100
AcDbArc
 50
270.0
 51
0.0
  0
LINE
  5
FD
330
1F
100
AcDbEntity
  8
0
  6
Continuous
 62
     7
370
    25
100
AcDbLine
 10
3114.6304227427
 20
6701.2930830593
 30
0.0
 11
3428.6304227427
 21
6701.2930830593
 31
0.0
  0
ARC
  5
FE
330
1F
100
AcDbEntity
  8
0
  6
Continuous
 62
     7
370
    25
100
AcDbCircle
 10
3114.6304227427
 20
6711.2930830593
 30
0.0
 40
10.0
100
AcDbArc
 50
180.0
 51
270.0
  0
ARC
  5
FF
330
1F
100
AcDbEntity
  8
0
  6
Continuous
 62
     7
370
    25
100
AcDbCircle
 10
3114.6304227427
 20
6840.2930830593
 30
0.0
 40
10.0
100
AcDbArc
 50
90.0
 51
180.0
  0
LINE
  5
100
330
1F
100
AcDbEntity
  8
0
  6
Continuous
 62
     7
370
    25
100
AcDbLine
 10
3428.6304227427
 20
6850.2930830593
 30
0.0
 11
3114.6304227427
 21
6850.2930830593
 31
0.0
  0
LINE
  5
101
330
1F
100
AcDbEntity
  8
0
  6
Continuous
 62
     7
370
    25
100
AcDbLine
 10
3104.6304227427
 20
6840.2930830593
 30
0.0
 11
3104.6304227427
 21
6711.2930830593
 31
0.0
  0
LINE
  5
102
330
1F
100
AcDbEntity
  8
0
  6
Continuous
 62
     7
370
    25
100
AcDbLine
 10
3668.2875317427
 20
6614.2128800593
 30
0.0
 11
3670.9928097427
 21
6614.2128800593
 31
0.0
  0
SPLINE
  5
103
330
1F
100
AcDbEntity
  8
0
  6
Continuous
 62
     7
370
    25
100
AcDbSpline
210
0.0
220
0.0
230
1.0
 70
     8
 71
     3
 72
    11
 73
     7
 74
     0
 42
0.00000001
 43
0.00000001
 40
0.0
 40
0.0
 40
0.0
 40
0.0
 40
0.2748939111072173
 40
0.5431553116122068
 40
0.7649548403769024
 40
1.0
 40
1.0
 40
1.0
 40
1.0
 10
3670.992809742716
 20
6614.21288005931
 30
0.0
 10
3672.755598595139
 20
6613.956620437894
 30
0.0
 10
3676.238644562171
 20
6613.450284106314
 30
0.0
 10
3679.850110515626
 20
6609.838123426621
 30
0.0
 10
3681.874709005962
 20
6605.647705067498
 30
0.0
 10
3682.108857880829
 20
6602.741966460784
 30
0.0
 10
3682.229326742715
 20
6601.24697305931
 30
0.0
  0
LINE
  5
104
330
1F
100
AcDbEntity
  8
0
  6
Continuous
 62
     7
370
    25
100
AcDbLine
 10
3682.2293267427
 20
6601.2469730593
 30
0.0
 11
3682.2293267427
 21
6561.9930830593
 31
0.0
  0
LINE
  5
105
330
1F
100
AcDbEntity
  8
0
  6
Continuous
 62
     7
370
    25
100
AcDbLine
 10
3682.2293267427
 20
6561.9930830593
 30
0.0
 11
3675.2332037427
 21
6561.9930830593
 31
0.0
  0
LINE
  5
106
330
1F
100
AcDbEntity
  8
0
  6
Continuous
 62
     7
370
    25
100
AcDbLine
 10
3675.2332037427
 20
6561.9930830593
 30
0.0
 11
3675.2332037427
 21
6585.0639990593
 31
0.0
  0
LINE
  5
107
330
1F
100
AcDbEntity
  8
0
  6
Continuous
 62
     7
370
    25
100
AcDbLine
 10
3675.2332037427
 20
6585.0639990593
 30
0.0
 11
3664.0549187427
 21
6585.0639990593
 31
0.0
  0
LINE
  5
108
330
1F
100
AcDbEntity
  8
0
  6
Continuous
 62
     7
370
    25
100
AcDbLine
 10
3664.0549187427
 20
6585.0639990593
 30
0.0
 11
3664.0524087427
 21
6561.9930830593
 31
0.0
  0
LINE
  5
109
330
1F
100
AcDbEntity
  8
0
  6
Continuous
 62
     7
370
    25
100
AcDbLine
 10
3664.0524087427
 20
6561.9930830593
 30
0.0
 11
3657.1925787427
 21
6561.9930830593
 31
0.0
  0
LINE
  5
10A
330
1F
100
AcDbEntity
  8
0
  6
Continuous
 62
     7
370
    25
100
AcDbLine
 10
3657.1925787427
 20
6561.9930830593
 30
0.0
 11
3657.1925787427
 21
6585.0639990593
 31
0.0
  0
LINE
  5
10B
330
1F
100
AcDbEntity
  8
0
  6
Continuous
 62
     7
370
    25
100
AcDbLine
 10
3657.1925787427
 20
6585.0639990593
 30
0.0
 11
3654.1873557427
 21
6585.0639990593
 31
0.0
  0
LINE
  5
10C
330
1F
100
AcDbEntity
  8
0
  6
Continuous
 62
     7
370
    25
100
AcDbLine
 10
3654.1873557427
 20
6585.0639990593
 30
0.0
 11
3651.7654567427
 21
6592.3869240593
 31
0.0
  0
LINE
  5
10D
330
1F
100
AcDbEntity
  8
0
  6
Continuous
 62
     7
370
    25
100
AcDbLine
 10
3651.7654567427
 20
6592.3869240593
 30
0.0
 11
3657.1925787427
 21
6592.3869240593
 31
0.0
  0
LINE
  5
10E
330
1F
100
AcDbEntity
  8
0
  6
Continuous
 62
     7
370
    25
100
AcDbLine
 10
3657.1925787427
 20
6592.3869240593
 30
0.0
 11
3657.1925787427
 21
6601.3416000593
 31
0.0
  0
SPLINE
  5
10F
330
1F
100
AcDbEntity
  8
0
  6
Continuous
 62
     7
370
    25
100
AcDbSpline
210
0.0
220
0.0
230
1.0
 70
     8
 71
     3
 72
    11
 73
     7
 74
     0
 42
0.00000001
 43
0.00000001
 40
0.0
 40
0.0
 40
0.0
 40
0.0
 40
0.2975698448314256
 40
0.5729153213644218
 40
0.7820989926099678
 40
0.9999999999999999
 40
0.9999999999999999
 40
0.9999999999999999
 40
0.9999999999999999
 10
3657.192578742716
 20
6601.341600059311
 30
0.0
 10
3657.378022018223
 20
6603.222553068097
 30
0.0
 10
3657.73505851109
 20
6606.843977806586
 30
0.0
 10
3660.499720602588
 20
6611.107263513692
 30
0.0
 10
3664.204071365742
 20
6613.75744485458
 30
0.0
 10
3666.907981546397
 20
6614.05901650534
 30
0.0
 10
3668.287531742716
 20
6614.21288005931
 30
0.0
  0
LINE
  5
110
330
1F
100
AcDbEntity
  8
0
  6
Continuous
 62
     7
370
    25
100
AcDbLine
 10
3664.0524087427
 20
6595.0663490593
 30
0.0
 11
3664.0524087427
 21
6592.3886810593
 31
0.0
  0
LINE
  5
111
330
1F
100
AcDbEntity
  8
0
  6
Continuous
 62
     7
370
    25
100
AcDbLine
 10
3664.0524087427
 20
6592.3886810593
 30
0.0
 11
3675.2332037427
 21
6592.3886810593
 31
0.0
  0
LINE
  5
112
330
1F
100
AcDbEntity
  8
0
  6
Continuous
 62
     7
370
    25
100
AcDbLine
 10
3675.2332037427
 20
6592.3886810593
 30
0.0
 11
3675.2332037427
 21
6595.1318600593
 31
0.0
  0
SPLINE
  5
113
330
1F
100
AcDbEntity
  8
0
  6
Continuous
 62
     7
370
    25
100
AcDbSpline
210
0.0
220
0.0
230
1.0
 70
     8
 71
     3
 72
    12
 73
     8
 74
     0
 42
0.00000001
 43
0.00000001
 40
0.0
 40
0.0
 40
0.0
 40
0.0
 40
0.5919167507047403
 40
0.7068162821107011
 40
0.8064203490301226
 40
0.8986248364478565
 40
1.0
 40
1.0
 40
1.0
 40
1.0
 10
3675.233203742715
 20
6595.13186005931
 30
0.0
 10
3675.297763813158
 20
6597.934987211769
 30
0.0
 10
3675.374855919283
 20
6601.282241550873
 30
0.0
 10
3674.285414548137
 20
6604.924577405904
 30
0.0
 10
3673.538176594289
 20
6606.173008482454
 30
0.0
 10
3672.393882531504
 20
6607.040386251447
 30
0.0
 10
3671.474354630675
 20
6607.123686693468
 30
0.0
 10
3670.992809742716
 20
6607.167310059311
 30
0.0
  0
LINE
  5
114
330
1F
100
AcDbEntity
  8
0
  6
Continuous
 62
     7
370
    25
100
AcDbLine
 10
3670.9928097427
 20
6607.1673100593
 30
0.0
 11
3668.2875317427
 21
6607.1673100593
 31
0.0
  0
SPLINE
  5
115
330
1F
100
AcDbEntity
  8
0
  6
Continuous
 62
     7
370
    25
100
AcDbSpline
210
0.0
220
0.0
230
1.0
 70
     8
 71
     3
 72
    12
 73
     8
 74
     0
 42
0.00000001
 43
0.00000001
 40
0.0
 40
0.0
 40
0.0
 40
0.0
 40
0.1009571614410067
 40
0.1931112031187963
 40
0.2929530302810954
 40
0.4081871850082302
 40
1.0
 40
1.0
 40
1.0
 40
1.0
 10
3668.287531742716
 20
6607.167310059311
 30
0.0
 10
3667.80624606777
 20
6607.12193672204
 30
0.0
 10
3666.885641185403
 20
6607.035146447582
 30
0.0
 10
3665.744032506265
 20
6606.15682830128
 30
0.0
 10
3664.99903505578
 20
6604.898672109678
 30
0.0
 10
3663.913140953156
 20
6601.238682350555
 30
0.0
 10
3663.988952730337
 20
6597.878712628618
 30
0.0
 10
3664.052408742716
 20
6595.066349059311
 30
0.0
  0
LINE
  5
116
330
1F
100
AcDbEntity
  8
0
  6
Continuous
 62
     7
370
    25
100
AcDbLine
 10
3629.9026037427
 20
6596.4990570593
 30
0.0
 11
3639.3459767427
 21
6585.8132340593
 31
0.0
  0
SPLINE
  5
117
330
1F
100
AcDbEntity
  8
0
  6
Continuous
 62
     7
370
    25
100
AcDbSpline
210
0.0
220
0.0
230
1.0
 70
     8
 71
     3
 72
    10
 73
     6
 74
     0
 42
0.00000001
 43
0.00000001
 40
0.0
 40
0.0
 40
0.0
 40
0.0
 40
0.3303986270720423
 40
0.5904394406312287
 40
1.0
 40
1.0
 40
1.0
 40
1.0
 10
3624.380603742716
 20
6611.668995059311
 30
0.0
 10
3624.327330808344
 20
6609.822493756616
 30
0.0
 10
3624.232129318403
 20
6606.522700395037
 30
0.0
 10
3625.940444436253
 20
6601.096279875349
 30
0.0
 10
3628.398895973476
 20
6598.243782379701
 30
0.0
 10
3629.902603742717
 20
6596.49905705931
 30
0.0
  0
SPLINE
  5
118
330
1F
100
AcDbEntity
  8
0
  6
Continuous
 62
     7
370
    25
100
AcDbSpline
210
0.0
220
0.0
230
1.0
 70
     8
 71
     3
 72
    11
 73
     7
 74
     0
 42
0.00000001
 43
0.00000001
 40
0.0
 40
0.0
 40
0.0
 40
0.0
 40
0.2749207534798641
 40
0.542592110612743
 40
0.7577339791726287
 40
0.9999999999999999
 40
0.9999999999999999
 40
0.9999999999999999
 40
0.9999999999999999
 10
3641.001070742716
 20
6625.983525059311
 30
0.0
 10
3638.76500508207
 20
6625.788266547238
 30
0.0
 10
3634.351836665638
 20
6625.402898302608
 30
0.0
 10
3628.882951690359
 20
6622.187575871698
 30
0.0
 10
3625.247664136572
 20
6617.342949538061
 30
0.0
 10
3624.680828273558
 20
6613.633633662886
 30
0.0
 10
3624.380603742716
 20
6611.668995059311
 30
0.0
  0
LINE
  5
119
330
1F
100
AcDbEntity
  8
0
  6
Continuous
 62
     7
370
    25
100
AcDbLine
 10
3804.5825397427
 20
6625.9842780593
 30
0.0
 11
3641.0010707427
 21
6625.9835250593
 31
0.0
  0
LINE
  5
11A
330
1F
100
AcDbEntity
  8
0
  6
Continuous
 62
     7
370
    25
100
AcDbLine
 10
3804.5825397427
 20
6618.3348020593
 30
0.0
 11
3804.5825397427
 21
6625.9842780593
 31
0.0
  0
LINE
  5
11B
330
1F
100
AcDbEntity
  8
0
  6
Continuous
 62
     7
370
    25
100
AcDbLine
 10
3641.5065847427
 20
6618.3348020593
 30
0.0
 11
3804.5825397427
 21
6618.3348020593
 31
0.0
  0
SPLINE
  5
11C
330
1F
100
AcDbEntity
  8
0
  6
Continuous
 62
     7
370
    25
100
AcDbSpline
210
0.0
220
0.0
230
1.0
 70
     8
 71
     3
 72
    12
 73
     8
 74
     0
 42
0.00000001
 43
0.00000001
 40
0.0
 40
0.0
 40
0.0
 40
0.0
 40
0.2019681175748264
 40
0.3744684868936557
 40
0.5436395242936342
 40
0.7598053158687111
 40
1.0
 40
1.0
 40
1.0
 40
1.0
 10
3632.420886742716
 20
6611.146413059311
 30
0.0
 10
3632.485328637219
 20
6612.034259556533
 30
0.0
 10
3632.604810162406
 20
6613.68041310988
 30
0.0
 10
3633.855429321465
 20
6615.793283484722
 30
0.0
 10
3635.839772477277
 20
6617.270346557575
 30
0.0
 10
3638.471603789185
 20
6618.137326402228
 30
0.0
 10
3640.460025426942
 20
6618.266706083842
 30
0.0
 10
3641.506584742715
 20
6618.33480205931
 30
0.0
  0
SPLINE
  5
11D
330
1F
100
AcDbEntity
  8
0
  6
Continuous
 62
     7
370
    25
100
AcDbSpline
210
0.0
220
0.0
230
1.0
 70
     8
 71
     3
 72
    10
 73
     6
 74
     0
 42
0.00000001
 43
0.00000001
 40
0.0
 40
0.0
 40
0.0
 40
0.0
 40
0.5822765549197224
 40
0.7734538542816912
 40
1.0
 40
1.0
 40
1.0
 40
1.0
 10
3639.807314742716
 20
6597.157932059311
 30
0.0
 10
3637.54799936578
 20
6599.441052003431
 30
0.0
 10
3634.546889031585
 20
6602.473782594499
 30
0.0
 10
3632.49638898785
 20
6607.616381344765
 30
0.0
 10
3632.447435788135
 20
6609.905139079263
 30
0.0
 10
3632.420886742717
 20
6611.146413059311
 30
0.0
  0
LINE
  5
11E
330
1F
100
AcDbEntity
  8
0
  6
Continuous
 62
     7
370
    25
100
AcDbLine
 10
3646.7336597427
 20
6589.2489220593
 30
0.0
 11
3639.8073147427
 21
6597.1579320593
 31
0.0
  0
SPLINE
  5
11F
330
1F
100
AcDbEntity
  8
0
  6
Continuous
 62
     7
370
    25
100
AcDbSpline
210
0.0
220
0.0
230
1.0
 70
     8
 71
     3
 72
    10
 73
     6
 74
     0
 42
0.00000001
 43
0.00000001
 40
0.0
 40
0.0
 40
0.0
 40
0.0
 40
0.3698938787160431
 40
0.6616433347356108
 40
0.9999999999999999
 40
0.9999999999999999
 40
0.9999999999999999
 40
0.9999999999999999
 10
3651.441917742716
 20
6574.01949705931
 30
0.0
 10
3651.577507684604
 20
6576.061320063074
 30
0.0
 10
3651.820042601967
 20
6579.71360699964
 30
0.0
 10
3650.069430433316
 20
6585.069280798683
 30
0.0
 10
3647.899094556149
 20
6587.788659983586
 30
0.0
 10
3646.733659742716
 20
6589.248922059311
 30
0.0
  0
SPLINE
  5
120
330
1F
100
AcDbEntity
  8
0
  6
Continuous
 62
     7
370
    25
100
AcDbSpline
210
0.0
220
0.0
230
1.0
 70
     8
 71
     3
 72
    12
 73
     8
 74
     0
 42
0.00000001
 43
0.00000001
 40
0.0
 40
0.0
 40
0.0
 40
0.0
 40
0.2122059308143538
 40
0.3922555131342353
 40
0.5571619042080419
 40
0.7600199686502443
 40
1.0
 40
1.0
 40
1.0
 40
1.0
 10
3637.322665742716
 20
6561.99308305931
 30
0.0
 10
3638.789220238351
 20
6562.053358505768
 30
0.0
 10
3641.500096810073
 20
6562.164775637649
 30
0.0
 10
3645.20904393537
 20
6563.389595262494
 30
0.0
 10
3648.28438708699
 20
6565.698510701909
 30
0.0
 10
3650.520292406352
 20
6569.378649589946
 30
0.0
 10
3651.118007658431
 20
6572.388446744566
 30
0.0
 10
3651.441917742716
 20
6574.01949705931
 30
0.0
  0
LINE
  5
121
330
1F
100
AcDbEntity
  8
0
  6
Continuous
 62
     7
370
    25
100
AcDbLine
 10
3636.6693127427
 20
6569.7710710593
 30
0.0
 11
3621.7011787427
 21
6569.7710710593
 31
0.0
  0
SPLINE
  5
122
330
1F
100
AcDbEntity
  8
0
  6
Continuous
 62
     7
370
    25
100
AcDbSpline
210
0.0
220
0.0
230
1.0
 70
     8
 71
     3
 72
    11
 73
     7
 74
     0
 42
0.00000001
 43
0.00000001
 40
0.0
 40
0.0
 40
0.0
 40
0.0
 40
0.2717733388355613
 40
0.5159049959104695
 40
0.7284075716898609
 40
1.0
 40
1.0
 40
1.0
 40
1.0
 10
3643.451081742716
 20
6575.537294059311
 30
0.0
 10
3643.292207926695
 20
6574.640719454521
 30
0.0
 10
3642.990619125693
 20
6572.938759579433
 30
0.0
 10
3641.45837032311
 20
6570.918189324686
 30
0.0
 10
3639.189988036228
 20
6569.892928309516
 30
0.0
 10
3637.575237989842
 20
6569.814866291401
 30
0.0
 10
3636.669312742717
 20
6569.77107105931
 30
0.0
  0
SPLINE
  5
123
330
1F
100
AcDbEntity
  8
0
  6
Continuous
 62
     7
370
    25
100
AcDbSpline
210
0.0
220
0.0
230
1.0
 70
     8
 71
     3
 72
    10
 73
     6
 74
     0
 42
0.00000001
 43
0.00000001
 40
0.0
 40
0.0
 40
0.0
 40
0.0
 40
0.5555109882164923
 40
0.7547934146819496
 40
1.0
 40
1.0
 40
1.0
 40
1.0
 10
3639.345976742715
 20
6585.81323405931
 30
0.0
 10
3640.834436739076
 20
6584.20354796193
 30
0.0
 10
3642.856862626416
 20
6582.016407668073
 30
0.0
 10
3643.702961730899
 20
6578.185083687604
 30
0.0
 10
3643.540632309766
 20
6576.478659287859
 30
0.0
 10
3643.451081742716
 20
6575.537294059311
 30
0.0
  0
LINE
  5
124
330
1F
100
AcDbEntity
  8
0
  6
Continuous
 62
     7
370
    25
100
AcDbLine
 10
3621.7011787427
 20
6569.7710710593
 30
0.0
 11
3621.7011787427
 21
6561.9930830593
 31
0.0
  0
LINE
  5
125
330
1F
100
AcDbEntity
  8
0
  6
Continuous
 62
     7
370
    25
100
AcDbLine
 10
3621.7011787427
 20
6561.9930830593
 30
0.0
 11
3637.3226657427
 21
6561.9930830593
 31
0.0
  0
LINE
  5
126
330
1F
100
AcDbEntity
  8
0
  6
Continuous
 62
     7
370
    25
100
AcDbLine
 10
3688.1770227427
 20
6614.2128800593
 30
0.0
 11
3710.9886557427
 21
6595.7854640593
 31
0.0
  0
LINE
  5
127
330
1F
100
AcDbEntity
  8
0
  6
Continuous
 62
     7
370
    25
100
AcDbLine
 10
3710.9886557427
 20
6595.7854640593
 30
0.0
 11
3710.9886557427
 21
6613.3035070593
 31
0.0
  0
LINE
  5
128
330
1F
100
AcDbEntity
  8
0
  6
Continuous
 62
     7
370
    25
100
AcDbLine
 10
3710.9886557427
 20
6613.3035070593
 30
0.0
 11
3718.8994227427
 21
6613.3045110593
 31
0.0
  0
LINE
  5
129
330
1F
100
AcDbEntity
  8
0
  6
Continuous
 62
     7
370
    25
100
AcDbLine
 10
3718.8994227427
 20
6613.3045110593
 30
0.0
 11
3718.8994227427
 21
6592.3886810593
 31
0.0
  0
LINE
  5
12A
330
1F
100
AcDbEntity
  8
0
  6
Continuous
 62
     7
370
    25
100
AcDbLine
 10
3718.8994227427
 20
6592.3886810593
 30
0.0
 11
3724.8446087427
 21
6592.3886810593
 31
0.0
  0
LINE
  5
12B
330
1F
100
AcDbEntity
  8
0
  6
Continuous
 62
     7
370
    25
100
AcDbLine
 10
3724.8446087427
 20
6592.3886810593
 30
0.0
 11
3724.8446087427
 21
6613.3045110593
 31
0.0
  0
LINE
  5
12C
330
1F
100
AcDbEntity
  8
0
  6
Continuous
 62
     7
370
    25
100
AcDbLine
 10
3724.8446087427
 20
6613.3045110593
 30
0.0
 11
3744.4552387427
 21
6613.3045110593
 31
0.0
  0
LINE
  5
12D
330
1F
100
AcDbEntity
  8
0
  6
Continuous
 62
     7
370
    25
100
AcDbLine
 10
3744.4552387427
 20
6613.3045110593
 30
0.0
 11
3744.4552387427
 21
6607.1673100593
 31
0.0
  0
LINE
  5
12E
330
1F
100
AcDbEntity
  8
0
  6
Continuous
 62
     7
370
    25
100
AcDbLine
 10
3744.4552387427
 20
6607.1673100593
 30
0.0
 11
3731.2546467427
 21
6607.1673100593
 31
0.0
  0
LINE
  5
12F
330
1F
100
AcDbEntity
  8
0
  6
Continuous
 62
     7
370
    25
100
AcDbLine
 10
3731.2546467427
 20
6607.1673100593
 30
0.0
 11
3731.2546467427
 21
6592.3886810593
 31
0.0
  0
LINE
  5
130
330
1F
100
AcDbEntity
  8
0
  6
Continuous
 62
     7
370
    25
100
AcDbLine
 10
3731.2546467427
 20
6592.3886810593
 30
0.0
 11
3744.5563917427
 21
6592.3886810593
 31
0.0
  0
LINE
  5
131
330
1F
100
AcDbEntity
  8
0
  6
Continuous
 62
     7
370
    25
100
AcDbLine
 10
3744.5563917427
 20
6592.3886810593
 30
0.0
 11
3746.9735217427
 21
6585.0639990593
 31
0.0
  0
LINE
  5
132
330
1F
100
AcDbEntity
  8
0
  6
Continuous
 62
     7
370
    25
100
AcDbLine
 10
3746.9735217427
 20
6585.0639990593
 30
0.0
 11
3731.2521367427
 21
6585.0639990593
 31
0.0
  0
LINE
  5
133
330
1F
100
AcDbEntity
  8
0
  6
Continuous
 62
     7
370
    25
100
AcDbLine
 10
3731.2521367427
 20
6585.0639990593
 30
0.0
 11
3731.2546467427
 21
6568.5961400593
 31
0.0
  0
LINE
  5
134
330
1F
100
AcDbEntity
  8
0
  6
Continuous
 62
     7
370
    25
100
AcDbLine
 10
3731.2546467427
 20
6568.5961400593
 30
0.0
 11
3744.4552387427
 21
6568.5961400593
 31
0.0
  0
LINE
  5
135
330
1F
100
AcDbEntity
  8
0
  6
Continuous
 62
     7
370
    25
100
AcDbLine
 10
3744.4552387427
 20
6568.5961400593
 30
0.0
 11
3744.4552387427
 21
6561.9930830593
 31
0.0
  0
LINE
  5
136
330
1F
100
AcDbEntity
  8
0
  6
Continuous
 62
     7
370
    25
100
AcDbLine
 10
3744.4552387427
 20
6561.9930830593
 30
0.0
 11
3724.8446087427
 21
6561.9930830593
 31
0.0
  0
LINE
  5
137
330
1F
100
AcDbEntity
  8
0
  6
Continuous
 62
     7
370
    25
100
AcDbLine
 10
3724.8446087427
 20
6561.9930830593
 30
0.0
 11
3724.8453617427
 21
6585.0639990593
 31
0.0
  0
LINE
  5
138
330
1F
100
AcDbEntity
  8
0
  6
Continuous
 62
     7
370
    25
100
AcDbLine
 10
3724.8453617427
 20
6585.0639990593
 30
0.0
 11
3718.8994227427
 21
6585.0639990593
 31
0.0
  0
LINE
  5
139
330
1F
100
AcDbEntity
  8
0
  6
Continuous
 62
     7
370
    25
100
AcDbLine
 10
3718.8994227427
 20
6585.0639990593
 30
0.0
 11
3718.8994227427
 21
6561.9930830593
 31
0.0
  0
LINE
  5
13A
330
1F
100
AcDbEntity
  8
0
  6
Continuous
 62
     7
370
    25
100
AcDbLine
 10
3718.8994227427
 20
6561.9930830593
 30
0.0
 11
3710.9886557427
 21
6561.9930830593
 31
0.0
  0
LINE
  5
13B
330
1F
100
AcDbEntity
  8
0
  6
Continuous
 62
     7
370
    25
100
AcDbLine
 10
3710.9886557427
 20
6561.9930830593
 30
0.0
 11
3710.9886557427
 21
6585.0639990593
 31
0.0
  0
LINE
  5
13C
330
1F
100
AcDbEntity
  8
0
  6
Continuous
 62
     7
370
    25
100
AcDbLine
 10
3710.9886557427
 20
6585.0639990593
 30
0.0
 11
3695.4946767427
 21
6596.8311300593
 31
0.0
  0
LINE
  5
13D
330
1F
100
AcDbEntity
  8
0
  6
Continuous
 62
     7
370
    25
100
AcDbLine
 10
3695.4946767427
 20
6596.8311300593
 30
0.0
 11
3695.4974377427
 21
6561.9930830593
 31
0.0
  0
LINE
  5
13E
330
1F
100
AcDbEntity
  8
0
  6
Continuous
 62
     7
370
    25
100
AcDbLine
 10
3695.4974377427
 20
6561.9930830593
 30
0.0
 11
3688.1762697427
 21
6561.9930830593
 31
0.0
  0
LINE
  5
13F
330
1F
100
AcDbEntity
  8
0
  6
Continuous
 62
     7
370
    25
100
AcDbLine
 10
3688.1762697427
 20
6561.9930830593
 30
0.0
 11
3688.1770227427
 21
6614.2128800593
 31
0.0
  0
SPLINE
  5
140
330
1F
100
AcDbEntity
  8
0
  6
Continuous
 62
     7
370
    25
100
AcDbSpline
210
0.0
220
0.0
230
1.0
 70
     8
 71
     3
 72
     9
 73
     5
 74
     0
 42
0.00000001
 43
0.00000001
 40
0.0
 40
0.0
 40
0.0
 40
0.0
 40
0.5803480180448928
 40
1.0
 40
1.0
 40
1.0
 40
1.0
 10
3852.145533742717
 20
6608.77596905931
 30
0.0
 10
3849.486947825978
 20
6608.406521062013
 30
0.0
 10
3844.90592775858
 20
6607.769923734528
 30
0.0
 10
3841.070530009643
 20
6605.228924446626
 30
0.0
 10
3839.460997742715
 20
6604.162589059311
 30
0.0
  0
SPLINE
  5
141
330
1F
100
AcDbEntity
  8
0
  6
Continuous
 62
     7
370
    25
100
AcDbSpline
210
0.0
220
0.0
230
1.0
 70
     8
 71
     3
 72
     9
 73
     5
 74
     0
 42
0.00000001
 43
0.00000001
 40
0.0
 40
0.0
 40
0.0
 40
0.0
 40
0.5532695838543839
 40
1.0
 40
1.0
 40
1.0
 40
1.0
 10
3840.168566742715
 20
6607.001399059311
 30
0.0
 10
3842.304834984367
 20
6607.890662314141
 30
0.0
 10
3846.166005567372
 20
6609.497949757336
 30
0.0
 10
3850.299137841784
 20
6608.998906749759
 30
0.0
 10
3852.145533742717
 20
6608.77596905931
 30
0.0
  0
SPLINE
  5
142
330
1F
100
AcDbEntity
  8
0
  6
Continuous
 62
     7
370
    25
100
AcDbSpline
210
0.0
220
0.0
230
1.0
 70
     8
 71
     3
 72
    14
 73
    10
 74
     0
 42
0.00000001
 43
0.00000001
 40
0.0
 40
0.0
 40
0.0
 40
0.0
 40
0.1729344755740822
 40
0.310791196710845
 40
0.4227798625479001
 40
0.521344400132036
 40
0.6548282866727869
 40
0.8116145926003545
 40
0.9999999999999999
 40
0.9999999999999999
 40
0.9999999999999999
 40
0.9999999999999999
 10
3828.326888742716
 20
6606.469279059311
 30
0.0
 10
3828.812508537154
 20
6607.201463352309
 30
0.0
 10
3829.685245778001
 20
6608.517316838886
 30
0.0
 10
3831.224233443671
 20
6610.036885874337
 30
0.0
 10
3832.780964089734
 20
6610.930581771935
 30
0.0
 10
3834.550390153184
 20
6611.203767109147
 30
0.0
 10
3836.493836569835
 20
6610.587844719523
 30
0.0
 10
3838.441579381791
 20
6609.090716214771
 30
0.0
 10
3839.558811563891
 20
6607.73908364495
 30
0.0
 10
3840.168566742715
 20
6607.001399059311
 30
0.0
  0
SPLINE
  5
143
330
1F
100
AcDbEntity
  8
0
  6
Continuous
 62
     7
370
    25
100
AcDbSpline
210
0.0
220
0.0
230
1.0
 70
     8
 71
     3
 72
    10
 73
     6
 74
     0
 42
0.00000001
 43
0.00000001
 40
0.0
 40
0.0
 40
0.0
 40
0.0
 40
0.2049703121850535
 40
0.4719486998809014
 40
1.0
 40
1.0
 40
1.0
 40
1.0
 10
3815.022884742717
 20
6609.39669205931
 30
0.0
 10
3815.964533786944
 20
6609.532208092832
 30
0.0
 10
3818.132701642227
 20
6609.844236772263
 30
0.0
 10
3822.701423365943
 20
6608.795488995554
 30
0.0
 10
3826.081724362704
 20
6607.397686460207
 30
0.0
 10
3828.326888742716
 20
6606.469279059311
 30
0.0
  0
SPLINE
  5
144
330
1F
100
AcDbEntity
  8
0
  6
Continuous
 62
     7
370
    25
100
AcDbSpline
210
0.0
220
0.0
230
1.0
 70
     8
 71
     3
 72
     9
 73
     5
 74
     0
 42
0.00000001
 43
0.00000001
 40
0.0
 40
0.0
 40
0.0
 40
0.0
 40
0.5722477400037468
 40
1.0
 40
1.0
 40
1.0
 40
1.0
 10
3824.069677742717
 20
6606.557631059311
 30
0.0
 10
3822.425655701354
 20
6607.37479299268
 30
0.0
 10
3819.552735589251
 20
6608.802779293446
 30
0.0
 10
3816.380020704845
 20
6609.218756758518
 30
0.0
 10
3815.022884742717
 20
6609.39669205931
 30
0.0
  0
SPLINE
  5
145
330
1F
100
AcDbEntity
  8
0
  6
Continuous
 62
     7
370
    25
100
AcDbSpline
210
0.0
220
0.0
230
1.0
 70
     8
 71
     3
 72
    10
 73
     6
 74
     0
 42
0.00000001
 43
0.00000001
 40
0.0
 40
0.0
 40
0.0
 40
0.0
 40
0.2445670915705973
 40
0.5285782314731586
 40
1.0
 40
1.0
 40
1.0
 40
1.0
 10
3833.028118742716
 20
6602.83254005931
 30
0.0
 10
3832.233910872038
 20
6602.942402401333
 30
0.0
 10
3830.517404415633
 20
6603.179845804199
 30
0.0
 10
3827.558832298802
 20
6604.624776571245
 30
0.0
 10
3825.410393511575
 20
6605.814927218193
 30
0.0
 10
3824.069677742717
 20
6606.557631059311
 30
0.0
  0
SPLINE
  5
146
330
1F
100
AcDbEntity
  8
0
  6
Continuous
 62
     7
370
    25
100
AcDbSpline
210
0.0
220
0.0
230
1.0
 70
     8
 71
     3
 72
    17
 73
    13
 74
     0
 42
0.00000001
 43
0.00000001
 40
0.0
 40
0.0
 40
0.0
 40
0.0
 40
0.0544844356672087
 40
0.107347701414625
 40
0.2217196594709115
 40
0.3548551130032953
 40
0.5000000000000052
 40
0.6451448869967151
 40
0.778280340529099
 40
0.8926522985853589
 40
0.9455155643327913
 40
0.9999999999999999
 40
0.9999999999999999
 40
0.9999999999999999
 40
0.9999999999999999
 10
3833.028118742716
 20
6604.42915105931
 30
0.0
 10
3833.065196131333
 20
6604.42575144519
 30
0.0
 10
3833.138247680712
 20
6604.419053371566
 30
0.0
 10
3833.272127648221
 20
6604.343226984804
 30
0.0
 10
3833.396091969597
 20
6604.173709850689
 30
0.0
 10
3833.475876696013
 20
6603.917798808478
 30
0.0
 10
3833.502936889571
 20
6603.630845559311
 30
0.0
 10
3833.475876696012
 20
6603.343892310144
 30
0.0
 10
3833.396091969598
 20
6603.087981267933
 30
0.0
 10
3833.27212764822
 20
6602.918464133817
 30
0.0
 10
3833.138247680712
 20
6602.842637747056
 30
0.0
 10
3833.065196131333
 20
6602.835939673431
 30
0.0
 10
3833.028118742716
 20
6602.83254005931
 30
0.0
  0
LINE
  5
147
330
1F
100
AcDbEntity
  8
0
  6
Continuous
 62
     7
370
    25
100
AcDbLine
 10
3832.0522307427
 20
6604.4291510593
 30
0.0
 11
3833.0281187427
 21
6604.4291510593
 31
0.0
  0
SPLINE
  5
148
330
1F
100
AcDbEntity
  8
0
  6
Continuous
 62
     7
370
    25
100
AcDbSpline
210
0.0
220
0.0
230
1.0
 70
     8
 71
     3
 72
    11
 73
     7
 74
     0
 42
0.00000001
 43
0.00000001
 40
0.0
 40
0.0
 40
0.0
 40
0.0
 40
0.2693011962690139
 40
0.5332276186092509
 40
0.755707734878087
 40
1.0
 40
1.0
 40
1.0
 40
1.0
 10
3831.431507742716
 20
6604.96127105931
 30
0.0
 10
3831.442886490141
 20
6604.878728766825
 30
0.0
 10
3831.465416885384
 20
6604.715291579519
 30
0.0
 10
3831.63349521224
 20
6604.542125441401
 30
0.0
 10
3831.835990581428
 20
6604.445383141458
 30
0.0
 10
3831.977939608892
 20
6604.434727728232
 30
0.0
 10
3832.052230742715
 20
6604.42915105931
 30
0.0
  0
SPLINE
  5
149
330
1F
100
AcDbEntity
  8
0
  6
Continuous
 62
     7
370
    25
100
AcDbSpline
210
0.0
220
0.0
230
1.0
 70
     8
 71
     3
 72
    12
 73
     8
 74
     0
 42
0.00000001
 43
0.00000001
 40
0.0
 40
0.0
 40
0.0
 40
0.0
 40
0.1614730196446827
 40
0.3549316542638704
 40
0.5609359999144675
 40
0.7935680451722702
 40
1.0
 40
1.0
 40
1.0
 40
1.0
 10
3832.052230742715
 20
6605.49339105931
 30
0.0
 10
3832.005325546313
 20
6605.487031412582
 30
0.0
 10
3831.902223870321
 20
6605.473052359369
 30
0.0
 10
3831.753743354138
 20
6605.397814293191
 30
0.0
 10
3831.605638020081
 20
6605.290236850506
 30
0.0
 10
3831.470435731358
 20
6605.148750148008
 30
0.0
 10
3831.443957055112
 20
6605.021227553963
 30
0.0
 10
3831.431507742716
 20
6604.96127105931
 30
0.0
  0
LINE
  5
14A
330
1F
100
AcDbEntity
  8
0
  6
Continuous
 62
     7
370
    25
100
AcDbLine
 10
3836.1334907427
 20
6605.4933910593
 30
0.0
 11
3832.0522307427
 21
6605.4933910593
 31
0.0
  0
SPLINE
  5
14B
330
1F
100
AcDbEntity
  8
0
  6
Continuous
 62
     7
370
    25
100
AcDbSpline
210
0.0
220
0.0
230
1.0
 70
     8
 71
     3
 72
    11
 73
     7
 74
     0
 42
0.00000001
 43
0.00000001
 40
0.0
 40
0.0
 40
0.0
 40
0.0
 40
0.2788535375206754
 40
0.564746063851765
 40
0.7904582563496513
 40
1.0
 40
1.0
 40
1.0
 40
1.0
 10
3836.754966742715
 20
6604.96127105931
 30
0.0
 10
3836.738567601928
 20
6605.044684948009
 30
0.0
 10
3836.705355363375
 20
6605.213618308985
 30
0.0
 10
3836.51794290626
 20
6605.374653929489
 30
0.0
 10
3836.325449233858
 20
6605.472569550905
 30
0.0
 10
3836.195872235339
 20
6605.486624613267
 30
0.0
 10
3836.133490742717
 20
6605.49339105931
 30
0.0
  0
SPLINE
  5
14C
330
1F
100
AcDbEntity
  8
0
  6
Continuous
 62
     7
370
    25
100
AcDbSpline
210
0.0
220
0.0
230
1.0
 70
     8
 71
     3
 72
    11
 73
     7
 74
     0
 42
0.00000001
 43
0.00000001
 40
0.0
 40
0.0
 40
0.0
 40
0.0
 40
0.2692779648133819
 40
0.5575890310175372
 40
0.7797237364242904
 40
0.9999999999999999
 40
0.9999999999999999
 40
0.9999999999999999
 40
0.9999999999999999
 10
3836.133490742717
 20
6604.42915105931
 30
0.0
 10
3836.213655401451
 20
6604.440101801576
 30
0.0
 10
3836.37965091622
 20
6604.462777306322
 30
0.0
 10
3836.57860670935
 20
6604.592330745076
 30
0.0
 10
3836.725120316877
 20
6604.762721607631
 30
0.0
 10
3836.745045834568
 20
6604.895273512953
 30
0.0
 10
3836.754966742715
 20
6604.96127105931
 30
0.0
  0
LINE
  5
14D
330
1F
100
AcDbEntity
  8
0
  6
Continuous
 62
     7
370
    25
100
AcDbLine
 10
3835.1134267427
 20
6604.4291510593
 30
0.0
 11
3836.1334907427
 21
6604.4291510593
 31
0.0
  0
SPLINE
  5
14E
330
1F
100
AcDbEntity
  8
0
  6
Continuous
 62
     7
370
    25
100
AcDbSpline
210
0.0
220
0.0
230
1.0
 70
     8
 71
     3
 72
    18
 73
    14
 74
     0
 42
0.00000001
 43
0.00000001
 40
0.0
 40
0.0
 40
0.0
 40
0.0
 40
0.042698293270096
 40
0.0873784308633511
 40
0.1377389714188116
 40
0.1948256316157788
 40
0.3263732383186519
 40
0.4720010038404275
 40
0.6184798108775421
 40
0.7544036759496224
 40
0.8760291940476722
 40
0.9358570861912413
 40
0.9999999999999999
 40
0.9999999999999999
 40
0.9999999999999999
 40
0.9999999999999999
 10
3834.935467742715
 20
6602.788364059311
 30
0.0
 10
3834.905753838202
 20
6602.792143193004
 30
0.0
 10
3834.844946856182
 20
6602.799876869149
 30
0.0
 10
3834.766022722112
 20
6602.858868283704
 30
0.0
 10
3834.700677142962
 20
6602.941629715636
 30
0.0
 10
3834.625920712474
 20
6603.090014696
 30
0.0
 10
3834.568303401506
 20
6603.315986805647
 30
0.0
 10
3834.549597920562
 20
6603.609523924262
 30
0.0
 10
3834.584793485557
 20
6603.905051443569
 30
0.0
 10
3834.678794712903
 20
6604.171546553705
 30
0.0
 10
3834.826436780143
 20
6604.344609666899
 30
0.0
 10
3834.982824228195
 20
6604.419307396372
 30
0.0
 10
3835.068893968377
 20
6604.425794572478
 30
0.0
 10
3835.113426742716
 20
6604.42915105931
 30
0.0
  0
SPLINE
  5
14F
330
1F
100
AcDbEntity
  8
0
  6
Continuous
 62
     7
370
    25
100
AcDbSpline
210
0.0
220
0.0
230
1.0
 70
     8
 71
     3
 72
    11
 73
     7
 74
     0
 42
0.00000001
 43
0.00000001
 40
0.0
 40
0.0
 40
0.0
 40
0.0
 40
0.3146001909440235
 40
0.55667808397662
 40
0.7424916363924353
 40
1.0
 40
1.0
 40
1.0
 40
1.0
 10
3839.460997742715
 20
6604.162589059311
 30
0.0
 10
3839.040361955857
 20
6603.871980559006
 30
0.0
 10
3838.296056228714
 20
6603.357755241304
 30
0.0
 10
3837.171615405705
 20
6602.906655860796
 30
0.0
 10
3836.073085539337
 20
6602.687779571314
 30
0.0
 10
3835.353466373387
 20
6602.751405971652
 30
0.0
 10
3834.935467742715
 20
6602.788364059311
 30
0.0
  0
SPLINE
  5
150
330
1F
100
AcDbEntity
  8
0
  6
Continuous
 62
     7
370
    25
100
AcDbSpline
210
0.0
220
0.0
230
1.0
 70
     8
 71
     3
 72
     9
 73
     5
 74
     0
 42
0.00000001
 43
0.00000001
 40
0.0
 40
0.0
 40
0.0
 40
0.0
 40
0.5857150179988496
 40
1.0
 40
1.0
 40
1.0
 40
1.0
 10
3837.552393742716
 20
6625.85149905931
 30
0.0
 10
3839.41743152988
 20
6627.266892093722
 30
0.0
 10
3842.601638404985
 20
6629.683413765384
 30
0.0
 10
3846.432519314195
 20
6630.768744737191
 30
0.0
 10
3848.019595742716
 20
6631.218381059311
 30
0.0
  0
SPLINE
  5
151
330
1F
100
AcDbEntity
  8
0
  6
Continuous
 62
     7
370
    25
100
AcDbSpline
210
0.0
220
0.0
230
1.0
 70
     8
 71
     3
 72
     9
 73
     5
 74
     0
 42
0.00000001
 43
0.00000001
 40
0.0
 40
0.0
 40
0.0
 40
0.0
 40
0.5550185804534093
 40
1.0
 40
1.0
 40
1.0
 40
1.0
 10
3840.080465742715
 20
6625.097997059311
 30
0.0
 10
3839.615978673079
 20
6625.248279745158
 30
0.0
 10
3838.779093051598
 20
6625.519050294363
 30
0.0
 10
3837.93015527822
 20
6625.749121602167
 30
0.0
 10
3837.552393742716
 20
6625.85149905931
 30
0.0
  0
SPLINE
  5
152
330
1F
100
AcDbEntity
  8
0
  6
Continuous
 62
     7
370
    25
100
AcDbSpline
210
0.0
220
0.0
230
1.0
 70
     8
 71
     3
 72
     9
 73
     5
 74
     0
 42
0.00000001
 43
0.00000001
 40
0.0
 40
0.0
 40
0.0
 40
0.0
 40
0.5806148853853241
 40
1.0
 40
1.0
 40
1.0
 40
1.0
 10
3848.019595742716
 20
6631.218381059311
 30
0.0
 10
3846.317110045477
 20
6630.242320641752
 30
0.0
 10
3843.384898453779
 20
6628.561240045772
 30
0.0
 10
3841.056825066902
 20
6626.121279987856
 30
0.0
 10
3840.080465742715
 20
6625.097997059311
 30
0.0
  0
SPLINE
  5
153
330
1F
100
AcDbEntity
  8
0
  6
Continuous
 62
     7
370
    25
100
AcDbSpline
210
0.0
220
0.0
230
1.0
 70
     8
 71
     3
 72
    11
 73
     7
 74
     0
 42
0.00000001
 43
0.00000001
 40
0.0
 40
0.0
 40
0.0
 40
0.0
 40
0.293238261188312
 40
0.5809874119804642
 40
0.7978102027091855
 40
1.0
 40
1.0
 40
1.0
 40
1.0
 10
3833.516062742717
 20
6625.540761059311
 30
0.0
 10
3835.825430126334
 20
6625.330654402175
 30
0.0
 10
3840.400935976364
 20
6624.914374062513
 30
0.0
 10
3845.836013745727
 20
6621.539264268324
 30
0.0
 10
3849.772625084991
 20
6617.549333142142
 30
0.0
 10
3851.042714448682
 20
6614.503273011473
 30
0.0
 10
3851.655581742717
 20
6613.033431059311
 30
0.0
  0
SPLINE
  5
154
330
1F
100
AcDbEntity
  8
0
  6
Continuous
 62
     7
370
    25
100
AcDbSpline
210
0.0
220
0.0
230
1.0
 70
     8
 71
     3
 72
    11
 73
     7
 74
     0
 42
0.00000001
 43
0.00000001
 40
0.0
 40
0.0
 40
0.0
 40
0.0
 40
0.3095262130003014
 40
0.5761953434094105
 40
0.782694730272846
 40
1.0
 40
1.0
 40
1.0
 40
1.0
 10
3815.109730742716
 20
6611.880588059311
 30
0.0
 10
3816.077346107167
 20
6614.260272398347
 30
0.0
 10
3817.878600552804
 20
6618.69014934365
 30
0.0
 10
3822.921342279265
 20
6623.009850642555
 30
0.0
 10
3828.257319199658
 20
6625.106913517277
 30
0.0
 10
3831.733602922427
 20
6625.393707717486
 30
0.0
 10
3833.516062742717
 20
6625.540761059311
 30
0.0
  0
SPLINE
  5
155
330
1F
100
AcDbEntity
  8
0
  6
Continuous
 62
     7
370
    25
100
AcDbSpline
210
0.0
220
0.0
230
1.0
 70
     8
 71
     3
 72
     9
 73
     5
 74
     0
 42
0.00000001
 43
0.00000001
 40
0.0
 40
0.0
 40
0.0
 40
0.0
 40
0.5027877645328751
 40
0.9999999999999999
 40
0.9999999999999999
 40
0.9999999999999999
 40
0.9999999999999999
 10
3827.129116742715
 20
6620.04110005931
 30
0.0
 10
3824.949336715883
 20
6618.91677924853
 30
0.0
 10
3820.613948743867
 20
6616.680605478819
 30
0.0
 10
3816.937637616585
 20
6613.47463553962
 30
0.0
 10
3815.109730742716
 20
6611.880588059311
 30
0.0
  0
SPLINE
  5
156
330
1F
100
AcDbEntity
  8
0
  6
Continuous
 62
     7
370
    25
100
AcDbSpline
210
0.0
220
0.0
230
1.0
 70
     8
 71
     3
 72
    11
 73
     7
 74
     0
 42
0.00000001
 43
0.00000001
 40
0.0
 40
0.0
 40
0.0
 40
0.0
 40
0.2854098971973998
 40
0.5577814672451308
 40
0.7737380180676595
 40
1.0
 40
1.0
 40
1.0
 40
1.0
 10
3841.144454742716
 20
6619.597583059311
 30
0.0
 10
3839.946564402862
 20
6618.658598578624
 30
0.0
 10
3837.605506724333
 20
6616.82352507031
 30
0.0
 10
3833.372484579932
 20
6616.501431679036
 30
0.0
 10
3829.701238140387
 20
6617.607913639801
 30
0.0
 10
3827.99970799021
 20
6619.21753442113
 30
0.0
 10
3827.129116742715
 20
6620.04110005931
 30
0.0
  0
SPLINE
  5
157
330
1F
100
AcDbEntity
  8
0
  6
Continuous
 62
     7
370
    25
100
AcDbSpline
210
0.0
220
0.0
230
1.0
 70
     8
 71
     3
 72
    10
 73
     6
 74
     0
 42
0.00000001
 43
0.00000001
 40
0.0
 40
0.0
 40
0.0
 40
0.0
 40
0.2216706176235085
 40
0.497879823517432
 40
1.0
 40
1.0
 40
1.0
 40
1.0
 10
3851.655581742717
 20
6613.033431059311
 30
0.0
 10
3850.998300787758
 20
6613.682614786487
 30
0.0
 10
3849.522025179539
 20
6615.140703742895
 30
0.0
 10
3845.982056754271
 20
6617.373738673677
 30
0.0
 10
3843.04148970125
 20
6618.725516582613
 30
0.0
 10
3841.144454742716
 20
6619.597583059311
 30
0.0
  0
SPLINE
  5
158
330
1F
100
AcDbEntity
  8
0
  6
Continuous
 62
     7
370
    25
100
AcDbSpline
210
0.0
220
0.0
230
1.0
 70
     8
 71
     3
 72
    10
 73
     6
 74
     0
 42
0.00000001
 43
0.00000001
 40
0.0
 40
0.0
 40
0.0
 40
0.0
 40
0.2000574290759544
 40
0.4722298201434083
 40
1.0
 40
1.0
 40
1.0
 40
1.0
 10
3817.106435742716
 20
6631.75025005931
 30
0.0
 10
3817.982364791506
 20
6631.516020491682
 30
0.0
 10
3820.049970174017
 20
6630.963128319146
 30
0.0
 10
3824.164234553046
 20
6629.02257123139
 30
0.0
 10
3827.207562459587
 20
6627.058476421286
 30
0.0
 10
3829.215428742717
 20
6625.762645059311
 30
0.0
  0
SPLINE
  5
159
330
1F
100
AcDbEntity
  8
0
  6
Continuous
 62
     7
370
    25
100
AcDbSpline
210
0.0
220
0.0
230
1.0
 70
     8
 71
     3
 72
     9
 73
     5
 74
     0
 42
0.00000001
 43
0.00000001
 40
0.0
 40
0.0
 40
0.0
 40
0.0
 40
0.548323160870525
 40
1.0
 40
1.0
 40
1.0
 40
1.0
 10
3826.331438742716
 20
6624.963963059311
 30
0.0
 10
3824.881449363466
 20
6626.534103407647
 30
0.0
 10
3822.237042774938
 20
6629.397634369649
 30
0.0
 10
3818.702780262835
 20
6631.018253798331
 30
0.0
 10
3817.106435742716
 20
6631.75025005931
 30
0.0
  0
SPLINE
  5
15A
330
1F
100
AcDbEntity
  8
0
  6
Continuous
 62
     7
370
    25
100
AcDbSpline
210
0.0
220
0.0
230
1.0
 70
     8
 71
     3
 72
     9
 73
     5
 74
     0
 42
0.00000001
 43
0.00000001
 40
0.0
 40
0.0
 40
0.0
 40
0.0
 40
0.5794186031415055
 40
0.9999999999999999
 40
0.9999999999999999
 40
0.9999999999999999
 40
0.9999999999999999
 10
3829.215428742717
 20
6625.762645059311
 30
0.0
 10
3828.645330947125
 20
6625.654005729798
 30
0.0
 10
3827.661417430196
 20
6625.466508592283
 30
0.0
 10
3826.725196041952
 20
6625.112748129079
 30
0.0
 10
3826.331438742716
 20
6624.963963059311
 30
0.0
  0
SPLINE
  5
15B
330
1F
100
AcDbEntity
  8
0
  6
Continuous
 62
     7
370
    25
100
AcDbSpline
210
0.0
220
0.0
230
1.0
 70
     8
 71
     3
 72
     9
 73
     5
 74
     0
 42
0.00000001
 43
0.00000001
 40
0.0
 40
0.0
 40
0.0
 40
0.0
 40
0.5605537603431104
 40
1.0
 40
1.0
 40
1.0
 40
1.0
 10
3848.050970742715
 20
6598.718650059311
 30
0.0
 10
3848.642534016456
 20
6597.945478135688
 30
0.0
 10
3849.697853444476
 20
6596.566177918078
 30
0.0
 10
3850.587278323967
 20
6595.075045564793
 30
0.0
 10
3850.978132742716
 20
6594.419773059311
 30
0.0
  0
SPLINE
  5
15C
330
1F
100
AcDbEntity
  8
0
  6
Continuous
 62
     7
370
    25
100
AcDbSpline
210
0.0
220
0.0
230
1.0
 70
     8
 71
     3
 72
     9
 73
     5
 74
     0
 42
0.00000001
 43
0.00000001
 40
0.0
 40
0.0
 40
0.0
 40
0.0
 40
0.5572884913914192
 40
1.0
 40
1.0
 40
1.0
 40
1.0
 10
3842.780723742715
 20
6598.233467059311
 30
0.0
 10
3843.777235957053
 20
6598.157983121879
 30
0.0
 10
3845.565380212195
 20
6598.022534537172
 30
0.0
 10
3847.28824061477
 20
6598.505039541107
 30
0.0
 10
3848.050970742716
 20
6598.718650059311
 30
0.0
  0
SPLINE
  5
15D
330
1F
100
AcDbEntity
  8
0
  6
Continuous
 62
     7
370
    25
100
AcDbSpline
210
0.0
220
0.0
230
1.0
 70
     8
 71
     3
 72
     9
 73
     5
 74
     0
 42
0.00000001
 43
0.00000001
 40
0.0
 40
0.0
 40
0.0
 40
0.0
 40
0.5668420047648394
 40
1.0
 40
1.0
 40
1.0
 40
1.0
 10
3841.400976742715
 20
6593.621091059311
 30
0.0
 10
3841.633237251031
 20
6594.50118894858
 30
0.0
 10
3842.04298195302
 20
6596.053822454691
 30
0.0
 10
3842.557748498054
 20
6597.574690783142
 30
0.0
 10
3842.780723742715
 20
6598.233467059311
 30
0.0
  0
SPLINE
  5
15E
330
1F
100
AcDbEntity
  8
0
  6
Continuous
 62
     7
370
    25
100
AcDbSpline
210
0.0
220
0.0
230
1.0
 70
     8
 71
     3
 72
     9
 73
     5
 74
     0
 42
0.00000001
 43
0.00000001
 40
0.0
 40
0.0
 40
0.0
 40
0.0
 40
0.5771444465826248
 40
1.0
 40
1.0
 40
1.0
 40
1.0
 10
3850.978132742716
 20
6594.419773059311
 30
0.0
 10
3849.162049020604
 20
6593.787778943479
 30
0.0
 10
3846.01537796994
 20
6592.692742649577
 30
0.0
 10
3842.772321275856
 20
6593.345197080038
 30
0.0
 10
3841.400976742715
 20
6593.621091059311
 30
0.0
  0
SPLINE
  5
15F
330
1F
100
AcDbEntity
  8
0
  6
Continuous
 62
     7
370
    25
100
AcDbSpline
210
0.0
220
0.0
230
1.0
 70
     8
 71
     3
 72
     9
 73
     5
 74
     0
 42
0.00000001
 43
0.00000001
 40
0.0
 40
0.0
 40
0.0
 40
0.0
 40
0.5603789372880089
 40
1.0
 40
1.0
 40
1.0
 40
1.0
 10
3853.709765742716
 20
6588.22961105931
 30
0.0
 10
3854.011593885362
 20
6587.178742453544
 30
0.0
 10
3854.550208245331
 20
6585.303460325968
 30
0.0
 10
3854.796152477848
 20
6583.368851741254
 30
0.0
 10
3854.904274742715
 20
6582.518357059311
 30
0.0
  0
SPLINE
  5
160
330
1F
100
AcDbEntity
  8
0
  6
Continuous
 62
     7
370
    25
100
AcDbSpline
210
0.0
220
0.0
230
1.0
 70
     8
 71
     3
 72
     9
 73
     5
 74
     0
 42
0.00000001
 43
0.00000001
 40
0.0
 40
0.0
 40
0.0
 40
0.0
 40
0.5715657369237719
 40
1.0
 40
1.0
 40
1.0
 40
1.0
 10
3840.212491742715
 20
6587.688706059311
 30
0.0
 10
3842.827843762394
 20
6587.128185533533
 30
0.0
 10
3847.403611431315
 20
6586.147510014396
 30
0.0
 10
3851.818343333517
 20
6587.605120699561
 30
0.0
 10
3853.709765742715
 20
6588.22961105931
 30
0.0
  0
SPLINE
  5
161
330
1F
100
AcDbEntity
  8
0
  6
Continuous
 62
     7
370
    25
100
AcDbSpline
210
0.0
220
0.0
230
1.0
 70
     8
 71
     3
 72
     9
 73
     5
 74
     0
 42
0.00000001
 43
0.00000001
 40
0.0
 40
0.0
 40
0.0
 40
0.0
 40
0.5669363612720703
 40
1.0
 40
1.0
 40
1.0
 40
1.0
 10
3839.568676742716
 20
6582.13583305931
 30
0.0
 10
3839.663334522458
 20
6583.188405682085
 30
0.0
 10
3839.830298199876
 20
6585.045003167582
 30
0.0
 10
3840.09699503909
 20
6586.889794159611
 30
0.0
 10
3840.212491742715
 20
6587.688706059311
 30
0.0
  0
SPLINE
  5
162
330
1F
100
AcDbEntity
  8
0
  6
Continuous
 62
     7
370
    25
100
AcDbSpline
210
0.0
220
0.0
230
1.0
 70
     8
 71
     3
 72
     9
 73
     5
 74
     0
 42
0.00000001
 43
0.00000001
 40
0.0
 40
0.0
 40
0.0
 40
0.0
 40
0.5865732656114926
 40
1.0
 40
1.0
 40
1.0
 40
1.0
 10
3854.904274742715
 20
6582.518357059311
 30
0.0
 10
3851.89863063176
 20
6581.620215813566
 30
0.0
 10
3846.774557839554
 20
6580.089049464193
 30
0.0
 10
3841.676393978973
 20
6581.537149705486
 30
0.0
 10
3839.568676742716
 20
6582.13583305931
 30
0.0
  0
SPLINE
  5
163
330
1F
100
AcDbEntity
  8
0
  6
Continuous
 62
     7
370
    25
100
AcDbSpline
210
0.0
220
0.0
230
1.0
 70
     8
 71
     3
 72
    10
 73
     6
 74
     0
 42
0.00000001
 43
0.00000001
 40
0.0
 40
0.0
 40
0.0
 40
0.0
 40
0.3230781657292323
 40
0.6047102174841826
 40
1.0
 40
1.0
 40
1.0
 40
1.0
 10
3853.487630742716
 20
6608.085217059311
 30
0.0
 10
3852.148653345433
 20
6608.024214131608
 30
0.0
 10
3849.64246939676
 20
6607.910034042729
 30
0.0
 10
3845.604173359483
 20
6606.638610861675
 30
0.0
 10
3843.482207632985
 20
6604.752784766348
 30
0.0
 10
3842.243081742716
 20
6603.651553059311
 30
0.0
  0
SPLINE
  5
164
330
1F
100
AcDbEntity
  8
0
  6
Continuous
 62
     7
370
    25
100
AcDbSpline
210
0.0
220
0.0
230
1.0
 70
     8
 71
     3
 72
     9
 73
     5
 74
     0
 42
0.00000001
 43
0.00000001
 40
0.0
 40
0.0
 40
0.0
 40
0.0
 40
0.6064847871183701
 40
0.9999999999999999
 40
0.9999999999999999
 40
0.9999999999999999
 40
0.9999999999999999
 10
3842.243081742716
 20
6603.651553059311
 30
0.0
 10
3842.497556801893
 20
6603.425496773491
 30
0.0
 10
3842.917146978896
 20
6603.052764776546
 30
0.0
 10
3843.343937987936
 20
6602.688311835853
 30
0.0
 10
3843.511886742715
 20
6602.544894059311
 30
0.0
  0
SPLINE
  5
165
330
1F
100
AcDbEntity
  8
0
  6
Continuous
 62
     7
370
    25
100
AcDbSpline
210
0.0
220
0.0
230
1.0
 70
     8
 71
     3
 72
     9
 73
     5
 74
     0
 42
0.00000001
 43
0.00000001
 40
0.0
 40
0.0
 40
0.0
 40
0.0
 40
0.5715432904063709
 40
1.0
 40
1.0
 40
1.0
 40
1.0
 10
3843.511886742715
 20
6602.544894059311
 30
0.0
 10
3843.668670397828
 20
6602.816694383704
 30
0.0
 10
3843.94298672302
 20
6603.292249479802
 30
0.0
 10
3844.251096179009
 20
6603.746556267785
 30
0.0
 10
3844.383107742717
 20
6603.941207059311
 30
0.0
  0
SPLINE
  5
166
330
1F
100
AcDbEntity
  8
0
  6
Continuous
 62
     7
370
    25
100
AcDbSpline
210
0.0
220
0.0
230
1.0
 70
     8
 71
     3
 72
    11
 73
     7
 74
     0
 42
0.00000001
 43
0.00000001
 40
0.0
 40
0.0
 40
0.0
 40
0.0
 40
0.2505288793967789
 40
0.519033029089816
 40
0.7465807586816122
 40
1.0
 40
1.0
 40
1.0
 40
1.0
 10
3844.383107742716
 20
6603.941207059311
 30
0.0
 10
3846.207382820873
 20
6602.158871420736
 30
0.0
 10
3849.986823426637
 20
6598.466318819331
 30
0.0
 10
3853.851958111732
 20
6591.839406955765
 30
0.0
 10
3856.070961421246
 20
6584.461342111886
 30
0.0
 10
3855.956359144741
 20
6579.553770516981
 30
0.0
 10
3855.895975742716
 20
6576.967994059311
 30
0.0
  0
SPLINE
  5
167
330
1F
100
AcDbEntity
  8
0
  6
Continuous
 62
     7
370
    25
100
AcDbSpline
210
0.0
220
0.0
230
1.0
 70
     8
 71
     3
 72
    11
 73
     7
 74
     0
 42
0.00000001
 43
0.00000001
 40
0.0
 40
0.0
 40
0.0
 40
0.0
 40
0.2849802859209758
 40
0.5578972049566547
 40
0.7729698544849466
 40
1.0
 40
1.0
 40
1.0
 40
1.0
 10
3855.895975742716
 20
6576.967994059311
 30
0.0
 10
3855.292031241042
 20
6573.820640568074
 30
0.0
 10
3854.109707529267
 20
6567.659162730767
 30
0.0
 10
3848.514307193035
 20
6560.749665940745
 30
0.0
 10
3841.564753581837
 20
6556.527045192167
 30
0.0
 10
3836.628165438558
 20
6556.01079805963
 30
0.0
 10
3834.093111742716
 20
6555.745693059311
 30
0.0
  0
SPLINE
  5
168
330
1F
100
AcDbEntity
  8
0
  6
Continuous
 62
     7
370
    25
100
AcDbSpline
210
0.0
220
0.0
230
1.0
 70
     8
 71
     3
 72
    12
 73
     8
 74
     0
 42
0.00000001
 43
0.00000001
 40
0.0
 40
0.0
 40
0.0
 40
0.0
 40
0.1882503335004375
 40
0.3673975261002456
 40
0.5444208096116082
 40
0.759995122991768
 40
0.9999999999999999
 40
0.9999999999999999
 40
0.9999999999999999
 40
0.9999999999999999
 10
3834.093111742716
 20
6555.745693059311
 30
0.0
 10
3831.990066204502
 20
6555.877701363539
 30
0.0
 10
3827.885671202122
 20
6556.135334502862
 30
0.0
 10
3822.396118991498
 20
6559.054257221394
 30
0.0
 10
3818.014283128924
 20
6563.74542583274
 30
0.0
 10
3815.330795748906
 20
6570.556433073797
 30
0.0
 10
3816.028530339506
 20
6575.631968061821
 30
0.0
 10
3816.396105742717
 20
6578.30582405931
 30
0.0
  0
SPLINE
  5
169
330
1F
100
AcDbEntity
  8
0
  6
Continuous
 62
     7
370
    25
100
AcDbSpline
210
0.0
220
0.0
230
1.0
 70
     8
 71
     3
 72
    10
 73
     6
 74
     0
 42
0.00000001
 43
0.00000001
 40
0.0
 40
0.0
 40
0.0
 40
0.0
 40
0.3502425091103231
 40
0.6174529898421138
 40
1.0
 40
1.0
 40
1.0
 40
1.0
 10
3816.396105742716
 20
6578.305824059311
 30
0.0
 10
3817.072594160033
 20
6580.787453342223
 30
0.0
 10
3818.265195814603
 20
6585.162391793599
 30
0.0
 10
3821.579886554517
 20
6591.713286486562
 30
0.0
 10
3823.565999030563
 20
6596.032422516602
 30
0.0
 10
3824.735329742716
 20
6598.57532905931
 30
0.0
  0
SPLINE
  5
16A
330
1F
100
AcDbEntity
  8
0
  6
Continuous
 62
     7
370
    25
100
AcDbSpline
210
0.0
220
0.0
230
1.0
 70
     8
 71
     3
 72
    12
 73
     8
 74
     0
 42
0.00000001
 43
0.00000001
 40
0.0
 40
0.0
 40
0.0
 40
0.0
 40
0.145347751658509
 40
0.2656535171478487
 40
0.3788453340118488
 40
0.4963763146420172
 40
1.0
 40
1.0
 40
1.0
 40
1.0
 10
3824.735329742716
 20
6598.57532905931
 30
0.0
 10
3824.978823192209
 20
6599.424967300044
 30
0.0
 10
3825.423858567866
 20
6600.977859480206
 30
0.0
 10
3825.057264964502
 20
6603.306489841537
 30
0.0
 10
3823.928831895132
 20
6605.142313669961
 30
0.0
 10
3820.486930389914
 20
6608.02620444031
 30
0.0
 10
3816.685015886693
 20
6608.685189781371
 30
0.0
 10
3813.602475742715
 20
6609.219486059311
 30
0.0
  0
SPLINE
  5
16B
330
1F
100
AcDbEntity
  8
0
  6
Continuous
 62
     7
370
    25
100
AcDbSpline
210
0.0
220
0.0
230
1.0
 70
     8
 71
     3
 72
     9
 73
     5
 74
     0
 42
0.00000001
 43
0.00000001
 40
0.0
 40
0.0
 40
0.0
 40
0.0
 40
0.5505344016803355
 40
1.0
 40
1.0
 40
1.0
 40
1.0
 10
3813.602475742715
 20
6609.219486059311
 30
0.0
 10
3813.998189158937
 20
6610.674835051788
 30
0.0
 10
3814.716969702014
 20
6613.318355580269
 30
0.0
 10
3815.967719663106
 20
6615.753406459113
 30
0.0
 10
3816.529888742716
 20
6616.84787805931
 30
0.0
  0
SPLINE
  5
16C
330
1F
100
AcDbEntity
  8
0
  6
Continuous
 62
     7
370
    25
100
AcDbSpline
210
0.0
220
0.0
230
1.0
 70
     8
 71
     3
 72
     9
 73
     5
 74
     0
 42
0.00000001
 43
0.00000001
 40
0.0
 40
0.0
 40
0.0
 40
0.0
 40
0.5139395163873723
 40
1.0
 40
1.0
 40
1.0
 40
1.0
 10
3816.529888742716
 20
6616.84787805931
 30
0.0
 10
3815.136376775984
 20
6619.506869443926
 30
0.0
 10
3812.424944939556
 20
6624.680613240289
 30
0.0
 10
3812.203066893221
 20
6630.512305768681
 30
0.0
 10
3812.095220742716
 20
6633.346861059311
 30
0.0
  0
SPLINE
  5
16D
330
1F
100
AcDbEntity
  8
0
  6
Continuous
 62
     7
370
    25
100
AcDbSpline
210
0.0
220
0.0
230
1.0
 70
     8
 71
     3
 72
     9
 73
     5
 74
     0
 42
0.00000001
 43
0.00000001
 40
0.0
 40
0.0
 40
0.0
 40
0.0
 40
0.5494793139959908
 40
1.0
 40
1.0
 40
1.0
 40
1.0
 10
3812.095220742716
 20
6633.346861059311
 30
0.0
 10
3815.585203974773
 20
6632.581752195895
 30
0.0
 10
3821.936640950039
 20
6631.189326959991
 30
0.0
 10
3827.320675020033
 20
6627.570298323356
 30
0.0
 10
3829.746293742715
 20
6625.93985105931
 30
0.0
  0
SPLINE
  5
16E
330
1F
100
AcDbEntity
  8
0
  6
Continuous
 62
     7
370
    25
100
AcDbSpline
210
0.0
220
0.0
230
1.0
 70
     8
 71
     3
 72
    12
 73
     8
 74
     0
 42
0.00000001
 43
0.00000001
 40
0.0
 40
0.0
 40
0.0
 40
0.0
 40
0.1051172378624972
 40
0.2604613796183815
 40
0.5553557031664682
 40
0.8115279192286929
 40
1.0
 40
1.0
 40
1.0
 40
1.0
 10
3829.746293742715
 20
6625.93985105931
 30
0.0
 10
3829.988079080889
 20
6625.999413637716
 30
0.0
 10
3830.587179133674
 20
6626.146998864085
 30
0.0
 10
3831.901938846004
 20
6626.24678228378
 30
0.0
 10
3833.569428868536
 20
6626.294527207426
 30
0.0
 10
3835.326197877006
 20
6626.268057101994
 30
0.0
 10
3836.360662561944
 20
6626.068579813022
 30
0.0
 10
3836.799142742716
 20
6625.98402705931
 30
0.0
  0
SPLINE
  5
16F
330
1F
100
AcDbEntity
  8
0
  6
Continuous
 62
     7
370
    25
100
AcDbSpline
210
0.0
220
0.0
230
1.0
 70
     8
 71
     3
 72
    10
 73
     6
 74
     0
 42
0.00000001
 43
0.00000001
 40
0.0
 40
0.0
 40
0.0
 40
0.0
 40
0.2545810551682155
 40
0.5359901190684615
 40
1.0
 40
1.0
 40
1.0
 40
1.0
 10
3836.799142742716
 20
6625.98402705931
 30
0.0
 10
3838.153270329279
 20
6627.079738374718
 30
0.0
 10
3841.004224835206
 20
6629.386628170668
 30
0.0
 10
3847.348285904828
 20
6632.122531468164
 30
0.0
 10
3852.381420202776
 20
6632.93174388801
 30
0.0
 10
3855.514455742717
 20
6633.43546405931
 30
0.0
  0
SPLINE
  5
170
330
1F
100
AcDbEntity
  8
0
  6
Continuous
 62
     7
370
    25
100
AcDbSpline
210
0.0
220
0.0
230
1.0
 70
     8
 71
     3
 72
     9
 73
     5
 74
     0
 42
0.00000001
 43
0.00000001
 40
0.0
 40
0.0
 40
0.0
 40
0.0
 40
0.5513211284765401
 40
0.9999999999999999
 40
0.9999999999999999
 40
0.9999999999999999
 40
0.9999999999999999
 10
3855.514455742717
 20
6633.43546405931
 30
0.0
 10
3855.227695705395
 20
6630.197329643764
 30
0.0
 10
3854.707563204553
 20
6624.323920756832
 30
0.0
 10
3851.836746529037
 20
6619.193821296138
 30
0.0
 10
3850.548671742716
 20
6616.892054059311
 30
0.0
  0
SPLINE
  5
171
330
1F
100
AcDbEntity
  8
0
  6
Continuous
 62
     7
370
    25
100
AcDbSpline
210
0.0
220
0.0
230
1.0
 70
     8
 71
     3
 72
    10
 73
     6
 74
     0
 42
0.00000001
 43
0.00000001
 40
0.0
 40
0.0
 40
0.0
 40
0.0
 40
0.5754180731847129
 40
0.804753795406212
 40
0.9999999999999999
 40
0.9999999999999999
 40
0.9999999999999999
 40
0.9999999999999999
 10
3850.548671742716
 20
6616.892054059311
 30
0.0
 10
3851.478583300407
 20
6615.327089948769
 30
0.0
 10
3852.779115713827
 20
6613.138401643129
 30
0.0
 10
3853.785412910737
 20
6610.051402932004
 30
0.0
 10
3853.581432290524
 20
6608.70456669789
 30
0.0
 10
3853.487630742716
 20
6608.085217059311
 30
0.0
  0
SPLINE
  5
172
330
1F
100
AcDbEntity
  8
0
  6
Continuous
 62
     7
370
    25
100
AcDbSpline
210
0.0
220
0.0
230
1.0
 70
     8
 71
     3
 72
     9
 73
     5
 74
     0
 42
0.00000001
 43
0.00000001
 40
0.0
 40
0.0
 40
0.0
 40
0.0
 40
0.5576983819505186
 40
1.0
 40
1.0
 40
1.0
 40
1.0
 10
3841.869091742716
 20
6603.21104805931
 30
0.0
 10
3841.15250514537
 20
6602.170011312392
 30
0.0
 10
3839.867605241522
 20
6600.303345063016
 30
0.0
 10
3839.277138942276
 20
6598.120601894522
 30
0.0
 10
3839.015974742716
 20
6597.15517105931
 30
0.0
  0
SPLINE
  5
173
330
1F
100
AcDbEntity
  8
0
  6
Continuous
 62
     7
370
    25
100
AcDbSpline
210
0.0
220
0.0
230
1.0
 70
     8
 71
     3
 72
     9
 73
     5
 74
     0
 42
0.00000001
 43
0.00000001
 40
0.0
 40
0.0
 40
0.0
 40
0.0
 40
0.5592157440968246
 40
1.0
 40
1.0
 40
1.0
 40
1.0
 10
3839.015974742716
 20
6597.15517105931
 30
0.0
 10
3838.153192108936
 20
6589.696343456406
 30
0.0
 10
3836.610348147751
 20
6576.358329136098
 30
0.0
 10
3837.447808433717
 20
6562.96587360521
 30
0.0
 10
3837.816947742715
 20
6557.062690059311
 30
0.0
  0
SPLINE
  5
174
330
1F
100
AcDbEntity
  8
0
  6
Continuous
 62
     7
370
    25
100
AcDbSpline
210
0.0
220
0.0
230
1.0
 70
     8
 71
     3
 72
     9
 73
     5
 74
     0
 42
0.00000001
 43
0.00000001
 40
0.0
 40
0.0
 40
0.0
 40
0.0
 40
0.5274519039495652
 40
1.0
 40
1.0
 40
1.0
 40
1.0
 10
3837.816947742715
 20
6557.062690059311
 30
0.0
 10
3837.86576694181
 20
6557.067332127654
 30
0.0
 10
3837.958323625613
 20
6557.076133059661
 30
0.0
 10
3838.050666359591
 20
6557.086946967671
 30
0.0
 10
3838.094302742716
 20
6557.092057059311
 30
0.0
  0
SPLINE
  5
175
330
1F
100
AcDbEntity
  8
0
  6
Continuous
 62
     7
370
    25
100
AcDbSpline
210
0.0
220
0.0
230
1.0
 70
     8
 71
     3
 72
    11
 73
     7
 74
     0
 42
0.00000001
 43
0.00000001
 40
0.0
 40
0.0
 40
0.0
 40
0.0
 40
0.2658324621063115
 40
0.519934724817052
 40
0.7395737710709694
 40
1.0
 40
1.0
 40
1.0
 40
1.0
 10
3838.094302742716
 20
6557.092057059311
 30
0.0
 10
3840.335112899237
 20
6557.840513699526
 30
0.0
 10
3844.717854581223
 20
6559.304400367786
 30
0.0
 10
3849.725411749628
 20
6563.759835795665
 30
0.0
 10
3853.028354190889
 20
6569.412988219448
 30
0.0
 10
3854.127851489689
 20
6573.515546608456
 30
0.0
 10
3854.724307742716
 20
6575.74110605931
 30
0.0
  0
SPLINE
  5
176
330
1F
100
AcDbEntity
  8
0
  6
Continuous
 62
     7
370
    25
100
AcDbSpline
210
0.0
220
0.0
230
1.0
 70
     8
 71
     3
 72
     9
 73
     5
 74
     0
 42
0.00000001
 43
0.00000001
 40
0.0
 40
0.0
 40
0.0
 40
0.0
 40
0.5734367454555337
 40
1.0
 40
1.0
 40
1.0
 40
1.0
 10
3854.724307742716
 20
6575.74110605931
 30
0.0
 10
3851.761495348532
 20
6575.042743477904
 30
0.0
 10
3846.594731241307
 20
6573.82488887242
 30
0.0
 10
3841.465998620945
 20
6575.079979511539
 30
0.0
 10
3839.278269742716
 20
6575.615355059311
 30
0.0
  0
SPLINE
  5
177
330
1F
100
AcDbEntity
  8
0
  6
Continuous
 62
     7
370
    25
100
AcDbSpline
210
0.0
220
0.0
230
1.0
 70
     8
 71
     3
 72
     9
 73
     5
 74
     0
 42
0.00000001
 43
0.00000001
 40
0.0
 40
0.0
 40
0.0
 40
0.0
 40
0.6446021718865099
 40
1.0
 40
1.0
 40
1.0
 40
1.0
 10
3839.278269742716
 20
6575.615355059311
 30
0.0
 10
3839.372215081451
 20
6572.828124096161
 30
0.0
 10
3839.517956661035
 20
6568.504168818455
 30
0.0
 10
3839.768896329541
 20
6564.185165469237
 30
0.0
 10
3839.858079742716
 20
6562.65020105931
 30
0.0
  0
SPLINE
  5
178
330
1F
100
AcDbEntity
  8
0
  6
Continuous
 62
     7
370
    25
100
AcDbSpline
210
0.0
220
0.0
230
1.0
 70
     8
 71
     3
 72
    11
 73
     7
 74
     0
 42
0.00000001
 43
0.00000001
 40
0.0
 40
0.0
 40
0.0
 40
0.0
 40
0.3079497659502974
 40
0.6096100978347089
 40
0.8229963216098946
 40
1.0
 40
1.0
 40
1.0
 40
1.0
 10
3839.858079742716
 20
6562.65020105931
 30
0.0
 10
3839.219409898164
 20
6566.731467006418
 30
0.0
 10
3837.955114128302
 20
6574.810644873717
 30
0.0
 10
3838.687612601555
 20
6585.849839709919
 30
0.0
 10
3840.265453201325
 20
6595.02343386791
 30
0.0
 10
3842.305709741026
 20
6599.845855165569
 30
0.0
 10
3843.230766742715
 20
6602.032352059311
 30
0.0
  0
SPLINE
  5
179
330
1F
100
AcDbEntity
  8
0
  6
Continuous
 62
     7
370
    25
100
AcDbSpline
210
0.0
220
0.0
230
1.0
 70
     8
 71
     3
 72
     9
 73
     5
 74
     0
 42
0.00000001
 43
0.00000001
 40
0.0
 40
0.0
 40
0.0
 40
0.0
 40
0.5183162281006393
 40
1.0
 40
1.0
 40
1.0
 40
1.0
 10
3843.230766742715
 20
6602.032352059311
 30
0.0
 10
3842.99324744923
 20
6602.23338856406
 30
0.0
 10
3842.534995747647
 20
6602.621253141417
 30
0.0
 10
3842.08557191136
 20
6603.019310357862
 30
0.0
 10
3841.869091742716
 20
6603.21104805931
 30
0.0
  0
SPLINE
  5
17A
330
1F
100
AcDbEntity
  8
0
  6
Continuous
 62
     7
370
    25
100
AcDbSpline
210
0.0
220
0.0
230
1.0
 70
     8
 71
     3
 72
    13
 73
     9
 74
     0
 42
0.00000001
 43
0.00000001
 40
0.0
 40
0.0
 40
0.0
 40
0.0
 40
0.0408734017980309
 40
0.0926352145813097
 40
0.1575219861293756
 40
0.3707534676816855
 40
0.642487915891804
 40
1.0
 40
1.0
 40
1.0
 40
1.0
 10
3825.000887742716
 20
6605.227331059311
 30
0.0
 10
3825.434091396012
 20
6604.711978105236
 30
0.0
 10
3826.415901365704
 20
6603.543985489361
 30
0.0
 10
3827.436866512954
 20
6601.139417046217
 30
0.0
 10
3828.983330850859
 20
6595.959073805772
 30
0.0
 10
3830.063107452988
 20
6586.949171628664
 30
0.0
 10
3830.603744008419
 20
6573.154556665581
 30
0.0
 10
3830.340262904643
 20
6562.834985405266
 30
0.0
 10
3830.190563742715
 20
6556.971828059311
 30
0.0
  0
SPLINE
  5
17B
330
1F
100
AcDbEntity
  8
0
  6
Continuous
 62
     7
370
    25
100
AcDbSpline
210
0.0
220
0.0
230
1.0
 70
     8
 71
     3
 72
     9
 73
     5
 74
     0
 42
0.00000001
 43
0.00000001
 40
0.0
 40
0.0
 40
0.0
 40
0.0
 40
0.5814071215466099
 40
1.0
 40
1.0
 40
1.0
 40
1.0
 10
3830.190563742715
 20
6556.971828059311
 30
0.0
 10
3830.787930850874
 20
6556.861073001374
 30
0.0
 10
3831.815381471997
 20
6556.670578159066
 30
0.0
 10
3832.859059537217
 20
6556.633279861183
 30
0.0
 10
3833.295935742716
 20
6556.61766705931
 30
0.0
  0
SPLINE
  5
17C
330
1F
100
AcDbEntity
  8
0
  6
Continuous
 62
     7
370
    25
100
AcDbSpline
210
0.0
220
0.0
230
1.0
 70
     8
 71
     3
 72
     9
 73
     5
 74
     0
 42
0.00000001
 43
0.00000001
 40
0.0
 40
0.0
 40
0.0
 40
0.0
 40
0.5818814947232247
 40
0.9999999999999999
 40
0.9999999999999999
 40
0.9999999999999999
 40
0.9999999999999999
 10
3833.295935742716
 20
6556.61766705931
 30
0.0
 10
3833.067216209667
 20
6560.101928335781
 30
0.0
 10
3832.674147285627
 20
6566.089850804646
 30
0.0
 10
3833.361816513171
 20
6572.045773545401
 30
0.0
 10
3833.649343742716
 20
6574.53605505931
 30
0.0
  0
SPLINE
  5
17D
330
1F
100
AcDbEntity
  8
0
  6
Continuous
 62
     7
370
    25
100
AcDbSpline
210
0.0
220
0.0
230
1.0
 70
     8
 71
     3
 72
     9
 73
     5
 74
     0
 42
0.00000001
 43
0.00000001
 40
0.0
 40
0.0
 40
0.0
 40
0.0
 40
0.5578695185834973
 40
1.0
 40
1.0
 40
1.0
 40
1.0
 10
3833.649343742716
 20
6574.53605505931
 30
0.0
 10
3833.693472080027
 20
6571.195107705843
 30
0.0
 10
3833.772573618722
 20
6565.206346459396
 30
0.0
 10
3833.964034188727
 20
6559.220164549139
 30
0.0
 10
3834.048684742715
 20
6556.57349105931
 30
0.0
  0
SPLINE
  5
17E
330
1F
100
AcDbEntity
  8
0
  6
Continuous
 62
     7
370
    25
100
AcDbSpline
210
0.0
220
0.0
230
1.0
 70
     8
 71
     3
 72
     9
 73
     5
 74
     0
 42
0.00000001
 43
0.00000001
 40
0.0
 40
0.0
 40
0.0
 40
0.0
 40
0.6227267580415082
 40
0.9999999999999999
 40
0.9999999999999999
 40
0.9999999999999999
 40
0.9999999999999999
 10
3834.048684742715
 20
6556.57349105931
 30
0.0
 10
3834.71829122311
 20
6556.592986514868
 30
0.0
 10
3835.793572591299
 20
6556.624293111711
 30
0.0
 10
3836.844985707666
 20
6556.845100383889
 30
0.0
 10
3837.241655742715
 20
6556.928405059311
 30
0.0
  0
SPLINE
  5
17F
330
1F
100
AcDbEntity
  8
0
  6
Continuous
 62
     7
370
    25
100
AcDbSpline
210
0.0
220
0.0
230
1.0
 70
     8
 71
     3
 72
    12
 73
     8
 74
     0
 42
0.00000001
 43
0.00000001
 40
0.0
 40
0.0
 40
0.0
 40
0.0
 40
0.3969545766232612
 40
0.6998194470892812
 40
0.8215974445150573
 40
0.9200908356599072
 40
1.0
 40
1.0
 40
1.0
 40
1.0
 10
3837.241655742715
 20
6556.928405059311
 30
0.0
 10
3836.891793466418
 20
6563.442306560063
 30
0.0
 10
3836.274996383896
 20
6574.926126662172
 30
0.0
 10
3836.610261431495
 20
6588.509167106544
 30
0.0
 10
3838.136645293547
 20
6596.960115421146
 30
0.0
 10
3839.65693034877
 20
6601.752306164142
 30
0.0
 10
3841.542555931921
 20
6604.030112598417
 30
0.0
 10
3842.387155742715
 20
6605.05037605931
 30
0.0
  0
SPLINE
  5
180
330
1F
100
AcDbEntity
  8
0
  6
Continuous
 62
     7
370
    25
100
AcDbSpline
210
0.0
220
0.0
230
1.0
 70
     8
 71
     3
 72
    10
 73
     6
 74
     0
 42
0.00000001
 43
0.00000001
 40
0.0
 40
0.0
 40
0.0
 40
0.0
 40
0.5558784882653075
 40
0.7891637922268663
 40
0.9999999999999999
 40
0.9999999999999999
 40
0.9999999999999999
 40
0.9999999999999999
 10
3842.387155742715
 20
6605.05037605931
 30
0.0
 10
3840.911974372444
 20
6604.080478901213
 30
0.0
 10
3838.81770422355
 20
6602.70354538874
 30
0.0
 10
3836.004629331623
 20
6601.11235578953
 30
0.0
 10
3834.588282825167
 20
6600.925189729674
 30
0.0
 10
3833.915905742715
 20
6600.836337059311
 30
0.0
  0
SPLINE
  5
181
330
1F
100
AcDbEntity
  8
0
  6
Continuous
 62
     7
370
    25
100
AcDbSpline
210
0.0
220
0.0
230
1.0
 70
     8
 71
     3
 72
    10
 73
     6
 74
     0
 42
0.00000001
 43
0.00000001
 40
0.0
 40
0.0
 40
0.0
 40
0.0
 40
0.267429146465611
 40
0.5687116726372459
 40
1.0
 40
1.0
 40
1.0
 40
1.0
 10
3833.915905742715
 20
6600.836337059311
 30
0.0
 10
3833.03532796326
 20
6601.022795062787
 30
0.0
 10
3831.162701630418
 20
6601.41931445656
 30
0.0
 10
3828.372993190451
 20
6603.327962521165
 30
0.0
 10
3826.25048025538
 20
6604.523486905904
 30
0.0
 10
3825.000887742716
 20
6605.227331059311
 30
0.0
  0
SPLINE
  5
182
330
1F
100
AcDbEntity
  8
0
  6
Continuous
 62
     7
370
    25
100
AcDbSpline
210
0.0
220
0.0
230
1.0
 70
     8
 71
     3
 72
     9
 73
     5
 74
     0
 42
0.00000001
 43
0.00000001
 40
0.0
 40
0.0
 40
0.0
 40
0.0
 40
0.5591261933597251
 40
1.0
 40
1.0
 40
1.0
 40
1.0
 10
3829.436057742715
 20
6557.10586205931
 30
0.0
 10
3829.759310216005
 20
6565.512024311322
 30
0.0
 10
3830.337448885108
 20
6580.546487643296
 30
0.0
 10
3827.495866143079
 20
6595.305579187614
 30
0.0
 10
3826.243086742717
 20
6601.81247605931
 30
0.0
  0
SPLINE
  5
183
330
1F
100
AcDbEntity
  8
0
  6
Continuous
 62
     7
370
    25
100
AcDbSpline
210
0.0
220
0.0
230
1.0
 70
     8
 71
     3
 72
     9
 73
     5
 74
     0
 42
0.00000001
 43
0.00000001
 40
0.0
 40
0.0
 40
0.0
 40
0.0
 40
0.4408123478994063
 40
1.0
 40
1.0
 40
1.0
 40
1.0
 10
3826.243086742717
 20
6601.812476059311
 30
0.0
 10
3826.154876989439
 20
6600.798192059025
 30
0.0
 10
3825.954769724528
 20
6598.497249253953
 30
0.0
 10
3824.944720690538
 20
6596.413519825834
 30
0.0
 10
3824.379913742715
 20
6595.248324059311
 30
0.0
  0
SPLINE
  5
184
330
1F
100
AcDbEntity
  8
0
  6
Continuous
 62
     7
370
    25
100
AcDbSpline
210
0.0
220
0.0
230
1.0
 70
     8
 71
     3
 72
    15
 73
    11
 74
     0
 42
0.00000001
 43
0.00000001
 40
0.0
 40
0.0
 40
0.0
 40
0.0
 40
0.0707012458605377
 40
0.187621352371558
 40
0.4147559321389823
 40
0.5473998117696005
 40
0.6781802347649362
 40
0.7702549761490454
 40
0.8744897837349395
 40
0.9999999999999999
 40
0.9999999999999999
 40
0.9999999999999999
 40
0.9999999999999999
 10
3824.379913742715
 20
6595.248324059311
 30
0.0
 10
3823.881799955219
 20
6594.299771083686
 30
0.0
 10
3822.559945137707
 20
6591.782576514954
 30
0.0
 10
3819.697259174238
 20
6586.192569621605
 30
0.0
 10
3817.225362804592
 20
6579.318019001563
 30
0.0
 10
3816.538100466205
 20
6571.848957004622
 30
0.0
 10
3817.783912096305
 20
6566.458442809682
 30
0.0
 10
3820.600456340383
 20
6562.297828363721
 30
0.0
 10
3824.430675400691
 20
6559.152479679762
 30
0.0
 10
3827.667676732961
 20
6557.828923653196
 30
0.0
 10
3829.436057742715
 20
6557.10586205931
 30
0.0
  0
SPLINE
  5
185
330
1F
100
AcDbEntity
  8
0
  6
Continuous
 62
     7
370
    25
100
AcDbSpline
210
0.0
220
0.0
230
1.0
 70
     8
 71
     3
 72
    11
 73
     7
 74
     0
 42
0.00000001
 43
0.00000001
 40
0.0
 40
0.0
 40
0.0
 40
0.0
 40
0.2797980400213168
 40
0.55919108047279
 40
0.7790766026505354
 40
1.0
 40
1.0
 40
1.0
 40
1.0
 10
3829.391630742716
 20
6610.638389059311
 30
0.0
 10
3829.611373333855
 20
6610.670357085327
 30
0.0
 10
3830.05054044509
 20
6610.734246864568
 30
0.0
 10
3830.53374789
 20
6611.142233842021
 30
0.0
 10
3830.840347330767
 20
6611.627408477439
 30
0.0
 10
3830.879676738649
 20
6611.973129534409
 30
0.0
 10
3830.899387742716
 20
6612.14639705931
 30
0.0
  0
SPLINE
  5
186
330
1F
100
AcDbEntity
  8
0
  6
Continuous
 62
     7
370
    25
100
AcDbSpline
210
0.0
220
0.0
230
1.0
 70
     8
 71
     3
 72
    11
 73
     7
 74
     0
 42
0.00000001
 43
0.00000001
 40
0.0
 40
0.0
 40
0.0
 40
0.0
 40
0.2798532095501793
 40
0.5568510829278426
 40
0.7767490996622788
 40
0.9999999999999999
 40
0.9999999999999999
 40
0.9999999999999999
 40
0.9999999999999999
 10
3830.899387742716
 20
6612.14639705931
 30
0.0
 10
3830.867876345741
 20
6612.36370927033
 30
0.0
 10
3830.805175061884
 20
6612.796116460636
 30
0.0
 10
3830.393612313984
 20
6613.26580115482
 30
0.0
 10
3829.907651140496
 20
6613.555373394424
 30
0.0
 10
3829.564502966548
 20
6613.591684926149
 30
0.0
 10
3829.391630742716
 20
6613.609978059311
 30
0.0
  0
SPLINE
  5
187
330
1F
100
AcDbEntity
  8
0
  6
Continuous
 62
     7
370
    25
100
AcDbSpline
210
0.0
220
0.0
230
1.0
 70
     8
 71
     3
 72
    11
 73
     7
 74
     0
 42
0.00000001
 43
0.00000001
 40
0.0
 40
0.0
 40
0.0
 40
0.0
 40
0.2824005898793278
 40
0.5606688703414505
 40
0.7786363009769213
 40
1.0
 40
1.0
 40
1.0
 40
1.0
 10
3829.391630742716
 20
6613.609978059311
 30
0.0
 10
3829.17254597995
 20
6613.58044626348
 30
0.0
 10
3828.737582276432
 20
6613.521814804476
 30
0.0
 10
3828.250202661802
 20
6613.13313146485
 30
0.0
 10
3827.941634921121
 20
6612.658491070437
 30
0.0
 10
3827.903059538408
 20
6612.317972527483
 30
0.0
 10
3827.883622742715
 20
6612.14639705931
 30
0.0
  0
SPLINE
  5
188
330
1F
100
AcDbEntity
  8
0
  6
Continuous
 62
     7
370
    25
100
AcDbSpline
210
0.0
220
0.0
230
1.0
 70
     8
 71
     3
 72
    11
 73
     7
 74
     0
 42
0.00000001
 43
0.00000001
 40
0.0
 40
0.0
 40
0.0
 40
0.0
 40
0.2798691823857186
 40
0.5593283111586329
 40
0.7792089631102691
 40
1.0
 40
1.0
 40
1.0
 40
1.0
 10
3827.883622742715
 20
6612.14639705931
 30
0.0
 10
3827.915626018192
 20
6611.926594083749
 30
0.0
 10
3827.97958567917
 20
6611.487310179533
 30
0.0
 10
3828.387754683544
 20
6611.004106876386
 30
0.0
 10
3828.872849967237
 20
6610.697480093394
 30
0.0
 10
3829.218465814625
 20
6610.658113180079
 30
0.0
 10
3829.391630742716
 20
6610.638389059311
 30
0.0
  0
SPLINE
  5
189
330
1F
100
AcDbEntity
  8
0
  6
Continuous
 62
     7
370
    25
100
AcDbSpline
210
0.0
220
0.0
230
1.0
 70
     8
 71
     3
 72
    11
 73
     7
 74
     0
 42
0.00000001
 43
0.00000001
 40
0.0
 40
0.0
 40
0.0
 40
0.0
 40
0.2848207953892809
 40
0.557500915615033
 40
0.7738051962824049
 40
1.0
 40
1.0
 40
1.0
 40
1.0
 10
3839.415064742715
 20
6610.638389059311
 30
0.0
 10
3839.641180328487
 20
6610.666625093403
 30
0.0
 10
3840.083773173331
 20
6610.721893581922
 30
0.0
 10
3840.576610680856
 20
6611.122952109305
 30
0.0
 10
3840.871065115351
 20
6611.617248155775
 30
0.0
 10
3840.905480455314
 20
6611.967405244816
 30
0.0
 10
3840.923072742716
 20
6612.14639705931
 30
0.0
  0
SPLINE
  5
18A
330
1F
100
AcDbEntity
  8
0
  6
Continuous
 62
     7
370
    25
100
AcDbSpline
210
0.0
220
0.0
230
1.0
 70
     8
 71
     3
 72
    11
 73
     7
 74
     0
 42
0.00000001
 43
0.00000001
 40
0.0
 40
0.0
 40
0.0
 40
0.0
 40
0.2848316458728114
 40
0.5575199341948349
 40
0.7738282786093839
 40
1.0
 40
1.0
 40
1.0
 40
1.0
 10
3840.923072742716
 20
6612.14639705931
 30
0.0
 10
3840.894826276931
 20
6612.372501399127
 30
0.0
 10
3840.839537589828
 20
6612.815070469252
 30
0.0
 10
3840.43839571477
 20
6613.30779790988
 30
0.0
 10
3839.944127361393
 20
6613.602155034332
 30
0.0
 10
3839.594020374752
 20
6613.636565369329
 30
0.0
 10
3839.415064742715
 20
6613.654154059311
 30
0.0
  0
SPLINE
  5
18B
330
1F
100
AcDbEntity
  8
0
  6
Continuous
 62
     7
370
    25
100
AcDbSpline
210
0.0
220
0.0
230
1.0
 70
     8
 71
     3
 72
    11
 73
     7
 74
     0
 42
0.00000001
 43
0.00000001
 40
0.0
 40
0.0
 40
0.0
 40
0.0
 40
0.2779576638472354
 40
0.5508779494246085
 40
0.7700839980961053
 40
0.9999999999999999
 40
0.9999999999999999
 40
0.9999999999999999
 40
0.9999999999999999
 10
3839.415064742715
 20
6613.654154059311
 30
0.0
 10
3839.198213485015
 20
6613.625035470521
 30
0.0
 10
3838.768440927141
 20
6613.567326004046
 30
0.0
 10
3838.292764684948
 20
6613.166323579866
 30
0.0
 10
3838.003374490291
 20
6612.674787214642
 30
0.0
 10
3837.969053469736
 20
6612.32530507708
 30
0.0
 10
3837.951483742716
 20
6612.14639705931
 30
0.0
  0
SPLINE
  5
18C
330
1F
100
AcDbEntity
  8
0
  6
Continuous
 62
     7
370
    25
100
AcDbSpline
210
0.0
220
0.0
230
1.0
 70
     8
 71
     3
 72
    11
 73
     7
 74
     0
 42
0.00000001
 43
0.00000001
 40
0.0
 40
0.0
 40
0.0
 40
0.0
 40
0.2895401408690615
 40
0.5649757856776256
 40
0.7799352162493666
 40
1.0
 40
1.0
 40
1.0
 40
1.0
 10
3837.951483742716
 20
6612.14639705931
 30
0.0
 10
3837.979654114436
 20
6611.920399366407
 30
0.0
 10
3838.034622582184
 20
6611.479413105483
 30
0.0
 10
3838.427001618243
 20
6610.988277467963
 30
0.0
 10
3838.905308814642
 20
6610.692026927325
 30
0.0
 10
3839.243821860592
 20
6610.656407688626
 30
0.0
 10
3839.415064742715
 20
6610.638389059311
 30
0.0
  0
LINE
  5
18D
330
1F
100
AcDbEntity
  8
0
  6
Continuous
 62
     7
370
    25
100
AcDbLine
 10
3816.9294807427
 20
6617.4241740593
 30
0.0
 11
3817.4616007427
 21
6618.1786800593
 31
0.0
  0
SPLINE
  5
18E
330
1F
100
AcDbEntity
  8
0
  6
Continuous
 62
     7
370
    25
100
AcDbSpline
210
0.0
220
0.0
230
1.0
 70
     8
 71
     3
 72
     9
 73
     5
 74
     0
 42
0.00000001
 43
0.00000001
 40
0.0
 40
0.0
 40
0.0
 40
0.0
 40
0.5626918041751651
 40
1.0
 40
1.0
 40
1.0
 40
1.0
 10
3817.461600742717
 20
6618.178680059311
 30
0.0
 10
3816.348810130667
 20
6620.517829952107
 30
0.0
 10
3814.371190048426
 20
6624.674901150657
 30
0.0
 10
3814.145110278857
 20
6629.258055221432
 30
0.0
 10
3814.046243742715
 20
6631.26230605931
 30
0.0
  0
SPLINE
  5
18F
330
1F
100
AcDbEntity
  8
0
  6
Continuous
 62
     7
370
    25
100
AcDbSpline
210
0.0
220
0.0
230
1.0
 70
     8
 71
     3
 72
     9
 73
     5
 74
     0
 42
0.00000001
 43
0.00000001
 40
0.0
 40
0.0
 40
0.0
 40
0.0
 40
0.5522606821357984
 40
1.0
 40
1.0
 40
1.0
 40
1.0
 10
3814.046243742715
 20
6631.26230605931
 30
0.0
 10
3816.1680780375
 20
6630.237622394025
 30
0.0
 10
3820.010166318309
 20
6628.382187635711
 30
0.0
 10
3823.058831481951
 20
6625.408234021775
 30
0.0
 10
3824.423838742717
 20
6624.07667805931
 30
0.0
  0
SPLINE
  5
190
330
1F
100
AcDbEntity
  8
0
  6
Continuous
 62
     7
370
    25
100
AcDbSpline
210
0.0
220
0.0
230
1.0
 70
     8
 71
     3
 72
     9
 73
     5
 74
     0
 42
0.00000001
 43
0.00000001
 40
0.0
 40
0.0
 40
0.0
 40
0.0
 40
0.5568888114418964
 40
1.0
 40
1.0
 40
1.0
 40
1.0
 10
3824.423838742717
 20
6624.07667805931
 30
0.0
 10
3824.690467951982
 20
6624.211601702835
 30
0.0
 10
3825.169251514852
 20
6624.453882820273
 30
0.0
 10
3825.667078178216
 20
6624.653935485187
 30
0.0
 10
3825.887670742715
 20
6624.742581059311
 30
0.0
  0
SPLINE
  5
191
330
1F
100
AcDbEntity
  8
0
  6
Continuous
 62
     7
370
    25
100
AcDbSpline
210
0.0
220
0.0
230
1.0
 70
     8
 71
     3
 72
     9
 73
     5
 74
     0
 42
0.00000001
 43
0.00000001
 40
0.0
 40
0.0
 40
0.0
 40
0.0
 40
0.586447080633179
 40
0.9999999999999999
 40
0.9999999999999999
 40
0.9999999999999999
 40
0.9999999999999999
 10
3825.887670742715
 20
6624.742581059311
 30
0.0
 10
3823.709845502163
 20
6626.91150067931
 30
0.0
 10
3819.996253410954
 20
6630.609907051557
 30
0.0
 10
3814.97089810171
 20
6631.949683569157
 30
0.0
 10
3812.892647742716
 20
6632.503752059311
 30
0.0
  0
SPLINE
  5
192
330
1F
100
AcDbEntity
  8
0
  6
Continuous
 62
     7
370
    25
100
AcDbSpline
210
0.0
220
0.0
230
1.0
 70
     8
 71
     3
 72
     9
 73
     5
 74
     0
 42
0.00000001
 43
0.00000001
 40
0.0
 40
0.0
 40
0.0
 40
0.0
 40
0.5266535735645027
 40
1.0
 40
1.0
 40
1.0
 40
1.0
 10
3812.892647742716
 20
6632.503752059311
 30
0.0
 10
3813.069923112799
 20
6629.710106157701
 30
0.0
 10
3813.406530284916
 20
6624.405583333141
 30
0.0
 10
3815.797651880347
 20
6619.667112360825
 30
0.0
 10
3816.929480742716
 20
6617.424174059311
 30
0.0
  0
SPLINE
  5
193
330
1F
100
AcDbEntity
  8
0
  6
Continuous
 62
     7
370
    25
100
AcDbSpline
210
0.0
220
0.0
230
1.0
 70
     8
 71
     3
 72
     9
 73
     5
 74
     0
 42
0.00000001
 43
0.00000001
 40
0.0
 40
0.0
 40
0.0
 40
0.0
 40
0.5230330385731685
 40
0.9999999999999999
 40
0.9999999999999999
 40
0.9999999999999999
 40
0.9999999999999999
 10
3840.612585742716
 20
6624.875611059311
 30
0.0
 10
3840.854946204856
 20
6624.772995711225
 30
0.0
 10
3841.318321258182
 20
6624.576802850511
 30
0.0
 10
3841.771610669536
 20
6624.358336358283
 30
0.0
 10
3841.987814742717
 20
6624.25413505931
 30
0.0
  0
SPLINE
  5
194
330
1F
100
AcDbEntity
  8
0
  6
Continuous
 62
     7
370
    25
100
AcDbSpline
210
0.0
220
0.0
230
1.0
 70
     8
 71
     3
 72
     9
 73
     5
 74
     0
 42
0.00000001
 43
0.00000001
 40
0.0
 40
0.0
 40
0.0
 40
0.0
 40
0.5674916551699377
 40
1.0
 40
1.0
 40
1.0
 40
1.0
 10
3841.987814742717
 20
6624.25413505931
 30
0.0
 10
3843.910344753253
 20
6625.975810367716
 30
0.0
 10
3847.298112649083
 20
6629.009644068564
 30
0.0
 10
3851.610632793157
 20
6630.396268445249
 30
0.0
 10
3853.475833742717
 20
6630.99599505931
 30
0.0
  0
SPLINE
  5
195
330
1F
100
AcDbEntity
  8
0
  6
Continuous
 62
     7
370
    25
100
AcDbSpline
210
0.0
220
0.0
230
1.0
 70
     8
 71
     3
 72
     9
 73
     5
 74
     0
 42
0.00000001
 43
0.00000001
 40
0.0
 40
0.0
 40
0.0
 40
0.0
 40
0.5404784270206983
 40
1.0
 40
1.0
 40
1.0
 40
1.0
 10
3853.475833742716
 20
6630.99599505931
 30
0.0
 10
3853.133082781235
 20
6628.686993014567
 30
0.0
 10
3852.498920630914
 20
6624.414848319595
 30
0.0
 10
3850.280984323478
 20
6620.719245349319
 30
0.0
 10
3849.261794742716
 20
6619.02103605931
 30
0.0
  0
SPLINE
  5
196
330
1F
100
AcDbEntity
  8
0
  6
Continuous
 62
     7
370
    25
100
AcDbSpline
210
0.0
220
0.0
230
1.0
 70
     8
 71
     3
 72
     9
 73
     5
 74
     0
 42
0.00000001
 43
0.00000001
 40
0.0
 40
0.0
 40
0.0
 40
0.0
 40
0.5734604253122948
 40
1.0
 40
1.0
 40
1.0
 40
1.0
 10
3849.261794742716
 20
6619.02103605931
 30
0.0
 10
3849.450155354409
 20
6618.779007528744
 30
0.0
 10
3849.778618493935
 20
6618.356958299392
 30
0.0
 10
3850.037606926739
 20
6617.889410639365
 30
0.0
 10
3850.148075742716
 20
6617.689983059311
 30
0.0
  0
SPLINE
  5
197
330
1F
100
AcDbEntity
  8
0
  6
Continuous
 62
     7
370
    25
100
AcDbSpline
210
0.0
220
0.0
230
1.0
 70
     8
 71
     3
 72
     9
 73
     5
 74
     0
 42
0.00000001
 43
0.00000001
 40
0.0
 40
0.0
 40
0.0
 40
0.0
 40
0.5892277025197761
 40
1.0
 40
1.0
 40
1.0
 40
1.0
 10
3850.148075742716
 20
6617.689983059311
 30
0.0
 10
3851.699723438309
 20
6620.448508891464
 30
0.0
 10
3854.333081796983
 20
6625.130104512914
 30
0.0
 10
3854.825140612551
 20
6630.451074849378
 30
0.0
 10
3855.027264742717
 20
6632.63678205931
 30
0.0
  0
SPLINE
  5
198
330
1F
100
AcDbEntity
  8
0
  6
Continuous
 62
     7
370
    25
100
AcDbSpline
210
0.0
220
0.0
230
1.0
 70
     8
 71
     3
 72
     9
 73
     5
 74
     0
 42
0.00000001
 43
0.00000001
 40
0.0
 40
0.0
 40
0.0
 40
0.0
 40
0.5674023536082377
 40
0.9999999999999999
 40
0.9999999999999999
 40
0.9999999999999999
 40
0.9999999999999999
 10
3855.027264742717
 20
6632.63678205931
 30
0.0
 10
3851.951636085128
 20
6631.785473596932
 30
0.0
 10
3846.531093434872
 20
6630.28511242119
 30
0.0
 10
3842.399781543454
 20
6626.509103591702
 30
0.0
 10
3840.612585742716
 20
6624.87561105931
 30
0.0
  0
SPLINE
  5
199
330
1F
100
AcDbEntity
  8
0
  6
Continuous
 62
     7
370
    25
100
AcDbSpline
210
0.0
220
0.0
230
1.0
 70
     8
 71
     3
 72
    13
 73
     9
 74
     0
 42
0.00000001
 43
0.00000001
 40
0.0
 40
0.0
 40
0.0
 40
0.0
 40
0.0614517662417256
 40
0.1279894467555445
 40
0.2046080052721783
 40
0.4874876847065893
 40
0.7874746286515852
 40
1.0
 40
1.0
 40
1.0
 40
1.0
 10
3853.080759742715
 20
6608.67155305931
 30
0.0
 10
3853.130750313598
 20
6609.008534574494
 30
0.0
 10
3853.23486881013
 20
6609.710387105883
 30
0.0
 10
3852.803666252451
 20
6610.782940168264
 30
0.0
 10
3851.469646112726
 20
6612.687530551002
 30
0.0
 10
3848.538767818101
 20
6614.904153177817
 30
0.0
 10
3844.808756330042
 20
6617.096070155429
 30
0.0
 10
3842.281710255382
 20
6618.299761805091
 30
0.0
 10
3841.233810742716
 20
6618.798901059311
 30
0.0
  0
SPLINE
  5
19A
330
1F
100
AcDbEntity
  8
0
  6
Continuous
 62
     7
370
    25
100
AcDbSpline
210
0.0
220
0.0
230
1.0
 70
     8
 71
     3
 72
    19
 73
    15
 74
     0
 42
0.00000001
 43
0.00000001
 40
0.0
 40
0.0
 40
0.0
 40
0.0
 40
0.2105234252831451
 40
0.3855539532352526
 40
0.53927339619328
 40
0.6783894435637344
 40
0.8559800267384703
 40
0.9734517261300799
 40
0.9979910523169854
 40
0.9993576365090244
 40
0.9997501396348273
 40
0.9998447456076847
 40
0.9999260630044826
 40
1.0
 40
1.0
 40
1.0
 40
1.0
 10
3841.233810742716
 20
6618.798901059311
 30
0.0
 10
3840.333298482954
 20
6618.124248607091
 30
0.0
 10
3838.684094546522
 20
6616.888685772868
 30
0.0
 10
3835.895077667486
 20
6616.029621059954
 30
0.0
 10
3833.38383854834
 20
6615.97968231086
 30
0.0
 10
3830.935185723024
 20
6616.557658796088
 30
0.0
 10
3828.838838589767
 20
6617.588363898569
 30
0.0
 10
3827.505314546184
 20
6618.630707013773
 30
0.0
 10
3826.938672669348
 20
6619.153623886227
 30
0.0
 10
3826.865104970237
 20
6619.272665527207
 30
0.0
 10
3826.862233033016
 20
6619.282316339385
 30
0.0
 10
3826.862415329154
 20
6619.285339372308
 30
0.0
 10
3826.862785505796
 20
6619.286644367817
 30
0.0
 10
3826.863309296979
 20
6619.287290399044
 30
0.0
 10
3826.863558742716
 20
6619.287598059312
 30
0.0
  0
SPLINE
  5
19B
330
1F
100
AcDbEntity
  8
0
  6
Continuous
 62
     7
370
    25
100
AcDbSpline
210
0.0
220
0.0
230
1.0
 70
     8
 71
     3
 72
    13
 73
     9
 74
     0
 42
0.00000001
 43
0.00000001
 40
0.0
 40
0.0
 40
0.0
 40
0.0
 40
0.2413735025343372
 40
0.5925121495330595
 40
0.86844211635257
 40
0.9534170352707378
 40
0.978849751109172
 40
0.9999999999999999
 40
0.9999999999999999
 40
0.9999999999999999
 40
0.9999999999999999
 10
3826.863558742716
 20
6619.287598059312
 30
0.0
 10
3825.736134684546
 20
6618.646301992118
 30
0.0
 10
3822.968587935928
 20
6617.072079025344
 30
0.0
 10
3819.108116809723
 20
6614.455966639372
 30
0.0
 10
3816.058739938273
 20
6612.114183481982
 30
0.0
 10
3814.691897009209
 20
6610.537763694892
 30
0.0
 10
3814.348488365427
 20
6609.912008463645
 30
0.0
 10
3814.295982974395
 20
6609.666183806743
 30
0.0
 10
3814.272143742716
 20
6609.554571059311
 30
0.0
  0
SPLINE
  5
19C
330
1F
100
AcDbEntity
  8
0
  6
Continuous
 62
     7
370
    25
100
AcDbSpline
210
0.0
220
0.0
230
1.0
 70
     8
 71
     3
 72
     9
 73
     5
 74
     0
 42
0.00000001
 43
0.00000001
 40
0.0
 40
0.0
 40
0.0
 40
0.0
 40
0.5378746886117928
 40
1.0
 40
1.0
 40
1.0
 40
1.0
 10
3814.272143742716
 20
6609.554571059311
 30
0.0
 10
3817.633878537508
 20
6611.254106119558
 30
0.0
 10
3823.883911985761
 20
6614.4138291856
 30
0.0
 10
3830.866006938527
 20
6614.683417483293
 30
0.0
 10
3834.092609742716
 20
6614.808001059311
 30
0.0
  0
SPLINE
  5
19D
330
1F
100
AcDbEntity
  8
0
  6
Continuous
 62
     7
370
    25
100
AcDbSpline
210
0.0
220
0.0
230
1.0
 70
     8
 71
     3
 72
    10
 73
     6
 74
     0
 42
0.00000001
 43
0.00000001
 40
0.0
 40
0.0
 40
0.0
 40
0.0
 40
0.6407539887806978
 40
0.8395246899691946
 40
1.0
 40
1.0
 40
1.0
 40
1.0
 10
3834.092609742716
 20
6614.808001059311
 30
0.0
 10
3838.452736964372
 20
6614.376614493651
 30
0.0
 10
3844.165435625759
 20
6613.8114058814
 30
0.0
 10
3850.316593685611
 20
6610.8465156623
 30
0.0
 10
3852.227263095852
 20
6609.343120269947
 30
0.0
 10
3853.080759742715
 20
6608.67155305931
 30
0.0
  0
SPLINE
  5
19E
330
1F
100
AcDbEntity
  8
0
  6
Continuous
 62
     7
370
    25
100
AcDbSpline
210
0.0
220
0.0
230
1.0
 70
     8
 71
     3
 72
    11
 73
     7
 74
     0
 42
0.00000001
 43
0.00000001
 40
0.0
 40
0.0
 40
0.0
 40
0.0
 40
0.2850515073913181
 40
0.5575627527544863
 40
0.773711938374461
 40
1.0
 40
1.0
 40
1.0
 40
1.0
 10
3840.031018742715
 20
6612.146146059311
 30
0.0
 10
3840.019796449197
 20
6612.236589710925
 30
0.0
 10
3839.997845564169
 20
6612.413498129423
 30
0.0
 10
3839.837869854677
 20
6612.610676200598
 30
0.0
 10
3839.640359985683
 20
6612.728325155194
 30
0.0
 10
3839.500435326519
 20
6612.742035694529
 30
0.0
 10
3839.428869742715
 20
6612.749048059311
 30
0.0
  0
SPLINE
  5
19F
330
1F
100
AcDbEntity
  8
0
  6
Continuous
 62
     7
370
    25
100
AcDbSpline
210
0.0
220
0.0
230
1.0
 70
     8
 71
     3
 72
    11
 73
     7
 74
     0
 42
0.00000001
 43
0.00000001
 40
0.0
 40
0.0
 40
0.0
 40
0.0
 40
0.2850165961171408
 40
0.5576413071597865
 40
0.7739063384265206
 40
1.0
 40
1.0
 40
1.0
 40
1.0
 10
3839.428869742715
 20
6611.54324405931
 30
0.0
 10
3839.519290721903
 20
6611.554538442141
 30
0.0
 10
3839.696201378041
 20
6611.576636153261
 30
0.0
 10
3839.892974951386
 20
6611.737195280509
 30
0.0
 10
3840.010302582105
 20
6611.934795317144
 30
0.0
 10
3840.024011822065
 20
6612.074659942376
 30
0.0
 10
3840.031018742715
 20
6612.146146059311
 30
0.0
  0
SPLINE
  5
1A0
330
1F
100
AcDbEntity
  8
0
  6
Continuous
 62
     7
370
    25
100
AcDbSpline
210
0.0
220
0.0
230
1.0
 70
     8
 71
     3
 72
    11
 73
     7
 74
     0
 42
0.00000001
 43
0.00000001
 40
0.0
 40
0.0
 40
0.0
 40
0.0
 40
0.2891100344149026
 40
0.5645978651481663
 40
0.7797562698948011
 40
1.0
 40
1.0
 40
1.0
 40
1.0
 10
3838.842533742716
 20
6612.146146059311
 30
0.0
 10
3838.853851227277
 20
6612.055853917392
 30
0.0
 10
3838.875952942406
 20
6611.879523992799
 30
0.0
 10
3839.033200929827
 20
6611.683260120901
 30
0.0
 10
3839.224727754263
 20
6611.564735492441
 30
0.0
 10
3839.360294624025
 20
6611.550463434359
 30
0.0
 10
3839.428869742715
 20
6611.54324405931
 30
0.0
  0
SPLINE
  5
1A1
330
1F
100
AcDbEntity
  8
0
  6
Continuous
 62
     7
370
    25
100
AcDbSpline
210
0.0
220
0.0
230
1.0
 70
     8
 71
     3
 72
    11
 73
     7
 74
     0
 42
0.00000001
 43
0.00000001
 40
0.0
 40
0.0
 40
0.0
 40
0.0
 40
0.2780880384857015
 40
0.5510291069028732
 40
0.7701520551660797
 40
1.0
 40
1.0
 40
1.0
 40
1.0
 10
3839.428869742715
 20
6612.749048059311
 30
0.0
 10
3839.342037442376
 20
6612.737422234318
 30
0.0
 10
3839.169979970335
 20
6612.71438575998
 30
0.0
 10
3838.979360837243
 20
6612.55417221397
 30
0.0
 10
3838.863330719948
 20
6612.35756953635
 30
0.0
 10
3838.849575595724
 20
6612.217734013227
 30
0.0
 10
3838.842533742716
 20
6612.146146059311
 30
0.0
  0
LINE
  5
1A2
330
1F
100
AcDbEntity
  8
0
  6
Continuous
 62
     7
370
    25
100
AcDbLine
 10
3864.7304227427
 20
6630.3820490593
 30
0.0
 11
3865.5750377427
 21
6630.3820490593
 31
0.0
  0
LINE
  5
1A3
330
1F
100
AcDbEntity
  8
0
  6
Continuous
 62
     7
370
    25
100
AcDbLine
 10
3864.7304227427
 20
6627.6576950593
 30
0.0
 11
3864.7304227427
 21
6630.3820490593
 31
0.0
  0
LINE
  5
1A4
330
1F
100
AcDbEntity
  8
0
  6
Continuous
 62
     7
370
    25
100
AcDbLine
 10
3865.5911017427
 20
6627.6576950593
 30
0.0
 11
3864.7304227427
 21
6627.6576950593
 31
0.0
  0
SPLINE
  5
1A5
330
1F
100
AcDbEntity
  8
0
  6
Continuous
 62
     7
370
    25
100
AcDbSpline
210
0.0
220
0.0
230
1.0
 70
     8
 71
     3
 72
     9
 73
     5
 74
     0
 42
0.00000001
 43
0.00000001
 40
0.0
 40
0.0
 40
0.0
 40
0.0
 40
0.521123524153202
 40
0.9999999999999999
 40
0.9999999999999999
 40
0.9999999999999999
 40
0.9999999999999999
 10
3866.690983742715
 20
6628.01436605931
 30
0.0
 10
3866.516479094265
 20
6627.899968473293
 30
0.0
 10
3866.181616743283
 20
6627.680447417893
 30
0.0
 10
3865.782316997691
 20
6627.665062523378
 30
0.0
 10
3865.591101742716
 20
6627.657695059311
 30
0.0
  0
SPLINE
  5
1A6
330
1F
100
AcDbEntity
  8
0
  6
Continuous
 62
     7
370
    25
100
AcDbSpline
210
0.0
220
0.0
230
1.0
 70
     8
 71
     3
 72
     9
 73
     5
 74
     0
 42
0.00000001
 43
0.00000001
 40
0.0
 40
0.0
 40
0.0
 40
0.0
 40
0.5916179956559474
 40
1.0
 40
1.0
 40
1.0
 40
1.0
 10
3867.089320742716
 20
6629.059279059311
 30
0.0
 10
3867.074838413062
 20
6628.825721416045
 30
0.0
 10
3867.050359222502
 20
6628.430943628721
 30
0.0
 10
3866.795190185494
 20
6628.135159126984
 30
0.0
 10
3866.690983742715
 20
6628.01436605931
 30
0.0
  0
SPLINE
  5
1A7
330
1F
100
AcDbEntity
  8
0
  6
Continuous
 62
     7
370
    25
100
AcDbSpline
210
0.0
220
0.0
230
1.0
 70
     8
 71
     3
 72
    12
 73
     8
 74
     0
 42
0.00000001
 43
0.00000001
 40
0.0
 40
0.0
 40
0.0
 40
0.0
 40
0.2243924157124296
 40
0.4117214708937351
 40
0.5770255046823956
 40
0.7720341724516412
 40
1.0
 40
1.0
 40
1.0
 40
1.0
 10
3865.575037742715
 20
6630.382049059311
 30
0.0
 10
3865.747091633529
 20
6630.375079392715
 30
0.0
 10
3866.062780917293
 20
6630.362291253804
 30
0.0
 10
3866.490016630525
 20
6630.225619683908
 30
0.0
 10
3866.83365435776
 20
6629.971125690143
 30
0.0
 10
3867.059029983884
 20
6629.560975083436
 30
0.0
 10
3867.078712615271
 20
6629.234978037081
 30
0.0
 10
3867.089320742716
 20
6629.059279059311
 30
0.0
  0
SPLINE
  5
1A8
330
1F
100
AcDbEntity
  8
0
  6
Continuous
 62
     7
370
    25
100
AcDbSpline
210
0.0
220
0.0
230
1.0
 70
     8
 71
     3
 72
     9
 73
     5
 74
     0
 42
0.00000001
 43
0.00000001
 40
0.0
 40
0.0
 40
0.0
 40
0.0
 40
0.5472914857492175
 40
0.9999999999999999
 40
0.9999999999999999
 40
0.9999999999999999
 40
0.9999999999999999
 10
3867.593328742716
 20
6628.02239805931
 30
0.0
 10
3867.688621909943
 20
6628.20741139633
 30
0.0
 10
3867.862739669326
 20
6628.54546404622
 30
0.0
 10
3867.880821117279
 20
6628.92421174935
 30
0.0
 10
3867.889006742716
 20
6629.095674059311
 30
0.0
  0
SPLINE
  5
1A9
330
1F
100
AcDbEntity
  8
0
  6
Continuous
 62
     7
370
    25
100
AcDbSpline
210
0.0
220
0.0
230
1.0
 70
     8
 71
     3
 72
     9
 73
     5
 74
     0
 42
0.00000001
 43
0.00000001
 40
0.0
 40
0.0
 40
0.0
 40
0.0
 40
0.5724410375885217
 40
0.9999999999999999
 40
0.9999999999999999
 40
0.9999999999999999
 40
0.9999999999999999
 10
3866.745701742716
 20
6627.295502059311
 30
0.0
 10
3866.936755180095
 20
6627.401434758247
 30
0.0
 10
3867.270507348152
 20
6627.586489099183
 30
0.0
 10
3867.496642592344
 20
6627.891841782754
 30
0.0
 10
3867.593328742716
 20
6628.02239805931
 30
0.0
  0
LINE
  5
1AA
330
1F
100
AcDbEntity
  8
0
  6
Continuous
 62
     7
370
    25
100
AcDbLine
 10
3868.5669577427
 20
6624.2714540593
 30
0.0
 11
3866.7457017427
 21
6627.2955020593
 31
0.0
  0
LINE
  5
1AB
330
1F
100
AcDbEntity
  8
0
  6
Continuous
 62
     7
370
    25
100
AcDbLine
 10
3867.6375047427
 20
6624.2714540593
 30
0.0
 11
3868.5669577427
 21
6624.2714540593
 31
0.0
  0
LINE
  5
1AC
330
1F
100
AcDbEntity
  8
0
  6
Continuous
 62
     7
370
    25
100
AcDbLine
 10
3866.0215667427
 20
6627.0440000593
 30
0.0
 11
3867.6375047427
 21
6624.2714540593
 31
0.0
  0
LINE
  5
1AD
330
1F
100
AcDbEntity
  8
0
  6
Continuous
 62
     7
370
    25
100
AcDbLine
 10
3864.7304227427
 20
6627.0440000593
 30
0.0
 11
3866.0215667427
 21
6627.0440000593
 31
0.0
  0
LINE
  5
1AE
330
1F
100
AcDbEntity
  8
0
  6
Continuous
 62
     7
370
    25
100
AcDbLine
 10
3864.7304227427
 20
6624.2714540593
 30
0.0
 11
3864.7304227427
 21
6627.0440000593
 31
0.0
  0
LINE
  5
1AF
330
1F
100
AcDbEntity
  8
0
  6
Continuous
 62
     7
370
    25
100
AcDbLine
 10
3863.9540797427
 20
6624.2714540593
 30
0.0
 11
3864.7304227427
 21
6624.2714540593
 31
0.0
  0
LINE
  5
1B0
330
1F
100
AcDbEntity
  8
0
  6
Continuous
 62
     7
370
    25
100
AcDbLine
 10
3863.9540797427
 20
6631.0436850593
 30
0.0
 11
3863.9540797427
 21
6624.2714540593
 31
0.0
  0
LINE
  5
1B1
330
1F
100
AcDbEntity
  8
0
  6
Continuous
 62
     7
370
    25
100
AcDbLine
 10
3865.5750377427
 20
6631.0436850593
 30
0.0
 11
3863.9540797427
 21
6631.0436850593
 31
0.0
  0
SPLINE
  5
1B2
330
1F
100
AcDbEntity
  8
0
  6
Continuous
 62
     7
370
    25
100
AcDbSpline
210
0.0
220
0.0
230
1.0
 70
     8
 71
     3
 72
     9
 73
     5
 74
     0
 42
0.00000001
 43
0.00000001
 40
0.0
 40
0.0
 40
0.0
 40
0.0
 40
0.511905552898834
 40
1.0
 40
1.0
 40
1.0
 40
1.0
 10
3867.284347742716
 20
6630.566283059311
 30
0.0
 10
3867.012319538198
 20
6630.719142378322
 30
0.0
 10
3866.480916424912
 20
6631.017750819165
 30
0.0
 10
3865.872165626896
 20
6631.035178637807
 30
0.0
 10
3865.575037742715
 20
6631.043685059311
 30
0.0
  0
SPLINE
  5
1B3
330
1F
100
AcDbEntity
  8
0
  6
Continuous
 62
     7
370
    25
100
AcDbSpline
210
0.0
220
0.0
230
1.0
 70
     8
 71
     3
 72
    10
 73
     6
 74
     0
 42
0.00000001
 43
0.00000001
 40
0.0
 40
0.0
 40
0.0
 40
0.0
 40
0.3157269506952642
 40
0.594685950977058
 40
1.0
 40
1.0
 40
1.0
 40
1.0
 10
3867.889006742716
 20
6629.095674059311
 30
0.0
 10
3867.880664771131
 20
6629.268149069216
 30
0.0
 10
3867.864952291424
 20
6629.593013529024
 30
0.0
 10
3867.704514262413
 20
6630.129847524863
 30
0.0
 10
3867.440644925038
 20
6630.403933987927
 30
0.0
 10
3867.284347742716
 20
6630.566283059311
 30
0.0
  0
CIRCLE
  5
1B4
330
1F
100
AcDbEntity
  8
0
  6
Continuous
 62
     7
370
    25
100
AcDbCircle
 10
3865.8298027427
 20
6627.6574440593
 30
0.0
 40
5.050371000000268
  0
CIRCLE
  5
1B5
330
1F
100
AcDbEntity
  8
0
  6
Continuous
 62
     7
370
    25
100
AcDbCircle
 10
3865.8298027427
 20
6627.6574440593
 30
0.0
 40
5.814414999999826
  0
LINE
  5
1B6
330
1F
100
AcDbEntity
  8
0
  6
Continuous
 62
     7
370
    25
100
AcDbLine
 10
3750.3984167427
 20
6613.3045110593
 30
0.0
 11
3757.8468417427
 21
6613.3045110593
 31
0.0
  0
LINE
  5
1B7
330
1F
100
AcDbEntity
  8
0
  6
Continuous
 62
     7
370
    25
100
AcDbLine
 10
3757.8468417427
 20
6613.3045110593
 30
0.0
 11
3757.8468417427
 21
6568.5961400593
 31
0.0
  0
LINE
  5
1B8
330
1F
100
AcDbEntity
  8
0
  6
Continuous
 62
     7
370
    25
100
AcDbLine
 10
3757.8468417427
 20
6568.5961400593
 30
0.0
 11
3773.5985977427
 21
6568.5961400593
 31
0.0
  0
LINE
  5
1B9
330
1F
100
AcDbEntity
  8
0
  6
Continuous
 62
     7
370
    25
100
AcDbLine
 10
3773.5985977427
 20
6568.5961400593
 30
0.0
 11
3773.5985977427
 21
6561.9930830593
 31
0.0
  0
LINE
  5
1BA
330
1F
100
AcDbEntity
  8
0
  6
Continuous
 62
     7
370
    25
100
AcDbLine
 10
3750.3984167427
 20
6561.9930830593
 30
0.0
 11
3750.3984167427
 21
6613.3045110593
 31
0.0
  0
LINE
  5
1BB
330
1F
100
AcDbEntity
  8
0
  6
Continuous
 62
     7
370
    25
100
AcDbLine
 10
3773.5985977427
 20
6561.9930830593
 30
0.0
 11
3750.3984167427
 21
6561.9930830593
 31
0.0
  0
LINE
  5
1BC
330
1F
100
AcDbEntity
  8
0
  6
Continuous
 62
     7
370
    25
100
AcDbLine
 10
3790.6397407427
 20
6614.2128800593
 30
0.0
 11
3793.3447677427
 21
6614.2128800593
 31
0.0
  0
SPLINE
  5
1BD
330
1F
100
AcDbEntity
  8
0
  6
Continuous
 62
     7
370
    25
100
AcDbSpline
210
0.0
220
0.0
230
1.0
 70
     8
 71
     3
 72
    11
 73
     7
 74
     0
 42
0.00000001
 43
0.00000001
 40
0.0
 40
0.0
 40
0.0
 40
0.0
 40
0.2748899887923418
 40
0.5431599919556174
 40
0.7649606557294258
 40
1.0
 40
1.0
 40
1.0
 40
1.0
 10
3793.344767742716
 20
6614.21288005931
 30
0.0
 10
3795.107570557747
 20
6613.956600722985
 30
0.0
 10
3798.590723825855
 20
6613.450213848482
 30
0.0
 10
3802.202502755867
 20
6609.838178167089
 30
0.0
 10
3804.227560537962
 20
6605.647773678779
 30
0.0
 10
3804.461783506708
 20
6602.741975458796
 30
0.0
 10
3804.582288742715
 20
6601.24697305931
 30
0.0
  0
LINE
  5
1BE
330
1F
100
AcDbEntity
  8
0
  6
Continuous
 62
     7
370
    25
100
AcDbLine
 10
3804.5822887427
 20
6601.2469730593
 30
0.0
 11
3804.5822887427
 21
6561.9930830593
 31
0.0
  0
LINE
  5
1BF
330
1F
100
AcDbEntity
  8
0
  6
Continuous
 62
     7
370
    25
100
AcDbLine
 10
3804.5822887427
 20
6561.9930830593
 30
0.0
 11
3797.5851617427
 21
6561.9930830593
 31
0.0
  0
LINE
  5
1C0
330
1F
100
AcDbEntity
  8
0
  6
Continuous
 62
     7
370
    25
100
AcDbLine
 10
3797.5851617427
 20
6561.9930830593
 30
0.0
 11
3797.5851617427
 21
6585.0639990593
 31
0.0
  0
LINE
  5
1C1
330
1F
100
AcDbEntity
  8
0
  6
Continuous
 62
     7
370
    25
100
AcDbLine
 10
3797.5851617427
 20
6585.0639990593
 30
0.0
 11
3786.4071277427
 21
6585.0639990593
 31
0.0
  0
LINE
  5
1C2
330
1F
100
AcDbEntity
  8
0
  6
Continuous
 62
     7
370
    25
100
AcDbLine
 10
3786.4071277427
 20
6585.0639990593
 30
0.0
 11
3786.4046177427
 21
6561.9930830593
 31
0.0
  0
LINE
  5
1C3
330
1F
100
AcDbEntity
  8
0
  6
Continuous
 62
     7
370
    25
100
AcDbLine
 10
3786.4046177427
 20
6561.9930830593
 30
0.0
 11
3779.5447877427
 21
6561.9930830593
 31
0.0
  0
LINE
  5
1C4
330
1F
100
AcDbEntity
  8
0
  6
Continuous
 62
     7
370
    25
100
AcDbLine
 10
3779.5447877427
 20
6561.9930830593
 30
0.0
 11
3779.5447877427
 21
6585.0639990593
 31
0.0
  0
LINE
  5
1C5
330
1F
100
AcDbEntity
  8
0
  6
Continuous
 62
     7
370
    25
100
AcDbLine
 10
3779.5447877427
 20
6585.0639990593
 30
0.0
 11
3776.5403177427
 21
6585.0639990593
 31
0.0
  0
LINE
  5
1C6
330
1F
100
AcDbEntity
  8
0
  6
Continuous
 62
     7
370
    25
100
AcDbLine
 10
3776.5403177427
 20
6585.0639990593
 30
0.0
 11
3774.1186697427
 21
6592.3869240593
 31
0.0
  0
LINE
  5
1C7
330
1F
100
AcDbEntity
  8
0
  6
Continuous
 62
     7
370
    25
100
AcDbLine
 10
3774.1186697427
 20
6592.3869240593
 30
0.0
 11
3779.5447877427
 21
6592.3869240593
 31
0.0
  0
LINE
  5
1C8
330
1F
100
AcDbEntity
  8
0
  6
Continuous
 62
     7
370
    25
100
AcDbLine
 10
3779.5447877427
 20
6592.3869240593
 30
0.0
 11
3779.5447877427
 21
6601.3416000593
 31
0.0
  0
SPLINE
  5
1C9
330
1F
100
AcDbEntity
  8
0
  6
Continuous
 62
     7
370
    25
100
AcDbSpline
210
0.0
220
0.0
230
1.0
 70
     8
 71
     3
 72
    11
 73
     7
 74
     0
 42
0.00000001
 43
0.00000001
 40
0.0
 40
0.0
 40
0.0
 40
0.0
 40
0.2975739338417903
 40
0.5729273693667349
 40
0.7821126475918494
 40
1.0
 40
1.0
 40
1.0
 40
1.0
 10
3779.544787742717
 20
6601.341600059311
 30
0.0
 10
3779.730268407074
 20
6603.222561737344
 30
0.0
 10
3780.08737948776
 20
6606.844029559351
 30
0.0
 10
3782.852244397177
 20
6611.107217336238
 30
0.0
 10
3786.556492553156
 20
6613.757390637735
 30
0.0
 10
3789.260293706246
 20
6614.059001699836
 30
0.0
 10
3790.639740742717
 20
6614.21288005931
 30
0.0
  0
LINE
  5
1CA
330
1F
100
AcDbEntity
  8
0
  6
Continuous
 62
     7
370
    25
100
AcDbLine
 10
3786.4046177427
 20
6595.0663490593
 30
0.0
 11
3786.4046177427
 21
6592.3886810593
 31
0.0
  0
LINE
  5
1CB
330
1F
100
AcDbEntity
  8
0
  6
Continuous
 62
     7
370
    25
100
AcDbLine
 10
3786.4046177427
 20
6592.3886810593
 30
0.0
 11
3797.5851617427
 21
6592.3886810593
 31
0.0
  0
LINE
  5
1CC
330
1F
100
AcDbEntity
  8
0
  6
Continuous
 62
     7
370
    25
100
AcDbLine
 10
3797.5851617427
 20
6592.3886810593
 30
0.0
 11
3797.5851617427
 21
6595.1318600593
 31
0.0
  0
SPLINE
  5
1CD
330
1F
100
AcDbEntity
  8
0
  6
Continuous
 62
     7
370
    25
100
AcDbSpline
210
0.0
220
0.0
230
1.0
 70
     8
 71
     3
 72
    12
 73
     8
 74
     0
 42
0.00000001
 43
0.00000001
 40
0.0
 40
0.0
 40
0.0
 40
0.0
 40
0.5919167507046921
 40
0.7068162821106464
 40
0.8064203490300661
 40
0.8986248364478271
 40
1.0
 40
1.0
 40
1.0
 40
1.0
 10
3797.585161742717
 20
6595.13186005931
 30
0.0
 10
3797.649721813158
 20
6597.93498721177
 30
0.0
 10
3797.726813919283
 20
6601.282241550873
 30
0.0
 10
3796.637372548138
 20
6604.924577405904
 30
0.0
 10
3795.890134594289
 20
6606.173008482455
 30
0.0
 10
3794.745840531503
 20
6607.040386251448
 30
0.0
 10
3793.826312630674
 20
6607.123686693469
 30
0.0
 10
3793.344767742716
 20
6607.167310059311
 30
0.0
  0
LINE
  5
1CE
330
1F
100
AcDbEntity
  8
0
  6
Continuous
 62
     7
370
    25
100
AcDbLine
 10
3793.3447677427
 20
6607.1673100593
 30
0.0
 11
3790.6397407427
 21
6607.1673100593
 31
0.0
  0
SPLINE
  5
1CF
330
1F
100
AcDbEntity
  8
0
  6
Continuous
 62
     7
370
    25
100
AcDbSpline
210
0.0
220
0.0
230
1.0
 70
     8
 71
     3
 72
    12
 73
     8
 74
     0
 42
0.00000001
 43
0.00000001
 40
0.0
 40
0.0
 40
0.0
 40
0.0
 40
0.1009571614410066
 40
0.1931112031187961
 40
0.2929530302810908
 40
0.4081871850082255
 40
1.0
 40
1.0
 40
1.0
 40
1.0
 10
3790.639740742717
 20
6607.167310059311
 30
0.0
 10
3790.158455067771
 20
6607.12193672204
 30
0.0
 10
3789.237850185403
 20
6607.035146447583
 30
0.0
 10
3788.096241506266
 20
6606.15682830128
 30
0.0
 10
3787.35124405578
 20
6604.898672109678
 30
0.0
 10
3786.265349953157
 20
6601.238682350555
 30
0.0
 10
3786.341161730338
 20
6597.878712628618
 30
0.0
 10
3786.404617742716
 20
6595.066349059312
 30
0.0
  0
SPLINE
  5
1D0
330
1F
100
AcDbEntity
  8
0
  6
Continuous
 62
     7
370
    25
100
AcDbSpline
210
0.0
220
0.0
230
1.0
 70
     8
 71
     3
 72
    11
 73
     7
 74
     0
 42
0.00000001
 43
0.00000001
 40
0.0
 40
0.0
 40
0.0
 40
0.0
 40
0.2794371932272667
 40
0.5565546688568372
 40
0.7766512099399271
 40
1.0
 40
1.0
 40
1.0
 40
1.0
 10
3829.995536742717
 20
6612.133094059311
 30
0.0
 10
3829.982874020684
 20
6612.219914080854
 30
0.0
 10
3829.957653694837
 20
6612.392833396934
 30
0.0
 10
3829.792775109987
 20
6612.580561731646
 30
0.0
 10
3829.598236980598
 20
6612.696517188331
 30
0.0
 10
3829.460835391921
 20
6612.711087482575
 30
0.0
 10
3829.391630742716
 20
6612.71842605931
 30
0.0
  0
SPLINE
  5
1D1
330
1F
100
AcDbEntity
  8
0
  6
Continuous
 62
     7
370
    25
100
AcDbSpline
210
0.0
220
0.0
230
1.0
 70
     8
 71
     3
 72
    11
 73
     7
 74
     0
 42
0.00000001
 43
0.00000001
 40
0.0
 40
0.0
 40
0.0
 40
0.0
 40
0.2798956553376894
 40
0.5593419980852328
 40
0.7791678781960519
 40
1.0
 40
1.0
 40
1.0
 40
1.0
 10
3829.391630742716
 20
6611.530192059311
 30
0.0
 10
3829.479591634217
 20
6611.542963189018
 30
0.0
 10
3829.655372214827
 20
6611.568484947118
 30
0.0
 10
3829.848946136471
 20
6611.731487644864
 30
0.0
 10
3829.971864372071
 20
6611.925486883331
 30
0.0
 10
3829.987633949235
 20
6612.063786398426
 30
0.0
 10
3829.995536742717
 20
6612.133094059311
 30
0.0
  0
SPLINE
  5
1D2
330
1F
100
AcDbEntity
  8
0
  6
Continuous
 62
     7
370
    25
100
AcDbSpline
210
0.0
220
0.0
230
1.0
 70
     8
 71
     3
 72
    11
 73
     7
 74
     0
 42
0.00000001
 43
0.00000001
 40
0.0
 40
0.0
 40
0.0
 40
0.0
 40
0.2798325246745834
 40
0.5591038431145128
 40
0.7789475464427875
 40
1.0
 40
1.0
 40
1.0
 40
1.0
 10
3828.788477742716
 20
6612.133094059311
 30
0.0
 10
3828.801239386464
 20
6612.045188811351
 30
0.0
 10
3828.826737080387
 20
6611.869554610069
 30
0.0
 10
3828.989867436665
 20
6611.676276155478
 30
0.0
 10
3829.18397928862
 20
6611.553752037654
 30
0.0
 10
3829.322287197479
 20
6611.538059725979
 30
0.0
 10
3829.391630742716
 20
6611.530192059311
 30
0.0
  0
SPLINE
  5
1D3
330
1F
100
AcDbEntity
  8
0
  6
Continuous
 62
     7
370
    25
100
AcDbSpline
210
0.0
220
0.0
230
1.0
 70
     8
 71
     3
 72
    11
 73
     7
 74
     0
 42
0.00000001
 43
0.00000001
 40
0.0
 40
0.0
 40
0.0
 40
0.0
 40
0.2827311893085431
 40
0.5610503005760682
 40
0.7789335480931902
 40
1.0
 40
1.0
 40
1.0
 40
1.0
 10
3829.391630742716
 20
6612.71842605931
 30
0.0
 10
3829.303901526352
 20
6612.706600073518
 30
0.0
 10
3829.12981212599
 20
6612.683132648858
 30
0.0
 10
3828.934910080619
 20
6612.527477363245
 30
0.0
 10
3828.81166329716
 20
6612.337683893598
 30
0.0
 10
3828.796243534881
 20
6612.201619577469
 30
0.0
 10
3828.788477742716
 20
6612.133094059311
 30
0.0
  0
LINE
  5
1D4
330
1F
100
AcDbEntity
  8
0
  6
Continuous
 62
     7
370
    25
100
AcDbLine
 10
2521.6304227427
 20
6465.7930830593
 30
0.0
 11
2521.6304227427
 21
6365.7930830593
 31
0.0
  0
ARC
  5
1D5
330
1F
100
AcDbEntity
  8
0
  6
Continuous
 62
     7
370
    25
100
AcDbCircle
 10
2521.6304227427
 20
6465.7930830593
 30
0.0
 40
100.0000000000009
100
AcDbArc
 50
180.0
 51
270.0
  0
LINE
  5
1D6
330
1F
100
AcDbEntity
  8
0
  6
Continuous
 62
     7
370
    25
100
AcDbLine
 10
2421.6304227427
 20
6465.7930830593
 30
0.0
 11
2521.6304227427
 21
6465.7930830593
 31
0.0
  0
LINE
  5
1D7
330
1F
100
AcDbEntity
  8
0
  6
Continuous
 62
     7
370
    25
100
AcDbLine
 10
2421.6304227427
 20
7965.7930830593
 30
0.0
 11
2421.6304227427
 21
6465.7930830593
 31
0.0
  0
LINE
  5
1D8
330
1F
100
AcDbEntity
  8
0
  6
Continuous
 62
     7
370
    25
100
AcDbLine
 10
2421.6304227427
 20
7965.7930830593
 30
0.0
 11
2521.6304227427
 21
7965.7930830593
 31
0.0
  0
LINE
  5
1D9
330
1F
100
AcDbEntity
  8
0
  6
Continuous
 62
     7
370
    25
100
AcDbLine
 10
2521.6304227427
 20
7965.7930830593
 30
0.0
 11
2521.6304227427
 21
6465.7930830593
 31
0.0
  0
LINE
  5
1DA
330
1F
100
AcDbEntity
  8
0
  6
Continuous
 62
     7
370
    25
100
AcDbLine
 10
2521.6304227427
 20
6465.7930830593
 30
0.0
 11
4021.6304227427
 21
6465.7930830593
 31
0.0
  0
LINE
  5
1DB
330
1F
100
AcDbEntity
  8
0
  6
Continuous
 62
     7
370
    25
100
AcDbLine
 10
4021.6304227427
 20
6465.7930830593
 30
0.0
 11
4021.6304227427
 21
6365.7930830593
 31
0.0
  0
LINE
  5
1DC
330
1F
100
AcDbEntity
  8
0
  6
Continuous
 62
     7
370
    25
100
AcDbLine
 10
2521.6304227427
 20
6365.7930830593
 30
0.0
 11
4021.6304227427
 21
6365.7930830593
 31
0.0
  0
LINE
  5
1DD
330
1F
100
AcDbEntity
  8
0
  6
Continuous
 62
     7
370
    25
100
AcDbLine
 10
4021.6304227427
 20
7965.7930830593
 30
0.0
 11
2521.6304227427
 21
7965.7930830593
 31
0.0
  0
LINE
  5
1DE
330
1F
100
AcDbEntity
  8
0
  6
Continuous
 62
     7
370
    25
100
AcDbLine
 10
4021.6304227427
 20
6465.7930830593
 30
0.0
 11
4021.6304227427
 21
7965.7930830593
 31
0.0
  0
LINE
  5
1DF
330
1F
100
AcDbEntity
  8
0
  6
Continuous
 62
     7
370
    25
100
AcDbLine
 10
3428.6304227427
 20
6851.7930830593
 30
0.0
 11
3114.6304227427
 21
6851.7930830593
 31
0.0
  0
ARC
  5
1E0
330
1F
100
AcDbEntity
  8
0
  6
Continuous
 62
     7
370
    25
100
AcDbCircle
 10
3114.6304227427
 20
6840.2930830593
 30
0.0
 40
11.50000000000091
100
AcDbArc
 50
90.0
 51
180.0
  0
LINE
  5
1E1
330
1F
100
AcDbEntity
  8
0
  6
Continuous
 62
     7
370
    25
100
AcDbLine
 10
3103.1304227427
 20
6840.2930830593
 30
0.0
 11
3103.1304227427
 21
6711.2930830593
 31
0.0
  0
ARC
  5
1E2
330
1F
100
AcDbEntity
  8
0
  6
Continuous
 62
     7
370
    25
100
AcDbCircle
 10
3114.6304227427
 20
6711.2930830593
 30
0.0
 40
11.5
100
AcDbArc
 50
180.0
 51
270.0
  0
LINE
  5
1E3
330
1F
100
AcDbEntity
  8
0
  6
Continuous
 62
     7
370
    25
100
AcDbLine
 10
3114.6304227427
 20
6699.7930830593
 30
0.0
 11
3428.6304227427
 21
6699.7930830593
 31
0.0
  0
ARC
  5
1E4
330
1F
100
AcDbEntity
  8
0
  6
Continuous
 62
     7
370
    25
100
AcDbCircle
 10
3428.6304227427
 20
6711.2930830593
 30
0.0
 40
11.50000000000091
100
AcDbArc
 50
270.0
 51
0.0
  0
LINE
  5
1E5
330
1F
100
AcDbEntity
  8
0
  6
Continuous
 62
     7
370
    25
100
AcDbLine
 10
3440.1304227427
 20
6711.2930830593
 30
0.0
 11
3440.1304227427
 21
6840.2930830593
 31
0.0
  0
ARC
  5
1E6
330
1F
100
AcDbEntity
  8
0
  6
Continuous
 62
     7
370
    25
100
AcDbCircle
 10
3428.6304227427
 20
6840.2930830593
 30
0.0
 40
11.5
100
AcDbArc
 50
0.0
 51
90.0
  0
CIRCLE
  5
1E7
330
1F
100
AcDbEntity
  8
0
  6
Continuous
 62
     7
370
    25
100
AcDbCircle
 10
3271.6304227427
 20
7535.7930830593
 30
0.0
 40
120.0
  0
LINE
  5
1E8
330
1F
100
AcDbEntity
  8
0
  6
Continuous
 62
     7
370
    25
100
AcDbLine
 10
2521.6304227427
 20
8065.7930830593
 30
0.0
 11
2521.6304227427
 21
7965.7930830593
 31
0.0
  0
ARC
  5
1E9
330
1F
100
AcDbEntity
  8
0
  6
Continuous
 62
     7
370
    25
100
AcDbCircle
 10
2521.6304227427
 20
7965.7930830593
 30
0.0
 40
100.0
100
AcDbArc
 50
90.0
 51
180.0
  0
LINE
  5
1EA
330
1F
100
AcDbEntity
  8
0
  6
Continuous
 62
     7
370
    25
100
AcDbLine
 10
4021.6304227427
 20
8065.7930830593
 30
0.0
 11
2521.6304227427
 21
8065.7930830593
 31
0.0
  0
LINE
  5
1EB
330
1F
100
AcDbEntity
  8
0
  6
Continuous
 62
     7
370
    25
100
AcDbLine
 10
4021.6304227427
 20
8065.7930830593
 30
0.0
 11
4021.6304227427
 21
7965.7930830593
 31
0.0
  0
LINE
  5
1EC
330
1F
100
AcDbEntity
  8
0
  6
Continuous
 62
     7
370
    25
100
AcDbLine
 10
4021.6304227427
 20
6465.7930830593
 30
0.0
 11
4121.6304227427
 21
6465.7930830593
 31
0.0
  0
ARC
  5
1ED
330
1F
100
AcDbEntity
  8
0
  6
Continuous
 62
     7
370
    25
100
AcDbCircle
 10
4021.6304227427
 20
6465.7930830593
 30
0.0
 40
100.0
100
AcDbArc
 50
270.0
 51
0.0
  0
LINE
  5
1EE
330
1F
100
AcDbEntity
  8
0
  6
Continuous
 62
     7
370
    25
100
AcDbLine
 10
4021.6304227427
 20
7965.7930830593
 30
0.0
 11
4121.6304227427
 21
7965.7930830593
 31
0.0
  0
LINE
  5
1EF
330
1F
100
AcDbEntity
  8
0
  6
Continuous
 62
     7
370
    25
100
AcDbLine
 10
4121.6304227427
 20
6465.7930830593
 30
0.0
 11
4121.6304227427
 21
7965.7930830593
 31
0.0
  0
ARC
  5
1F0
330
1F
100
AcDbEntity
  8
0
  6
Continuous
 62
     7
370
    25
100
AcDbCircle
 10
4021.6304227427
 20
7965.7930830593
 30
0.0
 40
100.0
100
AcDbArc
 50
0.0
 51
90.0
  0
LINE
  5
1F1
330
1F
100
AcDbEntity
  8
0
  6
Continuous
 62
     7
370
    25
100
AcDbLine
 10
5997.3107940846
 20
7876.8130912599
 30
0.0
 11
5301.3107940846
 21
7876.8130912599
 31
0.0
  0
LINE
  5
1F2
330
1F
100
AcDbEntity
  8
0
  6
Continuous
 62
     7
370
    25
100
AcDbLine
 10
5301.3107940846
 20
6566.8130912599
 30
0.0
 11
5997.3107940846
 21
6566.8130912599
 31
0.0
  0
SPLINE
  5
1F3
330
1F
100
AcDbEntity
  8
0
  6
Continuous
 62
     7
370
    25
100
AcDbSpline
210
0.0
220
0.0
230
1.0
 70
     8
 71
     3
 72
     9
 73
     5
 74
     0
 42
0.00000001
 43
0.00000001
 40
0.0
 40
0.0
 40
0.0
 40
0.0
 40
0.4995627361635516
 40
1.0
 40
1.0
 40
1.0
 40
1.0
 10
6027.569909382635
 20
7821.442504978168
 30
0.0
 10
6028.101216822292
 20
7820.535259816994
 30
0.0
 10
6029.16476180112
 20
7818.719181283712
 30
0.0
 10
6030.225499022079
 20
7816.899257890014
 30
0.0
 10
6030.756331454586
 20
7815.988500406482
 30
0.0
  0
LINE
  5
1F4
330
1F
100
AcDbEntity
  8
0
  6
Continuous
 62
     7
370
    25
100
AcDbLine
 10
6026.7277805242
 20
7821.2257501159
 30
0.0
 11
6026.8479178613
 21
7821.4312787557
 31
0.0
  0
LINE
  5
1F5
330
1F
100
AcDbEntity
  8
0
  6
Continuous
 62
     7
370
    25
100
AcDbLine
 10
6028.4601644846
 20
7857.8130912599
 30
0.0
 11
6026.3107940846
 21
7857.8130912599
 31
0.0
  0
LINE
  5
1F6
330
1F
100
AcDbEntity
  8
0
  6
Continuous
 62
     7
370
    25
100
AcDbLine
 10
6030.960164515
 20
7815.8130912599
 30
0.0
 11
6031.3107940846
 21
7815.8130912599
 31
0.0
  0
LINE
  5
1F7
330
1F
100
AcDbEntity
  8
0
  6
Continuous
 62
     7
370
    25
100
AcDbLine
 10
6026.5910600894
 20
7821.2257501159
 30
0.0
 11
6027.6967464054
 21
7821.2257501159
 31
0.0
  0
LINE
  5
1F8
330
1F
100
AcDbEntity
  8
0
  6
Continuous
 62
     7
370
    25
100
AcDbLine
 10
5996.1272506795
 20
6586.1074150638
 30
0.0
 11
5997.3107940846
 21
6588.1365783153
 31
0.0
  0
SPLINE
  5
1F9
330
1F
100
AcDbEntity
  8
0
  6
Continuous
 62
     7
370
    25
100
AcDbSpline
210
0.0
220
0.0
230
1.0
 70
     8
 71
     3
 72
     9
 73
     5
 74
     0
 42
0.00000001
 43
0.00000001
 40
0.0
 40
0.0
 40
0.0
 40
0.0
 40
0.485768298071931
 40
1.0
 40
1.0
 40
1.0
 40
1.0
 10
6026.127250679471
 20
6586.107415063826
 30
0.0
 10
6026.628807736784
 20
6586.967863623569
 30
0.0
 10
6027.661310391451
 20
6588.739178390626
 30
0.0
 10
6028.697413544289
 20
6590.509822849423
 30
0.0
 10
6029.230210631946
 20
6591.420344362979
 30
0.0
  0
LINE
  5
1FA
330
1F
100
AcDbEntity
  8
0
  6
Continuous
 62
     7
370
    25
100
AcDbLine
 10
5998.1409502297
 20
6627.6386064466
 30
0.0
 11
5997.3107940846
 21
6626.2155626399
 31
0.0
  0
LINE
  5
1FB
330
1F
100
AcDbEntity
  8
0
  6
Continuous
 62
     7
370
    25
100
AcDbLine
 10
6029.9666033014
 20
6591.4229649453
 30
0.0
 11
6031.3107940846
 21
6589.1252066563
 31
0.0
  0
SPLINE
  5
1FC
330
1F
100
AcDbEntity
  8
0
  6
Continuous
 62
     7
370
    25
100
AcDbSpline
210
0.0
220
0.0
230
1.0
 70
     8
 71
     3
 72
     9
 73
     5
 74
     0
 42
0.00000001
 43
0.00000001
 40
0.0
 40
0.0
 40
0.0
 40
0.0
 40
0.5250252427301997
 40
1.0
 40
1.0
 40
1.0
 40
1.0
 10
6028.140950229716
 20
6627.638606446641
 30
0.0
 10
6027.606563492612
 20
6626.721742076791
 30
0.0
 10
6026.588732932077
 20
6624.975417718969
 30
0.0
 10
6025.565980572102
 20
6623.229634876501
 30
0.0
 10
6025.080199018177
 20
6622.400432094654
 30
0.0
  0
LINE
  5
1FD
330
1F
100
AcDbEntity
  8
0
  6
Continuous
 62
     7
370
    25
100
AcDbLine
 10
6031.3107940846
 20
6627.8130912599
 30
0.0
 11
6028.3466497279
 21
6627.8130912599
 31
0.0
  0
LINE
  5
1FE
330
1F
100
AcDbEntity
  8
0
  6
Continuous
 62
     7
370
    25
100
AcDbLine
 10
6028.9766926787
 20
6591.2257504252
 30
0.0
 11
6030.0819739831
 21
6591.2257504252
 31
0.0
  0
SPLINE
  5
1FF
330
1F
100
AcDbEntity
  8
0
  6
Continuous
 62
     7
370
    25
100
AcDbSpline
210
0.0
220
0.0
230
1.0
 70
     8
 71
     3
 72
     9
 73
     5
 74
     0
 42
0.00000001
 43
0.00000001
 40
0.0
 40
0.0
 40
0.0
 40
0.0
 40
0.4999915966024938
 40
1.0
 40
1.0
 40
1.0
 40
1.0
 10
5458.251347340129
 20
6561.871823894961
 30
0.0
 10
5457.104941226067
 20
6561.209522297851
 30
0.0
 10
5454.81209046247
 20
6559.884896840922
 30
0.0
 10
5452.519207612131
 20
6558.560337393666
 30
0.0
 10
5451.372746918955
 20
6557.898046539239
 30
0.0
  0
SPLINE
  5
200
330
1F
100
AcDbEntity
  8
0
  6
Continuous
 62
     7
370
    25
100
AcDbSpline
210
0.0
220
0.0
230
1.0
 70
     8
 71
     3
 72
     9
 73
     5
 74
     0
 42
0.00000001
 43
0.00000001
 40
0.0
 40
0.0
 40
0.0
 40
0.0
 40
0.4999930211968343
 40
1.0
 40
1.0
 40
1.0
 40
1.0
 10
5458.260703027286
 20
6549.176946564298
 30
0.0
 10
5457.114445976604
 20
6548.514720554225
 30
0.0
 10
5454.821899876785
 20
6547.190250047642
 30
0.0
 10
5452.529282668504
 20
6545.865834344169
 30
0.0
 10
5451.38295806464
 20
6545.203617249595
 30
0.0
  0
SPLINE
  5
201
330
1F
100
AcDbEntity
  8
0
  6
Continuous
 62
     7
370
    25
100
AcDbSpline
210
0.0
220
0.0
230
1.0
 70
     8
 71
     3
 72
     9
 73
     5
 74
     0
 42
0.00000001
 43
0.00000001
 40
0.0
 40
0.0
 40
0.0
 40
0.0
 40
0.4999921987988316
 40
0.9999999999999999
 40
0.9999999999999999
 40
0.9999999999999999
 40
0.9999999999999999
 10
5458.240252229852
 20
6536.465252523035
 30
0.0
 10
5457.093897757957
 20
6535.802981411147
 30
0.0
 10
5454.801153041845
 20
6534.478418521008
 30
0.0
 10
5452.508393794014
 20
6533.153916920847
 30
0.0
 10
5451.361996283823
 20
6532.491655788063
 30
0.0
  0
SPLINE
  5
202
330
1F
100
AcDbEntity
  8
0
  6
Continuous
 62
     7
370
    25
100
AcDbSpline
210
0.0
220
0.0
230
1.0
 70
     8
 71
     3
 72
     9
 73
     5
 74
     0
 42
0.00000001
 43
0.00000001
 40
0.0
 40
0.0
 40
0.0
 40
0.0
 40
0.4999918255730901
 40
1.0
 40
1.0
 40
1.0
 40
1.0
 10
5458.265319040423
 20
6523.779356659288
 30
0.0
 10
5457.118948233743
 20
6523.117067277966
 30
0.0
 10
5454.826169136073
 20
6521.792466859623
 30
0.0
 10
5452.533323863962
 20
6520.467930634718
 30
0.0
 10
5451.386882485212
 20
6519.80565169494
 30
0.0
  0
SPLINE
  5
203
330
1F
100
AcDbEntity
  8
0
  6
Continuous
 62
     7
370
    25
100
AcDbSpline
210
0.0
220
0.0
230
1.0
 70
     8
 71
     3
 72
     9
 73
     5
 74
     0
 42
0.00000001
 43
0.00000001
 40
0.0
 40
0.0
 40
0.0
 40
0.0
 40
0.4999930246448338
 40
1.0
 40
1.0
 40
1.0
 40
1.0
 10
5458.241686053715
 20
6511.066136844753
 30
0.0
 10
5457.095404021375
 20
6510.403910274086
 30
0.0
 10
5454.802807973349
 20
6509.079438655433
 30
0.0
 10
5452.510181524711
 20
6507.755021832932
 30
0.0
 10
5451.363852308508
 20
6507.092804183404
 30
0.0
  0
SPLINE
  5
204
330
1F
100
AcDbEntity
  8
0
  6
Continuous
 62
     7
370
    25
100
AcDbSpline
210
0.0
220
0.0
230
1.0
 70
     8
 71
     3
 72
     9
 73
     5
 74
     0
 42
0.00000001
 43
0.00000001
 40
0.0
 40
0.0
 40
0.0
 40
0.0
 40
0.4999915830410318
 40
1.0
 40
1.0
 40
1.0
 40
1.0
 10
5458.252090867271
 20
6498.372243769999
 30
0.0
 10
5457.105683832174
 20
6497.709941520612
 30
0.0
 10
5454.812831164282
 20
6496.385314723181
 30
0.0
 10
5452.51994486992
 20
6495.06075404108
 30
0.0
 10
5451.373482423608
 20
6494.398462551257
 30
0.0
  0
SPLINE
  5
205
330
1F
100
AcDbEntity
  8
0
  6
Continuous
 62
     7
370
    25
100
AcDbSpline
210
0.0
220
0.0
230
1.0
 70
     8
 71
     3
 72
     9
 73
     5
 74
     0
 42
0.00000001
 43
0.00000001
 40
0.0
 40
0.0
 40
0.0
 40
0.0
 40
0.4999930954716788
 40
1.0
 40
1.0
 40
1.0
 40
1.0
 10
5458.259750028834
 20
6485.676439872811
 30
0.0
 10
5457.11349881994
 20
6485.014217946692
 30
0.0
 10
5454.820964744417
 20
6483.689755804884
 30
0.0
 10
5452.528360611486
 20
6482.36534788349
 30
0.0
 10
5451.382042715672
 20
6481.703134778382
 30
0.0
  0
SPLINE
  5
206
330
1F
100
AcDbEntity
  8
0
  6
Continuous
 62
     7
370
    25
100
AcDbSpline
210
0.0
220
0.0
230
1.0
 70
     8
 71
     3
 72
     9
 73
     5
 74
     0
 42
0.00000001
 43
0.00000001
 40
0.0
 40
0.0
 40
0.0
 40
0.0
 40
0.2284836632024212
 40
1.0
 40
1.0
 40
1.0
 40
1.0
 10
5658.820649177491
 20
6476.75067818812
 30
0.0
 10
5658.486760830037
 20
6476.943561606575
 30
0.0
 10
5657.025438200776
 20
6477.787750708548
 30
0.0
 10
5655.564134441775
 20
6478.631974834036
 30
0.0
 10
5654.436714718682
 20
6479.283307538767
 30
0.0
  0
SPLINE
  5
207
330
1F
100
AcDbEntity
  8
0
  6
Continuous
 62
     7
370
    25
100
AcDbSpline
210
0.0
220
0.0
230
1.0
 70
     8
 71
     3
 72
     9
 73
     5
 74
     0
 42
0.00000001
 43
0.00000001
 40
0.0
 40
0.0
 40
0.0
 40
0.0
 40
0.5059373756786835
 40
0.9999999999999999
 40
0.9999999999999999
 40
0.9999999999999999
 40
0.9999999999999999
 10
5661.23451501281
 20
6488.055749179516
 30
0.0
 10
5660.088075648589
 20
6488.718027035147
 30
0.0
 10
5657.82210476102
 20
6490.02703856003
 30
0.0
 10
5655.556199891987
 20
6491.33611336806
 30
0.0
 10
5654.43670098593
 20
6491.98287830315
 30
0.0
  0
SPLINE
  5
208
330
1F
100
AcDbEntity
  8
0
  6
Continuous
 62
     7
370
    25
100
AcDbSpline
210
0.0
220
0.0
230
1.0
 70
     8
 71
     3
 72
     9
 73
     5
 74
     0
 42
0.00000001
 43
0.00000001
 40
0.0
 40
0.0
 40
0.0
 40
0.0
 40
0.5040651579089147
 40
1.0
 40
1.0
 40
1.0
 40
1.0
 10
5661.259456059626
 20
6500.741740530892
 30
0.0
 10
5660.113056696509
 20
6501.404002635655
 30
0.0
 10
5657.83874881165
 20
6502.717844892701
 30
0.0
 10
5655.564455390817
 20
6504.031748101863
 30
0.0
 10
5654.436554042286
 20
6504.683358482423
 30
0.0
  0
SPLINE
  5
209
330
1F
100
AcDbEntity
  8
0
  6
Continuous
 62
     7
370
    25
100
AcDbSpline
210
0.0
220
0.0
230
1.0
 70
     8
 71
     3
 72
     9
 73
     5
 74
     0
 42
0.00000001
 43
0.00000001
 40
0.0
 40
0.0
 40
0.0
 40
0.0
 40
0.5055173985072188
 40
0.9999999999999999
 40
0.9999999999999999
 40
0.9999999999999999
 40
0.9999999999999999
 10
5661.239078749242
 20
6513.453381160554
 30
0.0
 10
5660.092757431695
 20
6514.115596218966
 30
0.0
 10
5657.825137522009
 20
6515.425571029658
 30
0.0
 10
5655.557587442427
 20
6516.735599758787
 30
0.0
 10
5654.43632338006
 20
6517.383386172795
 30
0.0
  0
SPLINE
  5
20A
330
1F
100
AcDbEntity
  8
0
  6
Continuous
 62
     7
370
    25
100
AcDbSpline
210
0.0
220
0.0
230
1.0
 70
     8
 71
     3
 72
     9
 73
     5
 74
     0
 42
0.00000001
 43
0.00000001
 40
0.0
 40
0.0
 40
0.0
 40
0.0
 40
0.5049152799007667
 40
1.0
 40
1.0
 40
1.0
 40
1.0
 10
5661.248474649524
 20
6526.14825420243
 30
0.0
 10
5660.102013026855
 20
6526.810545333164
 30
0.0
 10
5657.831411069844
 20
6528.122232970868
 30
0.0
 10
5655.560841645014
 20
6529.43398603105
 30
0.0
 10
5654.436717416857
 20
6530.083414927689
 30
0.0
  0
SPLINE
  5
20B
330
1F
100
AcDbEntity
  8
0
  6
Continuous
 62
     7
370
    25
100
AcDbSpline
210
0.0
220
0.0
230
1.0
 70
     8
 71
     3
 72
     9
 73
     5
 74
     0
 42
0.00000001
 43
0.00000001
 40
0.0
 40
0.0
 40
0.0
 40
0.0
 40
0.5041873355941369
 40
1.0
 40
1.0
 40
1.0
 40
1.0
 10
5661.257491373741
 20
6538.842953942652
 30
0.0
 10
5660.111163674087
 20
6539.505170512176
 30
0.0
 10
5657.837549049667
 20
6540.81860407699
 30
0.0
 10
5655.563965381497
 20
6542.132091834738
 30
0.0
 10
5654.436693805233
 20
6542.783335699572
 30
0.0
  0
SPLINE
  5
20C
330
1F
100
AcDbEntity
  8
0
  6
Continuous
 62
     7
370
    25
100
AcDbSpline
210
0.0
220
0.0
230
1.0
 70
     8
 71
     3
 72
     9
 73
     5
 74
     0
 42
0.00000001
 43
0.00000001
 40
0.0
 40
0.0
 40
0.0
 40
0.0
 40
0.5059024121688723
 40
0.9999999999999999
 40
0.9999999999999999
 40
0.9999999999999999
 40
0.9999999999999999
 10
5661.234907467286
 20
6551.555548395145
 30
0.0
 10
5660.088464005556
 20
6552.217828262533
 30
0.0
 10
5657.822328414671
 20
6553.526934231308
 30
0.0
 10
5655.556257589217
 20
6554.83610379906
 30
0.0
 10
5654.436597460505
 20
6555.482961324548
 30
0.0
  0
SPLINE
  5
20D
330
1F
100
AcDbEntity
  8
0
  6
Continuous
 62
     7
370
    25
100
AcDbSpline
210
0.0
220
0.0
230
1.0
 70
     8
 71
     3
 72
     9
 73
     5
 74
     0
 42
0.00000001
 43
0.00000001
 40
0.0
 40
0.0
 40
0.0
 40
0.0
 40
0.7726220792822738
 40
1.0
 40
1.0
 40
1.0
 40
1.0
 10
5661.259719707919
 20
6564.241575935311
 30
0.0
 10
5660.113323380151
 20
6564.903833268732
 30
0.0
 10
5658.629549671752
 20
6565.760988857707
 30
0.0
 10
5657.145785349578
 20
6566.618184008831
 30
0.0
 10
5656.808410103166
 20
6566.813091259944
 30
0.0
  0
LINE
  5
20E
330
1F
100
AcDbEntity
  8
0
  6
Continuous
 62
     7
370
    25
100
AcDbLine
 10
5457.710986712
 20
6472.4128986325
 30
0.0
 11
5463.3107940846
 21
6466.8130912599
 31
0.0
  0
LINE
  5
20F
330
1F
100
AcDbEntity
  8
0
  6
Continuous
 62
     7
370
    25
100
AcDbLine
 10
5649.3107940846
 20
6466.8130912599
 30
0.0
 11
5658.8925442979
 21
6476.3948414732
 31
0.0
  0
LINE
  5
210
330
1F
100
AcDbEntity
  8
0
  6
Continuous
 62
     7
370
    25
100
AcDbLine
 10
5451.3107940846
 20
6481.6264953603
 30
0.0
 11
5451.3107940846
 21
6480.0186995335
 31
0.0
  0
LINE
  5
211
330
1F
100
AcDbEntity
  8
0
  6
Continuous
 62
     7
370
    25
100
AcDbLine
 10
5451.3107940846
 20
6494.3268070127
 30
0.0
 11
5451.3107940846
 21
6492.7551714312
 31
0.0
  0
LINE
  5
212
330
1F
100
AcDbEntity
  8
0
  6
Continuous
 62
     7
370
    25
100
AcDbLine
 10
5451.3107940846
 20
6507.0272874034
 30
0.0
 11
5451.3107940846
 21
6505.4549322726
 31
0.0
  0
LINE
  5
213
330
1F
100
AcDbEntity
  8
0
  6
Continuous
 62
     7
370
    25
100
AcDbLine
 10
5451.3107940846
 20
6519.7270503204
 30
0.0
 11
5451.3107940846
 21
6518.1403938721
 31
0.0
  0
LINE
  5
214
330
1F
100
AcDbEntity
  8
0
  6
Continuous
 62
     7
370
    25
100
AcDbLine
 10
5451.3107940846
 20
6532.4265704604
 30
0.0
 11
5451.3107940846
 21
6530.8547526832
 31
0.0
  0
LINE
  5
215
330
1F
100
AcDbEntity
  8
0
  6
Continuous
 62
     7
370
    25
100
AcDbLine
 10
5451.3107940846
 20
6545.1266958201
 30
0.0
 11
5451.3107940846
 21
6543.5396009985
 31
0.0
  0
LINE
  5
216
330
1F
100
AcDbEntity
  8
0
  6
Continuous
 62
     7
370
    25
100
AcDbLine
 10
5451.3107940846
 20
6557.8272444201
 30
0.0
 11
5451.3107940846
 21
6556.2402121676
 31
0.0
  0
LINE
  5
217
330
1F
100
AcDbEntity
  8
0
  6
Continuous
 62
     7
370
    25
100
AcDbLine
 10
5661.3107940846
 20
6562.5901489104
 30
0.0
 11
5661.3107940846
 21
6564.1765194806
 31
0.0
  0
LINE
  5
218
330
1F
100
AcDbEntity
  8
0
  6
Continuous
 62
     7
370
    25
100
AcDbLine
 10
5661.3107940846
 20
6549.8991000961
 30
0.0
 11
5661.3107940846
 21
6551.4767758352
 31
0.0
  0
LINE
  5
219
330
1F
100
AcDbEntity
  8
0
  6
Continuous
 62
     7
370
    25
100
AcDbLine
 10
5661.3107940846
 20
6537.1991033274
 30
0.0
 11
5661.3107940846
 21
6538.7775132961
 31
0.0
  0
LINE
  5
21A
330
1F
100
AcDbEntity
  8
0
  6
Continuous
 62
     7
370
    25
100
AcDbLine
 10
5661.3107940846
 20
6524.4520407925
 30
0.0
 11
5661.3107940846
 21
6526.0769779227
 31
0.0
  0
LINE
  5
21B
330
1F
100
AcDbEntity
  8
0
  6
Continuous
 62
     7
370
    25
100
AcDbLine
 10
5661.3107940846
 20
6511.7999323374
 30
0.0
 11
5661.3107940846
 21
6513.3766066577
 31
0.0
  0
LINE
  5
21C
330
1F
100
AcDbEntity
  8
0
  6
Continuous
 62
     7
370
    25
100
AcDbLine
 10
5661.3107940846
 20
6499.0517785678
 30
0.0
 11
5661.3107940846
 21
6500.6766233337
 31
0.0
  0
LINE
  5
21D
330
1F
100
AcDbEntity
  8
0
  6
Continuous
 62
     7
370
    25
100
AcDbLine
 10
5661.3107940846
 20
6486.351611979
 30
0.0
 11
5661.3107940846
 21
6487.9775458724
 31
0.0
  0
SPLINE
  5
21E
330
1F
100
AcDbEntity
  8
0
  6
Continuous
 62
     7
370
    25
100
AcDbSpline
210
0.0
220
0.0
230
1.0
 70
     8
 71
     3
 72
     9
 73
     5
 74
     0
 42
0.00000001
 43
0.00000001
 40
0.0
 40
0.0
 40
0.0
 40
0.0
 40
0.5199703953497024
 40
0.9999999999999999
 40
0.9999999999999999
 40
0.9999999999999999
 40
0.9999999999999999
 10
5654.37230227952
 20
6495.046646456944
 30
0.0
 10
5655.518334381283
 20
6495.708739698127
 30
0.0
 10
5657.72236774936
 20
6496.98206842435
 30
0.0
 10
5659.926361894315
 20
6498.255296278094
 30
0.0
 10
5660.984344332369
 20
6498.866483341357
 30
0.0
  0
SPLINE
  5
21F
330
1F
100
AcDbEntity
  8
0
  6
Continuous
 62
     7
370
    25
100
AcDbSpline
210
0.0
220
0.0
230
1.0
 70
     8
 71
     3
 72
     9
 73
     5
 74
     0
 42
0.00000001
 43
0.00000001
 40
0.0
 40
0.0
 40
0.0
 40
0.0
 40
0.4996459005321151
 40
1.0
 40
1.0
 40
1.0
 40
1.0
 10
5654.372302279521
 20
6507.746646456944
 30
0.0
 10
5655.517952007926
 20
6508.408521267008
 30
0.0
 10
5657.810875310581
 20
6509.733209029598
 30
0.0
 10
5660.103696319356
 20
6511.057745336135
 30
0.0
 10
5661.250918710442
 20
6511.720482507005
 30
0.0
  0
SPLINE
  5
220
330
1F
100
AcDbEntity
  8
0
  6
Continuous
 62
     7
370
    25
100
AcDbSpline
210
0.0
220
0.0
230
1.0
 70
     8
 71
     3
 72
     9
 73
     5
 74
     0
 42
0.00000001
 43
0.00000001
 40
0.0
 40
0.0
 40
0.0
 40
0.0
 40
0.4994714885760712
 40
0.9999999999999999
 40
0.9999999999999999
 40
0.9999999999999999
 40
0.9999999999999999
 10
5654.372302279521
 20
6520.446646456944
 30
0.0
 10
5655.517565631752
 20
6521.108303831873
 30
0.0
 10
5657.810516037185
 20
6522.433018835759
 30
0.0
 10
5660.103309974165
 20
6523.757527937794
 30
0.0
 10
5661.250918710442
 20
6524.420482507005
 30
0.0
  0
SPLINE
  5
221
330
1F
100
AcDbEntity
  8
0
  6
Continuous
 62
     7
370
    25
100
AcDbSpline
210
0.0
220
0.0
230
1.0
 70
     8
 71
     3
 72
     9
 73
     5
 74
     0
 42
0.00000001
 43
0.00000001
 40
0.0
 40
0.0
 40
0.0
 40
0.0
 40
0.499296143259389
 40
1.0
 40
1.0
 40
1.0
 40
1.0
 10
5654.372302279521
 20
6533.146646456944
 30
0.0
 10
5655.517175034509
 20
6533.808086991474
 30
0.0
 10
5657.810148393998
 20
6535.132832923241
 30
0.0
 10
5660.102919416735
 20
6536.457311150465
 30
0.0
 10
5661.250918710442
 20
6537.120482507004
 30
0.0
  0
SPLINE
  5
222
330
1F
100
AcDbEntity
  8
0
  6
Continuous
 62
     7
370
    25
100
AcDbSpline
210
0.0
220
0.0
230
1.0
 70
     8
 71
     3
 72
     9
 73
     5
 74
     0
 42
0.00000001
 43
0.00000001
 40
0.0
 40
0.0
 40
0.0
 40
0.0
 40
0.499119937245327
 40
1.0
 40
1.0
 40
1.0
 40
1.0
 10
5654.372302279521
 20
6545.846646456944
 30
0.0
 10
5655.516780134457
 20
6546.507870696574
 30
0.0
 10
5657.80977179745
 20
6547.832650955364
 30
0.0
 10
5660.102524561902
 20
6549.157094927251
 30
0.0
 10
5661.250918710442
 20
6549.820482507004
 30
0.0
  0
SPLINE
  5
223
330
1F
100
AcDbEntity
  8
0
  6
Continuous
 62
     7
370
    25
100
AcDbSpline
210
0.0
220
0.0
230
1.0
 70
     8
 71
     3
 72
     9
 73
     5
 74
     0
 42
0.00000001
 43
0.00000001
 40
0.0
 40
0.0
 40
0.0
 40
0.0
 40
0.4989429437360285
 40
1.0
 40
1.0
 40
1.0
 40
1.0
 10
5654.372302279521
 20
6558.546646456944
 30
0.0
 10
5655.516380849494
 20
6559.207654897719
 30
0.0
 10
5657.809385659639
 20
6560.532472592957
 30
0.0
 10
5660.102125323627
 20
6561.856879220773
 30
0.0
 10
5661.250918710442
 20
6562.520482507004
 30
0.0
  0
SPLINE
  5
224
330
1F
100
AcDbEntity
  8
0
  6
Continuous
 62
     7
370
    25
100
AcDbSpline
210
0.0
220
0.0
230
1.0
 70
     8
 71
     3
 72
     9
 73
     5
 74
     0
 42
0.00000001
 43
0.00000001
 40
0.0
 40
0.0
 40
0.0
 40
0.0
 40
0.5048791073214659
 40
1.0
 40
1.0
 40
1.0
 40
1.0
 10
5451.370686854671
 20
6492.670472378726
 30
0.0
 10
5452.517527061819
 20
6492.007953364388
 30
0.0
 10
5454.789041550174
 20
6490.695720386771
 30
0.0
 10
5457.060596055113
 20
6489.383383476444
 30
0.0
 10
5458.185290149366
 20
6488.733618053908
 30
0.0
  0
SPLINE
  5
225
330
1F
100
AcDbEntity
  8
0
  6
Continuous
 62
     7
370
    25
100
AcDbSpline
210
0.0
220
0.0
230
1.0
 70
     8
 71
     3
 72
     9
 73
     5
 74
     0
 42
0.00000001
 43
0.00000001
 40
0.0
 40
0.0
 40
0.0
 40
0.0
 40
0.5050797228914453
 40
1.0
 40
1.0
 40
1.0
 40
1.0
 10
5451.370686854671
 20
6505.370472378726
 30
0.0
 10
5452.517909314301
 20
6504.70773534344
 30
0.0
 10
5454.789278382656
 20
6503.39559192281
 30
0.0
 10
5457.06074801854
 20
6502.083298519849
 30
0.0
 10
5458.184944400176
 20
6501.433817905209
 30
0.0
  0
SPLINE
  5
226
330
1F
100
AcDbEntity
  8
0
  6
Continuous
 62
     7
370
    25
100
AcDbSpline
210
0.0
220
0.0
230
1.0
 70
     8
 71
     3
 72
     9
 73
     5
 74
     0
 42
0.00000001
 43
0.00000001
 40
0.0
 40
0.0
 40
0.0
 40
0.0
 40
0.5052587685578628
 40
1.0
 40
1.0
 40
1.0
 40
1.0
 10
5451.370686854671
 20
6518.070472378726
 30
0.0
 10
5452.518295700679
 20
6517.407517985806
 30
0.0
 10
5454.789624606628
 20
6516.095409351233
 30
0.0
 10
5457.0611073858
 20
6514.783096825739
 30
0.0
 10
5458.184903573168
 20
6514.133841710841
 30
0.0
  0
SPLINE
  5
227
330
1F
100
AcDbEntity
  8
0
  6
Continuous
 62
     7
370
    25
100
AcDbSpline
210
0.0
220
0.0
230
1.0
 70
     8
 71
     3
 72
     9
 73
     5
 74
     0
 42
0.00000001
 43
0.00000001
 40
0.0
 40
0.0
 40
0.0
 40
0.0
 40
0.505437804754507
 40
1.0
 40
1.0
 40
1.0
 40
1.0
 10
5451.370686854671
 20
6530.770472378726
 30
0.0
 10
5452.51868630582
 20
6530.10730124507
 30
0.0
 10
5454.789983467113
 20
6528.795228567843
 30
0.0
 10
5457.061479578662
 20
6527.482890803229
 30
0.0
 10
5458.184875682083
 20
6526.833858157457
 30
0.0
  0
SPLINE
  5
228
330
1F
100
AcDbEntity
  8
0
  6
Continuous
 62
     7
370
    25
100
AcDbSpline
210
0.0
220
0.0
230
1.0
 70
     8
 71
     3
 72
     9
 73
     5
 74
     0
 42
0.00000001
 43
0.00000001
 40
0.0
 40
0.0
 40
0.0
 40
0.0
 40
0.50558735511921
 40
1.0
 40
1.0
 40
1.0
 40
1.0
 10
5451.370686854671
 20
6543.470472378725
 30
0.0
 10
5452.519081216883
 20
6542.807085072222
 30
0.0
 10
5454.790487632774
 20
6541.494972932179
 30
0.0
 10
5457.062128870451
 20
6540.182527772589
 30
0.0
 10
5458.185257022991
 20
6539.533638289975
 30
0.0
  0
SPLINE
  5
229
330
1F
100
AcDbEntity
  8
0
  6
Continuous
 62
     7
370
    25
100
AcDbSpline
210
0.0
220
0.0
230
1.0
 70
     8
 71
     3
 72
     9
 73
     5
 74
     0
 42
0.00000001
 43
0.00000001
 40
0.0
 40
0.0
 40
0.0
 40
0.0
 40
0.5057860926758414
 40
0.9999999999999999
 40
0.9999999999999999
 40
0.9999999999999999
 40
0.9999999999999999
 10
5451.370686854671
 20
6556.170472378725
 30
0.0
 10
5452.519480517667
 20
6555.506869423706
 30
0.0
 10
5454.790783899931
 20
6554.194846486284
 30
0.0
 10
5457.062347735969
 20
6552.882416487662
 30
0.0
 10
5458.184986175112
 20
6552.233795329954
 30
0.0
  0
LINE
  5
22A
330
1F
100
AcDbEntity
  8
0
  6
Continuous
 62
     7
370
    25
100
AcDbLine
 10
5454.9322419892
 20
6566.8130912599
 30
0.0
 11
5458.1848985292
 21
6564.9338466433
 31
0.0
  0
SPLINE
  5
22B
330
1F
100
AcDbEntity
  8
0
  6
Continuous
 62
     7
370
    25
100
AcDbSpline
210
0.0
220
0.0
230
1.0
 70
     8
 71
     3
 72
     9
 73
     5
 74
     0
 42
0.00000001
 43
0.00000001
 40
0.0
 40
0.0
 40
0.0
 40
0.0
 40
0.5047351163861208
 40
0.9999999999999999
 40
0.9999999999999999
 40
0.9999999999999999
 40
0.9999999999999999
 10
5451.370686854671
 20
6479.970472378726
 30
0.0
 10
5452.517148858952
 20
6479.308172096107
 30
0.0
 10
5454.788562055819
 20
6477.995998123826
 30
0.0
 10
5457.059948440233
 20
6476.683757863646
 30
0.0
 10
5458.184886353552
 20
6476.033851343914
 30
0.0
  0
SPLINE
  5
22C
330
1F
100
AcDbEntity
  8
0
  6
Continuous
 62
     7
370
    25
100
AcDbSpline
210
0.0
220
0.0
230
1.0
 70
     8
 71
     3
 72
     9
 73
     5
 74
     0
 42
0.00000001
 43
0.00000001
 40
0.0
 40
0.0
 40
0.0
 40
0.0
 40
0.5029096135855686
 40
1.0
 40
1.0
 40
1.0
 40
1.0
 10
5654.37230227952
 20
6482.346646456944
 30
0.0
 10
5655.51871240837
 20
6483.008958149412
 30
0.0
 10
5657.79826741762
 20
6484.325917846694
 30
0.0
 10
5660.07784928859
 20
6485.642811014266
 30
0.0
 10
5661.211007521694
 20
6486.297425947801
 30
0.0
  0
LINE
  5
22D
330
1F
100
AcDbEntity
  8
0
  6
Continuous
 62
     7
370
    25
100
AcDbLine
 10
5458.1848985292
 20
6564.9888259328
 30
0.0
 11
5458.1848985292
 21
6561.8334355046
 31
0.0
  0
LINE
  5
22E
330
1F
100
AcDbEntity
  8
0
  6
Continuous
 62
     7
370
    25
100
AcDbLine
 10
5458.1849861751
 20
6552.2935294362
 30
0.0
 11
5458.1849861751
 21
6549.1332032662
 31
0.0
  0
LINE
  5
22F
330
1F
100
AcDbEntity
  8
0
  6
Continuous
 62
     7
370
    25
100
AcDbLine
 10
5458.185257023
 20
6539.5961442753
 30
0.0
 11
5458.185257023
 21
6536.4334810088
 31
0.0
  0
LINE
  5
230
330
1F
100
AcDbEntity
  8
0
  6
Continuous
 62
     7
370
    25
100
AcDbLine
 10
5458.1848756821
 20
6526.891030335
 30
0.0
 11
5458.1848756821
 21
6523.7328829571
 31
0.0
  0
LINE
  5
231
330
1F
100
AcDbEntity
  8
0
  6
Continuous
 62
     7
370
    25
100
AcDbLine
 10
5458.1849035732
 20
6514.188691412
 30
0.0
 11
5458.1849035732
 21
6511.0333329414
 31
0.0
  0
LINE
  5
232
330
1F
100
AcDbEntity
  8
0
  6
Continuous
 62
     7
370
    25
100
AcDbLine
 10
5458.1849444002
 20
6501.492895106
 30
0.0
 11
5458.1849444002
 21
6498.3334523319
 31
0.0
  0
LINE
  5
233
330
1F
100
AcDbEntity
  8
0
  6
Continuous
 62
     7
370
    25
100
AcDbLine
 10
5458.1852901494
 20
6488.7963864973
 30
0.0
 11
5458.1852901494
 21
6485.6334227952
 31
0.0
  0
LINE
  5
234
330
1F
100
AcDbEntity
  8
0
  6
Continuous
 62
     7
370
    25
100
AcDbLine
 10
5458.1848863536
 20
6476.0915364827
 30
0.0
 11
5458.1848863536
 21
6472.8974862114
 31
0.0
  0
LINE
  5
235
330
1F
100
AcDbEntity
  8
0
  6
Continuous
 62
     7
370
    25
100
AcDbLine
 10
5654.4367147187
 20
6479.2458374169
 30
0.0
 11
5654.4367147187
 21
6482.3838588515
 31
0.0
  0
LINE
  5
236
330
1F
100
AcDbEntity
  8
0
  6
Continuous
 62
     7
370
    25
100
AcDbLine
 10
5654.4367009859
 20
6491.9451324867
 30
0.0
 11
5654.4367009859
 21
6495.0838509072
 31
0.0
  0
LINE
  5
237
330
1F
100
AcDbEntity
  8
0
  6
Continuous
 62
     7
370
    25
100
AcDbLine
 10
5654.4365540423
 20
6504.650077331
 30
0.0
 11
5654.4365540423
 21
6507.7837661179
 31
0.0
  0
LINE
  5
238
330
1F
100
AcDbEntity
  8
0
  6
Continuous
 62
     7
370
    25
100
AcDbLine
 10
5654.4363233801
 20
6517.3521516948
 30
0.0
 11
5654.4363233801
 21
6520.4836330752
 31
0.0
  0
LINE
  5
239
330
1F
100
AcDbEntity
  8
0
  6
Continuous
 62
     7
370
    25
100
AcDbLine
 10
5654.4367174169
 20
6530.0462555736
 30
0.0
 11
5654.4367174169
 21
6533.1838610517
 31
0.0
  0
LINE
  5
23A
330
1F
100
AcDbEntity
  8
0
  6
Continuous
 62
     7
370
    25
100
AcDbLine
 10
5654.4366938052
 20
6542.744896264
 30
0.0
 11
5654.4366938052
 21
6545.8838478561
 31
0.0
  0
LINE
  5
23B
330
1F
100
AcDbEntity
  8
0
  6
Continuous
 62
     7
370
    25
100
AcDbLine
 10
5654.4365974605
 20
6555.449540486
 30
0.0
 11
5654.4365974605
 21
6558.5837927532
 31
0.0
  0
SPLINE
  5
23C
330
1F
100
AcDbEntity
  8
0
  6
Continuous
 62
     7
370
    25
100
AcDbSpline
210
0.0
220
0.0
230
1.0
 70
     8
 71
     3
 72
     9
 73
     5
 74
     0
 42
0.00000001
 43
0.00000001
 40
0.0
 40
0.0
 40
0.0
 40
0.0
 40
0.0047419854121511
 40
1.0
 40
1.0
 40
1.0
 40
1.0
 10
5634.376621882132
 20
7876.81309125993
 30
0.0
 10
5634.38345607514
 20
7876.817043118004
 30
0.0
 10
5635.824665276226
 20
7877.650419379362
 30
0.0
 10
5637.265956979999
 20
7878.483633403469
 30
0.0
 10
5638.700414099537
 20
7879.31289633883
 30
0.0
  0
SPLINE
  5
23D
330
1F
100
AcDbEntity
  8
0
  6
Continuous
 62
     7
370
    25
100
AcDbSpline
210
0.0
220
0.0
230
1.0
 70
     8
 71
     3
 72
     9
 73
     5
 74
     0
 42
0.00000001
 43
0.00000001
 40
0.0
 40
0.0
 40
0.0
 40
0.0
 40
0.499968753940239
 40
1.0
 40
1.0
 40
1.0
 40
1.0
 10
5630.094536838651
 20
7890.211985361736
 30
0.0
 10
5631.52871903076
 20
7891.041332757602
 30
0.0
 10
5634.397262676348
 20
7892.700131211163
 30
0.0
 10
5637.265970534596
 20
7894.358606749057
 30
0.0
 10
5638.700414099538
 20
7895.18789633883
 30
0.0
  0
SPLINE
  5
23E
330
1F
100
AcDbEntity
  8
0
  6
Continuous
 62
     7
370
    25
100
AcDbSpline
210
0.0
220
0.0
230
1.0
 70
     8
 71
     3
 72
     9
 73
     5
 74
     0
 42
0.00000001
 43
0.00000001
 40
0.0
 40
0.0
 40
0.0
 40
0.0
 40
0.4999687539402355
 40
1.0
 40
1.0
 40
1.0
 40
1.0
 10
5630.094536838651
 20
7906.086985361735
 30
0.0
 10
5631.52871903076
 20
7906.916332757601
 30
0.0
 10
5634.397262676348
 20
7908.575131211163
 30
0.0
 10
5637.265970534596
 20
7910.233606749057
 30
0.0
 10
5638.700414099538
 20
7911.06289633883
 30
0.0
  0
SPLINE
  5
23F
330
1F
100
AcDbEntity
  8
0
  6
Continuous
 62
     7
370
    25
100
AcDbSpline
210
0.0
220
0.0
230
1.0
 70
     8
 71
     3
 72
     9
 73
     5
 74
     0
 42
0.00000001
 43
0.00000001
 40
0.0
 40
0.0
 40
0.0
 40
0.0
 40
0.4999687539402309
 40
1.0
 40
1.0
 40
1.0
 40
1.0
 10
5630.094536838651
 20
7921.961985361736
 30
0.0
 10
5631.52871903076
 20
7922.791332757602
 30
0.0
 10
5634.397262676348
 20
7924.450131211163
 30
0.0
 10
5637.265970534596
 20
7926.108606749058
 30
0.0
 10
5638.700414099538
 20
7926.93789633883
 30
0.0
  0
SPLINE
  5
240
330
1F
100
AcDbEntity
  8
0
  6
Continuous
 62
     7
370
    25
100
AcDbSpline
210
0.0
220
0.0
230
1.0
 70
     8
 71
     3
 72
     9
 73
     5
 74
     0
 42
0.00000001
 43
0.00000001
 40
0.0
 40
0.0
 40
0.0
 40
0.0
 40
0.4999687539402422
 40
1.0
 40
1.0
 40
1.0
 40
1.0
 10
5630.094536838651
 20
7937.836985361736
 30
0.0
 10
5631.52871903076
 20
7938.666332757602
 30
0.0
 10
5634.397262676348
 20
7940.325131211163
 30
0.0
 10
5637.265970534597
 20
7941.983606749057
 30
0.0
 10
5638.700414099538
 20
7942.81289633883
 30
0.0
  0
SPLINE
  5
241
330
1F
100
AcDbEntity
  8
0
  6
Continuous
 62
     7
370
    25
100
AcDbSpline
210
0.0
220
0.0
230
1.0
 70
     8
 71
     3
 72
     9
 73
     5
 74
     0
 42
0.00000001
 43
0.00000001
 40
0.0
 40
0.0
 40
0.0
 40
0.0
 40
0.5236521515354611
 40
1.0
 40
1.0
 40
1.0
 40
1.0
 10
5474.215216987698
 20
7887.133839849078
 30
0.0
 10
5475.644730818577
 20
7886.305643266134
 30
0.0
 10
5478.374622840766
 20
7884.72406553268
 30
0.0
 10
5481.103500812374
 20
7883.14239574094
 30
0.0
 10
5482.403395962871
 20
7882.388970738663
 30
0.0
  0
SPLINE
  5
242
330
1F
100
AcDbEntity
  8
0
  6
Continuous
 62
     7
370
    25
100
AcDbSpline
210
0.0
220
0.0
230
1.0
 70
     8
 71
     3
 72
     9
 73
     5
 74
     0
 42
0.00000001
 43
0.00000001
 40
0.0
 40
0.0
 40
0.0
 40
0.0
 40
0.5236521515354543
 40
1.0
 40
1.0
 40
1.0
 40
1.0
 10
5474.215216987698
 20
7903.008839849077
 30
0.0
 10
5475.644730818577
 20
7902.180643266134
 30
0.0
 10
5478.374622840767
 20
7900.599065532681
 30
0.0
 10
5481.103500812374
 20
7899.017395740941
 30
0.0
 10
5482.403395962871
 20
7898.263970738662
 30
0.0
  0
SPLINE
  5
243
330
1F
100
AcDbEntity
  8
0
  6
Continuous
 62
     7
370
    25
100
AcDbSpline
210
0.0
220
0.0
230
1.0
 70
     8
 71
     3
 72
     9
 73
     5
 74
     0
 42
0.00000001
 43
0.00000001
 40
0.0
 40
0.0
 40
0.0
 40
0.0
 40
0.5236521515354522
 40
1.0
 40
1.0
 40
1.0
 40
1.0
 10
5474.215216987698
 20
7918.883839849078
 30
0.0
 10
5475.644730818577
 20
7918.055643266134
 30
0.0
 10
5478.374622840767
 20
7916.47406553268
 30
0.0
 10
5481.103500812374
 20
7914.892395740941
 30
0.0
 10
5482.403395962871
 20
7914.138970738663
 30
0.0
  0
SPLINE
  5
244
330
1F
100
AcDbEntity
  8
0
  6
Continuous
 62
     7
370
    25
100
AcDbSpline
210
0.0
220
0.0
230
1.0
 70
     8
 71
     3
 72
     9
 73
     5
 74
     0
 42
0.00000001
 43
0.00000001
 40
0.0
 40
0.0
 40
0.0
 40
0.0
 40
0.5236521515354542
 40
1.0
 40
1.0
 40
1.0
 40
1.0
 10
5474.215216987698
 20
7934.758839849078
 30
0.0
 10
5475.644730818577
 20
7933.930643266134
 30
0.0
 10
5478.374622840767
 20
7932.349065532681
 30
0.0
 10
5481.103500812374
 20
7930.76739574094
 30
0.0
 10
5482.403395962871
 20
7930.013970738663
 30
0.0
  0
SPLINE
  5
245
330
1F
100
AcDbEntity
  8
0
  6
Continuous
 62
     7
370
    25
100
AcDbSpline
210
0.0
220
0.0
230
1.0
 70
     8
 71
     3
 72
     9
 73
     5
 74
     0
 42
0.00000001
 43
0.00000001
 40
0.0
 40
0.0
 40
0.0
 40
0.0
 40
0.225657248199256
 40
1.0
 40
1.0
 40
1.0
 40
1.0
 10
5477.366694139039
 20
7948.8078775431
 30
0.0
 10
5477.745633486343
 20
7948.588327608905
 30
0.0
 10
5479.424903043723
 20
7947.615392168333
 30
0.0
 10
5481.103548793608
 20
7946.642400096808
 30
0.0
 10
5482.403395962872
 20
7945.888970738662
 30
0.0
  0
SPLINE
  5
246
330
1F
100
AcDbEntity
  8
0
  6
Continuous
 62
     7
370
    25
100
AcDbSpline
210
0.0
220
0.0
230
1.0
 70
     8
 71
     3
 72
     9
 73
     5
 74
     0
 42
0.00000001
 43
0.00000001
 40
0.0
 40
0.0
 40
0.0
 40
0.0
 40
0.5000078770598417
 40
1.0
 40
1.0
 40
1.0
 40
1.0
 10
5638.091159811851
 20
7883.731188433181
 30
0.0
 10
5636.666151779429
 20
7884.559281279192
 30
0.0
 10
5633.816180613372
 20
7886.21544087988
 30
0.0
 10
5630.967641490841
 20
7887.871681070686
 30
0.0
 10
5629.543394367689
 20
7888.699788119785
 30
0.0
  0
SPLINE
  5
247
330
1F
100
AcDbEntity
  8
0
  6
Continuous
 62
     7
370
    25
100
AcDbSpline
210
0.0
220
0.0
230
1.0
 70
     8
 71
     3
 72
     9
 73
     5
 74
     0
 42
0.00000001
 43
0.00000001
 40
0.0
 40
0.0
 40
0.0
 40
0.0
 40
0.50000787705984
 40
1.0
 40
1.0
 40
1.0
 40
1.0
 10
5638.091159811851
 20
7899.60618843318
 30
0.0
 10
5636.666151779429
 20
7900.434281279193
 30
0.0
 10
5633.816180613372
 20
7902.09044087988
 30
0.0
 10
5630.967641490841
 20
7903.746681070686
 30
0.0
 10
5629.543394367689
 20
7904.574788119786
 30
0.0
  0
SPLINE
  5
248
330
1F
100
AcDbEntity
  8
0
  6
Continuous
 62
     7
370
    25
100
AcDbSpline
210
0.0
220
0.0
230
1.0
 70
     8
 71
     3
 72
     9
 73
     5
 74
     0
 42
0.00000001
 43
0.00000001
 40
0.0
 40
0.0
 40
0.0
 40
0.0
 40
0.5000078770598421
 40
1.0
 40
1.0
 40
1.0
 40
1.0
 10
5638.091159811852
 20
7915.48118843318
 30
0.0
 10
5636.66615177943
 20
7916.309281279193
 30
0.0
 10
5633.816180613372
 20
7917.96544087988
 30
0.0
 10
5630.967641490841
 20
7919.621681070686
 30
0.0
 10
5629.543394367689
 20
7920.449788119786
 30
0.0
  0
SPLINE
  5
249
330
1F
100
AcDbEntity
  8
0
  6
Continuous
 62
     7
370
    25
100
AcDbSpline
210
0.0
220
0.0
230
1.0
 70
     8
 71
     3
 72
     9
 73
     5
 74
     0
 42
0.00000001
 43
0.00000001
 40
0.0
 40
0.0
 40
0.0
 40
0.0
 40
0.5000078770598432
 40
1.0
 40
1.0
 40
1.0
 40
1.0
 10
5638.091159811852
 20
7931.356188433181
 30
0.0
 10
5636.66615177943
 20
7932.184281279192
 30
0.0
 10
5633.816180613372
 20
7933.840440879881
 30
0.0
 10
5630.967641490841
 20
7935.496681070686
 30
0.0
 10
5629.543394367689
 20
7936.324788119786
 30
0.0
  0
SPLINE
  5
24A
330
1F
100
AcDbEntity
  8
0
  6
Continuous
 62
     7
370
    25
100
AcDbSpline
210
0.0
220
0.0
230
1.0
 70
     8
 71
     3
 72
     9
 73
     5
 74
     0
 42
0.00000001
 43
0.00000001
 40
0.0
 40
0.0
 40
0.0
 40
0.0
 40
0.4155935508926074
 40
1.0
 40
1.0
 40
1.0
 40
1.0
 10
5636.856274836862
 20
7947.948863935097
 30
0.0
 10
5635.84294393255
 20
7948.537734360262
 30
0.0
 10
5633.404670041783
 20
7949.954672673912
 30
0.0
 10
5630.967621343661
 20
7951.371679936877
 30
0.0
 10
5629.543394367689
 20
7952.199788119786
 30
0.0
  0
SPLINE
  5
24B
330
1F
100
AcDbEntity
  8
0
  6
Continuous
 62
     7
370
    25
100
AcDbSpline
210
0.0
220
0.0
230
1.0
 70
     8
 71
     3
 72
     9
 73
     5
 74
     0
 42
0.00000001
 43
0.00000001
 40
0.0
 40
0.0
 40
0.0
 40
0.0
 40
0.662075074792721
 40
0.9999999999999999
 40
0.9999999999999999
 40
0.9999999999999999
 40
0.9999999999999999
 10
5482.527242663001
 20
7880.57055679579
 30
0.0
 10
5481.09314456535
 20
7879.741245868898
 30
0.0
 10
5478.927078884504
 20
7878.48865238144
 30
0.0
 10
5476.760872874584
 20
7877.236294278276
 30
0.0
 10
5476.028857870699
 20
7876.81309125993
 30
0.0
  0
SPLINE
  5
24C
330
1F
100
AcDbEntity
  8
0
  6
Continuous
 62
     7
370
    25
100
AcDbSpline
210
0.0
220
0.0
230
1.0
 70
     8
 71
     3
 72
     9
 73
     5
 74
     0
 42
0.00000001
 43
0.00000001
 40
0.0
 40
0.0
 40
0.0
 40
0.0
 40
0.4999698367465615
 40
1.0
 40
1.0
 40
1.0
 40
1.0
 10
5482.527242663001
 20
7896.445556795791
 30
0.0
 10
5481.093139545037
 20
7895.616254289836
 30
0.0
 10
5478.224760269809
 20
7893.957549214045
 30
0.0
 10
5475.356195166603
 20
7892.299155841201
 30
0.0
 10
5473.921826089745
 20
7891.46990913224
 30
0.0
  0
SPLINE
  5
24D
330
1F
100
AcDbEntity
  8
0
  6
Continuous
 62
     7
370
    25
100
AcDbSpline
210
0.0
220
0.0
230
1.0
 70
     8
 71
     3
 72
     9
 73
     5
 74
     0
 42
0.00000001
 43
0.00000001
 40
0.0
 40
0.0
 40
0.0
 40
0.0
 40
0.4999698367465593
 40
1.0
 40
1.0
 40
1.0
 40
1.0
 10
5482.527242663001
 20
7912.320556795791
 30
0.0
 10
5481.093139545037
 20
7911.491254289837
 30
0.0
 10
5478.224760269809
 20
7909.832549214045
 30
0.0
 10
5475.356195166603
 20
7908.174155841202
 30
0.0
 10
5473.921826089745
 20
7907.344909132241
 30
0.0
  0
SPLINE
  5
24E
330
1F
100
AcDbEntity
  8
0
  6
Continuous
 62
     7
370
    25
100
AcDbSpline
210
0.0
220
0.0
230
1.0
 70
     8
 71
     3
 72
     9
 73
     5
 74
     0
 42
0.00000001
 43
0.00000001
 40
0.0
 40
0.0
 40
0.0
 40
0.0
 40
0.4999698367465579
 40
1.0
 40
1.0
 40
1.0
 40
1.0
 10
5482.527242663001
 20
7928.19555679579
 30
0.0
 10
5481.093139545037
 20
7927.366254289836
 30
0.0
 10
5478.224760269809
 20
7925.707549214045
 30
0.0
 10
5475.356195166604
 20
7924.049155841202
 30
0.0
 10
5473.921826089746
 20
7923.219909132241
 30
0.0
  0
SPLINE
  5
24F
330
1F
100
AcDbEntity
  8
0
  6
Continuous
 62
     7
370
    25
100
AcDbSpline
210
0.0
220
0.0
230
1.0
 70
     8
 71
     3
 72
     9
 73
     5
 74
     0
 42
0.00000001
 43
0.00000001
 40
0.0
 40
0.0
 40
0.0
 40
0.0
 40
0.4999698367465584
 40
1.0
 40
1.0
 40
1.0
 40
1.0
 10
5482.527242663001
 20
7944.070556795791
 30
0.0
 10
5481.093139545038
 20
7943.241254289836
 30
0.0
 10
5478.224760269809
 20
7941.582549214045
 30
0.0
 10
5475.356195166604
 20
7939.924155841201
 30
0.0
 10
5473.921826089746
 20
7939.094909132241
 30
0.0
  0
LINE
  5
250
330
1F
100
AcDbEntity
  8
0
  6
Continuous
 62
     7
370
    25
100
AcDbLine
 10
5638.8107940846
 20
7942.9356528385
 30
0.0
 11
5638.8107940846
 21
7946.8130912599
 31
0.0
  0
LINE
  5
251
330
1F
100
AcDbEntity
  8
0
  6
Continuous
 62
     7
370
    25
100
AcDbLine
 10
5638.8107940846
 20
7927.0606528385
 30
0.0
 11
5638.8107940846
 21
7931.0333443739
 31
0.0
  0
LINE
  5
252
330
1F
100
AcDbEntity
  8
0
  6
Continuous
 62
     7
370
    25
100
AcDbLine
 10
5638.8107940846
 20
7911.1856528385
 30
0.0
 11
5638.8107940846
 21
7915.1583443739
 31
0.0
  0
LINE
  5
253
330
1F
100
AcDbEntity
  8
0
  6
Continuous
 62
     7
370
    25
100
AcDbLine
 10
5638.8107940846
 20
7895.3106528385
 30
0.0
 11
5638.8107940846
 21
7899.2833443739
 31
0.0
  0
LINE
  5
254
330
1F
100
AcDbEntity
  8
0
  6
Continuous
 62
     7
370
    25
100
AcDbLine
 10
5638.8107940846
 20
7879.4356528385
 30
0.0
 11
5638.8107940846
 21
7883.4083443739
 31
0.0
  0
LINE
  5
255
330
1F
100
AcDbEntity
  8
0
  6
Continuous
 62
     7
370
    25
100
AcDbLine
 10
5473.8107940846
 20
7891.3422002239
 30
0.0
 11
5473.8107940846
 21
7887.3734502722
 31
0.0
  0
LINE
  5
256
330
1F
100
AcDbEntity
  8
0
  6
Continuous
 62
     7
370
    25
100
AcDbLine
 10
5473.8107940846
 20
7907.2172002239
 30
0.0
 11
5473.8107940846
 21
7903.2484502722
 31
0.0
  0
LINE
  5
257
330
1F
100
AcDbEntity
  8
0
  6
Continuous
 62
     7
370
    25
100
AcDbLine
 10
5473.8107940846
 20
7923.0922002239
 30
0.0
 11
5473.8107940846
 21
7919.1234502722
 31
0.0
  0
LINE
  5
258
330
1F
100
AcDbEntity
  8
0
  6
Continuous
 62
     7
370
    25
100
AcDbLine
 10
5473.8107940846
 20
7938.9672002239
 30
0.0
 11
5473.8107940846
 21
7934.9984502722
 31
0.0
  0
LINE
  5
259
330
1F
100
AcDbEntity
  8
0
  6
Continuous
 62
     7
370
    25
100
AcDbLine
 10
5630.8153537883
 20
7954.8085315563
 30
0.0
 11
5628.8107940846
 21
7956.8130912599
 31
0.0
  0
LINE
  5
25A
330
1F
100
AcDbEntity
  8
0
  6
Continuous
 62
     7
370
    25
100
AcDbLine
 10
5638.8107940846
 20
7946.8130912599
 30
0.0
 11
5638.4394784524
 21
7947.1844068921
 31
0.0
  0
LINE
  5
25B
330
1F
100
AcDbEntity
  8
0
  6
Continuous
 62
     7
370
    25
100
AcDbLine
 10
5483.8107940846
 20
7956.8130912599
 30
0.0
 11
5476.4210965022
 21
7949.4233936775
 31
0.0
  0
LINE
  5
25C
330
1F
100
AcDbEntity
  8
0
  6
Continuous
 62
     7
370
    25
100
AcDbLine
 10
5630.2181922064
 20
7888.3668108351
 30
0.0
 11
5630.2181922064
 21
7890.2834887958
 31
0.0
  0
LINE
  5
25D
330
1F
100
AcDbEntity
  8
0
  6
Continuous
 62
     7
370
    25
100
AcDbLine
 10
5630.2181922064
 20
7904.2418108351
 30
0.0
 11
5630.2181922064
 21
7906.1584887958
 31
0.0
  0
LINE
  5
25E
330
1F
100
AcDbEntity
  8
0
  6
Continuous
 62
     7
370
    25
100
AcDbLine
 10
5630.2181922064
 20
7920.1168108351
 30
0.0
 11
5630.2181922064
 21
7922.0334887958
 31
0.0
  0
LINE
  5
25F
330
1F
100
AcDbEntity
  8
0
  6
Continuous
 62
     7
370
    25
100
AcDbLine
 10
5630.2181922064
 20
7935.9918108351
 30
0.0
 11
5630.2181922064
 21
7937.9084887958
 31
0.0
  0
LINE
  5
260
330
1F
100
AcDbEntity
  8
0
  6
Continuous
 62
     7
370
    25
100
AcDbLine
 10
5630.2181922064
 20
7951.8668108351
 30
0.0
 11
5630.2181922064
 21
7953.8511858351
 31
0.0
  0
LINE
  5
261
330
1F
100
AcDbEntity
  8
0
  6
Continuous
 62
     7
370
    25
100
AcDbLine
 10
5482.4033959629
 20
7882.4136858351
 30
0.0
 11
5482.4033959629
 21
7880.4989426614
 31
0.0
  0
LINE
  5
262
330
1F
100
AcDbEntity
  8
0
  6
Continuous
 62
     7
370
    25
100
AcDbLine
 10
5482.4033959629
 20
7898.2886858351
 30
0.0
 11
5482.4033959629
 21
7896.3739426614
 31
0.0
  0
LINE
  5
263
330
1F
100
AcDbEntity
  8
0
  6
Continuous
 62
     7
370
    25
100
AcDbLine
 10
5482.4033959629
 20
7914.1636858351
 30
0.0
 11
5482.4033959629
 21
7912.2489426614
 31
0.0
  0
LINE
  5
264
330
1F
100
AcDbEntity
  8
0
  6
Continuous
 62
     7
370
    25
100
AcDbLine
 10
5482.4033959629
 20
7930.0386858351
 30
0.0
 11
5482.4033959629
 21
7928.1239426614
 31
0.0
  0
LINE
  5
265
330
1F
100
AcDbEntity
  8
0
  6
Continuous
 62
     7
370
    25
100
AcDbLine
 10
5482.4033959629
 20
7945.9136858351
 30
0.0
 11
5482.4033959629
 21
7943.9989426614
 31
0.0
  0
SPLINE
  5
266
330
1F
100
AcDbEntity
  8
0
  6
Continuous
 62
     7
370
    25
100
AcDbSpline
210
0.0
220
0.0
230
1.0
 70
     8
 71
     3
 72
     9
 73
     5
 74
     0
 42
0.00000001
 43
0.00000001
 40
0.0
 40
0.0
 40
0.0
 40
0.0
 40
0.4085409788324156
 40
0.9999999999999999
 40
0.9999999999999999
 40
0.9999999999999999
 40
0.9999999999999999
 10
6026.310794084619
 20
6841.090405503557
 30
0.0
 10
6027.05066955806
 20
6842.81918627252
 30
0.0
 10
6028.861688554379
 20
6847.050783244511
 30
0.0
 10
6030.400594361992
 20
6851.624714062245
 30
0.0
 10
6031.310794084632
 20
6854.330006706591
 30
0.0
  0
LINE
  5
267
330
1F
100
AcDbEntity
  8
0
  6
Continuous
 62
     7
370
    25
100
AcDbLine
 10
6026.3107940846
 20
6929.0288485991
 30
0.0
 11
6031.3107940846
 21
6935.6921023373
 31
0.0
  0
LINE
  5
268
330
1F
100
AcDbEntity
  8
0
  6
Continuous
 62
     7
370
    25
100
AcDbLine
 10
6026.3107940846
 20
6933.8705320812
 30
0.0
 11
6031.3107940846
 21
6940.5044259829
 31
0.0
  0
LINE
  5
269
330
1F
100
AcDbEntity
  8
0
  6
Continuous
 62
     7
370
    25
100
AcDbLine
 10
6031.1156945248
 20
6961.7885310992
 30
0.0
 11
6026.3107940846
 21
6955.3990138489
 31
0.0
  0
LINE
  5
26A
330
1F
100
AcDbEntity
  8
0
  6
Continuous
 62
     7
370
    25
100
AcDbLine
 10
5997.3107940846
 20
6521.8130912599
 30
0.0
 11
6026.3107940846
 21
6521.8130912599
 31
0.0
  0
LINE
  5
26B
330
1F
100
AcDbEntity
  8
0
  6
Continuous
 62
     7
370
    25
100
AcDbLine
 10
5997.3107940846
 20
6713.0384880044
 30
0.0
 11
6026.3107940846
 21
6713.0384880044
 31
0.0
  0
LINE
  5
26C
330
1F
100
AcDbEntity
  8
0
  6
Continuous
 62
     7
370
    25
100
AcDbLine
 10
6026.3107940846
 20
6521.8130912599
 30
0.0
 11
6026.3107940846
 21
6713.0384880044
 31
0.0
  0
LINE
  5
26D
330
1F
100
AcDbEntity
  8
0
  6
Continuous
 62
     7
370
    25
100
AcDbLine
 10
5997.3107940846
 20
6521.8130912599
 30
0.0
 11
5997.3107940846
 21
6713.0384880044
 31
0.0
  0
LINE
  5
26E
330
1F
100
AcDbEntity
  8
0
  6
Continuous
 62
     7
370
    25
100
AcDbLine
 10
5997.3107940846
 20
7730.5876945155
 30
0.0
 11
6026.3107940846
 21
7730.5876945155
 31
0.0
  0
LINE
  5
26F
330
1F
100
AcDbEntity
  8
0
  6
Continuous
 62
     7
370
    25
100
AcDbLine
 10
5997.3107940846
 20
7921.8130912599
 30
0.0
 11
6026.3107940846
 21
7921.8130912599
 31
0.0
  0
LINE
  5
270
330
1F
100
AcDbEntity
  8
0
  6
Continuous
 62
     7
370
    25
100
AcDbLine
 10
6026.3107940846
 20
7921.8130912599
 30
0.0
 11
6026.3107940846
 21
7730.5876945155
 31
0.0
  0
LINE
  5
271
330
1F
100
AcDbEntity
  8
0
  6
Continuous
 62
     7
370
    25
100
AcDbLine
 10
5997.3107940846
 20
7921.8130912599
 30
0.0
 11
5997.3107940846
 21
7730.5876945155
 31
0.0
  0
LINE
  5
272
330
1F
100
AcDbEntity
  8
0
  6
Continuous
 62
     7
370
    25
100
AcDbLine
 10
6026.3107940846
 20
7730.5876945155
 30
0.0
 11
6026.3107940846
 21
6713.0384880044
 31
0.0
  0
LINE
  5
273
330
1F
100
AcDbEntity
  8
0
  6
Continuous
 62
     7
370
    25
100
AcDbLine
 10
5997.3107940846
 20
7730.5876945155
 30
0.0
 11
5997.3107940846
 21
6713.0384880044
 31
0.0
  0
LINE
  5
274
330
1F
100
AcDbEntity
  8
0
  6
Continuous
 62
     7
370
    25
100
AcDbLine
 10
5997.3107940846
 20
6677.5237693786
 30
0.0
 11
5301.3107940846
 21
6677.5237693786
 31
0.0
  0
LINE
  5
275
330
1F
100
AcDbEntity
  8
0
  6
Continuous
 62
     7
370
    25
100
AcDbLine
 10
5301.3107940846
 20
6731.6659050023
 30
0.0
 11
5301.3107940846
 21
6677.5237693786
 31
0.0
  0
LINE
  5
276
330
1F
100
AcDbEntity
  8
0
  6
Continuous
 62
     7
370
    25
100
AcDbLine
 10
5997.3107940846
 20
6731.6659050023
 30
0.0
 11
5301.3107940846
 21
6731.6659050023
 31
0.0
  0
LINE
  5
277
330
1F
100
AcDbEntity
  8
0
  6
Continuous
 62
     7
370
    25
100
AcDbLine
 10
5997.3107940846
 20
7808.5288200125
 30
0.0
 11
5301.3107940846
 21
7808.5288200125
 31
0.0
  0
LINE
  5
278
330
1F
100
AcDbEntity
  8
0
  6
Continuous
 62
     7
370
    25
100
AcDbLine
 10
5301.3107940846
 20
7808.5288200125
 30
0.0
 11
5301.3107940846
 21
7876.8130912599
 31
0.0
  0
LINE
  5
279
330
1F
100
AcDbEntity
  8
0
  6
Continuous
 62
     7
370
    25
100
AcDbLine
 10
5997.3107940846
 20
7711.9602775175
 30
0.0
 11
5301.3107940846
 21
7711.9602775175
 31
0.0
  0
LINE
  5
27A
330
1F
100
AcDbEntity
  8
0
  6
Continuous
 62
     7
370
    25
100
AcDbLine
 10
5301.3107940846
 20
6731.6659050023
 30
0.0
 11
5301.3107940846
 21
7711.9602775175
 31
0.0
  0
LINE
  5
27B
330
1F
100
AcDbEntity
  8
0
  6
Continuous
 62
     7
370
    25
100
AcDbLine
 10
5997.3107940846
 20
7766.1024131413
 30
0.0
 11
5301.3107940846
 21
7766.1024131413
 31
0.0
  0
LINE
  5
27C
330
1F
100
AcDbEntity
  8
0
  6
Continuous
 62
     7
370
    25
100
AcDbLine
 10
5301.3107940846
 20
7711.9602775175
 30
0.0
 11
5301.3107940846
 21
7766.1024131413
 31
0.0
  0
LINE
  5
27D
330
1F
100
AcDbEntity
  8
0
  6
Continuous
 62
     7
370
    25
100
AcDbLine
 10
5997.3107940846
 20
6635.0973625074
 30
0.0
 11
5301.3107940846
 21
6635.0973625074
 31
0.0
  0
LINE
  5
27E
330
1F
100
AcDbEntity
  8
0
  6
Continuous
 62
     7
370
    25
100
AcDbLine
 10
5301.3107940846
 20
6635.0973625074
 30
0.0
 11
5301.3107940846
 21
6566.8130912599
 31
0.0
  0
LINE
  5
27F
330
1F
100
AcDbEntity
  8
0
  6
Continuous
 62
     7
370
    25
100
AcDbLine
 10
5301.3107940846
 20
6677.5237693786
 30
0.0
 11
5301.3107940846
 21
6635.0973625074
 31
0.0
  0
LINE
  5
280
330
1F
100
AcDbEntity
  8
0
  6
Continuous
 62
     7
370
    25
100
AcDbLine
 10
5301.3107940846
 20
7766.1024131413
 30
0.0
 11
5301.3107940846
 21
7808.5288200125
 31
0.0
  0
LINE
  5
281
330
1F
100
AcDbEntity
  8
0
  6
Continuous
 62
     7
370
    25
100
AcDbLine
 10
5997.3107940846
 20
6566.8130912599
 30
0.0
 11
5301.3107940846
 21
6566.8130912599
 31
0.0
  0
LINE
  5
282
330
1F
100
AcDbEntity
  8
0
  6
Continuous
 62
     7
370
    25
100
AcDbLine
 10
5997.3107940846
 20
7876.8130912599
 30
0.0
 11
5301.3107940846
 21
7876.8130912599
 31
0.0
  0
SPLINE
  5
283
330
1F
100
AcDbEntity
  8
0
  6
Continuous
 62
     7
370
    25
100
AcDbSpline
210
0.0
220
0.0
230
1.0
 70
     8
 71
     3
 72
    15
 73
    11
 74
     0
 42
0.00000001
 43
0.00000001
 40
0.0
 40
0.0
 40
0.0
 40
0.0
 40
0.0590123834028549
 40
0.1934391857738787
 40
0.3278659881448946
 40
0.4622927905159109
 40
0.5967195928869392
 40
0.731146395257958
 40
0.8655731976289914
 40
1.0
 40
1.0
 40
1.0
 40
1.0
 10
6030.960164515041
 20
7816.210537323855
 30
0.0
 10
6030.868707704902
 20
7816.119397997369
 30
0.0
 10
6030.568917561428
 20
7815.820648546984
 30
0.0
 10
6030.060794084618
 20
7818.734388391561
 30
0.0
 10
6029.435794084621
 20
7824.38875143256
 30
0.0
 10
6028.810794084618
 20
7832.113322536144
 30
0.0
 10
6028.185794084621
 20
7840.520433199805
 30
0.0
 10
6027.560794084619
 20
7848.316250207904
 30
0.0
 10
6026.935794084622
 20
7854.581310976595
 30
0.0
 10
6026.519127417954
 20
7856.39791971152
 30
0.0
 10
6026.31079408462
 20
7857.306224078981
 30
0.0
  0
SPLINE
  5
284
330
1F
100
AcDbEntity
  8
0
  6
Continuous
 62
     7
370
    25
100
AcDbSpline
210
0.0
220
0.0
230
1.0
 70
     8
 71
     3
 72
    10
 73
     6
 74
     0
 42
0.00000001
 43
0.00000001
 40
0.0
 40
0.0
 40
0.0
 40
0.0
 40
0.0068000389981683
 40
0.5034000194990913
 40
1.0
 40
1.0
 40
1.0
 40
1.0
 10
6027.569352314557
 20
7821.459184555403
 30
0.0
 10
6027.566499566175
 20
7821.458459166357
 30
0.0
 10
6027.355313484458
 20
7821.404759347915
 30
0.0
 10
6026.935794069407
 20
7823.407601763386
 30
0.0
 10
6026.519127402741
 20
7826.367316956757
 30
0.0
 10
6026.310794069408
 20
7827.847174553443
 30
0.0
  0
LINE
  5
285
330
1F
100
AcDbEntity
  8
0
  6
Continuous
 62
     7
370
    25
100
AcDbLine
 10
6028.8107940542
 20
7857.306224079
 30
0.0
 11
6028.4601644846
 21
7857.415645196
 31
0.0
  0
LINE
  5
286
330
1F
100
AcDbEntity
  8
0
  6
Continuous
 62
     7
370
    25
100
AcDbLine
 10
6031.3107940846
 20
7857.306224079
 30
0.0
 11
6028.8107940542
 21
7857.306224079
 31
0.0
  0
SPLINE
  5
287
330
1F
100
AcDbEntity
  8
0
  6
Continuous
 62
     7
370
    25
100
AcDbSpline
210
0.0
220
0.0
230
1.0
 70
     8
 71
     3
 72
    12
 73
     8
 74
     0
 42
0.00000001
 43
0.00000001
 40
0.0
 40
0.0
 40
0.0
 40
0.0
 40
0.061743166782895
 40
0.2963073750871595
 40
0.5308715833914561
 40
0.7654357916957387
 40
0.9999999999999999
 40
0.9999999999999999
 40
0.9999999999999999
 40
0.9999999999999999
 10
6028.975309702533
 20
6591.457590271189
 30
0.0
 10
6028.920471158155
 20
6591.387681447295
 30
0.0
 10
6028.657299280446
 20
6591.052186830114
 30
0.0
 10
6028.185794069399
 20
6592.851303903175
 30
0.0
 10
6027.560794069402
 20
6596.674712522281
 30
0.0
 10
6026.9357940694
 20
6602.240820569717
 30
0.0
 10
6026.519127402734
 20
6606.342323548287
 30
0.0
 10
6026.310794069401
 20
6608.393075037572
 30
0.0
  0
SPLINE
  5
288
330
1F
100
AcDbEntity
  8
0
  6
Continuous
 62
     7
370
    25
100
AcDbSpline
210
0.0
220
0.0
230
1.0
 70
     8
 71
     3
 72
    13
 73
     9
 74
     0
 42
0.00000001
 43
0.00000001
 40
0.0
 40
0.0
 40
0.0
 40
0.0
 40
0.1971228910060851
 40
0.3942457820121821
 40
0.5913686730182643
 40
0.7884915640243509
 40
0.9856144550304536
 40
1.0
 40
1.0
 40
1.0
 40
1.0
 10
6031.310794084613
 20
6600.78472690854
 30
0.0
 10
6031.10246075128
 20
6603.509444090099
 30
0.0
 10
6030.685794084613
 20
6608.958878453222
 30
0.0
 10
6030.060794084611
 20
6617.030078074082
 30
0.0
 10
6029.435794084615
 20
6623.568698995959
 30
0.0
 10
6028.81079408461
 20
6627.241246100225
 30
0.0
 10
6028.378923762399
 20
6628.48532181155
 30
0.0
 10
6028.155386773518
 20
6627.590301518028
 30
0.0
 10
6028.140183117971
 20
6627.529427564601
 30
0.0
  0
SPLINE
  5
289
330
1F
100
AcDbEntity
  8
0
  6
Continuous
 62
     7
370
    25
100
AcDbSpline
210
0.0
220
0.0
230
1.0
 70
     8
 71
     3
 72
    13
 73
     9
 74
     0
 42
0.00000001
 43
0.00000001
 40
0.0
 40
0.0
 40
0.0
 40
0.0
 40
0.1497827981915785
 40
0.3198262385532603
 40
0.4898696789149309
 40
0.6599131192766258
 40
0.8299565596383164
 40
1.0
 40
1.0
 40
1.0
 40
1.0
 10
6029.986325443447
 20
6591.518719905801
 30
0.0
 10
6029.802814985431
 20
6591.914367083732
 30
0.0
 10
6029.410971194081
 20
6592.759179373526
 30
0.0
 10
6028.810794069403
 20
6596.744650518604
 30
0.0
 10
6028.185794069399
 20
6602.2180292087
 30
0.0
 10
6027.560794069402
 20
6608.41430248531
 30
0.0
 10
6026.9357940694
 20
6614.483211075491
 30
0.0
 10
6026.519127402734
 20
6617.42470674485
 30
0.0
 10
6026.310794069401
 20
6618.89545457953
 30
0.0
  0
SPLINE
  5
28A
330
1F
100
AcDbEntity
  8
0
  6
Continuous
 62
     7
370
    25
100
AcDbSpline
210
0.0
220
0.0
230
1.0
 70
     8
 71
     3
 72
    18
 73
    14
 74
     0
 42
0.00000001
 43
0.00000001
 40
0.0
 40
0.0
 40
0.0
 40
0.0
 40
0.0803225225280476
 40
0.1753757063650735
 40
0.2718904286372369
 40
0.3662570375359936
 40
0.4623710334147904
 40
0.5583005717780155
 40
0.6527802869935516
 40
0.7493389140350788
 40
0.8441412541194762
 40
0.9396698581801947
 40
1.0
 40
1.0
 40
1.0
 40
1.0
 10
5458.763063236893
 20
6472.894872514348
 30
0.0
 10
5459.138021713457
 20
6473.064617545105
 30
0.0
 10
5459.956703766948
 20
6473.435237811177
 30
0.0
 10
5471.684413936772
 20
6473.994312390417
 30
0.0
 10
5490.705159682937
 20
6474.631846207802
 30
0.0
 10
5515.881510542016
 20
6475.204467958227
 30
0.0
 10
5544.561569413531
 20
6475.827982147313
 30
0.0
 10
5574.330225837411
 20
6476.445833051195
 30
0.0
 10
5602.48836096095
 20
6477.021710645789
 30
0.0
 10
5626.545192334268
 20
6477.66048807117
 30
0.0
 10
5644.012898095188
 20
6478.244760805676
 30
0.0
 10
5653.647584705996
 20
6478.777233993749
 30
0.0
 10
5653.459444141868
 20
6479.113687943674
 30
0.0
 10
5653.386618283737
 20
6479.243923269259
 30
0.0
  0
SPLINE
  5
28B
330
1F
100
AcDbEntity
  8
0
  6
Continuous
 62
     7
370
    25
100
AcDbSpline
210
0.0
220
0.0
230
1.0
 70
     8
 71
     3
 72
    18
 73
    14
 74
     0
 42
0.00000001
 43
0.00000001
 40
0.0
 40
0.0
 40
0.0
 40
0.0
 40
0.0745014058556179
 40
0.1709254944611253
 40
0.2685830891790817
 40
0.3640657846194814
 40
0.4614757135712751
 40
0.5584445809085751
 40
0.6541977266890332
 40
0.7519603027455738
 40
0.8477885870994102
 40
0.9446640781995873
 40
1.0
 40
1.0
 40
1.0
 40
1.0
 10
5459.017885094459
 20
6485.671849396527
 30
0.0
 10
5459.511835262329
 20
6485.826345069698
 30
0.0
 10
5460.645084705242
 20
6486.180798103511
 30
0.0
 10
5472.623636605193
 20
6486.731299121364
 30
0.0
 10
5492.016317820257
 20
6487.367093085343
 30
0.0
 10
5517.47489427401
 20
6487.938397576286
 30
0.0
 10
5546.279503344612
 20
6488.565291201052
 30
0.0
 10
5576.032411572505
 20
6489.178854998674
 30
0.0
 10
5604.018524659071
 20
6489.757720256544
 30
0.0
 10
5627.755578278216
 20
6490.396929351279
 30
0.0
 10
5644.833439820123
 20
6490.977218714103
 30
0.0
 10
5653.75404365569
 20
6491.501709113962
 30
0.0
 10
5653.653280288809
 20
6491.825868359391
 30
0.0
 10
5653.616648122509
 20
6491.94371530867
 30
0.0
  0
SPLINE
  5
28C
330
1F
100
AcDbEntity
  8
0
  6
Continuous
 62
     7
370
    25
100
AcDbSpline
210
0.0
220
0.0
230
1.0
 70
     8
 71
     3
 72
    20
 73
    16
 74
     0
 42
0.00000001
 43
0.00000001
 40
0.0
 40
0.0
 40
0.0
 40
0.0
 40
0.038210639018723
 40
0.1228802111675916
 40
0.209494908501526
 40
0.2957278489221953
 40
0.3804376337789761
 40
0.4671122089130684
 40
0.5532348051498563
 40
0.6380027332280044
 40
0.7247278184540475
 40
0.8107310557654602
 40
0.8955750204267949
 40
0.9823412154055948
 40
1.0
 40
1.0
 40
1.0
 40
1.0
 10
5459.121044859245
 20
6498.369333500994
 30
0.0
 10
5459.065800244355
 20
6498.450910958631
 30
0.0
 10
5458.888141086644
 20
6498.713252952334
 30
0.0
 10
5465.931043795847
 20
6499.123224506403
 30
0.0
 10
5479.483257905134
 20
6499.68322343424
 30
0.0
 10
5498.907577080488
 20
6500.231668777696
 30
0.0
 10
5522.256658304206
 20
6500.741259411216
 30
0.0
 10
5548.046643889391
 20
6501.301658825433
 30
0.0
 10
5574.414100336166
 20
6501.847532265072
 30
0.0
 10
5599.51265515161
 20
6502.358563668694
 30
0.0
 10
5621.524368290819
 20
6502.920222741634
 30
0.0
 10
5639.056913751576
 20
6503.46342301768
 30
0.0
 10
5650.173639820136
 20
6503.974764488804
 30
0.0
 10
5655.109710392292
 20
6504.393018919647
 30
0.0
 10
5654.047630232888
 20
6504.610936658136
 30
0.0
 10
5653.868027183565
 20
6504.647787634013
 30
0.0
  0
SPLINE
  5
28D
330
1F
100
AcDbEntity
  8
0
  6
Continuous
 62
     7
370
    25
100
AcDbSpline
210
0.0
220
0.0
230
1.0
 70
     8
 71
     3
 72
    19
 73
    15
 74
     0
 42
0.00000001
 43
0.00000001
 40
0.0
 40
0.0
 40
0.0
 40
0.0
 40
0.0764415138886427
 40
0.1617881779900871
 40
0.2484777573491222
 40
0.3334779372252772
 40
0.4189763496783309
 40
0.5056503170084886
 40
0.5905266683390182
 40
0.6761681335862159
 40
0.7628170460202762
 40
0.8475872767357506
 40
0.9333630098839162
 40
0.9999999999999999
 40
0.9999999999999999
 40
0.9999999999999999
 40
0.9999999999999999
 10
5458.552844998298
 20
6511.063075950606
 30
0.0
 10
5459.221133612134
 20
6511.221395058538
 30
0.0
 10
5460.635563961607
 20
6511.556476857818
 30
0.0
 10
5471.143265368137
 20
6512.065633838298
 30
0.0
 10
5487.434090916199
 20
6512.630967323351
 30
0.0
 10
5508.769768413753
 20
6513.151269933023
 30
0.0
 10
5533.406725971199
 20
6513.684592289694
 30
0.0
 10
5559.680747314138
 20
6514.248804107617
 30
0.0
 10
5585.713365106427
 20
6514.766125589217
 30
0.0
 10
5609.668263718999
 20
6515.303051755168
 30
0.0
 10
5629.890546984852
 20
6515.866766074156
 30
0.0
 10
5644.686411153922
 20
6516.380653521426
 30
0.0
 10
5653.366719148389
 20
6516.881552607705
 30
0.0
 10
5653.672069479919
 20
6517.208583346447
 30
0.0
 10
5653.80557294727
 20
6517.351565793308
 30
0.0
  0
SPLINE
  5
28E
330
1F
100
AcDbEntity
  8
0
  6
Continuous
 62
     7
370
    25
100
AcDbSpline
210
0.0
220
0.0
230
1.0
 70
     8
 71
     3
 72
    20
 73
    16
 74
     0
 42
0.00000001
 43
0.00000001
 40
0.0
 40
0.0
 40
0.0
 40
0.0
 40
0.0268736269905697
 40
0.1116671641992524
 40
0.19827213684022
 40
0.2848661534364128
 40
0.3696608447094152
 40
0.4563460641057909
 40
0.5428494122665908
 40
0.6276632611032008
 40
0.7144194346763043
 40
0.8008229382920735
 40
0.8856739359334685
 40
0.9724917254707666
 40
1.0
 40
1.0
 40
1.0
 40
1.0
 10
5459.022896682029
 20
6523.777446867665
 30
0.0
 10
5458.918032121349
 20
6523.834888004994
 30
0.0
 10
5458.482291604439
 20
6524.073571414425
 30
0.0
 10
5464.748641085402
 20
6524.459354726427
 30
0.0
 10
5477.491695967967
 20
6525.01542092655
 30
0.0
 10
5496.353098605633
 20
6525.569243330499
 30
0.0
 10
5519.294470771999
 20
6526.077200640866
 30
0.0
 10
5544.890793196633
 20
6526.633813679583
 30
0.0
 10
5571.288020576507
 20
6527.185669308321
 30
0.0
 10
5596.632746483394
 20
6527.694032854812
 30
0.0
 10
5619.106695498154
 20
6528.252458214167
 30
0.0
 10
5637.242810338425
 20
6528.802049265402
 30
0.0
 10
5649.187485861978
 20
6529.310046368996
 30
0.0
 10
5654.777540202989
 20
6529.746353208468
 30
0.0
 10
5653.889134021476
 20
6529.985944669281
 30
0.0
 10
5653.67537243234
 20
6530.043593357991
 30
0.0
  0
SPLINE
  5
28F
330
1F
100
AcDbEntity
  8
0
  6
Continuous
 62
     7
370
    25
100
AcDbSpline
210
0.0
220
0.0
230
1.0
 70
     8
 71
     3
 72
    19
 73
    15
 74
     0
 42
0.00000001
 43
0.00000001
 40
0.0
 40
0.0
 40
0.0
 40
0.0
 40
0.0665648412864913
 40
0.1516735195334758
 40
0.2384575634453638
 40
0.3238758320024205
 40
0.4091283760621096
 40
0.4959173721445138
 40
0.5811769836551576
 40
0.6665879781660484
 40
0.7533724591973026
 40
0.8384873926226651
 40
0.9240518068154648
 40
1.0
 40
1.0
 40
1.0
 40
1.0
 10
5458.835188003517
 20
6536.461529038056
 30
0.0
 10
5459.225398209176
 20
6536.600906326702
 30
0.0
 10
5460.114524572379
 20
6536.918489055112
 30
0.0
 10
5469.600877011873
 20
6537.398761998695
 30
0.0
 10
5485.179329258235
 20
6537.964133313844
 30
0.0
 10
5506.022372201277
 20
6538.492807508267
 30
0.0
 10
5530.342560068465
 20
6539.017438184585
 30
0.0
 10
5556.517666013944
 20
6539.58232953669
 30
0.0
 10
5582.677640017281
 20
6540.107110403845
 30
0.0
 10
5606.973120159898
 20
6540.635721284049
 30
0.0
 10
5627.721801279753
 20
6541.200637603014
 30
0.0
 10
5643.234199514387
 20
6541.721078105141
 30
0.0
 10
5652.87845081911
 20
6542.233564975124
 30
0.0
 10
5653.674415137878
 20
6542.581367622472
 30
0.0
 10
5654.048702029975
 20
6542.744915119348
 30
0.0
  0
SPLINE
  5
290
330
1F
100
AcDbEntity
  8
0
  6
Continuous
 62
     7
370
    25
100
AcDbSpline
210
0.0
220
0.0
230
1.0
 70
     8
 71
     3
 72
    20
 73
    16
 74
     0
 42
0.00000001
 43
0.00000001
 40
0.0
 40
0.0
 40
0.0
 40
0.0
 40
0.0169207403448555
 40
0.1016996375383187
 40
0.1880227079206473
 40
0.2747060146711039
 40
0.3594469660445016
 40
0.4458702154415308
 40
0.5324830599529138
 40
0.6172040401610814
 40
0.7037183033045148
 40
0.7902513988950822
 40
0.8749703953713766
 40
0.9615664488069823
 40
1.0
 40
1.0
 40
1.0
 40
1.0
 10
5458.81915817803
 20
6549.176142355918
 30
0.0
 10
5458.712553534704
 20
6549.212382898108
 30
0.0
 10
5458.071821902096
 20
6549.430201381805
 30
0.0
 10
5463.664138557063
 20
6549.7966396113
 30
0.0
 10
5475.580130992631
 20
6550.347603534925
 30
0.0
 10
5493.859293767438
 20
6550.905705656298
 30
0.0
 10
5516.369683519488
 20
6551.414211212618
 30
0.0
 10
5541.745969478091
 20
6551.965915867217
 30
0.0
 10
5568.145317789974
 20
6552.522652854773
 30
0.0
 10
5593.711316001823
 20
6553.030531611877
 30
0.0
 10
5616.622616058477
 20
6553.58458737151
 30
0.0
 10
5635.346775347205
 20
6554.139499297776
 30
0.0
 10
5648.100698846779
 20
6554.646261587649
 30
0.0
 10
5654.432930526575
 20
6555.102169769092
 30
0.0
 10
5653.769729704452
 20
6555.365945471333
 30
0.0
 10
5653.56586468525
 20
6555.447028963405
 30
0.0
  0
SPLINE
  5
291
330
1F
100
AcDbEntity
  8
0
  6
Continuous
 62
     7
370
    25
100
AcDbSpline
210
0.0
220
0.0
230
1.0
 70
     8
 71
     3
 72
    17
 73
    13
 74
     0
 42
0.00000001
 43
0.00000001
 40
0.0
 40
0.0
 40
0.0
 40
0.0
 40
0.0703468850742542
 40
0.1781311143301666
 40
0.2883081131964045
 40
0.3972139795816636
 40
0.5051321050427825
 40
0.615341516540677
 40
0.724065996929089
 40
0.832140539462073
 40
0.942370357259931
 40
1.0
 40
1.0
 40
1.0
 40
1.0
 10
5459.047904982021
 20
6561.867994718591
 30
0.0
 10
5459.219223998499
 20
6561.985066009458
 30
0.0
 10
5459.653034923871
 20
6562.281511821894
 30
0.0
 10
5468.153250144327
 20
6562.732564098122
 30
0.0
 10
5482.993163963265
 20
6563.296819991404
 30
0.0
 10
5503.323366475413
 20
6563.833754534519
 30
0.0
 10
5527.305673010744
 20
6564.350993173523
 30
0.0
 10
5553.344465298433
 20
6564.915122440697
 30
0.0
 10
5579.660976434746
 20
6565.44878688266
 30
0.0
 10
5604.065636813497
 20
6565.968323782016
 30
0.0
 10
5622.668395066773
 20
6566.447540478595
 30
0.0
 10
5630.555869831274
 20
6566.719665189122
 30
0.0
 10
5633.26380390507
 20
6566.813091259944
 30
0.0
  0
SPLINE
  5
292
330
1F
100
AcDbEntity
  8
0
  6
Continuous
 62
     7
370
    25
100
AcDbSpline
210
0.0
220
0.0
230
1.0
 70
     8
 71
     3
 72
    27
 73
    23
 74
     0
 42
0.00000001
 43
0.00000001
 40
0.0
 40
0.0
 40
0.0
 40
0.0
 40
0.0226448886683323
 40
0.0755598088363951
 40
0.1300093371177884
 40
0.1829228962434346
 40
0.2373708643621026
 40
0.2902858642458844
 40
0.3447354962730322
 40
0.3976491419386647
 40
0.4520972550839237
 40
0.5050115974421916
 40
0.5594604563999855
 40
0.6123744836460889
 40
0.6668230585027868
 40
0.7197366820276088
 40
0.7741847155732625
 40
0.8270996107576487
 40
0.8815491108002883
 40
0.934462672260093
 40
0.988910641488128
 40
1.0
 40
1.0
 40
1.0
 40
1.0
 10
5451.755543934674
 20
6481.702170863155
 30
0.0
 10
5451.756797753069
 20
6481.751058758997
 30
0.0
 10
5451.760981402613
 20
6481.91418431542
 30
0.0
 10
5454.919615118467
 20
6482.176621827756
 30
0.0
 10
5461.008270444272
 20
6482.508153844171
 30
0.0
 10
5470.055097922197
 20
6482.859036573778
 30
0.0
 10
5481.410185433208
 20
6483.207742850144
 30
0.0
 10
5495.018681107533
 20
6483.55398374432
 30
0.0
 10
5510.234033078026
 20
6483.873827601878
 30
0.0
 10
5526.902806045401
 20
6484.217230797211
 30
0.0
 10
5544.25199518326
 20
6484.565795669536
 30
0.0
 10
5562.103270487413
 20
6484.917234633461
 30
0.0
 10
5579.630050247812
 20
6485.252577190648
 30
0.0
 10
5596.651291110037
 20
6485.577874853597
 30
0.0
 10
5612.378435485739
 20
6485.92379676118
 30
0.0
 10
5626.648037314885
 20
6486.275663406373
 30
0.0
 10
5638.805574905185
 20
6486.622618170089
 30
0.0
 10
5648.702857793302
 20
6486.95042606153
 30
0.0
 10
5655.966325240376
 20
6487.282687388695
 30
0.0
 10
5660.201893490937
 20
6487.632988945468
 30
0.0
 10
5661.828352836548
 20
6487.89301257857
 30
0.0
 10
5661.114956146553
 20
6488.031607189115
 30
0.0
 10
5660.994244608115
 20
6488.055058333328
 30
0.0
  0
SPLINE
  5
293
330
1F
100
AcDbEntity
  8
0
  6
Continuous
 62
     7
370
    25
100
AcDbSpline
210
0.0
220
0.0
230
1.0
 70
     8
 71
     3
 72
    27
 73
    23
 74
     0
 42
0.00000001
 43
0.00000001
 40
0.0
 40
0.0
 40
0.0
 40
0.0
 40
0.0097825457825969
 40
0.0648612443514214
 40
0.1183871063313777
 40
0.1734652556869617
 40
0.2269908234364485
 40
0.2820685477726403
 40
0.3355953637796926
 40
0.3906745264535565
 40
0.4442000573709859
 40
0.4992777400872373
 40
0.5528047562681421
 40
0.6078841579548477
 40
0.6614097460884042
 40
0.716487535379141
 40
0.770014002949086
 40
0.8250927589046384
 40
0.8786185517866515
 40
0.9336966277858648
 40
0.9872221814666311
 40
1.0
 40
1.0
 40
1.0
 40
1.0
 10
5451.590297692727
 20
6494.397964777828
 30
0.0
 10
5451.558986351646
 20
6494.418867767303
 30
0.0
 10
5451.351382667495
 20
6494.557460924761
 30
0.0
 10
5453.862439120173
 20
6494.799074058609
 30
0.0
 10
5459.260247574414
 20
6495.126501043909
 30
0.0
 10
5467.613599379786
 20
6495.472919750089
 30
0.0
 10
5478.501615528541
 20
6495.824835108007
 30
0.0
 10
5491.509706784964
 20
6496.171182859614
 30
0.0
 10
5506.480119398466
 20
6496.497368037424
 30
0.0
 10
5522.725359757609
 20
6496.831484921936
 30
0.0
 10
5540.075779221051
 20
6497.182819498787
 30
0.0
 10
5557.728671638512
 20
6497.531427039557
 30
0.0
 10
5575.502174860898
 20
6497.875735508486
 30
0.0
 10
5592.57310606415
 20
6498.195424910586
 30
0.0
 10
5608.764782254975
 20
6498.540906663937
 30
0.0
 10
5623.326146374387
 20
6498.889550066187
 30
0.0
 10
5636.113342725032
 20
6499.240735431005
 30
0.0
 10
5646.511502001842
 20
6499.572979221354
 30
0.0
 10
5654.498039679654
 20
6499.900811965985
 30
0.0
 10
5659.386446225975
 20
6500.246958218761
 30
0.0
 10
5661.554604872264
 20
6500.509884833348
 30
0.0
 10
5661.120772277739
 20
6500.649681980399
 30
0.0
 10
5661.037165155181
 20
6500.676623333708
 30
0.0
  0
SPLINE
  5
294
330
1F
100
AcDbEntity
  8
0
  6
Continuous
 62
     7
370
    25
100
AcDbSpline
210
0.0
220
0.0
230
1.0
 70
     8
 71
     3
 72
    27
 73
    23
 74
     0
 42
0.00000001
 43
0.00000001
 40
0.0
 40
0.0
 40
0.0
 40
0.0
 40
0.0084772536249923
 40
0.0614150283398601
 40
0.1158881000541755
 40
0.1688244330953101
 40
0.2232958717396695
 40
0.2762331810710494
 40
0.3307057062415633
 40
0.3836421153787813
 40
0.438113709906901
 40
0.4910499854356175
 40
0.5455213301969634
 40
0.5984587920767008
 40
0.6529315024797345
 40
0.7058678089987859
 40
0.7603391788996171
 40
0.8132769576525902
 40
0.867750033303898
 40
0.9206863588918317
 40
0.9751577862506073
 40
1.0
 40
1.0
 40
1.0
 40
1.0
 10
5451.51253103008
 20
6507.027287403436
 30
0.0
 10
5451.44802888452
 20
6507.04565336937
 30
0.0
 10
5450.980731187324
 20
6507.178708998969
 30
0.0
 10
5452.982020554819
 20
6507.42302892738
 30
0.0
 10
5457.62077124035
 20
6507.743442170133
 30
0.0
 10
5465.405014733883
 20
6508.090018447195
 30
0.0
 10
5475.613063128058
 20
6508.438715461224
 30
0.0
 10
5488.236755200498
 20
6508.789666487326
 30
0.0
 10
5502.665784857843
 20
6509.11975166467
 30
0.0
 10
5518.757970972587
 20
6509.449369708709
 30
0.0
 10
5535.765658358555
 20
6509.796683525265
 30
0.0
 10
5553.514280910123
 20
6510.14856037656
 30
0.0
 10
5571.181998876808
 20
6510.49376108703
 30
0.0
 10
5588.586889927485
 20
6510.818039431041
 30
0.0
 10
5604.922261277422
 20
6511.15501127597
 30
0.0
 10
5620.018509142688
 20
6511.506575415392
 30
0.0
 10
5633.180840262888
 20
6511.855071884964
 30
0.0
 10
5644.258819220853
 20
6512.19708761248
 30
0.0
 10
5652.794430613574
 20
6512.517466564468
 30
0.0
 10
5658.492550000201
 20
6512.864289013226
 30
0.0
 10
5661.269543608119
 20
6513.15315566224
 30
0.0
 10
5661.025757522104
 20
6513.323311359013
 30
0.0
 10
5660.949400088839
 20
6513.376606657664
 30
0.0
  0
SPLINE
  5
295
330
1F
100
AcDbEntity
  8
0
  6
Continuous
 62
     7
370
    25
100
AcDbSpline
210
0.0
220
0.0
230
1.0
 70
     8
 71
     3
 72
    26
 73
    22
 74
     0
 42
0.00000001
 43
0.00000001
 40
0.0
 40
0.0
 40
0.0
 40
0.0
 40
0.0375172645128339
 40
0.0911053987655959
 40
0.146247648236711
 40
0.1998347035174623
 40
0.2549756922778153
 40
0.3085642277795318
 40
0.3637069319283427
 40
0.4172939802564326
 40
0.4724349937799916
 40
0.5260231758249817
 40
0.5811654691266656
 40
0.6347525438661044
 40
0.6898936628827053
 40
0.7434807594740944
 40
0.7986218088383589
 40
0.8522099006516274
 40
0.9073521048114718
 40
0.9609391663180633
 40
1.0
 40
1.0
 40
1.0
 40
1.0
 10
5451.721047861155
 20
6519.804720349439
 30
0.0
 10
5451.881314856339
 20
6519.884326907116
 30
0.0
 10
5452.270500707036
 20
6520.077640233011
 30
0.0
 10
5456.324146961787
 20
6520.365081411345
 30
0.0
 10
5463.231288135529
 20
6520.704137225076
 30
0.0
 10
5472.971407397287
 20
6521.05572709424
 30
0.0
 10
5484.949293330793
 20
6521.404127084021
 30
0.0
 10
5499.080440599096
 20
6521.744480098106
 30
0.0
 10
5514.700112906292
 20
6522.065537777275
 30
0.0
 10
5531.649023636426
 20
6522.413764901973
 30
0.0
 10
5549.141857916251
 20
6522.762419198523
 30
0.0
 10
5566.998675200788
 20
6523.112969133164
 30
0.0
 10
5584.392600567693
 20
6523.439608473619
 30
0.0
 10
5601.143764295949
 20
6523.772671334005
 30
0.0
 10
5616.475462749095
 20
6524.120391726421
 30
0.0
 10
5630.232611403645
 20
6524.472285727578
 30
0.0
 10
5641.768426878213
 20
6524.815963281309
 30
0.0
 10
5651.000708018505
 20
6525.139148884478
 30
0.0
 10
5657.36435224948
 20
6525.478421926908
 30
0.0
 10
5660.91938806271
 20
6525.796382239846
 30
0.0
 10
5660.971507784075
 20
6525.99376171224
 30
0.0
 10
5660.993481729232
 20
6526.076977922687
 30
0.0
  0
SPLINE
  5
296
330
1F
100
AcDbEntity
  8
0
  6
Continuous
 62
     7
370
    25
100
AcDbSpline
210
0.0
220
0.0
230
1.0
 70
     8
 71
     3
 72
    27
 73
    23
 74
     0
 42
0.00000001
 43
0.00000001
 40
0.0
 40
0.0
 40
0.0
 40
0.0
 40
0.0255172177973107
 40
0.0799783695339916
 40
0.1329034583846194
 40
0.1873633854144474
 40
0.2402886140347973
 40
0.2947486153399106
 40
0.3476745912581667
 40
0.4021354744337512
 40
0.4550605347338958
 40
0.5095203319841416
 40
0.5624468235186161
 40
0.6169082788146784
 40
0.6698332968295863
 40
0.7242930728137019
 40
0.7772193318961423
 40
0.8316805224167904
 40
0.8846056201996526
 40
0.939065552161404
 40
0.9919908507834432
 40
1.0
 40
1.0
 40
1.0
 40
1.0
 10
5451.724525816166
 20
6532.490750575385
 30
0.0
 10
5451.738892940614
 20
6532.545812515616
 30
0.0
 10
5451.783923680152
 20
6532.718392623602
 30
0.0
 10
5455.049643965872
 20
6532.985945345185
 30
0.0
 10
5461.312684172369
 20
6533.321720992229
 30
0.0
 10
5470.361985516967
 20
6533.669519496904
 30
0.0
 10
5481.902238235809
 20
6534.021426433232
 30
0.0
 10
5495.453202756788
 20
6534.363920498937
 30
0.0
 10
5510.86094421136
 20
6534.686697485778
 30
0.0
 10
5527.414973143536
 20
6535.027692181648
 30
0.0
 10
5544.943498481035
 20
6535.379507811518
 30
0.0
 10
5562.635313326308
 20
6535.727657072101
 30
0.0
 10
5580.30825067441
 20
6536.065222067491
 30
0.0
 10
5597.143437761476
 20
6536.388072296989
 30
0.0
 10
5612.966898834231
 20
6536.737503324228
 30
0.0
 10
5627.044489106514
 20
6537.086143837384
 30
0.0
 10
5639.238238018509
 20
6537.435992751507
 30
0.0
 10
5648.957160874817
 20
6537.759732664083
 30
0.0
 10
5656.198758217917
 20
6538.096296429913
 30
0.0
 10
5660.261890910974
 20
6538.443368392148
 30
0.0
 10
5661.838634455331
 20
6538.696768083526
 30
0.0
 10
5661.154795814761
 20
6538.825486054088
 30
0.0
 10
5661.064912901129
 20
6538.842404586539
 30
0.0
  0
SPLINE
  5
297
330
1F
100
AcDbEntity
  8
0
  6
Continuous
 62
     7
370
    25
100
AcDbSpline
210
0.0
220
0.0
230
1.0
 70
     8
 71
     3
 72
    27
 73
    23
 74
     0
 42
0.00000001
 43
0.00000001
 40
0.0
 40
0.0
 40
0.0
 40
0.0
 40
0.0116308411727176
 40
0.0652012819269247
 40
0.1203253579187145
 40
0.17389431797337
 40
0.2290167042040887
 40
0.2825869885642775
 40
0.3377108912455672
 40
0.3912799501406472
 40
0.4464025093901822
 40
0.4999718975754827
 40
0.555094758433299
 40
0.6086645442970162
 40
0.6637879043390478
 40
0.7173569300376413
 40
0.7724793677200598
 40
0.8260497958997324
 40
0.8811738565331119
 40
0.9347428137383997
 40
0.9898651946543873
 40
1.0
 40
1.0
 40
1.0
 40
1.0
 10
5451.638861176528
 20
6545.2030007428
 30
0.0
 10
5451.606385937926
 20
6545.227830719209
 30
0.0
 10
5451.42433313914
 20
6545.367024975933
 30
0.0
 10
5454.026846255858
 20
6545.611627978808
 30
0.0
 10
5459.472721053562
 20
6545.936762619408
 30
0.0
 10
5467.992319853935
 20
6546.286624295407
 30
0.0
 10
5478.862868923312
 20
6546.635319745284
 30
0.0
 10
5492.06057958127
 20
6546.984468185797
 30
0.0
 10
5506.950992078981
 20
6547.306800276945
 30
0.0
 10
5523.386078836375
 20
6547.645095520338
 30
0.0
 10
5540.602900979985
 20
6547.99330559522
 30
0.0
 10
5558.424654973674
 20
6548.345094013981
 30
0.0
 10
5576.026108798772
 20
6548.685538962473
 30
0.0
 10
5593.22573937406
 20
6549.00840692121
 30
0.0
 10
5609.226542034886
 20
6549.351379643372
 30
0.0
 10
5623.862052221786
 20
6549.703257713442
 30
0.0
 10
5636.461088937777
 20
6550.05113457575
 30
0.0
 10
5646.870088104424
 20
6550.385530199373
 30
0.0
 10
5654.695068029549
 20
6550.711115284517
 30
0.0
 10
5659.5241684029
 20
6551.060643376124
 30
0.0
 10
5661.605952583937
 20
6551.318073563514
 30
0.0
 10
5661.15793242646
 20
6551.455441783661
 30
0.0
 10
5661.088352394789
 20
6551.476775835152
 30
0.0
  0
SPLINE
  5
298
330
1F
100
AcDbEntity
  8
0
  6
Continuous
 62
     7
370
    25
100
AcDbSpline
210
0.0
220
0.0
230
1.0
 70
     8
 71
     3
 72
    27
 73
    23
 74
     0
 42
0.00000001
 43
0.00000001
 40
0.0
 40
0.0
 40
0.0
 40
0.0
 40
0.009565083144635
 40
0.0640372167479648
 40
0.1169743600300516
 40
0.1714467275084597
 40
0.2243832345018771
 40
0.2788548125907686
 40
0.3317926694375863
 40
0.3862658078359231
 40
0.439202239045708
 40
0.4936737474310217
 40
0.546611566817281
 40
0.6010846729232187
 40
0.6540212065760196
 40
0.7084928842702176
 40
0.7614299315699662
 40
0.8159021340190552
 40
0.8688392195324345
 40
0.9233115261383934
 40
0.9762480335980179
 40
1.0
 40
1.0
 40
1.0
 40
1.0
 10
5451.525453277618
 20
6557.82724442013
 30
0.0
 10
5451.457975092131
 20
6557.84796204028
 30
0.0
 10
5451.006215800083
 20
6557.986664308934
 30
0.0
 10
5453.070092863756
 20
6558.232750561972
 30
0.0
 10
5457.872289866856
 20
6558.556509230694
 30
0.0
 10
5465.67549940264
 20
6558.900503327752
 30
0.0
 10
5476.063417787459
 20
6559.252424713234
 30
0.0
 10
5488.644867174828
 20
6559.600052228996
 30
0.0
 10
5503.266379298491
 20
6559.932251503959
 30
0.0
 10
5519.256936863067
 20
6560.259721052036
 30
0.0
 10
5536.449194768485
 20
6560.610396775814
 30
0.0
 10
5554.047823911591
 20
6560.959055436762
 30
0.0
 10
5571.871483303995
 20
6561.306928707563
 30
0.0
 10
5589.094846130404
 20
6561.627646899802
 30
0.0
 10
5605.53956969758
 20
6561.968659096199
 30
0.0
 10
5620.443145229457
 20
6562.317075610579
 30
0.0
 10
5633.656453613048
 20
6562.668729014321
 30
0.0
 10
5644.551633787101
 20
6563.006752010505
 30
0.0
 10
5653.076091136652
 20
6563.330583948362
 30
0.0
 10
5658.611419554087
 20
6563.674739534571
 30
0.0
 10
5661.304877277708
 20
6563.961231365871
 30
0.0
 10
5661.02090659408
 20
6564.125608552176
 30
0.0
 10
5660.932955148483
 20
6564.176519480635
 30
0.0
  0
SPLINE
  5
299
330
1F
100
AcDbEntity
  8
0
  6
Continuous
 62
     7
370
    25
100
AcDbSpline
210
0.0
220
0.0
230
1.0
 70
     8
 71
     3
 72
    27
 73
    23
 74
     0
 42
0.00000001
 43
0.00000001
 40
0.0
 40
0.0
 40
0.0
 40
0.0
 40
0.012982905980496
 40
0.0647592383260156
 40
0.1180314515386186
 40
0.1699830363348407
 40
0.2234198900398341
 40
0.2757248307898947
 40
0.3295466166563983
 40
0.381850963335054
 40
0.4356403617050272
 40
0.4884739118874448
 40
0.542839638613754
 40
0.5956727996034625
 40
0.6500187099721296
 40
0.7032000798510931
 40
0.757912740140634
 40
0.8112749003372222
 40
0.8661794327137529
 40
0.9197085346128505
 40
0.9747681501071942
 40
1.0
 40
1.0
 40
1.0
 40
1.0
 10
5457.843535547539
 20
6472.545447468019
 30
0.0
 10
5457.744909191977
 20
6472.563652309324
 30
0.0
 10
5457.252957107084
 20
6472.654458763473
 30
0.0
 10
5459.148074686866
 20
6472.814105064065
 30
0.0
 10
5463.562456041471
 20
6473.016830995539
 30
0.0
 10
5470.87315701057
 20
6473.236017706678
 30
0.0
 10
5480.491310425465
 20
6473.456060392818
 30
0.0
 10
5492.407683675367
 20
6473.677373375514
 30
0.0
 10
5506.0711783159
 20
6473.884417640675
 30
0.0
 10
5521.304497049718
 20
6474.093265352876
 30
0.0
 10
5537.456712874324
 20
6474.312369770866
 30
0.0
 10
5554.383417844097
 20
6474.534536473334
 30
0.0
 10
5571.30883738268
 20
6474.752380214522
 30
0.0
 10
5587.994231819144
 20
6474.956606134453
 30
0.0
 10
5603.712978050791
 20
6475.169755050324
 30
0.0
 10
5618.304423409219
 20
6475.391562167386
 30
0.0
 10
5631.104466340815
 20
6475.611650316235
 30
0.0
 10
5641.928068237878
 20
6475.827155262912
 30
0.0
 10
5650.328026802218
 20
6476.029460080607
 30
0.0
 10
5656.025955417658
 20
6476.248191957475
 30
0.0
 10
5658.888096976151
 20
6476.430291166325
 30
0.0
 10
5658.757481597044
 20
6476.537317201034
 30
0.0
 10
5658.716435296252
 20
6476.570950474874
 30
0.0
  0
LINE
  5
29A
330
1F
100
AcDbEntity
  8
0
  6
Continuous
 62
     7
370
    25
100
AcDbLine
 10
5636.8511566366
 20
6466.8130912599
 30
0.0
 11
5649.3107940846
 21
6466.8130912599
 31
0.0
  0
LINE
  5
29B
330
1F
100
AcDbEntity
  8
0
  6
Continuous
 62
     7
370
    25
100
AcDbLine
 10
5463.3107940846
 20
6466.8130912599
 30
0.0
 11
5636.8511566366
 21
6466.8130912599
 31
0.0
  0
SPLINE
  5
29C
330
1F
100
AcDbEntity
  8
0
  6
Continuous
 62
     7
370
    25
100
AcDbSpline
210
0.0
220
0.0
230
1.0
 70
     8
 71
     3
 72
    26
 73
    22
 74
     0
 42
0.00000001
 43
0.00000001
 40
0.0
 40
0.0
 40
0.0
 40
0.0
 40
0.0544135044804725
 40
0.1232873130170651
 40
0.1853616110526344
 40
0.2406292680570005
 40
0.2737082085783287
 40
0.3037528036290776
 40
0.3381538290437445
 40
0.404539271554991
 40
0.4709243790144478
 40
0.5373091556843386
 40
0.6036936058269637
 40
0.6700777337046889
 40
0.7364615435799354
 40
0.8028450397151875
 40
0.8357674993089027
 40
0.8654991667344928
 40
0.9264697768351079
 40
0.9895357269945021
 40
1.0
 40
1.0
 40
1.0
 40
1.0
 10
5451.9098497268
 20
6480.01869953354
 30
0.0
 10
5451.963009134444
 20
6480.132667790191
 30
0.0
 10
5452.08345497951
 20
6480.390891190169
 30
0.0
 10
5458.227886373056
 20
6480.782098161406
 30
0.0
 10
5467.69294200641
 20
6481.177806373802
 30
0.0
 10
5478.020564371869
 20
6481.500642192287
 30
0.0
 10
5487.427674914795
 20
6481.757153501252
 30
0.0
 10
5495.874717099317
 20
6481.970482718019
 30
0.0
 10
5508.042319351053
 20
6482.261148098087
 30
0.0
 10
5525.046959486343
 20
6482.629096109131
 30
0.0
 10
5546.646462601036
 20
6483.06186832802
 30
0.0
 10
5568.66889535239
 20
6483.489110315075
 30
0.0
 10
5590.154158305992
 20
6483.910794529398
 30
0.0
 10
5610.173381342539
 20
6484.326986479786
 30
0.0
 10
5627.852818308121
 20
6484.73745167343
 30
0.0
 10
5639.994103253357
 20
6485.074912921893
 30
0.0
 10
5647.611019481651
 20
6485.333795190213
 30
0.0
 10
5653.792561905385
 20
6485.582453252991
 30
0.0
 10
5658.978019923737
 20
6485.897131397799
 30
0.0
 10
5661.773218870532
 20
6486.174859697929
 30
0.0
 10
5661.109215724034
 20
6486.329591677609
 30
0.0
 10
5661.014719748062
 20
6486.351611979036
 30
0.0
  0
SPLINE
  5
29D
330
1F
100
AcDbEntity
  8
0
  6
Continuous
 62
     7
370
    25
100
AcDbSpline
210
0.0
220
0.0
230
1.0
 70
     8
 71
     3
 72
    26
 73
    22
 74
     0
 42
0.00000001
 43
0.00000001
 40
0.0
 40
0.0
 40
0.0
 40
0.0
 40
0.0096252797776375
 40
0.0753300448943915
 40
0.1124970991414044
 40
0.1493587448766156
 40
0.1885225976621963
 40
0.2515254969386418
 40
0.3196896759654606
 40
0.3930105277161933
 40
0.4316757508841984
 40
0.4725122562082384
 40
0.5553654311786934
 40
0.6304900902365255
 40
0.6978747868587724
 40
0.7575092549800732
 40
0.8093844111303443
 40
0.8608117779646158
 40
0.9209257224104673
 40
0.9831123668420918
 40
1.0
 40
1.0
 40
1.0
 40
1.0
 10
5451.655950553005
 20
6492.688726301063
 30
0.0
 10
5451.528113470386
 20
6492.70869005208
 30
0.0
 10
5450.527625859084
 20
6492.864931771291
 30
0.0
 10
5452.597343942645
 20
6493.095776692384
 30
0.0
 10
5456.477143206778
 20
6493.381413116919
 30
0.0
 10
5461.204528832907
 20
6493.616543880168
 30
0.0
 10
5468.634567005596
 20
6493.908080385208
 30
0.0
 10
5480.374550653108
 20
6494.270188846252
 30
0.0
 10
5497.884484515151
 20
6494.709748391937
 30
0.0
 10
5515.854435926337
 20
6495.101495960397
 30
0.0
 10
5532.112922985392
 20
6495.434857820035
 30
0.0
 10
5549.911331902123
 20
6495.790878358706
 30
0.0
 10
5572.245982554694
 20
6496.226716666455
 30
0.0
 10
5596.51292004057
 20
6496.715610793281
 30
0.0
 10
5616.298037993617
 20
6497.149781413004
 30
0.0
 10
5631.494738652078
 20
6497.528757600157
 30
0.0
 10
5643.005772919358
 20
6497.868598140655
 30
0.0
 10
5652.16849666878
 20
6498.199034146544
 30
0.0
 10
5658.515500416248
 20
6498.557638949347
 30
0.0
 10
5661.605026874385
 20
6498.847879607884
 30
0.0
 10
5661.01402934024
 20
6499.015895884679
 30
0.0
 10
5660.887811942395
 20
6499.051778567816
 30
0.0
  0
SPLINE
  5
29E
330
1F
100
AcDbEntity
  8
0
  6
Continuous
 62
     7
370
    25
100
AcDbSpline
210
0.0
220
0.0
230
1.0
 70
     8
 71
     3
 72
    23
 73
    19
 74
     0
 42
0.00000001
 43
0.00000001
 40
0.0
 40
0.0
 40
0.0
 40
0.0
 40
0.0585108658801752
 40
0.1266393407548878
 40
0.1950323857626576
 40
0.2629847539617751
 40
0.3304964139628115
 40
0.3975673346181498
 40
0.4641974850227626
 40
0.5303868345150347
 40
0.596135352677563
 40
0.6614430093380413
 40
0.7263097745701353
 40
0.7907356186944008
 40
0.8556058345881182
 40
0.9220857418964997
 40
0.9885650292131662
 40
1.0
 40
1.0
 40
1.0
 40
1.0
 10
5451.550129744605
 20
6505.454932272602
 30
0.0
 10
5451.796100521204
 20
6505.574223991952
 30
0.0
 10
5452.328473039106
 20
6505.832415773401
 30
0.0
 10
5458.852356100855
 20
6506.226701018674
 30
0.0
 10
5469.704233277536
 20
6506.644766565068
 30
0.0
 10
5484.587224564603
 20
6507.064411965732
 30
0.0
 10
5502.565235690586
 20
6507.484705785968
 30
0.0
 10
5522.817447248089
 20
6507.905512275879
 30
0.0
 10
5544.398926867625
 20
6508.326868549798
 30
0.0
 10
5566.35037096466
 20
6508.748760699122
 30
0.0
 10
5587.724928110583
 20
6509.171207402877
 30
0.0
 10
5607.630313187608
 20
6509.594148308289
 30
0.0
 10
5625.273129266772
 20
6510.017804068848
 30
0.0
 10
5640.018851371458
 20
6510.443300278544
 30
0.0
 10
5651.483429217951
 20
6510.878295971438
 30
0.0
 10
5658.761556483133
 20
6511.307484223609
 30
0.0
 10
5661.552555843053
 20
6511.614922857943
 30
0.0
 10
5661.172047082167
 20
6511.776254707263
 30
0.0
 10
5661.116202276981
 20
6511.799932337377
 30
0.0
  0
LINE
  5
29F
330
1F
100
AcDbEntity
  8
0
  6
Continuous
 62
     7
370
    25
100
AcDbLine
 10
5451.4788526272
 20
6518.0704598111
 30
0.0
 11
5451.325413798
 21
6518.1060515264
 31
0.0
  0
SPLINE
  5
2A0
330
1F
100
AcDbEntity
  8
0
  6
Continuous
 62
     7
370
    25
100
AcDbSpline
210
0.0
220
0.0
230
1.0
 70
     8
 71
     3
 72
    24
 73
    20
 74
     0
 42
0.00000001
 43
0.00000001
 40
0.0
 40
0.0
 40
0.0
 40
0.0
 40
0.0800214464660746
 40
0.1619939318214989
 40
0.2406357591074958
 40
0.3159447505050224
 40
0.3879188205606487
 40
0.4565559762555551
 40
0.5218543170748239
 40
0.5838120350779744
 40
0.6424274149720051
 40
0.6976988341888379
 40
0.7496247629698104
 40
0.7824007529040509
 40
0.8136864636528779
 40
0.8469924688230415
 40
0.9073348694502918
 40
0.9697724542369134
 40
1.0
 40
1.0
 40
1.0
 40
1.0
 10
5451.529129857075
 20
6518.140393872131
 30
0.0
 10
5452.080802454151
 20
6518.31402847735
 30
0.0
 10
5453.1975982261
 20
6518.665531151219
 30
0.0
 10
5463.578575498283
 20
6519.185427040487
 30
0.0
 10
5478.935332479124
 20
6519.693375372463
 30
0.0
 10
5498.176390066871
 20
6520.177797065472
 30
0.0
 10
5519.539621333539
 20
6520.638736298741
 30
0.0
 10
5541.645711665309
 20
6521.076182420895
 30
0.0
 10
5563.285275406231
 20
6521.490140081859
 30
0.0
 10
5583.530086514613
 20
6521.880605448933
 30
0.0
 10
5601.721569636549
 20
6522.247593778312
 30
0.0
 10
5617.456216695722
 20
6522.591058587439
 30
0.0
 10
5629.228222425523
 20
6522.878690899972
 30
0.0
 10
5637.77643198603
 20
6523.114837607773
 30
0.0
 10
5644.114501967296
 20
6523.3118841147
 30
0.0
 10
5651.114672619226
 20
6523.561882321064
 30
0.0
 10
5657.446014286518
 20
6523.879357809228
 30
0.0
 10
5661.242857210927
 20
6524.194308856681
 30
0.0
 10
5660.889376015492
 20
6524.388647235455
 30
0.0
 10
5660.774069762234
 20
6524.452040792483
 30
0.0
  0
SPLINE
  5
2A1
330
1F
100
AcDbEntity
  8
0
  6
Continuous
 62
     7
370
    25
100
AcDbSpline
210
0.0
220
0.0
230
1.0
 70
     8
 71
     3
 72
    23
 73
    19
 74
     0
 42
0.00000001
 43
0.00000001
 40
0.0
 40
0.0
 40
0.0
 40
0.0
 40
0.0448096210778906
 40
0.1124781656666865
 40
0.1809629540654267
 40
0.2490071493882247
 40
0.3166107202083602
 40
0.383773635340634
 40
0.4504958638421649
 40
0.5167773750131736
 40
0.5826181383978146
 40
0.6480181237850235
 40
0.7129773012094014
 40
0.7774956409521242
 40
0.8419075091010724
 40
0.9083891752272328
 40
0.9748702182077419
 40
1.0
 40
1.0
 40
1.0
 40
1.0
 10
5451.812073691434
 20
6530.854752683225
 30
0.0
 10
5451.814876334282
 20
6530.946277041863
 30
0.0
 10
5451.821911344149
 20
6531.176015471376
 30
0.0
 10
5457.187418282903
 20
6531.541467321904
 30
0.0
 10
5467.089000779671
 20
6531.958238755055
 30
0.0
 10
5481.242482503106
 20
6532.377784288096
 30
0.0
 10
5498.639177014556
 20
6532.797960214928
 30
0.0
 10
5518.499581214091
 20
6533.218654378201
 30
0.0
 10
5539.884577950833
 20
6533.639897699069
 30
0.0
 10
5561.838454117343
 20
6534.061677666633
 30
0.0
 10
5583.407408688793
 20
6534.48401349611
 30
0.0
 10
5603.684464998945
 20
6534.906841340638
 30
0.0
 10
5621.85550946981
 20
6535.330395167346
 30
0.0
 10
5637.215405385918
 20
6535.754542651189
 30
0.0
 10
5649.430517263732
 20
6536.188081046759
 30
0.0
 10
5657.541129467883
 20
6536.619167289175
 30
0.0
 10
5661.419855582022
 20
6536.957277591629
 30
0.0
 10
5660.912185151755
 20
6537.147047507641
 30
0.0
 10
5660.772925984875
 20
6537.199103327376
 30
0.0
  0
SPLINE
  5
2A2
330
1F
100
AcDbEntity
  8
0
  6
Continuous
 62
     7
370
    25
100
AcDbSpline
210
0.0
220
0.0
230
1.0
 70
     8
 71
     3
 72
    23
 73
    19
 74
     0
 42
0.00000001
 43
0.00000001
 40
0.0
 40
0.0
 40
0.0
 40
0.0
 40
0.0472636462313406
 40
0.118090373372374
 40
0.1860457212248776
 40
0.2511282989050186
 40
0.3133367747317754
 40
0.3726698763156607
 40
0.4358678195434511
 40
0.5023963842114534
 40
0.5689252702769959
 40
0.635454482081685
 40
0.701984023967057
 40
0.7685139002745882
 40
0.8350428396873736
 40
0.9015231105851939
 40
0.9680027567826242
 40
1.0
 40
1.0
 40
1.0
 40
1.0
 10
5451.957806795876
 20
6543.539600998535
 30
0.0
 10
5451.924443250591
 20
6543.6418592296
 30
0.0
 10
5451.841082912701
 20
6543.897356078653
 30
0.0
 10
5457.693429708364
 20
6544.295630513683
 30
0.0
 10
5467.899686062942
 20
6544.728600215368
 30
0.0
 10
5481.623556098939
 20
6545.13897932832
 30
0.0
 10
5497.590482250267
 20
6545.526998066674
 30
0.0
 10
5515.555411057587
 20
6545.906256059809
 30
0.0
 10
5535.505027723414
 20
6546.289440393993
 30
0.0
 10
5557.102469773333
 20
6546.694510533911
 30
0.0
 10
5579.030836688093
 20
6547.111523335342
 30
0.0
 10
5599.969360688747
 20
6547.534231930516
 30
0.0
 10
5619.01215137912
 20
6547.96267785595
 30
0.0
 10
5635.307891644279
 20
6548.396065321461
 30
0.0
 10
5648.227901993718
 20
6548.837416307803
 30
0.0
 10
5656.900710062539
 20
6549.274970936977
 30
0.0
 10
5661.216806859939
 20
6549.628240117267
 30
0.0
 10
5660.856618555361
 20
6549.832674878715
 30
0.0
 10
5660.739585687506
 20
6549.899100096073
 30
0.0
  0
SPLINE
  5
2A3
330
1F
100
AcDbEntity
  8
0
  6
Continuous
 62
     7
370
    25
100
AcDbSpline
210
0.0
220
0.0
230
1.0
 70
     8
 71
     3
 72
    25
 73
    21
 74
     0
 42
0.00000001
 43
0.00000001
 40
0.0
 40
0.0
 40
0.0
 40
0.0
 40
0.0539856297863682
 40
0.1369820894678564
 40
0.2166485615487423
 40
0.2929828393570446
 40
0.3659828085847687
 40
0.4356464473569777
 40
0.501971826300927
 40
0.5649571086161146
 40
0.6246005501464023
 40
0.6809004994558762
 40
0.7338553979108312
 40
0.7834637797714141
 40
0.8297242722982312
 40
0.8849761703236405
 40
0.9084598872062173
 40
0.9344608382732831
 40
0.9595455990735036
 40
1.0
 40
1.0
 40
1.0
 40
1.0
 10
5452.216181118258
 20
6556.240212167596
 30
0.0
 10
5452.149775281608
 20
6556.357466654282
 30
0.0
 10
5451.981278400249
 20
6556.654985913557
 30
0.0
 10
5459.888032497639
 20
6557.123527324679
 30
0.0
 10
5473.6515764539
 20
6557.638780839706
 30
0.0
 10
5491.937838519121
 20
6558.130472478988
 30
0.0
 10
5512.78780923902
 20
6558.598687256002
 30
0.0
 10
5534.808774679039
 20
6559.043405173207
 30
0.0
 10
5556.703943997024
 20
6559.464629857019
 30
0.0
 10
5577.463380101614
 20
6559.862369123462
 30
0.0
 10
5596.344064661746
 20
6560.236595781864
 30
0.0
 10
5612.867630187984
 20
6560.587409044848
 30
0.0
 10
5626.789168397487
 20
6560.914476164676
 30
0.0
 10
5638.059028785637
 20
6561.218933949162
 30
0.0
 10
5647.553852043451
 20
6561.521682223261
 30
0.0
 10
5653.522562691415
 20
6561.779279521993
 30
0.0
 10
5657.192273582287
 20
6562.002304322827
 30
0.0
 10
5659.169081921614
 20
6562.162377990921
 30
0.0
 10
5660.935257399809
 20
6562.360828520073
 30
0.0
 10
5661.016997170393
 20
6562.502624547827
 30
0.0
 10
5661.06745148448
 20
6562.590148910443
 30
0.0
  0
SPLINE
  5
2A4
330
1F
100
AcDbEntity
  8
0
  6
Continuous
 62
     7
370
    25
100
AcDbSpline
210
0.0
220
0.0
230
1.0
 70
     8
 71
     3
 72
    18
 73
    14
 74
     0
 42
0.00000001
 43
0.00000001
 40
0.0
 40
0.0
 40
0.0
 40
0.0
 40
0.0812919894923853
 40
0.177448801703613
 40
0.2750841230444754
 40
0.3705463901234514
 40
0.467776331445221
 40
0.5648196751232336
 40
0.6603963608048251
 40
0.7580760963196962
 40
0.8539791543933497
 40
0.9506169066305943
 40
0.9999999999999999
 40
0.9999999999999999
 40
0.9999999999999999
 40
0.9999999999999999
 10
5458.761910744259
 20
6476.06964221365
 30
0.0
 10
5459.136929840321
 20
6476.239464432843
 30
0.0
 10
5459.955542961093
 20
6476.610162080749
 30
0.0
 10
5471.684293275185
 20
6477.169312359226
 30
0.0
 10
5490.705163727009
 20
6477.806845974615
 30
0.0
 10
5515.881566907378
 20
6478.379467707223
 30
0.0
 10
5544.561278201728
 20
6479.002982163433
 30
0.0
 10
5574.331261667767
 20
6479.620831935748
 30
0.0
 10
5602.484473529576
 20
6480.196713785119
 30
0.0
 10
5626.559904658499
 20
6480.835475045179
 30
0.0
 10
5643.958929214295
 20
6481.41980746353
 30
0.0
 10
5653.366223164213
 20
6481.927635160298
 30
0.0
 10
5653.280588285914
 20
6482.239157103028
 30
0.0
 10
5653.251627248378
 20
6482.344511356529
 30
0.0
  0
SPLINE
  5
2A5
330
1F
100
AcDbEntity
  8
0
  6
Continuous
 62
     7
370
    25
100
AcDbSpline
210
0.0
220
0.0
230
1.0
 70
     8
 71
     3
 72
    18
 73
    14
 74
     0
 42
0.00000001
 43
0.00000001
 40
0.0
 40
0.0
 40
0.0
 40
0.0
 40
0.0805945981447376
 40
0.1768245847499896
 40
0.2745342056158696
 40
0.3700691185468143
 40
0.4673730509033697
 40
0.5644902436171857
 40
0.660139662222184
 40
0.7578937310608247
 40
0.8538697704240845
 40
0.9505810630460114
 40
1.0
 40
1.0
 40
1.0
 40
1.0
 10
5458.785626173221
 20
6488.7743773315
 30
0.0
 10
5459.159364941896
 20
6488.942611353668
 30
0.0
 10
5459.979347969262
 20
6489.311716874329
 30
0.0
 10
5471.686794655446
 20
6489.869308649752
 30
0.0
 10
5490.704506252316
 20
6490.50684694963
 30
0.0
 10
5515.881745030196
 20
6491.079467443079
 30
0.0
 10
5544.561230142252
 20
6491.702982234675
 30
0.0
 10
5574.331274467412
 20
6492.320831916872
 30
0.0
 10
5602.484469454103
 20
6492.896713790777
 30
0.0
 10
5626.55990795767
 20
6493.535475041752
 30
0.0
 10
5643.958920222034
 20
6494.119807471494
 30
0.0
 10
5653.3661818377
 20
6494.627631495287
 30
0.0
 10
5653.280562311
 20
6494.939149723807
 30
0.0
 10
5653.251607138587
 20
6495.044500271328
 30
0.0
  0
SPLINE
  5
2A6
330
1F
100
AcDbEntity
  8
0
  6
Continuous
 62
     7
370
    25
100
AcDbSpline
210
0.0
220
0.0
230
1.0
 70
     8
 71
     3
 72
    18
 73
    14
 74
     0
 42
0.00000001
 43
0.00000001
 40
0.0
 40
0.0
 40
0.0
 40
0.0
 40
0.0810970188973798
 40
0.1772746010450443
 40
0.274931011681315
 40
0.3704138986745097
 40
0.4676648417293293
 40
0.5647291468351748
 40
0.6603264771454804
 40
0.7580273115492513
 40
0.8539510847482764
 40
0.9506097108053286
 40
1.0
 40
1.0
 40
1.0
 40
1.0
 10
5458.768552765725
 20
6501.470968386348
 30
0.0
 10
5459.143215415452
 20
6501.640345793267
 30
0.0
 10
5459.962211879932
 20
6502.01059753181
 30
0.0
 10
5471.684991515604
 20
6502.569311323757
 30
0.0
 10
5490.704980192917
 20
6503.206846246788
 30
0.0
 10
5515.881616649566
 20
6503.779467633472
 30
0.0
 10
5544.561264707399
 20
6504.402982183387
 30
0.0
 10
5574.331265532603
 20
6505.020831930226
 30
0.0
 10
5602.484471310808
 20
6505.596713787638
 30
0.0
 10
5626.55990968353
 20
6506.235475040658
 30
0.0
 10
5643.958911659013
 20
6506.819807478822
 30
0.0
 10
5653.366140464354
 20
6507.327627830531
 30
0.0
 10
5653.280536325186
 20
6507.639142344968
 30
0.0
 10
5653.251587029792
 20
6507.744489186673
 30
0.0
  0
SPLINE
  5
2A7
330
1F
100
AcDbEntity
  8
0
  6
Continuous
 62
     7
370
    25
100
AcDbSpline
210
0.0
220
0.0
230
1.0
 70
     8
 71
     3
 72
    18
 73
    14
 74
     0
 42
0.00000001
 43
0.00000001
 40
0.0
 40
0.0
 40
0.0
 40
0.0
 40
0.0817009218616113
 40
0.1778154776241867
 40
0.2754078927803698
 40
0.3708282086309901
 40
0.4680154219137525
 40
0.5650161195537478
 40
0.6605508037253268
 40
0.7581876135375539
 40
0.8540485266757015
 40
0.9506438111135113
 40
1.0
 40
1.0
 40
1.0
 40
1.0
 10
5458.748005140058
 20
6514.166865764835
 30
0.0
 10
5459.123765138855
 20
6514.337619242097
 30
0.0
 10
5459.941576518891
 20
6514.709250435767
 30
0.0
 10
5471.68283727958
 20
6515.269314518428
 30
0.0
 10
5490.70554641688
 20
6515.906845407092
 30
0.0
 10
5515.881463269124
 20
6516.479467860938
 30
0.0
 10
5544.561306011788
 20
6517.102982122105
 30
0.0
 10
5574.331254825031
 20
6517.72083194621
 30
0.0
 10
5602.484473651374
 20
6518.296713783779
 30
0.0
 10
5626.559911281035
 20
6518.935475039754
 30
0.0
 10
5643.958903131116
 20
6519.519807486097
 30
0.0
 10
5653.366099088867
 20
6520.027624165929
 30
0.0
 10
5653.280510339632
 20
6520.33913496643
 30
0.0
 10
5653.251566921814
 20
6520.44447810247
 30
0.0
  0
SPLINE
  5
2A8
330
1F
100
AcDbEntity
  8
0
  6
Continuous
 62
     7
370
    25
100
AcDbSpline
210
0.0
220
0.0
230
1.0
 70
     8
 71
     3
 72
    18
 73
    14
 74
     0
 42
0.00000001
 43
0.00000001
 40
0.0
 40
0.0
 40
0.0
 40
0.0
 40
0.0813652652596784
 40
0.1775151343819044
 40
0.2751434058766855
 40
0.3705987800169152
 40
0.4678217007634315
 40
0.5648580373396418
 40
0.6604278218207887
 40
0.758100504282613
 40
0.8539966375898105
 40
0.9506274120113469
 40
0.9999999999999999
 40
0.9999999999999999
 40
0.9999999999999999
 40
0.9999999999999999
 10
5458.759436559395
 20
6526.869148207958
 30
0.0
 10
5459.134588010226
 20
6527.039136122484
 30
0.0
 10
5459.953058397993
 20
6527.409999873669
 30
0.0
 10
5471.684033641906
 20
6527.969312744258
 30
0.0
 10
5490.705231957718
 20
6528.606845873423
 30
0.0
 10
5515.88154846811
 20
6529.179467734597
 30
0.0
 10
5544.561283001939
 20
6529.802982156202
 30
0.0
 10
5574.331261035352
 20
6530.420831937103
 30
0.0
 10
5602.484471374406
 20
6530.996713786771
 30
0.0
 10
5626.559914103132
 20
6531.635475037035
 30
0.0
 10
5643.95889426931
 20
6532.219807493868
 30
0.0
 10
5653.366057753069
 20
6532.727620501387
 30
0.0
 10
5653.280484364772
 20
6533.039127588113
 30
0.0
 10
5653.251546814476
 20
6533.14446701862
 30
0.0
  0
SPLINE
  5
2A9
330
1F
100
AcDbEntity
  8
0
  6
Continuous
 62
     7
370
    25
100
AcDbSpline
210
0.0
220
0.0
230
1.0
 70
     8
 71
     3
 72
    18
 73
    14
 74
     0
 42
0.00000001
 43
0.00000001
 40
0.0
 40
0.0
 40
0.0
 40
0.0
 40
0.0806300289609999
 40
0.1768570340795756
 40
0.2745636276153785
 40
0.3700955805950642
 40
0.4673964981909604
 40
0.5645106819298578
 40
0.6601571370358756
 40
0.7579081771673113
 40
0.8538812429119237
 40
0.950589539134905
 40
1.0
 40
1.0
 40
1.0
 40
1.0
 10
5458.784441452522
 20
6539.574140785404
 30
0.0
 10
5459.158244685248
 20
6539.742454146308
 30
0.0
 10
5459.978159199996
 20
6540.111639202905
 30
0.0
 10
5471.686669151371
 20
6540.669308835873
 30
0.0
 10
5490.704539228031
 20
6541.306846900719
 30
0.0
 10
5515.8817361416
 20
6541.879467456291
 30
0.0
 10
5544.561232367873
 20
6542.502982231263
 30
0.0
 10
5574.331274512238
 20
6543.120831917222
 30
0.0
 10
5602.484467114112
 20
6543.696713792702
 30
0.0
 10
5626.559917451228
 20
6544.335475033535
 30
0.0
 10
5643.958885264035
 20
6544.919807501851
 30
0.0
 10
5653.366016434805
 20
6545.427616836905
 30
0.0
 10
5653.280458394869
 20
6545.73912020996
 30
0.0
 10
5653.251526707603
 20
6545.844455935026
 30
0.0
  0
SPLINE
  5
2AA
330
1F
100
AcDbEntity
  8
0
  6
Continuous
 62
     7
370
    25
100
AcDbSpline
210
0.0
220
0.0
230
1.0
 70
     8
 71
     3
 72
    18
 73
    14
 74
     0
 42
0.00000001
 43
0.00000001
 40
0.0
 40
0.0
 40
0.0
 40
0.0
 40
0.0810063805191533
 40
0.1771941759731359
 40
0.2748609569557335
 40
0.3703539834840592
 40
0.4676152538277225
 40
0.5646898664029227
 40
0.6602973484013439
 40
0.758008557868898
 40
0.8539425174217176
 40
0.9506114078681853
 40
1.0
 40
1.0
 40
1.0
 40
1.0
 10
5458.771654225012
 20
6552.271587636173
 30
0.0
 10
5459.146149865716
 20
6552.440757341028
 30
0.0
 10
5459.965325417505
 20
6552.810800864258
 30
0.0
 10
5471.685318176626
 20
6553.36931083933
 30
0.0
 10
5490.704894319958
 20
6554.006846374126
 30
0.0
 10
5515.881639957396
 20
6554.579467598936
 30
0.0
 10
5544.561258253781
 20
6555.202982192845
 30
0.0
 10
5574.331267860507
 20
6555.820831927191
 30
0.0
 10
5602.484468347679
 20
6556.396713790487
 30
0.0
 10
5626.559919342337
 20
6557.035475032196
 30
0.0
 10
5643.958876655996
 20
6557.619807509245
 30
0.0
 10
5653.365975071883
 20
6558.127613172543
 30
0.0
 10
5653.280432414073
 20
6558.439112831929
 30
0.0
 10
5653.251506601016
 20
6558.544444851591
 30
0.0
  0
SPLINE
  5
2AB
330
1F
100
AcDbEntity
  8
0
  6
Continuous
 62
     7
370
    25
100
AcDbSpline
210
0.0
220
0.0
230
1.0
 70
     8
 71
     3
 72
    11
 73
     7
 74
     0
 42
0.00000001
 43
0.00000001
 40
0.0
 40
0.0
 40
0.0
 40
0.0
 40
0.2779891782383364
 40
0.6051052262860276
 40
0.93725101744153
 40
1.0
 40
1.0
 40
1.0
 40
1.0
 10
5458.748662523515
 20
6564.966997020657
 30
0.0
 10
5459.106396587001
 20
6565.137782113668
 30
0.0
 10
5459.885084278399
 20
6565.509533823598
 30
0.0
 10
5471.961199815222
 20
6566.06814436887
 30
0.0
 10
5484.947323641177
 20
6566.540010749892
 30
0.0
 10
5495.004248333428
 20
6566.77564832769
 30
0.0
 10
5496.602298837291
 20
6566.813091259944
 30
0.0
  0
SPLINE
  5
2AC
330
1F
100
AcDbEntity
  8
0
  6
Continuous
 62
     7
370
    25
100
AcDbSpline
210
0.0
220
0.0
230
1.0
 70
     8
 71
     3
 72
    11
 73
     7
 74
     0
 42
0.00000001
 43
0.00000001
 40
0.0
 40
0.0
 40
0.0
 40
0.0
 40
0.1668438881413358
 40
0.4555745231082356
 40
0.7506475041882015
 40
1.0
 40
1.0
 40
1.0
 40
1.0
 10
5597.562609755892
 20
7876.81309125993
 30
0.0
 10
5601.754273801267
 20
7876.962020491547
 30
0.0
 10
5613.199795538832
 20
7877.368678262633
 30
0.0
 10
5626.866431066016
 20
7877.989052501826
 30
0.0
 10
5637.253658040818
 20
7878.760628685177
 30
0.0
 10
5638.016098488698
 20
7879.223604931979
 30
0.0
 10
5638.36530409471
 20
7879.435652838519
 30
0.0
  0
SPLINE
  5
2AD
330
1F
100
AcDbEntity
  8
0
  6
Continuous
 62
     7
370
    25
100
AcDbSpline
210
0.0
220
0.0
230
1.0
 70
     8
 71
     3
 72
    19
 73
    15
 74
     0
 42
0.00000001
 43
0.00000001
 40
0.0
 40
0.0
 40
0.0
 40
0.0
 40
0.0229617156807058
 40
0.1091872018097511
 40
0.149131728441857
 40
0.2405979764320041
 40
0.3365839787633466
 40
0.4342745491822804
 40
0.5298215348997025
 40
0.6270163740292011
 40
0.7241202801264722
 40
0.8197265243342646
 40
0.9174328847677066
 40
1.0
 40
1.0
 40
1.0
 40
1.0
 10
5474.388064218063
 20
7887.373450272155
 30
0.0
 10
5474.21696153069
 20
7887.432480850134
 30
0.0
 10
5473.403336629302
 20
7887.713182158363
 30
0.0
 10
5476.961625668935
 20
7888.112652595948
 30
0.0
 10
5484.185795389665
 20
7888.704135966414
 30
0.0
 10
5495.667448096807
 20
7889.303024863863
 30
0.0
 10
5515.256294619099
 20
7890.032194935155
 30
0.0
 10
5538.933346076617
 20
7890.839892974781
 30
0.0
 10
5564.272671017536
 20
7891.566267200318
 30
0.0
 10
5588.841036031565
 20
7892.353024476994
 30
0.0
 10
5610.472474720481
 20
7893.136208004083
 30
0.0
 10
5626.982656275207
 20
7893.864870928678
 30
0.0
 10
5637.229571917431
 20
7894.635459077134
 30
0.0
 10
5638.008532223082
 20
7895.09855165236
 30
0.0
 10
5638.36530409471
 20
7895.310652838519
 30
0.0
  0
SPLINE
  5
2AE
330
1F
100
AcDbEntity
  8
0
  6
Continuous
 62
     7
370
    25
100
AcDbSpline
210
0.0
220
0.0
230
1.0
 70
     8
 71
     3
 72
    19
 73
    15
 74
     0
 42
0.00000001
 43
0.00000001
 40
0.0
 40
0.0
 40
0.0
 40
0.0
 40
0.0229617156807055
 40
0.1091872018097507
 40
0.1491317284418566
 40
0.2405979764320037
 40
0.336583978763346
 40
0.4342745491822798
 40
0.5298215348997015
 40
0.6270163740292003
 40
0.7241202801264713
 40
0.8197265243342636
 40
0.9174328847677055
 40
1.0
 40
1.0
 40
1.0
 40
1.0
 10
5474.388064218063
 20
7903.248450272156
 30
0.0
 10
5474.21696153069
 20
7903.307480850135
 30
0.0
 10
5473.403336629302
 20
7903.588182158363
 30
0.0
 10
5476.961625668935
 20
7903.987652595949
 30
0.0
 10
5484.185795389665
 20
7904.579135966415
 30
0.0
 10
5495.667448096807
 20
7905.178024863863
 30
0.0
 10
5515.256294619099
 20
7905.907194935156
 30
0.0
 10
5538.933346076617
 20
7906.714892974781
 30
0.0
 10
5564.272671017536
 20
7907.441267200317
 30
0.0
 10
5588.841036031565
 20
7908.228024476994
 30
0.0
 10
5610.472474720481
 20
7909.011208004083
 30
0.0
 10
5626.982656275207
 20
7909.739870928679
 30
0.0
 10
5637.229571917431
 20
7910.510459077134
 30
0.0
 10
5638.008532223082
 20
7910.973551652359
 30
0.0
 10
5638.36530409471
 20
7911.185652838519
 30
0.0
  0
SPLINE
  5
2AF
330
1F
100
AcDbEntity
  8
0
  6
Continuous
 62
     7
370
    25
100
AcDbSpline
210
0.0
220
0.0
230
1.0
 70
     8
 71
     3
 72
    19
 73
    15
 74
     0
 42
0.00000001
 43
0.00000001
 40
0.0
 40
0.0
 40
0.0
 40
0.0
 40
0.022961715680705
 40
0.1091872018097502
 40
0.149131728441856
 40
0.240597976432003
 40
0.3365839787633454
 40
0.4342745491822791
 40
0.5298215348997011
 40
0.6270163740291996
 40
0.7241202801264707
 40
0.8197265243342627
 40
0.9174328847677047
 40
1.0
 40
1.0
 40
1.0
 40
1.0
 10
5474.388064218064
 20
7919.123450272155
 30
0.0
 10
5474.21696153069
 20
7919.182480850134
 30
0.0
 10
5473.403336629302
 20
7919.463182158362
 30
0.0
 10
5476.961625668935
 20
7919.862652595949
 30
0.0
 10
5484.185795389665
 20
7920.454135966414
 30
0.0
 10
5495.667448096807
 20
7921.053024863862
 30
0.0
 10
5515.2562946191
 20
7921.782194935155
 30
0.0
 10
5538.933346076617
 20
7922.589892974781
 30
0.0
 10
5564.272671017536
 20
7923.316267200317
 30
0.0
 10
5588.841036031566
 20
7924.103024476995
 30
0.0
 10
5610.472474720481
 20
7924.886208004083
 30
0.0
 10
5626.982656275207
 20
7925.614870928678
 30
0.0
 10
5637.229571917431
 20
7926.385459077134
 30
0.0
 10
5638.008532223083
 20
7926.848551652359
 30
0.0
 10
5638.36530409471
 20
7927.060652838519
 30
0.0
  0
SPLINE
  5
2B0
330
1F
100
AcDbEntity
  8
0
  6
Continuous
 62
     7
370
    25
100
AcDbSpline
210
0.0
220
0.0
230
1.0
 70
     8
 71
     3
 72
    19
 73
    15
 74
     0
 42
0.00000001
 43
0.00000001
 40
0.0
 40
0.0
 40
0.0
 40
0.0
 40
0.0229617156807045
 40
0.1091872018097497
 40
0.1491317284418556
 40
0.2405979764320026
 40
0.336583978763345
 40
0.4342745491822788
 40
0.5298215348997007
 40
0.6270163740291993
 40
0.7241202801264703
 40
0.8197265243342627
 40
0.9174328847677046
 40
1.0
 40
1.0
 40
1.0
 40
1.0
 10
5474.388064218064
 20
7934.998450272155
 30
0.0
 10
5474.216961530691
 20
7935.057480850134
 30
0.0
 10
5473.403336629302
 20
7935.338182158363
 30
0.0
 10
5476.961625668935
 20
7935.737652595948
 30
0.0
 10
5484.185795389665
 20
7936.329135966414
 30
0.0
 10
5495.667448096807
 20
7936.928024863863
 30
0.0
 10
5515.256294619099
 20
7937.657194935155
 30
0.0
 10
5538.933346076617
 20
7938.464892974781
 30
0.0
 10
5564.272671017536
 20
7939.191267200318
 30
0.0
 10
5588.841036031566
 20
7939.978024476994
 30
0.0
 10
5610.472474720481
 20
7940.761208004083
 30
0.0
 10
5626.982656275207
 20
7941.489870928678
 30
0.0
 10
5637.229571917431
 20
7942.260459077134
 30
0.0
 10
5638.008532223083
 20
7942.72355165236
 30
0.0
 10
5638.36530409471
 20
7942.935652838519
 30
0.0
  0
SPLINE
  5
2B1
330
1F
100
AcDbEntity
  8
0
  6
Continuous
 62
     7
370
    25
100
AcDbSpline
210
0.0
220
0.0
230
1.0
 70
     8
 71
     3
 72
    18
 73
    14
 74
     0
 42
0.00000001
 43
0.00000001
 40
0.0
 40
0.0
 40
0.0
 40
0.0
 40
0.001743202074549
 40
0.1134907735734726
 40
0.2234680404168855
 40
0.3334716696430257
 40
0.4422430251753734
 40
0.5504843823388677
 40
0.6580752448630972
 40
0.7645647377142112
 40
0.8709665116795368
 40
0.9757116259496892
 40
1.0
 40
1.0
 40
1.0
 40
1.0
 10
5476.4562463278
 20
7949.388243851846
 30
0.0
 10
5476.435660414399
 20
7949.391052087517
 30
0.0
 10
5475.095419216476
 20
7949.573881630511
 30
0.0
 10
5480.841639635285
 20
7949.933836422896
 30
0.0
 10
5493.916604740738
 20
7950.498544690014
 30
0.0
 10
5514.887938684483
 20
7951.012466935017
 30
0.0
 10
5540.048258775792
 20
7951.589612045866
 30
0.0
 10
5566.776022261301
 20
7952.100874097944
 30
0.0
 10
5591.863926860791
 20
7952.670878865303
 30
0.0
 10
5612.794742817666
 20
7953.200984617833
 30
0.0
 10
5626.257586668075
 20
7953.746522444165
 30
0.0
 10
5632.176015077322
 20
7954.163162598144
 30
0.0
 10
5630.707481563527
 20
7954.382875473168
 30
0.0
 10
5630.431054941627
 20
7954.424232709663
 30
0.0
  0
SPLINE
  5
2B2
330
1F
100
AcDbEntity
  8
0
  6
Continuous
 62
     7
370
    25
100
AcDbSpline
210
0.0
220
0.0
230
1.0
 70
     8
 71
     3
 72
    20
 73
    16
 74
     0
 42
0.00000001
 43
0.00000001
 40
0.0
 40
0.0
 40
0.0
 40
0.0
 40
0.0235030472702807
 40
0.1112695084726598
 40
0.1996249065253975
 40
0.2859768964753585
 40
0.3739298990897406
 40
0.4621776345928497
 40
0.5484792389295634
 40
0.6365927621182075
 40
0.7141835684739429
 40
0.7900294342180284
 40
0.83512419765703
 40
0.9345771166165533
 40
1.0
 40
1.0
 40
1.0
 40
1.0
 10
5482.922355970914
 20
7882.411516192036
 30
0.0
 10
5482.769017734176
 20
7882.470887198499
 30
0.0
 10
5482.043074836826
 20
7882.75196490858
 30
0.0
 10
5486.120825004195
 20
7883.276177032314
 30
0.0
 10
5495.078573166184
 20
7883.985593100177
 30
0.0
 10
5508.872438443013
 20
7884.629956586801
 30
0.0
 10
5525.982860081158
 20
7885.325891733162
 30
0.0
 10
5545.333679606179
 20
7886.031561698333
 30
0.0
 10
5565.465304908054
 20
7886.674457710249
 30
0.0
 10
5584.169905751029
 20
7887.347145812251
 30
0.0
 10
5600.258007218666
 20
7887.993763585838
 30
0.0
 10
5611.41384741749
 20
7888.481764580074
 30
0.0
 10
5621.261494379666
 20
7889.050094484086
 30
0.0
 10
5628.368756428925
 20
7889.624086823338
 30
0.0
 10
5629.078646866325
 20
7890.041309323728
 30
0.0
 10
5629.36033210237
 20
7890.206863629453
 30
0.0
  0
SPLINE
  5
2B3
330
1F
100
AcDbEntity
  8
0
  6
Continuous
 62
     7
370
    25
100
AcDbSpline
210
0.0
220
0.0
230
1.0
 70
     8
 71
     3
 72
    20
 73
    16
 74
     0
 42
0.00000001
 43
0.00000001
 40
0.0
 40
0.0
 40
0.0
 40
0.0
 40
0.0235030472702807
 40
0.1112695084726599
 40
0.1996249065253977
 40
0.2859768964753588
 40
0.373929899089741
 40
0.46217763459285
 40
0.5484792389295642
 40
0.6365927621182079
 40
0.7141835684739436
 40
0.790029434218029
 40
0.8351241976570307
 40
0.9345771166165542
 40
1.0
 40
1.0
 40
1.0
 40
1.0
 10
5482.922355970914
 20
7898.286516192036
 30
0.0
 10
5482.769017734176
 20
7898.345887198499
 30
0.0
 10
5482.043074836826
 20
7898.62696490858
 30
0.0
 10
5486.120825004195
 20
7899.151177032313
 30
0.0
 10
5495.078573166184
 20
7899.860593100178
 30
0.0
 10
5508.872438443013
 20
7900.5049565868
 30
0.0
 10
5525.982860081158
 20
7901.200891733161
 30
0.0
 10
5545.333679606179
 20
7901.906561698333
 30
0.0
 10
5565.465304908054
 20
7902.54945771025
 30
0.0
 10
5584.169905751029
 20
7903.222145812251
 30
0.0
 10
5600.258007218666
 20
7903.868763585839
 30
0.0
 10
5611.41384741749
 20
7904.356764580075
 30
0.0
 10
5621.261494379666
 20
7904.925094484085
 30
0.0
 10
5628.368756428925
 20
7905.499086823338
 30
0.0
 10
5629.078646866325
 20
7905.916309323727
 30
0.0
 10
5629.36033210237
 20
7906.081863629453
 30
0.0
  0
SPLINE
  5
2B4
330
1F
100
AcDbEntity
  8
0
  6
Continuous
 62
     7
370
    25
100
AcDbSpline
210
0.0
220
0.0
230
1.0
 70
     8
 71
     3
 72
    20
 73
    16
 74
     0
 42
0.00000001
 43
0.00000001
 40
0.0
 40
0.0
 40
0.0
 40
0.0
 40
0.0235030472702805
 40
0.1112695084726598
 40
0.1996249065253977
 40
0.285976896475359
 40
0.3739298990897411
 40
0.4621776345928504
 40
0.5484792389295644
 40
0.6365927621182086
 40
0.7141835684739442
 40
0.7900294342180297
 40
0.8351241976570315
 40
0.9345771166165551
 40
1.0
 40
1.0
 40
1.0
 40
1.0
 10
5482.922355970915
 20
7914.161516192035
 30
0.0
 10
5482.769017734176
 20
7914.220887198499
 30
0.0
 10
5482.043074836826
 20
7914.501964908579
 30
0.0
 10
5486.120825004195
 20
7915.026177032313
 30
0.0
 10
5495.078573166184
 20
7915.735593100177
 30
0.0
 10
5508.872438443013
 20
7916.379956586801
 30
0.0
 10
5525.982860081158
 20
7917.075891733161
 30
0.0
 10
5545.333679606179
 20
7917.781561698332
 30
0.0
 10
5565.465304908054
 20
7918.424457710249
 30
0.0
 10
5584.169905751029
 20
7919.097145812251
 30
0.0
 10
5600.258007218666
 20
7919.743763585839
 30
0.0
 10
5611.41384741749
 20
7920.231764580075
 30
0.0
 10
5621.261494379666
 20
7920.800094484085
 30
0.0
 10
5628.368756428925
 20
7921.374086823338
 30
0.0
 10
5629.078646866325
 20
7921.791309323728
 30
0.0
 10
5629.36033210237
 20
7921.956863629454
 30
0.0
  0
SPLINE
  5
2B5
330
1F
100
AcDbEntity
  8
0
  6
Continuous
 62
     7
370
    25
100
AcDbSpline
210
0.0
220
0.0
230
1.0
 70
     8
 71
     3
 72
    20
 73
    16
 74
     0
 42
0.00000001
 43
0.00000001
 40
0.0
 40
0.0
 40
0.0
 40
0.0
 40
0.0235030472702805
 40
0.1112695084726598
 40
0.1996249065253977
 40
0.2859768964753588
 40
0.3739298990897412
 40
0.4621776345928506
 40
0.5484792389295645
 40
0.6365927621182085
 40
0.7141835684739443
 40
0.7900294342180298
 40
0.8351241976570315
 40
0.9345771166165551
 40
1.0
 40
1.0
 40
1.0
 40
1.0
 10
5482.922355970915
 20
7930.036516192036
 30
0.0
 10
5482.769017734176
 20
7930.095887198499
 30
0.0
 10
5482.043074836826
 20
7930.37696490858
 30
0.0
 10
5486.120825004195
 20
7930.901177032314
 30
0.0
 10
5495.078573166184
 20
7931.610593100177
 30
0.0
 10
5508.872438443013
 20
7932.254956586801
 30
0.0
 10
5525.982860081158
 20
7932.950891733162
 30
0.0
 10
5545.333679606179
 20
7933.656561698333
 30
0.0
 10
5565.465304908054
 20
7934.299457710249
 30
0.0
 10
5584.169905751029
 20
7934.972145812251
 30
0.0
 10
5600.258007218666
 20
7935.618763585838
 30
0.0
 10
5611.41384741749
 20
7936.106764580074
 30
0.0
 10
5621.261494379666
 20
7936.675094484086
 30
0.0
 10
5628.368756428925
 20
7937.249086823338
 30
0.0
 10
5629.078646866325
 20
7937.666309323728
 30
0.0
 10
5629.36033210237
 20
7937.831863629453
 30
0.0
  0
SPLINE
  5
2B6
330
1F
100
AcDbEntity
  8
0
  6
Continuous
 62
     7
370
    25
100
AcDbSpline
210
0.0
220
0.0
230
1.0
 70
     8
 71
     3
 72
    20
 73
    16
 74
     0
 42
0.00000001
 43
0.00000001
 40
0.0
 40
0.0
 40
0.0
 40
0.0
 40
0.0230763923439402
 40
0.1092496136311287
 40
0.1960010806950622
 40
0.2807855078737821
 40
0.3671418842541068
 40
0.4537876431854984
 40
0.5385225994098177
 40
0.6250365824063546
 40
0.7012188692884299
 40
0.775687891770862
 40
0.8199640420848403
 40
0.9176115748182612
 40
1.0
 40
1.0
 40
1.0
 40
1.0
 10
5482.922355970915
 20
7945.911516192036
 30
0.0
 10
5482.769017736861
 20
7945.970887198518
 30
0.0
 10
5482.043074852221
 20
7946.251964908685
 30
0.0
 10
5486.120824718539
 20
7946.77617703035
 30
0.0
 10
5495.078574193662
 20
7947.485593107242
 30
0.0
 10
5508.872434685987
 20
7948.129956560965
 30
0.0
 10
5525.982874420831
 20
7948.825891831768
 30
0.0
 10
5545.333626421468
 20
7949.531561332607
 30
0.0
 10
5565.465500214586
 20
7950.174459053274
 30
0.0
 10
5584.169196995236
 20
7950.847140938494
 30
0.0
 10
5600.260280390047
 20
7951.493779217296
 30
0.0
 10
5611.406960542181
 20
7951.981717222492
 30
0.0
 10
5621.282923059711
 20
7952.550241838356
 30
0.0
 10
5628.810786444558
 20
7953.173365436683
 30
0.0
 10
5629.500335974533
 20
7953.636687057781
 30
0.0
 10
5629.815889048028
 20
7953.848713250533
 30
0.0
  0
SPLINE
  5
2B7
330
1F
100
AcDbEntity
  8
0
  6
Continuous
 62
     7
370
    25
100
AcDbSpline
210
0.0
220
0.0
230
1.0
 70
     8
 71
     3
 72
    20
 73
    16
 74
     0
 42
0.00000001
 43
0.00000001
 40
0.0
 40
0.0
 40
0.0
 40
0.0
 40
0.0045304114887027
 40
0.0923325091680604
 40
0.1807237828282398
 40
0.2671108349267681
 40
0.3550995497609426
 40
0.443383117156458
 40
0.5297197631832892
 40
0.6178690637691027
 40
0.7060183643549163
 40
0.7923550103817475
 40
0.8806385777772624
 40
0.9541842513818195
 40
1.0
 40
1.0
 40
1.0
 40
1.0
 10
5482.658995125089
 20
7880.571335691858
 30
0.0
 10
5482.63599756172
 20
7880.582799578568
 30
0.0
 10
5482.167293397435
 20
7880.816440480146
 30
0.0
 10
5486.239532068129
 20
7881.292242138049
 30
0.0
 10
5495.047504391101
 20
7882.001102421848
 30
0.0
 10
5508.880833820494
 20
7882.645614638574
 30
0.0
 10
5525.980654307743
 20
7883.341501167331
 30
0.0
 10
5545.333992215098
 20
7884.047215268369
 30
0.0
 10
5565.466187125644
 20
7884.689985318878
 30
0.0
 10
5584.946983828962
 20
7885.391229578976
 30
0.0
 10
5602.323996546787
 20
7886.092394616493
 30
0.0
 10
5616.429368813978
 20
7886.7353991964
 30
0.0
 10
5625.469946073514
 20
7887.401474351383
 30
0.0
 10
5629.876313462455
 20
7887.954548777279
 30
0.0
 10
5629.82067429061
 20
7888.25202514535
 30
0.0
 10
5629.799317722776
 20
7888.366208624782
 30
0.0
  0
SPLINE
  5
2B8
330
1F
100
AcDbEntity
  8
0
  6
Continuous
 62
     7
370
    25
100
AcDbSpline
210
0.0
220
0.0
230
1.0
 70
     8
 71
     3
 72
    20
 73
    16
 74
     0
 42
0.00000001
 43
0.00000001
 40
0.0
 40
0.0
 40
0.0
 40
0.0
 40
0.0045304114887026
 40
0.0923325091680604
 40
0.1807237828282399
 40
0.2671108349267684
 40
0.355099549760943
 40
0.4433831171564581
 40
0.5297197631832894
 40
0.6178690637691032
 40
0.7060183643549169
 40
0.792355010381748
 40
0.8806385777772631
 40
0.9541842513818205
 40
1.0
 40
1.0
 40
1.0
 40
1.0
 10
5482.658995125089
 20
7896.446335691858
 30
0.0
 10
5482.63599756172
 20
7896.457799578568
 30
0.0
 10
5482.167293397435
 20
7896.691440480146
 30
0.0
 10
5486.239532068129
 20
7897.167242138049
 30
0.0
 10
5495.047504391101
 20
7897.876102421848
 30
0.0
 10
5508.880833820494
 20
7898.520614638574
 30
0.0
 10
5525.980654307743
 20
7899.216501167331
 30
0.0
 10
5545.333992215097
 20
7899.92221526837
 30
0.0
 10
5565.466187125644
 20
7900.564985318878
 30
0.0
 10
5584.946983828962
 20
7901.266229578976
 30
0.0
 10
5602.323996546788
 20
7901.967394616493
 30
0.0
 10
5616.429368813979
 20
7902.6103991964
 30
0.0
 10
5625.469946073514
 20
7903.276474351382
 30
0.0
 10
5629.876313462455
 20
7903.829548777279
 30
0.0
 10
5629.82067429061
 20
7904.12702514535
 30
0.0
 10
5629.799317722776
 20
7904.241208624781
 30
0.0
  0
SPLINE
  5
2B9
330
1F
100
AcDbEntity
  8
0
  6
Continuous
 62
     7
370
    25
100
AcDbSpline
210
0.0
220
0.0
230
1.0
 70
     8
 71
     3
 72
    20
 73
    16
 74
     0
 42
0.00000001
 43
0.00000001
 40
0.0
 40
0.0
 40
0.0
 40
0.0
 40
0.0045304114887007
 40
0.0923325091680585
 40
0.180723782828238
 40
0.2671108349267663
 40
0.3550995497609409
 40
0.4433831171564563
 40
0.5297197631832875
 40
0.6178690637691013
 40
0.706018364354915
 40
0.7923550103817462
 40
0.8806385777772612
 40
0.9541842513818183
 40
1.0
 40
1.0
 40
1.0
 40
1.0
 10
5482.658995125089
 20
7912.321335691858
 30
0.0
 10
5482.63599756172
 20
7912.332799578568
 30
0.0
 10
5482.167293397434
 20
7912.566440480146
 30
0.0
 10
5486.23953206813
 20
7913.042242138049
 30
0.0
 10
5495.047504391101
 20
7913.751102421848
 30
0.0
 10
5508.880833820494
 20
7914.395614638574
 30
0.0
 10
5525.980654307743
 20
7915.091501167331
 30
0.0
 10
5545.333992215098
 20
7915.79721526837
 30
0.0
 10
5565.466187125645
 20
7916.439985318878
 30
0.0
 10
5584.946983828962
 20
7917.141229578976
 30
0.0
 10
5602.323996546788
 20
7917.842394616493
 30
0.0
 10
5616.429368813979
 20
7918.4853991964
 30
0.0
 10
5625.469946073515
 20
7919.151474351383
 30
0.0
 10
5629.876313462455
 20
7919.704548777279
 30
0.0
 10
5629.82067429061
 20
7920.002025145349
 30
0.0
 10
5629.799317722776
 20
7920.116208624781
 30
0.0
  0
SPLINE
  5
2BA
330
1F
100
AcDbEntity
  8
0
  6
Continuous
 62
     7
370
    25
100
AcDbSpline
210
0.0
220
0.0
230
1.0
 70
     8
 71
     3
 72
    20
 73
    16
 74
     0
 42
0.00000001
 43
0.00000001
 40
0.0
 40
0.0
 40
0.0
 40
0.0
 40
0.0045304114887006
 40
0.0923325091680583
 40
0.1807237828282377
 40
0.267110834926766
 40
0.3550995497609406
 40
0.4433831171564559
 40
0.5297197631832872
 40
0.6178690637691006
 40
0.7060183643549142
 40
0.7923550103817454
 40
0.8806385777772604
 40
0.9541842513818175
 40
0.9999999999999999
 40
0.9999999999999999
 40
0.9999999999999999
 40
0.9999999999999999
 10
5482.658995125089
 20
7928.196335691858
 30
0.0
 10
5482.63599756172
 20
7928.207799578568
 30
0.0
 10
5482.167293397435
 20
7928.441440480146
 30
0.0
 10
5486.239532068129
 20
7928.917242138049
 30
0.0
 10
5495.047504391101
 20
7929.626102421847
 30
0.0
 10
5508.880833820494
 20
7930.270614638574
 30
0.0
 10
5525.980654307743
 20
7930.966501167331
 30
0.0
 10
5545.333992215098
 20
7931.672215268369
 30
0.0
 10
5565.466187125645
 20
7932.314985318878
 30
0.0
 10
5584.946983828962
 20
7933.016229578976
 30
0.0
 10
5602.323996546788
 20
7933.717394616493
 30
0.0
 10
5616.429368813979
 20
7934.3603991964
 30
0.0
 10
5625.469946073515
 20
7935.026474351383
 30
0.0
 10
5629.876313462455
 20
7935.579548777279
 30
0.0
 10
5629.820674290611
 20
7935.87702514535
 30
0.0
 10
5629.799317722776
 20
7935.991208624782
 30
0.0
  0
SPLINE
  5
2BB
330
1F
100
AcDbEntity
  8
0
  6
Continuous
 62
     7
370
    25
100
AcDbSpline
210
0.0
220
0.0
230
1.0
 70
     8
 71
     3
 72
    20
 73
    16
 74
     0
 42
0.00000001
 43
0.00000001
 40
0.0
 40
0.0
 40
0.0
 40
0.0
 40
0.0045304114887006
 40
0.0923325091680584
 40
0.1807237828282379
 40
0.2671108349267665
 40
0.3550995497609408
 40
0.4433831171564562
 40
0.5297197631832875
 40
0.6178690637691013
 40
0.7060183643549149
 40
0.792355010381746
 40
0.8806385777772612
 40
0.9541842513818183
 40
1.0
 40
1.0
 40
1.0
 40
1.0
 10
5482.658995125089
 20
7944.071335691858
 30
0.0
 10
5482.63599756172
 20
7944.082799578568
 30
0.0
 10
5482.167293397435
 20
7944.316440480146
 30
0.0
 10
5486.239532068129
 20
7944.79224213805
 30
0.0
 10
5495.047504391101
 20
7945.501102421848
 30
0.0
 10
5508.880833820494
 20
7946.145614638574
 30
0.0
 10
5525.980654307744
 20
7946.841501167331
 30
0.0
 10
5545.333992215098
 20
7947.54721526837
 30
0.0
 10
5565.466187125645
 20
7948.189985318878
 30
0.0
 10
5584.946983828962
 20
7948.891229578976
 30
0.0
 10
5602.323996546788
 20
7949.592394616493
 30
0.0
 10
5616.429368813979
 20
7950.2353991964
 30
0.0
 10
5625.469946073515
 20
7950.901474351383
 30
0.0
 10
5629.876313462455
 20
7951.454548777279
 30
0.0
 10
5629.820674290611
 20
7951.75202514535
 30
0.0
 10
5629.799317722776
 20
7951.866208624781
 30
0.0
  0
LINE
  5
2BC
330
1F
100
AcDbEntity
  8
0
  6
Continuous
 62
     7
370
    25
100
AcDbLine
 10
5638.2973815927
 20
7947.0423100324
 30
0.0
 11
5638.7485880834
 21
7946.8130912599
 31
0.0
  0
SPLINE
  5
2BD
330
1F
100
AcDbEntity
  8
0
  6
Continuous
 62
     7
370
    25
100
AcDbSpline
210
0.0
220
0.0
230
1.0
 70
     8
 71
     3
 72
    18
 73
    14
 74
     0
 42
0.00000001
 43
0.00000001
 40
0.0
 40
0.0
 40
0.0
 40
0.0
 40
0.0329243687786849
 40
0.1349093678859403
 40
0.2387843346439249
 40
0.3430072221717892
 40
0.4449327414098868
 40
0.5489971967712038
 40
0.653061652132521
 40
0.7549871713706182
 40
0.8592100588984825
 40
0.9630850256564663
 40
1.0
 40
1.0
 40
1.0
 40
1.0
 10
5485.691526887932
 20
7876.81309125993
 30
0.0
 10
5486.720705391319
 20
7876.887447839264
 30
0.0
 10
5490.937819537594
 20
7877.192127913272
 30
0.0
 10
5503.574191001083
 20
7877.683309627476
 30
0.0
 10
5522.398013202313
 20
7878.38093294333
 30
0.0
 10
5544.072854248411
 20
7879.086184869162
 30
0.0
 10
5566.525909136449
 20
7879.729073013706
 30
0.0
 10
5588.279465122841
 20
7880.430272080949
 30
0.0
 10
5607.665625574492
 20
7881.131510947544
 30
0.0
 10
5623.447419884536
 20
7881.774281269933
 30
0.0
 10
5633.988531660973
 20
7882.479972242122
 30
0.0
 10
5638.995065668406
 20
7883.029914018118
 30
0.0
 10
5638.314542995924
 20
7883.329732328507
 30
0.0
 10
5638.136110667603
 20
7883.408344373865
 30
0.0
  0
SPLINE
  5
2BE
330
1F
100
AcDbEntity
  8
0
  6
Continuous
 62
     7
370
    25
100
AcDbSpline
210
0.0
220
0.0
230
1.0
 70
     8
 71
     3
 72
    20
 73
    16
 74
     0
 42
0.00000001
 43
0.00000001
 40
0.0
 40
0.0
 40
0.0
 40
0.0
 40
0.0229512631766343
 40
0.1091374982210759
 40
0.1959017887310684
 40
0.280699660490946
 40
0.3670689911504631
 40
0.4537276088726381
 40
0.5384760246697634
 40
0.6250029101699534
 40
0.7115297956701431
 40
0.7962782114672684
 40
0.882936829189443
 40
0.9693061598489597
 40
0.9999999999999999
 40
0.9999999999999999
 40
0.9999999999999999
 40
0.9999999999999999
 10
5474.388064218063
 20
7891.342200223859
 30
0.0
 10
5474.218064680439
 20
7891.401240629237
 30
0.0
 10
5473.409685459991
 20
7891.681988668563
 30
0.0
 10
5477.961130351319
 20
7892.205865568336
 30
0.0
 10
5487.959521539368
 20
7892.915284385236
 30
0.0
 10
5503.357127009782
 20
7893.559642139632
 30
0.0
 10
5522.456885248421
 20
7894.255571539687
 30
0.0
 10
5544.057455153978
 20
7894.961279401104
 30
0.0
 10
5566.530092240623
 20
7895.60404733447
 30
0.0
 10
5588.278333705318
 20
7896.305279026495
 30
0.0
 10
5607.665921630202
 20
7897.006509130117
 30
0.0
 10
5623.447339109887
 20
7897.649281765792
 30
0.0
 10
5633.988554034677
 20
7898.354972104775
 30
0.0
 10
5638.995063998304
 20
7898.904914028371
 30
0.0
 10
5638.314542648991
 20
7899.204732330636
 30
0.0
 10
5638.136110667604
 20
7899.283344373865
 30
0.0
  0
SPLINE
  5
2BF
330
1F
100
AcDbEntity
  8
0
  6
Continuous
 62
     7
370
    25
100
AcDbSpline
210
0.0
220
0.0
230
1.0
 70
     8
 71
     3
 72
    20
 73
    16
 74
     0
 42
0.00000001
 43
0.00000001
 40
0.0
 40
0.0
 40
0.0
 40
0.0
 40
0.0229512631766331
 40
0.1091374982210748
 40
0.1959017887310676
 40
0.2806996604909451
 40
0.3670689911504626
 40
0.4537276088726375
 40
0.5384760246697632
 40
0.6250029101699531
 40
0.7115297956701432
 40
0.7962782114672686
 40
0.8829368291894433
 40
0.9693061598489601
 40
0.9999999999999999
 40
0.9999999999999999
 40
0.9999999999999999
 40
0.9999999999999999
 10
5474.388064218063
 20
7907.217200223859
 30
0.0
 10
5474.218064680439
 20
7907.276240629237
 30
0.0
 10
5473.409685459991
 20
7907.556988668562
 30
0.0
 10
5477.961130351319
 20
7908.080865568335
 30
0.0
 10
5487.959521539368
 20
7908.790284385237
 30
0.0
 10
5503.357127009782
 20
7909.434642139632
 30
0.0
 10
5522.456885248421
 20
7910.130571539687
 30
0.0
 10
5544.057455153979
 20
7910.836279401103
 30
0.0
 10
5566.530092240624
 20
7911.47904733447
 30
0.0
 10
5588.278333705318
 20
7912.180279026494
 30
0.0
 10
5607.665921630202
 20
7912.881509130118
 30
0.0
 10
5623.447339109887
 20
7913.524281765792
 30
0.0
 10
5633.988554034677
 20
7914.229972104774
 30
0.0
 10
5638.995063998304
 20
7914.77991402837
 30
0.0
 10
5638.314542648991
 20
7915.079732330637
 30
0.0
 10
5638.136110667604
 20
7915.158344373865
 30
0.0
  0
SPLINE
  5
2C0
330
1F
100
AcDbEntity
  8
0
  6
Continuous
 62
     7
370
    25
100
AcDbSpline
210
0.0
220
0.0
230
1.0
 70
     8
 71
     3
 72
    20
 73
    16
 74
     0
 42
0.00000001
 43
0.00000001
 40
0.0
 40
0.0
 40
0.0
 40
0.0
 40
0.0229512631766331
 40
0.1091374982210749
 40
0.1959017887310676
 40
0.2806996604909452
 40
0.3670689911504627
 40
0.4537276088726376
 40
0.5384760246697631
 40
0.6250029101699532
 40
0.7115297956701431
 40
0.7962782114672685
 40
0.8829368291894433
 40
0.9693061598489601
 40
1.0
 40
1.0
 40
1.0
 40
1.0
 10
5474.388064218064
 20
7923.092200223859
 30
0.0
 10
5474.218064680439
 20
7923.151240629237
 30
0.0
 10
5473.409685459991
 20
7923.431988668562
 30
0.0
 10
5477.961130351319
 20
7923.955865568336
 30
0.0
 10
5487.959521539368
 20
7924.665284385236
 30
0.0
 10
5503.357127009782
 20
7925.309642139632
 30
0.0
 10
5522.456885248421
 20
7926.005571539687
 30
0.0
 10
5544.057455153979
 20
7926.711279401104
 30
0.0
 10
5566.530092240624
 20
7927.354047334471
 30
0.0
 10
5588.278333705318
 20
7928.055279026494
 30
0.0
 10
5607.665921630202
 20
7928.756509130118
 30
0.0
 10
5623.447339109887
 20
7929.399281765791
 30
0.0
 10
5633.988554034677
 20
7930.104972104775
 30
0.0
 10
5638.995063998304
 20
7930.65491402837
 30
0.0
 10
5638.314542648991
 20
7930.954732330637
 30
0.0
 10
5638.136110667604
 20
7931.033344373865
 30
0.0
  0
SPLINE
  5
2C1
330
1F
100
AcDbEntity
  8
0
  6
Continuous
 62
     7
370
    25
100
AcDbSpline
210
0.0
220
0.0
230
1.0
 70
     8
 71
     3
 72
    20
 73
    16
 74
     0
 42
0.00000001
 43
0.00000001
 40
0.0
 40
0.0
 40
0.0
 40
0.0
 40
0.0232366020359695
 40
0.1104943372330966
 40
0.198337314501841
 40
0.2841894257524128
 40
0.3716325328791499
 40
0.4593685235956662
 40
0.5451705640280902
 40
0.6327731847773839
 40
0.7203758055266777
 40
0.8061778459591017
 40
0.8939138366756175
 40
0.9813569438023542
 40
1.0
 40
1.0
 40
1.0
 40
1.0
 10
5474.388064218064
 20
7938.967200223859
 30
0.0
 10
5474.218064695598
 20
7939.026240629197
 30
0.0
 10
5473.409685547228
 20
7939.306988668334
 30
0.0
 10
5477.961128722244
 20
7939.830865572598
 30
0.0
 10
5487.959527398241
 20
7940.540284369908
 30
0.0
 10
5503.35710558653
 20
7941.184642195679
 30
0.0
 10
5522.456967014928
 20
7941.880571325772
 30
0.0
 10
5544.05715188762
 20
7942.5862801945
 30
0.0
 10
5566.531205913077
 20
7943.229044420914
 30
0.0
 10
5588.274077045212
 20
7943.930290162641
 30
0.0
 10
5607.68165961577
 20
7944.631467956872
 30
0.0
 10
5623.389403450486
 20
7945.274433335321
 30
0.0
 10
5634.210046993676
 20
7945.97939264156
 30
0.0
 10
5638.143929543869
 20
7946.498202453642
 30
0.0
 10
5638.658210839207
 20
7946.76602538608
 30
0.0
 10
5638.74858808342
 20
7946.813091259932
 30
0.0
  0
LINE
  5
2C2
330
1F
100
AcDbEntity
  8
0
  6
Continuous
 62
     7
370
    25
100
AcDbLine
 10
5638.8107940846
 20
7946.8130912599
 30
0.0
 11
5638.7485880834
 21
7946.8130912599
 31
0.0
  0
LINE
  5
2C3
330
1F
100
AcDbEntity
  8
0
  6
Continuous
 62
     7
370
    25
100
AcDbLine
 10
5556.3107940846
 20
7956.8130912599
 30
0.0
 11
5628.8107940846
 21
7956.8130912599
 31
0.0
  0
LINE
  5
2C4
330
1F
100
AcDbEntity
  8
0
  6
Continuous
 62
     7
370
    25
100
AcDbLine
 10
5483.8107940846
 20
7956.8130912599
 30
0.0
 11
5556.3107940846
 21
7956.8130912599
 31
0.0
  0
LINE
  5
2C5
330
1F
100
AcDbEntity
  8
0
  6
Continuous
 62
     7
370
    25
100
AcDbLine
 10
6031.1142027328
 20
6961.7862457597
 30
0.0
 11
6031.3107940846
 21
6962.0277237457
 31
0.0
  0
LINE
  5
2C6
330
1F
100
AcDbEntity
  8
0
  6
Continuous
 62
     7
370
    25
100
AcDbLine
 10
6031.3107940846
 20
7129.7730748587
 30
0.0
 11
6026.3107940846
 21
7129.7730748587
 31
0.0
  0
LINE
  5
2C7
330
1F
100
AcDbEntity
  8
0
  6
Continuous
 62
     7
370
    25
100
AcDbLine
 10
6031.3107940846
 20
7299.7730748587
 30
0.0
 11
6026.3107940846
 21
7299.7730748587
 31
0.0
  0
LINE
  5
2C8
330
1F
100
AcDbEntity
  8
0
  6
Continuous
 62
     7
370
    25
100
AcDbLine
 10
6027.4529297096
 20
7002.7730748587
 30
0.0
 11
6026.9938517584
 21
7129.7730748587
 31
0.0
  0
LINE
  5
2C9
330
1F
100
AcDbEntity
  8
0
  6
Continuous
 62
     7
370
    25
100
AcDbLine
 10
6026.3793379654
 20
7299.7730748587
 30
0.0
 11
6026.3107940846
 21
7318.7351548921
 31
0.0
  0
LINE
  5
2CA
330
1F
100
AcDbEntity
  8
0
  6
Continuous
 62
     7
370
    25
100
AcDbLine
 10
6026.3107940846
 20
7002.7730748587
 30
0.0
 11
6027.4529297096
 21
7002.7730748587
 31
0.0
  0
LINE
  5
2CB
330
1F
100
AcDbEntity
  8
0
  6
Continuous
 62
     7
370
    25
100
AcDbLine
 10
6026.3107940846
 20
7402.7468942553
 30
0.0
 11
6031.3107940846
 21
7402.7032599163
 31
0.0
  0
LINE
  5
2CC
330
1F
100
AcDbEntity
  8
0
  6
Continuous
 62
     7
370
    25
100
AcDbLine
 10
6027.4529297096
 20
7002.7730748587
 30
0.0
 11
6031.3107940846
 21
7002.7730748587
 31
0.0
  0
LINE
  5
2CD
330
1F
100
AcDbEntity
  8
0
  6
Continuous
 62
     7
370
    25
100
AcDbLine
 10
6131.5607940846
 20
6811.1702938587
 30
0.0
 11
6131.3107940846
 21
6811.1702938587
 31
0.0
  0
LINE
  5
2CE
330
1F
100
AcDbEntity
  8
0
  6
Continuous
 62
     7
370
    25
100
AcDbLine
 10
6131.5607940846
 20
6804.1741708587
 30
0.0
 11
6131.5607940846
 21
6811.1702938587
 31
0.0
  0
LINE
  5
2CF
330
1F
100
AcDbEntity
  8
0
  6
Continuous
 62
     7
370
    25
100
AcDbLine
 10
6131.5607940846
 20
6804.1741708587
 30
0.0
 11
6131.3107940846
 21
6804.1741708587
 31
0.0
  0
LINE
  5
2D0
330
1F
100
AcDbEntity
  8
0
  6
Continuous
 62
     7
370
    25
100
AcDbLine
 10
6131.5607940846
 20
6822.3510888587
 30
0.0
 11
6131.3107940846
 21
6822.3510888587
 31
0.0
  0
LINE
  5
2D1
330
1F
100
AcDbEntity
  8
0
  6
Continuous
 62
     7
370
    25
100
AcDbLine
 10
6131.5607940846
 20
6822.3485788587
 30
0.0
 11
6131.3107940846
 21
6822.3485788587
 31
0.0
  0
LINE
  5
2D2
330
1F
100
AcDbEntity
  8
0
  6
Continuous
 62
     7
370
    25
100
AcDbLine
 10
6131.5607940846
 20
6822.3485788587
 30
0.0
 11
6131.5607940846
 21
6822.3510888587
 31
0.0
  0
LINE
  5
2D3
330
1F
100
AcDbEntity
  8
0
  6
Continuous
 62
     7
370
    25
100
AcDbLine
 10
6131.5607940846
 20
6822.3510888587
 30
0.0
 11
6131.5607940846
 21
6829.2109188587
 31
0.0
  0
LINE
  5
2D4
330
1F
100
AcDbEntity
  8
0
  6
Continuous
 62
     7
370
    25
100
AcDbLine
 10
6131.5607940846
 20
6829.2109188587
 30
0.0
 11
6131.3107940846
 21
6829.2109188587
 31
0.0
  0
LINE
  5
2D5
330
1F
100
AcDbEntity
  8
0
  6
Continuous
 62
     7
370
    25
100
AcDbLine
 10
6131.5607940846
 20
6832.2161418587
 30
0.0
 11
6131.3107940846
 21
6832.2161418587
 31
0.0
  0
LINE
  5
2D6
330
1F
100
AcDbEntity
  8
0
  6
Continuous
 62
     7
370
    25
100
AcDbLine
 10
6131.5607940846
 20
6829.2109188587
 30
0.0
 11
6131.5607940846
 21
6832.2161418587
 31
0.0
  0
LINE
  5
2D7
330
1F
100
AcDbEntity
  8
0
  6
Continuous
 62
     7
370
    25
100
AcDbLine
 10
6131.5607940846
 20
6811.1702938587
 30
0.0
 11
6131.5607940846
 21
6822.3485788587
 31
0.0
  0
LINE
  5
2D8
330
1F
100
AcDbEntity
  8
0
  6
Continuous
 62
     7
370
    25
100
AcDbLine
 10
6131.5607940846
 20
6834.6380408587
 30
0.0
 11
6131.3107940846
 21
6834.6380408587
 31
0.0
  0
LINE
  5
2D9
330
1F
100
AcDbEntity
  8
0
  6
Continuous
 62
     7
370
    25
100
AcDbLine
 10
6131.5607940846
 20
6832.2161418587
 30
0.0
 11
6131.5607940846
 21
6833.7297048101
 31
0.0
  0
LINE
  5
2DA
330
1F
100
AcDbEntity
  8
0
  6
Continuous
 62
     7
370
    25
100
AcDbLine
 10
6131.5607940846
 20
6849.0808318587
 30
0.0
 11
6131.3107940846
 21
6849.0808318587
 31
0.0
  0
LINE
  5
2DB
330
1F
100
AcDbEntity
  8
0
  6
Continuous
 62
     7
370
    25
100
AcDbLine
 10
6131.5607940846
 20
6834.9615798587
 30
0.0
 11
6131.3107940846
 21
6834.9615798587
 31
0.0
  0
LINE
  5
2DC
330
1F
100
AcDbEntity
  8
0
  6
Continuous
 62
     7
370
    25
100
AcDbLine
 10
6131.5607940846
 20
6864.7023188587
 30
0.0
 11
6131.5607940846
 21
6849.0808318587
 31
0.0
  0
LINE
  5
2DD
330
1F
100
AcDbEntity
  8
0
  6
Continuous
 62
     7
370
    25
100
AcDbLine
 10
6131.5607940846
 20
6864.7023188587
 30
0.0
 11
6131.3107940846
 21
6864.7023188587
 31
0.0
  0
LINE
  5
2DE
330
1F
100
AcDbEntity
  8
0
  6
Continuous
 62
     7
370
    25
100
AcDbLine
 10
6131.5607940846
 20
6681.8209578587
 30
0.0
 11
6131.3107940846
 21
6681.8209578587
 31
0.0
  0
LINE
  5
2DF
330
1F
100
AcDbEntity
  8
0
  6
Continuous
 62
     7
370
    25
100
AcDbLine
 10
6131.5607940846
 20
6804.1741708587
 30
0.0
 11
6131.5607940846
 21
6798.2272278587
 31
0.0
  0
LINE
  5
2E0
330
1F
100
AcDbEntity
  8
0
  6
Continuous
 62
     7
370
    25
100
AcDbLine
 10
6131.5607940846
 20
6739.4299758587
 30
0.0
 11
6131.5607940846
 21
6736.0050808587
 31
0.0
  0
LINE
  5
2E1
330
1F
100
AcDbEntity
  8
0
  6
Continuous
 62
     7
370
    25
100
AcDbLine
 10
6131.5607940846
 20
6712.8048998587
 30
0.0
 11
6131.5607940846
 21
6712.2848278587
 31
0.0
  0
LINE
  5
2E2
330
1F
100
AcDbEntity
  8
0
  6
Continuous
 62
     7
370
    25
100
AcDbLine
 10
6131.5607940846
 20
6681.8212088587
 30
0.0
 11
6131.5607940846
 21
6681.8209578587
 31
0.0
  0
LINE
  5
2E3
330
1F
100
AcDbEntity
  8
0
  6
Continuous
 62
     7
370
    25
100
AcDbLine
 10
6131.5607940846
 20
6798.2272278587
 30
0.0
 11
6131.3107940846
 21
6798.2272278587
 31
0.0
  0
LINE
  5
2E4
330
1F
100
AcDbEntity
  8
0
  6
Continuous
 62
     7
370
    25
100
AcDbLine
 10
6131.5607940846
 20
6790.9060598587
 30
0.0
 11
6131.5607940846
 21
6798.2272278587
 31
0.0
  0
LINE
  5
2E5
330
1F
100
AcDbEntity
  8
0
  6
Continuous
 62
     7
370
    25
100
AcDbLine
 10
6131.5607940846
 20
6790.9060598587
 30
0.0
 11
6131.3107940846
 21
6790.9060598587
 31
0.0
  0
LINE
  5
2E6
330
1F
100
AcDbEntity
  8
0
  6
Continuous
 62
     7
370
    25
100
AcDbLine
 10
6131.5607940846
 20
6767.5040748587
 30
0.0
 11
6131.5607940846
 21
6775.4148418587
 31
0.0
  0
LINE
  5
2E7
330
1F
100
AcDbEntity
  8
0
  6
Continuous
 62
     7
370
    25
100
AcDbLine
 10
6131.5607940846
 20
6775.4148418587
 30
0.0
 11
6131.3107940846
 21
6775.4148418587
 31
0.0
  0
LINE
  5
2E8
330
1F
100
AcDbEntity
  8
0
  6
Continuous
 62
     7
370
    25
100
AcDbLine
 10
6131.5607940846
 20
6767.5040748587
 30
0.0
 11
6131.3107940846
 21
6767.5040748587
 31
0.0
  0
LINE
  5
2E9
330
1F
100
AcDbEntity
  8
0
  6
Continuous
 62
     7
370
    25
100
AcDbLine
 10
6131.5607940846
 20
6761.5588888587
 30
0.0
 11
6131.3107940846
 21
6761.5588888587
 31
0.0
  0
LINE
  5
2EA
330
1F
100
AcDbEntity
  8
0
  6
Continuous
 62
     7
370
    25
100
AcDbLine
 10
6131.5607940846
 20
6741.9482588587
 30
0.0
 11
6131.5607940846
 21
6761.5588888587
 31
0.0
  0
LINE
  5
2EB
330
1F
100
AcDbEntity
  8
0
  6
Continuous
 62
     7
370
    25
100
AcDbLine
 10
6131.5607940846
 20
6741.9482588587
 30
0.0
 11
6131.3107940846
 21
6741.9482588587
 31
0.0
  0
LINE
  5
2EC
330
1F
100
AcDbEntity
  8
0
  6
Continuous
 62
     7
370
    25
100
AcDbLine
 10
6131.5607940846
 20
6775.4148418587
 30
0.0
 11
6131.5607940846
 21
6790.9060598587
 31
0.0
  0
LINE
  5
2ED
330
1F
100
AcDbEntity
  8
0
  6
Continuous
 62
     7
370
    25
100
AcDbLine
 10
6131.5607940846
 20
6761.5588888587
 30
0.0
 11
6131.5607940846
 21
6767.5040748587
 31
0.0
  0
LINE
  5
2EE
330
1F
100
AcDbEntity
  8
0
  6
Continuous
 62
     7
370
    25
100
AcDbLine
 10
6131.5607940846
 20
6739.4299758587
 30
0.0
 11
6131.3107940846
 21
6739.4299758587
 31
0.0
  0
LINE
  5
2EF
330
1F
100
AcDbEntity
  8
0
  6
Continuous
 62
     7
370
    25
100
AcDbLine
 10
6131.5607940846
 20
6739.4299758587
 30
0.0
 11
6131.5607940846
 21
6741.9482588587
 31
0.0
  0
LINE
  5
2F0
330
1F
100
AcDbEntity
  8
0
  6
Continuous
 62
     7
370
    25
100
AcDbLine
 10
6131.5607940846
 20
6652.3103858587
 30
0.0
 11
6131.3107940846
 21
6652.3103858587
 31
0.0
  0
LINE
  5
2F1
330
1F
100
AcDbEntity
  8
0
  6
Continuous
 62
     7
370
    25
100
AcDbLine
 10
6131.5607940846
 20
6630.5075218587
 30
0.0
 11
6131.3107940846
 21
6630.5075218587
 31
0.0
  0
LINE
  5
2F2
330
1F
100
AcDbEntity
  8
0
  6
Continuous
 62
     7
370
    25
100
AcDbLine
 10
6131.5607940846
 20
6672.8010218587
 30
0.0
 11
6131.3107940846
 21
6672.8010218587
 31
0.0
  0
LINE
  5
2F3
330
1F
100
AcDbEntity
  8
0
  6
Continuous
 62
     7
370
    25
100
AcDbLine
 10
6131.5607940846
 20
6622.4494178587
 30
0.0
 11
6131.3107940846
 21
6622.4494178587
 31
0.0
  0
LINE
  5
2F4
330
1F
100
AcDbEntity
  8
0
  6
Continuous
 62
     7
370
    25
100
AcDbLine
 10
6131.5607940846
 20
6621.6730748587
 30
0.0
 11
6131.3107940846
 21
6621.6730748587
 31
0.0
  0
LINE
  5
2F5
330
1F
100
AcDbEntity
  8
0
  6
Continuous
 62
     7
370
    25
100
AcDbLine
 10
6131.5607940846
 20
6620.3819308587
 30
0.0
 11
6131.3107940846
 21
6620.3819308587
 31
0.0
  0
LINE
  5
2F6
330
1F
100
AcDbEntity
  8
0
  6
Continuous
 62
     7
370
    25
100
AcDbLine
 10
6131.5607940846
 20
6618.7659928587
 30
0.0
 11
6131.3107940846
 21
6618.7659928587
 31
0.0
  0
LINE
  5
2F7
330
1F
100
AcDbEntity
  8
0
  6
Continuous
 62
     7
370
    25
100
AcDbLine
 10
6131.5607940846
 20
6617.8365398587
 30
0.0
 11
6131.3107940846
 21
6617.8365398587
 31
0.0
  0
LINE
  5
2F8
330
1F
100
AcDbEntity
  8
0
  6
Continuous
 62
     7
370
    25
100
AcDbLine
 10
6131.5607940846
 20
6626.269512897
 30
0.0
 11
6131.5607940846
 21
6614.7592798587
 31
0.0
  0
LINE
  5
2F9
330
1F
100
AcDbEntity
  8
0
  6
Continuous
 62
     7
370
    25
100
AcDbLine
 10
6131.5607940846
 20
6736.0050808587
 30
0.0
 11
6131.3107940846
 21
6736.0050808587
 31
0.0
  0
LINE
  5
2FA
330
1F
100
AcDbEntity
  8
0
  6
Continuous
 62
     7
370
    25
100
AcDbLine
 10
6131.5607940846
 20
6712.8048998587
 30
0.0
 11
6131.5607940846
 21
6736.0050808587
 31
0.0
  0
LINE
  5
2FB
330
1F
100
AcDbEntity
  8
0
  6
Continuous
 62
     7
370
    25
100
AcDbLine
 10
6131.5607940846
 20
6712.8048998587
 30
0.0
 11
6131.3107940846
 21
6712.8048998587
 31
0.0
  0
LINE
  5
2FC
330
1F
100
AcDbEntity
  8
0
  6
Continuous
 62
     7
370
    25
100
AcDbLine
 10
6131.5607940846
 20
6681.8212088587
 30
0.0
 11
6131.5607940846
 21
6688.8183358587
 31
0.0
  0
LINE
  5
2FD
330
1F
100
AcDbEntity
  8
0
  6
Continuous
 62
     7
370
    25
100
AcDbLine
 10
6131.5607940846
 20
6681.8212088587
 30
0.0
 11
6131.3107940846
 21
6681.8212088587
 31
0.0
  0
LINE
  5
2FE
330
1F
100
AcDbEntity
  8
0
  6
Continuous
 62
     7
370
    25
100
AcDbLine
 10
6131.5607940846
 20
6688.8183358587
 30
0.0
 11
6131.3107940846
 21
6688.8183358587
 31
0.0
  0
LINE
  5
2FF
330
1F
100
AcDbEntity
  8
0
  6
Continuous
 62
     7
370
    25
100
AcDbLine
 10
6131.5607940846
 20
6699.9988798587
 30
0.0
 11
6131.3107940846
 21
6699.9988798587
 31
0.0
  0
LINE
  5
300
330
1F
100
AcDbEntity
  8
0
  6
Continuous
 62
     7
370
    25
100
AcDbLine
 10
6131.5607940846
 20
6699.9963698587
 30
0.0
 11
6131.3107940846
 21
6699.9963698587
 31
0.0
  0
LINE
  5
301
330
1F
100
AcDbEntity
  8
0
  6
Continuous
 62
     7
370
    25
100
AcDbLine
 10
6131.5607940846
 20
6699.9963698587
 30
0.0
 11
6131.5607940846
 21
6699.9988798587
 31
0.0
  0
LINE
  5
302
330
1F
100
AcDbEntity
  8
0
  6
Continuous
 62
     7
370
    25
100
AcDbLine
 10
6131.5607940846
 20
6699.9988798587
 30
0.0
 11
6131.5607940846
 21
6706.8587098587
 31
0.0
  0
LINE
  5
303
330
1F
100
AcDbEntity
  8
0
  6
Continuous
 62
     7
370
    25
100
AcDbLine
 10
6131.5607940846
 20
6706.8587098587
 30
0.0
 11
6131.3107940846
 21
6706.8587098587
 31
0.0
  0
LINE
  5
304
330
1F
100
AcDbEntity
  8
0
  6
Continuous
 62
     7
370
    25
100
AcDbLine
 10
6131.5607940846
 20
6688.8183358587
 30
0.0
 11
6131.5607940846
 21
6699.9963698587
 31
0.0
  0
LINE
  5
305
330
1F
100
AcDbEntity
  8
0
  6
Continuous
 62
     7
370
    25
100
AcDbLine
 10
6131.5607940846
 20
6709.8631798587
 30
0.0
 11
6131.3107940846
 21
6709.8631798587
 31
0.0
  0
LINE
  5
306
330
1F
100
AcDbEntity
  8
0
  6
Continuous
 62
     7
370
    25
100
AcDbLine
 10
6131.5607940846
 20
6706.8587098587
 30
0.0
 11
6131.5607940846
 21
6709.8631798587
 31
0.0
  0
LINE
  5
307
330
1F
100
AcDbEntity
  8
0
  6
Continuous
 62
     7
370
    25
100
AcDbLine
 10
6131.5607940846
 20
6712.2848278587
 30
0.0
 11
6131.3107940846
 21
6712.2848278587
 31
0.0
  0
LINE
  5
308
330
1F
100
AcDbEntity
  8
0
  6
Continuous
 62
     7
370
    25
100
AcDbLine
 10
6131.5607940846
 20
6709.8631798587
 30
0.0
 11
6131.5607940846
 21
6712.2848278587
 31
0.0
  0
ARC
  5
309
330
1F
100
AcDbEntity
  8
0
  6
Continuous
 62
     7
370
    25
100
AcDbCircle
 10
6031.3107940846
 20
6464.7730748587
 30
0.0
 40
100.0000000000009
100
AcDbArc
 50
270.0
 51
0.0
  0
LINE
  5
30A
330
1F
100
AcDbEntity
  8
0
  6
Continuous
 62
     7
370
    25
100
AcDbLine
 10
6031.3107940846
 20
6464.7730748587
 30
0.0
 11
6031.3107940846
 21
6364.7730748587
 31
0.0
  0
LINE
  5
30B
330
1F
100
AcDbEntity
  8
0
  6
Continuous
 62
     7
370
    25
100
AcDbLine
 10
6131.3107940846
 20
6464.7730748587
 30
0.0
 11
6031.3107940846
 21
6464.7730748587
 31
0.0
  0
LINE
  5
30C
330
1F
100
AcDbEntity
  8
0
  6
Continuous
 62
     7
370
    25
100
AcDbLine
 10
6131.3107940846
 20
7964.7730748587
 30
0.0
 11
6131.3107940846
 21
6464.7730748587
 31
0.0
  0
LINE
  5
30D
330
1F
100
AcDbEntity
  8
0
  6
Continuous
 62
     7
370
    25
100
AcDbLine
 10
6031.3107940846
 20
7964.7730748587
 30
0.0
 11
6031.3107940846
 21
6464.7730748587
 31
0.0
  0
LINE
  5
30E
330
1F
100
AcDbEntity
  8
0
  6
Continuous
 62
     7
370
    25
100
AcDbLine
 10
6131.3107940846
 20
7964.7730748587
 30
0.0
 11
6031.3107940846
 21
7964.7730748587
 31
0.0
  0
ARC
  5
30F
330
1F
100
AcDbEntity
  8
0
  6
Continuous
 62
     7
370
    25
100
AcDbCircle
 10
6031.3107940846
 20
7964.7730748587
 30
0.0
 40
100.0000000000009
100
AcDbArc
 50
0.0
 51
90.0
  0
LINE
  5
310
330
1F
100
AcDbEntity
  8
0
  6
Continuous
 62
     7
370
    25
100
AcDbLine
 10
6031.3107940846
 20
8064.7730748587
 30
0.0
 11
6031.3107940846
 21
7964.7730748587
 31
0.0
  0
ENDSEC
  0
SECTION
  2
OBJECTS
  0
DICTIONARY
  5
C
330
0
100
AcDbDictionary
281
     1
  3
ACAD_GROUP
350
D
  3
ACAD_LAYOUT
350
1A
  3
ACAD_MLINESTYLE
350
17
  3
ACAD_PLOTSETTINGS
350
19
  3
ACAD_PLOTSTYLENAME
350
E
  3
ACAD_SCALELIST
350
47
  3
DWGPROPS
350
311
  0
DICTIONARY
  5
D
102
{ACAD_REACTORS
330
C
102
}
330
C
100
AcDbDictionary
281
     1
  0
DICTIONARY
  5
1A
102
{ACAD_REACTORS
330
C
102
}
330
C
100
AcDbDictionary
281
     1
  3
Layout1
350
1E
  3
Layout2
350
26
  3
Model
350
22
  0
DICTIONARY
  5
17
102
{ACAD_REACTORS
330
C
102
}
330
C
100
AcDbDictionary
281
     1
  3
Standard
350
18
  0
DICTIONARY
  5
19
102
{ACAD_REACTORS
330
C
102
}
330
C
100
AcDbDictionary
281
     1
  0
ACDBDICTIONARYWDFLT
  5
E
102
{ACAD_REACTORS
330
C
102
}
330
C
100
AcDbDictionary
281
     1
  3
Normal
350
F
100
AcDbDictionaryWithDefault
340
F
  0
DICTIONARY
  5
47
102
{ACAD_REACTORS
330
C
102
}
330
C
100
AcDbDictionary
281
     1
  3
A0
350
48
  3
A1
350
49
  3
A2
350
4A
  3
A3
350
4B
  3
A4
350
4C
  3
A5
350
4D
  3
A6
350
4E
  3
A7
350
4F
  3
A8
350
50
  3
A9
350
51
  3
B0
350
52
  3
B1
350
53
  3
B2
350
54
  3
B3
350
55
  3
B4
350
56
  3
B5
350
57
  3
B6
350
58
  3
B7
350
59
  3
B8
350
5A
  3
B9
350
5B
  3
C0
350
5C
  3
C1
350
5D
  3
C2
350
5E
  3
C3
350
5F
  3
C4
350
60
  3
C5
350
61
  3
C6
350
62
  3
C7
350
63
  3
C8
350
64
  3
C9
350
65
  3
D0
350
66
  3
D1
350
67
  3
D2
350
68
  0
XRECORD
  5
311
102
{ACAD_REACTORS
330
C
102
}
330
C
100
AcDbXrecord
280
     1
  1
DWGPROPS COOKIE
  2

  3

  4

  6

  7

  8
radek.stransky
  9

300
=
301
=
302
=
303
=
304
=
305
=
306
=
307
=
308
=
309
=
 40
0.0
 41
2459089.224109954
 42
2459089.224110995
  1

 90
        0
  0
LAYOUT
  5
1E
102
{ACAD_REACTORS
330
1A
102
}
330
1A
100
AcDbPlotSettings
  1

  2
none_device
  4

  6

 40
0.0
 41
0.0
 42
0.0
 43
0.0
 44
0.0
 45
0.0
 46
0.0
 47
0.0
 48
0.0
 49
0.0
140
0.0
141
0.0
142
1.0
143
1.0
 70
   688
 72
     1
 73
     0
 74
     5
  7

 75
    16
147
1.0
148
0.0
149
0.0
100
AcDbLayout
  1
Layout1
 70
     1
 71
     1
 10
0.0
 20
0.0
 11
420.0
 21
297.0
 12
0.0
 22
0.0
 32
0.0
 14
1.0000000000E+20
 24
1.0000000000E+20
 34
1.0000000000E+20
 15
-1.0000000000E+20
 25
-1.0000000000E+20
 35
-1.0000000000E+20
146
0.0
 13
0.0
 23
0.0
 33
0.0
 16
1.0
 26
0.0
 36
0.0
 17
0.0
 27
1.0
 37
0.0
 76
     0
330
1B
  0
LAYOUT
  5
26
102
{ACAD_REACTORS
330
1A
102
}
330
1A
100
AcDbPlotSettings
  1

  2
none_device
  4

  6

 40
0.0
 41
0.0
 42
0.0
 43
0.0
 44
0.0
 45
0.0
 46
0.0
 47
0.0
 48
0.0
 49
0.0
140
0.0
141
0.0
142
1.0
143
1.0
 70
   688
 72
     1
 73
     0
 74
     5
  7

 75
    16
147
1.0
148
0.0
149
0.0
100
AcDbLayout
  1
Layout2
 70
     1
 71
     2
 10
0.0
 20
0.0
 11
0.0
 21
0.0
 12
0.0
 22
0.0
 32
0.0
 14
0.0
 24
0.0
 34
0.0
 15
0.0
 25
0.0
 35
0.0
146
0.0
 13
0.0
 23
0.0
 33
0.0
 16
1.0
 26
0.0
 36
0.0
 17
0.0
 27
1.0
 37
0.0
 76
     0
330
23
  0
LAYOUT
  5
22
102
{ACAD_REACTORS
330
1A
102
}
330
1A
100
AcDbPlotSettings
  1

  2
none_device
  4
Letter_(8.50_x_11.00_Inches)
  6

 40
6.35
 41
6.35
 42
6.35000508
 43
6.35000508
 44
215.9
 45
279.4
 46
0.0
 47
0.0
 48
0.0
 49
0.0
140
0.0
141
0.0
142
1.0
143
1.0
 70
  1712
 72
     1
 73
     0
 74
     0
  7

 75
     0
147
1.0
148
0.0
149
0.0
100
AcDbLayout
  1
Model
 70
     1
 71
     0
 10
0.0
 20
0.0
 11
20000.0
 21
10000.0
 12
0.0
 22
0.0
 32
0.0
 14
0.0
 24
0.0
 34
0.0
 15
20000.0
 25
10000.0
 35
0.0
146
0.0
 13
0.0
 23
0.0
 33
0.0
 16
1.0
 26
0.0
 36
0.0
 17
0.0
 27
1.0
 37
0.0
 76
     0
330
1F
331
29
  0
MLINESTYLE
  5
18
102
{ACAD_REACTORS
330
17
102
}
330
17
100
AcDbMlineStyle
  2
Standard
 70
     0
  3

 62
   256
 51
90.0
 52
90.0
 71
     2
 49
0.5
 62
   256
  6
BYLAYER
 49
-0.5
 62
   256
  6
BYLAYER
  0
ACDBPLACEHOLDER
  5
F
102
{ACAD_REACTORS
330
E
102
}
330
E
  0
SCALE
  5
48
102
{ACAD_REACTORS
330
47
102
}
330
47
100
AcDbScale
 70
     0
300
1:1
140
1.0
141
1.0
290
     1
  0
SCALE
  5
49
102
{ACAD_REACTORS
330
47
102
}
330
47
100
AcDbScale
 70
     0
300
1:2
140
1.0
141
2.0
290
     0
  0
SCALE
  5
4A
102
{ACAD_REACTORS
330
47
102
}
330
47
100
AcDbScale
 70
     0
300
1:4
140
1.0
141
4.0
290
     0
  0
SCALE
  5
4B
102
{ACAD_REACTORS
330
47
102
}
330
47
100
AcDbScale
 70
     0
300
1:5
140
1.0
141
5.0
290
     0
  0
SCALE
  5
4C
102
{ACAD_REACTORS
330
47
102
}
330
47
100
AcDbScale
 70
     0
300
1:8
140
1.0
141
8.0
290
     0
  0
SCALE
  5
4D
102
{ACAD_REACTORS
330
47
102
}
330
47
100
AcDbScale
 70
     0
300
1:10
140
1.0
141
10.0
290
     0
  0
SCALE
  5
4E
102
{ACAD_REACTORS
330
47
102
}
330
47
100
AcDbScale
 70
     0
300
1:16
140
1.0
141
16.0
290
     0
  0
SCALE
  5
4F
102
{ACAD_REACTORS
330
47
102
}
330
47
100
AcDbScale
 70
     0
300
1:20
140
1.0
141
20.0
290
     0
  0
SCALE
  5
50
102
{ACAD_REACTORS
330
47
102
}
330
47
100
AcDbScale
 70
     0
300
1:30
140
1.0
141
30.0
290
     0
  0
SCALE
  5
51
102
{ACAD_REACTORS
330
47
102
}
330
47
100
AcDbScale
 70
     0
300
1:40
140
1.0
141
40.0
290
     0
  0
SCALE
  5
52
102
{ACAD_REACTORS
330
47
102
}
330
47
100
AcDbScale
 70
     0
300
1:50
140
1.0
141
50.0
290
     0
  0
SCALE
  5
53
102
{ACAD_REACTORS
330
47
102
}
330
47
100
AcDbScale
 70
     0
300
1:100
140
1.0
141
100.0
290
     0
  0
SCALE
  5
54
102
{ACAD_REACTORS
330
47
102
}
330
47
100
AcDbScale
 70
     0
300
2:1
140
2.0
141
1.0
290
     0
  0
SCALE
  5
55
102
{ACAD_REACTORS
330
47
102
}
330
47
100
AcDbScale
 70
     0
300
4:1
140
4.0
141
1.0
290
     0
  0
SCALE
  5
56
102
{ACAD_REACTORS
330
47
102
}
330
47
100
AcDbScale
 70
     0
300
8:1
140
8.0
141
1.0
290
     0
  0
SCALE
  5
57
102
{ACAD_REACTORS
330
47
102
}
330
47
100
AcDbScale
 70
     0
300
10:1
140
10.0
141
1.0
290
     0
  0
SCALE
  5
58
102
{ACAD_REACTORS
330
47
102
}
330
47
100
AcDbScale
 70
     0
300
100:1
140
100.0
141
1.0
290
     0
  0
SCALE
  5
59
102
{ACAD_REACTORS
330
47
102
}
330
47
100
AcDbScale
 70
     0
300
1/128" = 1'-0"
140
0.0078125
141
12.0
290
     0
  0
SCALE
  5
5A
102
{ACAD_REACTORS
330
47
102
}
330
47
100
AcDbScale
 70
     0
300
1/64" = 1'-0"
140
0.015625
141
12.0
290
     0
  0
SCALE
  5
5B
102
{ACAD_REACTORS
330
47
102
}
330
47
100
AcDbScale
 70
     0
300
1/32" = 1'-0"
140
0.03125
141
12.0
290
     0
  0
SCALE
  5
5C
102
{ACAD_REACTORS
330
47
102
}
330
47
100
AcDbScale
 70
     0
300
1/16" = 1'-0"
140
0.0625
141
12.0
290
     0
  0
SCALE
  5
5D
102
{ACAD_REACTORS
330
47
102
}
330
47
100
AcDbScale
 70
     0
300
3/32" = 1'-0"
140
0.09375
141
12.0
290
     0
  0
SCALE
  5
5E
102
{ACAD_REACTORS
330
47
102
}
330
47
100
AcDbScale
 70
     0
300
1/8" = 1'-0"
140
0.125
141
12.0
290
     0
  0
SCALE
  5
5F
102
{ACAD_REACTORS
330
47
102
}
330
47
100
AcDbScale
 70
     0
300
3/16" = 1'-0"
140
0.1875
141
12.0
290
     0
  0
SCALE
  5
60
102
{ACAD_REACTORS
330
47
102
}
330
47
100
AcDbScale
 70
     0
300
1/4" = 1'-0"
140
0.25
141
12.0
290
     0
  0
SCALE
  5
61
102
{ACAD_REACTORS
330
47
102
}
330
47
100
AcDbScale
 70
     0
300
3/8" = 1'-0"
140
0.375
141
12.0
290
     0
  0
SCALE
  5
62
102
{ACAD_REACTORS
330
47
102
}
330
47
100
AcDbScale
 70
     0
300
1/2" = 1'-0"
140
0.5
141
12.0
290
     0
  0
SCALE
  5
63
102
{ACAD_REACTORS
330
47
102
}
330
47
100
AcDbScale
 70
     0
300
3/4" = 1'-0"
140
0.75
141
12.0
290
     0
  0
SCALE
  5
64
102
{ACAD_REACTORS
330
47
102
}
330
47
100
AcDbScale
 70
     0
300
1" = 1'-0"
140
1.0
141
12.0
290
     0
  0
SCALE
  5
65
102
{ACAD_REACTORS
330
47
102
}
330
47
100
AcDbScale
 70
     0
300
1-1/2" = 1'-0"
140
1.5
141
12.0
290
     0
  0
SCALE
  5
66
102
{ACAD_REACTORS
330
47
102
}
330
47
100
AcDbScale
 70
     0
300
3" = 1'-0"
140
3.0
141
12.0
290
     0
  0
SCALE
  5
67
102
{ACAD_REACTORS
330
47
102
}
330
47
100
AcDbScale
 70
     0
300
6" = 1'-0"
140
6.0
141
12.0
290
     0
  0
SCALE
  5
68
102
{ACAD_REACTORS
330
47
102
}
330
47
100
AcDbScale
 70
     0
300
1'-0" = 1'-0"
140
12.0
141
12.0
290
     0
  0
ENDSEC
  0
EOF
