  0
SECTION
  2
HEADER
  9
$ACADVER
  1
AC1015
  9
$ACADMAINTVER
 70
     6
  9
$DWGCODEPAGE
  3
ANSI_1250
  9
$INSBASE
 10
0.0
 20
0.0
 30
0.0
  9
$EXTMIN
 10
75.6341218948
 20
81.077555299
 30
0.0
  9
$EXTMAX
 10
1543.5077547445
 20
924.6505925408
 30
0.0
  9
$LIMMIN
 10
0.0
 20
0.0
  9
$LIMMAX
 10
420.0
 20
297.0
  9
$ORTHOMODE
 70
     0
  9
$REGENMODE
 70
     1
  9
$FILLMODE
 70
     1
  9
$QTEXTMODE
 70
     0
  9
$MIRRTEXT
 70
     1
  9
$LTSCALE
 40
1.0
  9
$ATTMODE
 70
     1
  9
$TEXTSIZE
 40
3.5
  9
$TRACEWID
 40
1.0
  9
$TEXTSTYLE
  7
Standard
  9
$CLAYER
  8
0
  9
$CELTYPE
  6
ByLayer
  9
$CECOLOR
 62
   256
  9
$CELTSCALE
 40
1.0
  9
$DISPSILH
 70
     0
  9
$DIMSCALE
 40
1.0
  9
$DIMASZ
 40
3.302
  9
$DIMEXO
 40
0.0
  9
$DIMDLI
 40
3.75
  9
$DIMRND
 40
0.0
  9
$DIMDLE
 40
0.0
  9
$DIMEXE
 40
1.0
  9
$DIMTP
 40
0.0
  9
$DIMTM
 40
0.0
  9
$DIMTXT
 40
3.5
  9
$DIMCEN
 40
2.5
  9
$DIMTSZ
 40
0.0
  9
$DIMTOL
 70
     0
  9
$DIMLIM
 70
     0
  9
$DIMTIH
 70
     1
  9
$DIMTOH
 70
     1
  9
$DIMSE1
 70
     0
  9
$DIMSE2
 70
     0
  9
$DIMTAD
 70
     1
  9
$DIMZIN
 70
     0
  9
$DIMBLK
  1

  9
$DIMASO
 70
     1
  9
$DIMSHO
 70
     1
  9
$DIMPOST
  1

  9
$DIMAPOST
  1

  9
$DIMALT
 70
     0
  9
$DIMALTD
 70
     3
  9
$DIMALTF
 40
0.0393700787
  9
$DIMLFAC
 40
1.0
  9
$DIMTOFL
 70
     1
  9
$DIMTVP
 40
0.0
  9
$DIMTIX
 70
     0
  9
$DIMSOXD
 70
     0
  9
$DIMSAH
 70
     0
  9
$DIMBLK1
  1

  9
$DIMBLK2
  1

  9
$DIMSTYLE
  2
ISO-25
  9
$DIMCLRD
 70
     0
  9
$DIMCLRE
 70
     0
  9
$DIMCLRT
 70
     0
  9
$DIMTFAC
 40
1.0
  9
$DIMGAP
 40
1.524
  9
$DIMJUST
 70
     0
  9
$DIMSD1
 70
     0
  9
$DIMSD2
 70
     0
  9
$DIMTOLJ
 70
     0
  9
$DIMTZIN
 70
     0
  9
$DIMALTZ
 70
     0
  9
$DIMALTTZ
 70
     0
  9
$DIMUPT
 70
     0
  9
$DIMDEC
 70
     2
  9
$DIMTDEC
 70
     2
  9
$DIMALTU
 70
     2
  9
$DIMALTTD
 70
     3
  9
$DIMTXSTY
  7
Standard
  9
$DIMAUNIT
 70
     0
  9
$DIMADEC
 70
     2
  9
$DIMALTRND
 40
0.0
  9
$DIMAZIN
 70
     0
  9
$DIMDSEP
 70
    44
  9
$DIMATFIT
 70
     3
  9
$DIMFRAC
 70
     0
  9
$DIMLDRBLK
  1

  9
$DIMLUNIT
 70
     2
  9
$DIMLWD
 70
    -2
  9
$DIMLWE
 70
    -2
  9
$DIMTMOVE
 70
     0
  9
$LUNITS
 70
     2
  9
$LUPREC
 70
     2
  9
$SKETCHINC
 40
1.0
  9
$FILLETRAD
 40
10.0
  9
$AUNITS
 70
     0
  9
$AUPREC
 70
     2
  9
$MENU
  1
.
  9
$ELEVATION
 40
0.0
  9
$PELEVATION
 40
0.0
  9
$THICKNESS
 40
0.0
  9
$LIMCHECK
 70
     0
  9
$CHAMFERA
 40
0.0
  9
$CHAMFERB
 40
0.0
  9
$CHAMFERC
 40
0.0
  9
$CHAMFERD
 40
0.0
  9
$SKPOLY
 70
     0
  9
$TDCREATE
 40
2459087.292816505
  9
$TDUCREATE
 40
2459087.209483171
  9
$TDUPDATE
 40
2459087.292906505
  9
$TDUUPDATE
 40
2459087.209573171
  9
$TDINDWG
 40
0.0000000116
  9
$TDUSRTIMER
 40
0.0000000116
  9
$USRTIMER
 70
     1
  9
$ANGBASE
 50
0.0
  9
$ANGDIR
 70
     0
  9
$PDMODE
 70
     0
  9
$PDSIZE
 40
-1.0
  9
$PLINEWID
 40
0.0
  9
$SPLFRAME
 70
     0
  9
$SPLINETYPE
 70
     6
  9
$SPLINESEGS
 70
     8
  9
$HANDSEED
  5
5A3
  9
$SURFTAB1
 70
     6
  9
$SURFTAB2
 70
     6
  9
$SURFTYPE
 70
     6
  9
$SURFU
 70
     6
  9
$SURFV
 70
     6
  9
$UCSBASE
  2

  9
$UCSNAME
  2

  9
$UCSORG
 10
0.0
 20
0.0
 30
0.0
  9
$UCSXDIR
 10
1.0
 20
0.0
 30
0.0
  9
$UCSYDIR
 10
0.0
 20
1.0
 30
0.0
  9
$UCSORTHOREF
  2

  9
$UCSORTHOVIEW
 70
     0
  9
$UCSORGTOP
 10
0.0
 20
0.0
 30
0.0
  9
$UCSORGBOTTOM
 10
0.0
 20
0.0
 30
0.0
  9
$UCSORGLEFT
 10
0.0
 20
0.0
 30
0.0
  9
$UCSORGRIGHT
 10
0.0
 20
0.0
 30
0.0
  9
$UCSORGFRONT
 10
0.0
 20
0.0
 30
0.0
  9
$UCSORGBACK
 10
0.0
 20
0.0
 30
0.0
  9
$PUCSBASE
  2

  9
$PUCSNAME
  2

  9
$PUCSORG
 10
0.0
 20
0.0
 30
0.0
  9
$PUCSXDIR
 10
1.0
 20
0.0
 30
0.0
  9
$PUCSYDIR
 10
0.0
 20
1.0
 30
0.0
  9
$PUCSORTHOREF
  2

  9
$PUCSORTHOVIEW
 70
     0
  9
$PUCSORGTOP
 10
0.0
 20
0.0
 30
0.0
  9
$PUCSORGBOTTOM
 10
0.0
 20
0.0
 30
0.0
  9
$PUCSORGLEFT
 10
0.0
 20
0.0
 30
0.0
  9
$PUCSORGRIGHT
 10
0.0
 20
0.0
 30
0.0
  9
$PUCSORGFRONT
 10
0.0
 20
0.0
 30
0.0
  9
$PUCSORGBACK
 10
0.0
 20
0.0
 30
0.0
  9
$USERI1
 70
     0
  9
$USERI2
 70
     0
  9
$USERI3
 70
     0
  9
$USERI4
 70
     0
  9
$USERI5
 70
     0
  9
$USERR1
 40
0.0
  9
$USERR2
 40
0.0
  9
$USERR3
 40
0.0
  9
$USERR4
 40
0.0
  9
$USERR5
 40
0.0
  9
$WORLDVIEW
 70
     1
  9
$SHADEDGE
 70
     3
  9
$SHADEDIF
 70
    70
  9
$TILEMODE
 70
     1
  9
$MAXACTVP
 70
    64
  9
$PINSBASE
 10
0.0
 20
0.0
 30
0.0
  9
$PLIMCHECK
 70
     0
  9
$PEXTMIN
 10
1.0000000000E+20
 20
1.0000000000E+20
 30
1.0000000000E+20
  9
$PEXTMAX
 10
-1.0000000000E+20
 20
-1.0000000000E+20
 30
-1.0000000000E+20
  9
$PLIMMIN
 10
0.0
 20
0.0
  9
$PLIMMAX
 10
420.0
 20
297.0
  9
$UNITMODE
 70
     0
  9
$VISRETAIN
 70
     1
  9
$PLINEGEN
 70
     0
  9
$PSLTSCALE
 70
     1
  9
$TREEDEPTH
 70
  3020
  9
$CMLSTYLE
  2
Standard
  9
$CMLJUST
 70
     0
  9
$CMLSCALE
 40
20.0
  9
$PROXYGRAPHICS
 70
     1
  9
$MEASUREMENT
 70
     1
  9
$CELWEIGHT
370
    -1
  9
$ENDCAPS
280
     0
  9
$JOINSTYLE
280
     0
  9
$LWDISPLAY
290
     1
  9
$INSUNITS
 70
     4
  9
$HYPERLINKBASE
  1

  9
$STYLESHEET
  1

  9
$XEDIT
290
     1
  9
$CEPSNTYPE
380
     0
  9
$PSTYLEMODE
290
     1
  9
$FINGERPRINTGUID
  2
{17f7924b-bbec-4f59-b4ea-8af8886eecb3}
  9
$VERSIONGUID
  2
{FAEB1C32-E019-11D5-929B-00C0DF256EC4}
  9
$EXTNAMES
290
     1
  9
$PSVPSCALE
 40
0.0
  9
$OLESTARTUP
290
     0
  0
ENDSEC
  0
SECTION
  2
CLASSES
  0
CLASS
  1
ACDBDICTIONARYWDFLT
  2
AcDbDictionaryWithDefault
  3
ObjectDBX Classes
 90
        0
280
     0
281
     0
  0
CLASS
  1
VISUALSTYLE
  2
AcDbVisualStyle
  3
ObjectDBX Classes
 90
     4095
280
     0
281
     0
  0
CLASS
  1
MATERIAL
  2
AcDbMaterial
  3
ObjectDBX Classes
 90
     1153
280
     0
281
     0
  0
CLASS
  1
SCALE
  2
AcDbScale
  3
ObjectDBX Classes
 90
     1153
280
     0
281
     0
  0
CLASS
  1
TABLESTYLE
  2
AcDbTableStyle
  3
ObjectDBX Classes
 90
     4095
280
     0
281
     0
  0
CLASS
  1
MLEADERSTYLE
  2
AcDbMLeaderStyle
  3
ACDB_MLEADERSTYLE_CLASS
 90
     4095
280
     0
281
     0
  0
CLASS
  1
SUN
  2
AcDbSun
  3
SCENEOE
 90
     1153
280
     0
281
     0
  0
CLASS
  1
ACDBPLACEHOLDER
  2
AcDbPlaceHolder
  3
ObjectDBX Classes
 90
        0
280
     0
281
     0
  0
CLASS
  1
LAYOUT
  2
AcDbLayout
  3
ObjectDBX Classes
 90
        0
280
     0
281
     0
  0
ENDSEC
  0
SECTION
  2
TABLES
  0
TABLE
  2
VPORT
  5
8
330
0
100
AcDbSymbolTable
 70
     1
  0
VPORT
  5
29
330
8
100
AcDbSymbolTableRecord
100
AcDbViewportTableRecord
  2
*Active
 70
     0
 10
0.0
 20
0.0
 11
1.0
 21
1.0
 12
809.5709383197
 22
502.8640739199
 13
0.0
 23
0.0
 14
10.0
 24
10.0
 15
10.0
 25
10.0
 16
0.0
 26
0.0
 36
1.0
 17
0.0
 27
0.0
 37
0.0
 40
860.4444979866
 41
1.740067034
 42
50.0
 43
0.0
 44
0.0
 50
0.0
 51
0.0
 71
     0
 72
   100
 73
     1
 74
     3
 75
     0
 76
     0
 77
     0
 78
     0
281
     0
 65
     1
110
0.0
120
0.0
130
0.0
111
1.0
121
0.0
131
0.0
112
0.0
122
1.0
132
0.0
 79
     0
146
0.0
  0
ENDTAB
  0
TABLE
  2
LTYPE
  5
5
330
0
100
AcDbSymbolTable
 70
     6
  0
LTYPE
  5
14
330
5
100
AcDbSymbolTableRecord
100
AcDbLinetypeTableRecord
  2
ByBlock
 70
     0
  3

 72
    65
 73
     0
 40
0.0
  0
LTYPE
  5
15
330
5
100
AcDbSymbolTableRecord
100
AcDbLinetypeTableRecord
  2
ByLayer
 70
     0
  3

 72
    65
 73
     0
 40
0.0
  0
LTYPE
  5
16
330
5
100
AcDbSymbolTableRecord
100
AcDbLinetypeTableRecord
  2
Continuous
 70
     0
  3
Solid line
 72
    65
 73
     0
 40
0.0
  0
LTYPE
  5
6E
330
5
100
AcDbSymbolTableRecord
100
AcDbLinetypeTableRecord
  2
HIDDEN
 70
     0
  3
Hidden __ __ __ __ __ __ __ __ __ __ __ __ __ __
 72
    65
 73
     2
 40
1.905
 49
1.27
 74
     0
 49
-0.635
 74
     0
  0
LTYPE
  5
6F
330
5
100
AcDbSymbolTableRecord
100
AcDbLinetypeTableRecord
  2
PHANTOM
 70
     0
  3
Phantom ______  __  __  ______  __  __  ______
 72
    65
 73
     6
 40
12.7
 49
6.35
 74
     0
 49
-1.27
 74
     0
 49
1.27
 74
     0
 49
-1.27
 74
     0
 49
1.27
 74
     0
 49
-1.27
 74
     0
  0
LTYPE
  5
70
330
5
100
AcDbSymbolTableRecord
100
AcDbLinetypeTableRecord
  2
CENTER
 70
     0
  3
Center ____ _ ____ _ ____ _ ____ _ ____ _ ____
 72
    65
 73
     4
 40
10.16
 49
6.35
 74
     0
 49
-1.27
 74
     0
 49
1.27
 74
     0
 49
-1.27
 74
     0
  0
LTYPE
  5
71
330
5
100
AcDbSymbolTableRecord
100
AcDbLinetypeTableRecord
  2
CENTERX2
 70
     0
  3
Center (2x) ________  __  ________  __  _____
 72
    65
 73
     4
 40
20.32
 49
12.7
 74
     0
 49
-2.54
 74
     0
 49
2.54
 74
     0
 49
-2.54
 74
     0
  0
LTYPE
  5
72
330
5
100
AcDbSymbolTableRecord
100
AcDbLinetypeTableRecord
  2
DOT2
 70
     0
  3
Dot (.5x) ........................................
 72
    65
 73
     2
 40
0.635
 49
0.0
 74
     0
 49
-0.635
 74
     0
  0
ENDTAB
  0
TABLE
  2
LAYER
  5
2
330
0
100
AcDbSymbolTable
 70
     1
  0
LAYER
  5
10
330
2
100
AcDbSymbolTableRecord
100
AcDbLayerTableRecord
  2
0
 70
     0
 62
     7
  6
Continuous
370
    -3
390
F
  0
ENDTAB
  0
TABLE
  2
STYLE
  5
3
330
0
100
AcDbSymbolTable
 70
     1
  0
STYLE
  5
11
330
3
100
AcDbSymbolTableRecord
100
AcDbTextStyleTableRecord
  2
Standard
 70
     0
 40
0.0
 41
1.0
 50
0.0
 71
     0
 42
3.5
  3
txt
  4

  0
ENDTAB
  0
TABLE
  2
VIEW
  5
6
330
0
100
AcDbSymbolTable
 70
     0
  0
ENDTAB
  0
TABLE
  2
UCS
  5
7
330
0
100
AcDbSymbolTable
 70
     0
  0
ENDTAB
  0
TABLE
  2
APPID
  5
9
330
0
100
AcDbSymbolTable
 70
     1
  0
APPID
  5
12
330
9
100
AcDbSymbolTableRecord
100
AcDbRegAppTableRecord
  2
ACAD
 70
     0
  0
ENDTAB
  0
TABLE
  2
DIMSTYLE
  5
A
330
0
100
AcDbSymbolTable
 70
     1
100
AcDbDimStyleTable
  0
DIMSTYLE
105
27
330
A
100
AcDbSymbolTableRecord
100
AcDbDimStyleTableRecord
  2
ISO-25
 70
     0
 41
2.5
 42
0.625
 43
3.75
 44
1.25
 73
     0
 74
     0
 77
     1
 78
     8
140
2.5
141
2.5
143
0.0393700787
147
0.625
171
     3
172
     1
178
     0
271
     2
272
     2
274
     3
278
    44
283
     0
284
     8
340
11
  0
ENDTAB
  0
TABLE
  2
BLOCK_RECORD
  5
1
330
0
100
AcDbSymbolTable
 70
     1
  0
BLOCK_RECORD
  5
1F
330
1
100
AcDbSymbolTableRecord
100
AcDbBlockTableRecord
  2
*Model_Space
340
22
  0
BLOCK_RECORD
  5
1B
330
1
100
AcDbSymbolTableRecord
100
AcDbBlockTableRecord
  2
*Paper_Space
340
1E
  0
BLOCK_RECORD
  5
23
330
1
100
AcDbSymbolTableRecord
100
AcDbBlockTableRecord
  2
*Paper_Space0
340
26
  0
ENDTAB
  0
ENDSEC
  0
SECTION
  2
BLOCKS
  0
BLOCK
  5
20
330
1F
100
AcDbEntity
  8
0
100
AcDbBlockBegin
  2
*Model_Space
 70
     0
 10
0.0
 20
0.0
 30
0.0
  3
*Model_Space
  1

  0
ENDBLK
  5
21
330
1F
100
AcDbEntity
  8
0
100
AcDbBlockEnd
  0
BLOCK
  5
1C
330
1B
100
AcDbEntity
 67
     1
  8
0
100
AcDbBlockBegin
  2
*Paper_Space
 70
     0
 10
0.0
 20
0.0
 30
0.0
  3
*Paper_Space
  1

  0
ENDBLK
  5
1D
330
1B
100
AcDbEntity
 67
     1
  8
0
100
AcDbBlockEnd
  0
BLOCK
  5
24
330
23
100
AcDbEntity
  8
0
100
AcDbBlockBegin
  2
*Paper_Space0
 70
     0
 10
0.0
 20
0.0
 30
0.0
  3
*Paper_Space0
  1

  0
ENDBLK
  5
25
330
23
100
AcDbEntity
  8
0
100
AcDbBlockEnd
  0
ENDSEC
  0
SECTION
  2
ENTITIES
  0
ARC
  5
73
330
1F
100
AcDbEntity
  8
0
  6
Continuous
 62
     7
100
AcDbCircle
 10
207.2341590783
 20
865.9779291536
 30
0.0
 40
55.49999999999984
100
AcDbArc
 50
79.4458056274
 51
100.6332697575
  0
ARC
  5
74
330
1F
100
AcDbEntity
  8
0
  6
Continuous
 62
     7
100
AcDbCircle
 10
408.3517118024
 20
879.8384713534
 30
0.0
 40
80.79445083778363
100
AcDbArc
 50
174.4863018879
 51
175.6342550035
  0
ARC
  5
75
330
1F
100
AcDbEntity
  8
0
  6
Continuous
 62
     7
100
AcDbCircle
 10
6.1166063542
 20
879.8384713536
 30
0.0
 40
80.7944508377739
100
AcDbArc
 50
4.3657449963
 51
5.513698112
  0
ARC
  5
76
330
1F
100
AcDbEntity
  8
0
  6
Continuous
 62
     7
100
AcDbCircle
 10
167.9643664101
 20
666.0176891066
 30
0.0
 40
58.87787630741902
100
AcDbArc
 50
74.0645104414
 51
75.036465445
  0
ARC
  5
77
330
1F
100
AcDbEntity
  8
0
  6
Continuous
 62
     7
100
AcDbCircle
 10
198.4332084858
 20
763.7001554554
 30
0.0
 40
6.386494603393889
100
AcDbArc
 50
63.028398045
 51
71.8613907849
  0
ARC
  5
78
330
1F
100
AcDbEntity
  8
0
  6
Continuous
 62
     7
100
AcDbCircle
 10
216.0351096708
 20
763.7001554554
 30
0.0
 40
6.386494603393762
100
AcDbArc
 50
108.1386092151
 51
116.971601955
  0
ARC
  5
79
330
1F
100
AcDbEntity
  8
0
  6
Continuous
 62
     7
100
AcDbCircle
 10
246.5039517466
 20
666.0176891067
 30
0.0
 40
58.87787630741926
100
AcDbArc
 50
104.963534555
 51
105.9354895586
  0
ARC
  5
7A
330
1F
100
AcDbEntity
  8
0
  6
Continuous
 62
     7
100
AcDbCircle
 10
335.7264548856
 20
872.8354347326
 30
0.0
 40
4.245815222307442
100
AcDbArc
 50
69.2002760384
 51
96.6582521413
  0
ARC
  5
7B
330
1F
100
AcDbEntity
  8
0
  6
Continuous
 62
     7
100
AcDbCircle
 10
335.733047983
 20
666.6036956925
 30
0.0
 40
10.63048775979434
100
AcDbArc
 50
267.3101532633
 51
278.1177344852
  0
ARC
  5
7C
330
1F
100
AcDbEntity
  8
0
  6
Continuous
 62
     7
100
AcDbCircle
 10
78.7418632711
 20
872.8354347326
 30
0.0
 40
4.245815222385008
100
AcDbArc
 50
83.3417478583
 51
110.799723963
  0
ARC
  5
7D
330
1F
100
AcDbEntity
  8
0
  6
Continuous
 62
     7
100
AcDbCircle
 10
78.7352701745
 20
666.6036956925
 30
0.0
 40
10.63048775979587
100
AcDbArc
 50
261.8822655097
 51
272.6898467322
  0
ARC
  5
7E
330
1F
100
AcDbEntity
  8
0
  6
Continuous
 62
     7
100
AcDbCircle
 10
335.4154903735
 20
656.3068338845
 30
0.0
 40
1.832789338045357
100
AcDbArc
 50
264.3222101266
 51
352.8819492423
  0
ARC
  5
7F
330
1F
100
AcDbEntity
  8
0
  6
Continuous
 62
     7
100
AcDbCircle
 10
79.0528277831
 20
656.3068338845
 30
0.0
 40
1.832789338046465
100
AcDbArc
 50
187.1180507519
 51
275.6777898765
  0
ARC
  5
80
330
1F
100
AcDbEntity
  8
0
  6
Continuous
 62
     7
100
AcDbCircle
 10
335.2341590783
 20
617.0505925408
 30
0.0
 40
2.000000000004694
100
AcDbArc
 50
270.0001741736
 51
0.0000069988
  0
ARC
  5
81
330
1F
100
AcDbEntity
  8
0
  6
Continuous
 62
     7
100
AcDbCircle
 10
79.2341590783
 20
617.0505925408
 30
0.0
 40
2.000000000004579
100
AcDbArc
 50
179.9999930012
 51
269.9998258293
  0
ARC
  5
82
330
1F
100
AcDbEntity
  8
0
  6
Continuous
 62
     7
100
AcDbCircle
 10
207.2341590783
 20
-769.449393963
 30
0.0
 40
1692.5
100
AcDbArc
 50
85.9106063072
 51
94.0893936928
  0
ARC
  5
83
330
1F
100
AcDbEntity
  8
0
  6
Continuous
 62
     7
100
AcDbCircle
 10
79.7341590783
 20
617.5505925408
 30
0.0
 40
4.000000000001364
100
AcDbArc
 50
180.0
 51
270.0
  0
ARC
  5
84
330
1F
100
AcDbEntity
  8
0
  6
Continuous
 62
     7
100
AcDbCircle
 10
334.7341590783
 20
617.5505925408
 30
0.0
 40
4.000000000000456
100
AcDbArc
 50
270.0
 51
359.9999988727
  0
ARC
  5
85
330
1F
100
AcDbEntity
  8
0
  6
Continuous
 62
     7
100
AcDbCircle
 10
207.2341590783
 20
-769.4494074592
 30
0.0
 40
1693.999999999999
100
AcDbArc
 50
85.9106062748
 51
94.0893937252
  0
ARC
  5
86
330
1F
100
AcDbEntity
  8
0
  6
Continuous
 62
     7
100
AcDbCircle
 10
334.8341590581
 20
617.450592561
 30
0.0
 40
3.999999999999547
100
AcDbArc
 50
270.0
 51
359.9999985404
  0
ARC
  5
87
330
1F
100
AcDbEntity
  8
0
  6
Continuous
 62
     7
100
AcDbCircle
 10
79.6341590581
 20
617.4505925408
 30
0.0
 40
3.999999979799727
100
AcDbArc
 50
180.0000014596
 51
270.0000099036
  0
ARC
  5
88
330
1F
100
AcDbEntity
  8
0
  6
Continuous
 62
     7
100
AcDbCircle
 10
207.2341590783
 20
-769.4494074592
 30
0.0
 40
1694.099999999999
100
AcDbArc
 50
85.9106062748
 51
94.0893937252
  0
ARC
  5
89
330
1F
100
AcDbEntity
  8
0
  6
Continuous
 62
     7
100
AcDbCircle
 10
860.7172639384
 20
890.4298828915
 30
0.0
 40
1.999999999999658
100
AcDbArc
 50
7.9255501166
 51
70.0810598604
  0
ARC
  5
8A
330
1F
100
AcDbEntity
  8
0
  6
Continuous
 62
     7
100
AcDbCircle
 10
874.6941334296
 20
692.0946472569
 30
0.0
 40
0.9999848635227759
100
AcDbArc
 50
272.6701131026
 51
358.8895896348
  0
ARC
  5
8B
330
1F
100
AcDbEntity
  8
0
  6
Continuous
 62
     7
100
AcDbCircle
 10
765.5945387
 20
865.9779291536
 30
0.0
 40
55.49999999999977
100
AcDbArc
 50
58.6104497007
 51
93.6548758583
  0
ARC
  5
8C
330
1F
100
AcDbEntity
  8
0
  6
Continuous
 62
     7
100
AcDbCircle
 10
873.7197516172
 20
773.1299909472
 30
0.0
 40
1.000013161932324
100
AcDbArc
 50
2.4896298344
 51
93.4637724836
  0
ARC
  5
8D
330
1F
100
AcDbEntity
  8
0
  6
Continuous
 62
     7
100
AcDbCircle
 10
861.3543154708
 20
885.7264122614
 30
0.0
 40
1.993182049082793
100
AcDbArc
 50
7.5639552829
 51
70.178314941
  0
ARC
  5
8E
330
1F
100
AcDbEntity
  8
0
  6
Continuous
 62
     7
100
AcDbCircle
 10
-415.0351066258
 20
717.1106378409
 30
0.0
 40
1287.471812536367
100
AcDbArc
 50
357.2829505629
 51
7.1251363952
  0
ARC
  5
8F
330
1F
100
AcDbEntity
  8
0
  6
Continuous
 62
     7
100
AcDbCircle
 10
754.4367073146
 20
810.59564249
 30
0.0
 40
193.5450491464513
100
AcDbArc
 50
270.0
 51
307.027554108
  0
ARC
  5
90
330
1F
100
AcDbEntity
  8
0
  6
Continuous
 62
     7
100
AcDbCircle
 10
754.4367073146
 20
810.59564249
 30
0.0
 40
195.5450529953998
100
AcDbArc
 50
270.0
 51
307.0275541112
  0
ARC
  5
91
330
1F
100
AcDbEntity
  8
0
  6
Continuous
 62
     7
100
AcDbCircle
 10
-415.0351066258
 20
717.1106378409
 30
0.0
 40
1289.47181638534
100
AcDbArc
 50
357.2829505629
 51
7.1251364143
  0
ARC
  5
92
330
1F
100
AcDbEntity
  8
0
  6
Continuous
 62
     7
100
AcDbCircle
 10
870.9893472571
 20
656.079726897
 30
0.0
 40
2.000003848970703
100
AcDbArc
 50
307.0275544251
 51
357.2829505642
  0
ARC
  5
93
330
1F
100
AcDbEntity
  8
0
  6
Continuous
 62
     7
100
AcDbCircle
 10
875.1545515585
 20
721.7603934699
 30
0.0
 40
1.163975835879425
100
AcDbArc
 50
48.5609559374
 51
101.9758291964
  0
ARC
  5
94
330
1F
100
AcDbEntity
  8
0
  6
Continuous
 62
     7
100
AcDbCircle
 10
1284.3077510371
 20
617.4505925408
 30
0.0
 40
3.999999999999545
100
AcDbArc
 50
180.0
 51
270.0
  0
ARC
  5
95
330
1F
100
AcDbEntity
  8
0
  6
Continuous
 62
     7
100
AcDbCircle
 10
1411.9077510371
 20
-769.4494074592
 30
0.0
 40
1694.099999999999
100
AcDbArc
 50
85.9106062748
 51
94.0893937252
  0
ARC
  5
96
330
1F
100
AcDbEntity
  8
0
  6
Continuous
 62
     7
100
AcDbCircle
 10
1539.5077510371
 20
617.4505962482
 30
0.0
 40
4.000003707400312
100
AcDbArc
 50
270.0
 51
0.0000016329
  0
ARC
  5
97
330
1F
100
AcDbEntity
  8
0
  6
Continuous
 62
     7
100
AcDbCircle
 10
1314.4077521398
 20
872.450597168
 30
0.0
 40
3.000001102650343
100
AcDbArc
 50
0.0000272842
 51
180.0000272842
  0
ARC
  5
98
330
1F
100
AcDbEntity
  8
0
  6
Continuous
 62
     7
100
AcDbCircle
 10
1314.4077508881
 20
828.4505957733
 30
0.0
 40
3.000002354351607
100
AcDbArc
 50
180.0000584751
 51
0.0000584751
  0
ARC
  5
99
330
1F
100
AcDbEntity
  8
0
  6
Continuous
 62
     7
100
AcDbCircle
 10
1509.4077522888
 20
872.4505971578
 30
0.0
 40
3.000001251650364
100
AcDbArc
 50
0.000027479
 51
180.000027479
  0
ARC
  5
9A
330
1F
100
AcDbEntity
  8
0
  6
Continuous
 62
     7
100
AcDbCircle
 10
1509.4077511861
 20
828.450595763
 30
0.0
 40
3.000002354351845
100
AcDbArc
 50
180.0000586699
 51
0.0000586699
  0
ARC
  5
9B
330
1F
100
AcDbEntity
  8
0
  6
Continuous
 62
     7
100
AcDbCircle
 10
1309.4077505507
 20
766.4505955091
 30
0.0
 40
3.000002968300327
100
AcDbArc
 50
89.9999736363
 51
269.9999736363
  0
ARC
  5
9C
330
1F
100
AcDbEntity
  8
0
  6
Continuous
 62
     7
100
AcDbCircle
 10
1319.4077489116
 20
766.4505923978
 30
0.0
 40
3.000006079650152
100
AcDbArc
 50
269.9999821734
 51
89.9999821734
  0
ARC
  5
9D
330
1F
100
AcDbEntity
  8
0
  6
Continuous
 62
     7
100
AcDbCircle
 10
1504.4077506997
 20
766.4505955091
 30
0.0
 40
3.000002968300399
100
AcDbArc
 50
89.9999707906
 51
269.9999707906
  0
ARC
  5
9E
330
1F
100
AcDbEntity
  8
0
  6
Continuous
 62
     7
100
AcDbCircle
 10
1514.4077492096
 20
766.4505923978
 30
0.0
 40
3.000006079650152
100
AcDbArc
 50
269.9999821734
 51
89.9999821734
  0
ARC
  5
9F
330
1F
100
AcDbEntity
  8
0
  6
Continuous
 62
     7
100
AcDbCircle
 10
1314.4077510371
 20
670.4505932028
 30
0.0
 40
3.000000000000044
100
AcDbArc
 50
359.9999901604
 51
179.9999901604
  0
ARC
  5
A0
330
1F
100
AcDbEntity
  8
0
  6
Continuous
 62
     7
100
AcDbCircle
 10
1314.4077509947
 20
658.4505926142
 30
0.0
 40
6.000000084754333
100
AcDbArc
 50
120.0000266693
 51
59.9999999999
  0
ARC
  5
A1
330
1F
100
AcDbEntity
  8
0
  6
Continuous
 62
     7
100
AcDbCircle
 10
1509.4077510371
 20
670.4505930403
 30
0.0
 40
3.000000000000039
100
AcDbArc
 50
359.9999907983
 51
179.9999907983
  0
ARC
  5
A2
330
1F
100
AcDbEntity
  8
0
  6
Continuous
 62
     7
100
AcDbCircle
 10
1509.4077510319
 20
658.4505925496
 30
0.0
 40
6.000000010254246
100
AcDbArc
 50
120.0000242043
 51
59.9999999993
  0
ARC
  5
A3
330
1F
100
AcDbEntity
  8
0
  6
Continuous
 62
     7
100
AcDbCircle
 10
79.2341577372
 20
84.5809788407
 30
0.0
 40
1.999998658911255
100
AcDbArc
 50
179.9999725211
 51
269.9998642487
  0
ARC
  5
A4
330
1F
100
AcDbEntity
  8
0
  6
Continuous
 62
     7
100
AcDbCircle
 10
335.2341604194
 20
84.5809788407
 30
0.0
 40
1.999998658899758
100
AcDbArc
 50
270.000135751
 51
0.0000274792
  0
ARC
  5
A5
330
1F
100
AcDbEntity
  8
0
  6
Continuous
 62
     7
100
AcDbCircle
 10
322.6163599296
 20
94.8998989408
 30
0.0
 40
5.315438139737505
100
AcDbArc
 50
346.8157013097
 51
0.9442476164
  0
ARC
  5
A6
330
1F
100
AcDbEntity
  8
0
  6
Continuous
 62
     7
100
AcDbCircle
 10
91.851958227
 20
94.8998989407
 30
0.0
 40
5.315438139730897
100
AcDbArc
 50
179.0557523835
 51
193.1842986889
  0
ARC
  5
A7
330
1F
100
AcDbEntity
  8
0
  6
Continuous
 62
     7
100
AcDbCircle
 10
79.2264614649
 20
94.5310696989
 30
0.0
 40
1.992312648305249
100
AcDbArc
 50
180.2225563221
 51
270.2211969678
  0
ARC
  5
A8
330
1F
100
AcDbEntity
  8
0
  6
Continuous
 62
     7
100
AcDbCircle
 10
335.2418566917
 20
94.5310696989
 30
0.0
 40
1.992312648342385
100
AcDbArc
 50
269.7788030327
 51
359.7774436692
  0
ARC
  5
A9
330
1F
100
AcDbEntity
  8
0
  6
Continuous
 62
     7
100
AcDbCircle
 10
201.3988608763
 20
83.1159228097
 30
0.0
 40
0.9783160734580868
100
AcDbArc
 50
177.5592630628
 51
265.9518162675
  0
ARC
  5
AA
330
1F
100
AcDbEntity
  8
0
  6
Continuous
 62
     7
100
AcDbCircle
 10
213.0694578585
 20
83.1159228175
 30
0.0
 40
0.97831613645503
100
AcDbArc
 50
274.0482293958
 51
2.440736323
  0
ARC
  5
AB
330
1F
100
AcDbEntity
  8
0
  6
Continuous
 62
     7
100
AcDbCircle
 10
184.1502198055
 20
82.0763153501
 30
0.0
 40
0.9837443410684541
100
AcDbArc
 50
178.3489968216
 51
268.7975192462
  0
ARC
  5
AC
330
1F
100
AcDbEntity
  8
0
  6
Continuous
 62
     7
100
AcDbCircle
 10
230.3181001242
 20
82.0763142589
 30
0.0
 40
0.9837432414794546
100
AcDbArc
 50
271.2024581196
 51
1.6510686059
  0
ELLIPSE
  5
AD
330
1F
100
AcDbEntity
  8
0
  6
Continuous
 62
     7
100
AcDbEllipse
 10
143.0261618229
 20
810.5956423659
 30
0.0
 11
193.5280376770344
 21
-139.9215025639959
 31
0.0
210
0.0
220
0.0
230
1.0
 40
0.7058461676
 41
5.293515450292113
 42
5.370742860365088
  0
ELLIPSE
  5
AE
330
1F
100
AcDbEntity
  8
0
  6
Continuous
 62
     7
100
AcDbEllipse
 10
271.4421549375
 20
810.5956423661
 30
0.0
 11
193.5280376770356
 21
139.9215025639959
 31
0.0
210
0.0
220
0.0
230
1.0
 40
0.7058461676
 41
4.054035100398266
 42
4.13126251048287
  0
ELLIPSE
  5
AF
330
1F
100
AcDbEntity
  8
0
  6
Continuous
 62
     7
100
AcDbEllipse
 10
271.4421549375
 20
810.5956423661
 30
0.0
 11
191.0538244681206
 21
138.1326370641407
 31
0.0
210
0.0
220
0.0
230
1.0
 40
0.7058461676
 41
4.051591207062163
 42
4.129841924496174
  0
ELLIPSE
  5
B0
330
1F
100
AcDbEntity
  8
0
  6
Continuous
 62
     7
100
AcDbEllipse
 10
143.0261618229
 20
810.5956423659
 30
0.0
 11
191.0538244638556
 21
-138.1326370610586
 31
0.0
210
0.0
220
0.0
230
1.0
 40
0.7058461676
 41
5.294936039220135
 42
5.373186753863445
  0
ELLIPSE
  5
B1
330
1F
100
AcDbEntity
  8
0
  6
Continuous
 62
     7
100
AcDbEllipse
 10
253.8144061975
 20
1372.052792081
 30
0.0
 11
0.0
 21
1289.471813241095
 31
0.0
210
0.0
220
0.0
230
1.0
 40
0.3303377752
 41
3.033015020688723
 42
3.033707120934508
  0
ELLIPSE
  5
B2
330
1F
100
AcDbEntity
  8
0
  6
Continuous
 62
     7
100
AcDbEllipse
 10
206.1450645226
 20
1372.0527920809
 30
0.0
 11
0.0
 21
1289.471813241097
 31
0.0
210
0.0
220
0.0
230
1.0
 40
0.0001138993
 41
3.031782515482353
 42
3.033015267637766
  0
ELLIPSE
  5
B3
330
1F
100
AcDbEntity
  8
0
  6
Continuous
 62
     7
100
AcDbEllipse
 10
205.3557293717
 20
1372.0527921014
 30
0.0
 11
0.0
 21
1289.471813243677
 31
0.0
210
0.0
220
0.0
230
1.0
 40
0.0005088571
 41
3.031086460234218
 42
3.033027647290727
  0
ELLIPSE
  5
B4
330
1F
100
AcDbEntity
  8
0
  6
Continuous
 62
     7
100
AcDbEllipse
 10
204.9227010478
 20
1372.0527921045
 30
0.0
 11
0.0
 21
1289.471813241097
 31
0.0
210
0.0
220
0.0
230
1.0
 40
0.0022118733
 41
3.031086625182581
 42
3.033027851977461
  0
ELLIPSE
  5
B5
330
1F
100
AcDbEntity
  8
0
  6
Continuous
 62
     7
100
AcDbEllipse
 10
203.6727653754
 20
1372.0527921046
 30
0.0
 11
0.0
 21
1289.471813241851
 31
0.0
210
0.0
220
0.0
230
1.0
 40
0.0003063322
 41
3.031086565035826
 42
3.03272560740391
  0
ELLIPSE
  5
B6
330
1F
100
AcDbEntity
  8
0
  6
Continuous
 62
     7
100
AcDbEllipse
 10
379.0787874489
 20
1372.0527920817
 30
0.0
 11
1614.776899969695
 21
0.0
 31
0.0
210
0.0
220
0.0
230
1.0
 40
0.7985448722
 41
4.60182171634441
 42
4.603521934205567
  0
ELLIPSE
  5
B7
330
1F
100
AcDbEntity
  8
0
  6
Continuous
 62
     7
100
AcDbEllipse
 10
201.094625335
 20
1372.0527920818
 30
0.0
 11
0.0
 21
1289.471813241102
 31
0.0
210
0.0
220
0.0
230
1.0
 40
0.0013616678
 41
3.031025389389834
 42
3.035883057853353
  0
ELLIPSE
  5
B8
330
1F
100
AcDbEntity
  8
0
  6
Continuous
 62
     7
100
AcDbEllipse
 10
201.4513444095
 20
1372.0527920885
 30
0.0
 11
0.0
 21
1289.471813241098
 31
0.0
210
0.0
220
0.0
230
1.0
 40
0.0024570399
 41
3.247303106332051
 42
3.250558848787757
  0
ELLIPSE
  5
B9
330
1F
100
AcDbEntity
  8
0
  6
Continuous
 62
     7
100
AcDbEllipse
 10
385.991442304
 20
1372.0527920785
 30
0.0
 11
1693.741455989303
 21
0.0
 31
0.0
210
0.0
220
0.0
230
1.0
 40
0.7613156121
 41
4.603422785172524
 42
4.604521731445917
  0
ELLIPSE
  5
BA
330
1F
100
AcDbEntity
  8
0
  6
Continuous
 62
     7
100
AcDbEllipse
 10
203.6920984254
 20
1372.0527920785
 30
0.0
 11
0.0
 21
1289.471812819587
 31
0.0
210
0.0
220
0.0
230
1.0
 40
0.0003299093
 41
3.033725402832681
 42
3.035893872390505
  0
ELLIPSE
  5
BB
330
1F
100
AcDbEntity
  8
0
  6
Continuous
 62
     7
100
AcDbEllipse
 10
205.4153659164
 20
1372.0527920789
 30
0.0
 11
0.0
 21
1289.471813241096
 31
0.0
210
0.0
220
0.0
230
1.0
 40
0.0060334694
 41
3.03371224435511
 42
3.035881532816586
  0
ELLIPSE
  5
BC
330
1F
100
AcDbEntity
  8
0
  6
Continuous
 62
     7
100
AcDbEllipse
 10
205.3527456567
 20
1372.0527920788
 30
0.0
 11
-8.810729923425242E-13
 21
1289.471808719525
 31
0.0
210
0.0
220
0.0
230
1.0
 40
0.0003380836
 41
3.033712130822614
 42
3.035869010738458
  0
ELLIPSE
  5
BD
330
1F
100
AcDbEntity
  8
0
  6
Continuous
 62
     7
100
AcDbEllipse
 10
207.8074542998
 20
1372.0527920786
 30
0.0
 11
0.0
 21
1289.471813241097
 31
0.0
210
0.0
220
0.0
230
1.0
 40
0.0011034904
 41
3.035167126604513
 42
3.035868730515197
  0
ELLIPSE
  5
BE
330
1F
100
AcDbEntity
  8
0
  6
Continuous
 62
     7
100
AcDbEllipse
 10
206.1338931076
 20
1372.0527920787
 30
0.0
 11
0.0
 21
1289.471813241073
 31
0.0
210
0.0
220
0.0
230
1.0
 40
0.0004525748
 41
3.033699607538836
 42
3.035168113818056
  0
ELLIPSE
  5
BF
330
1F
100
AcDbEntity
  8
0
  6
Continuous
 62
     7
100
AcDbEllipse
 10
209.4894212272
 20
1372.0527921852
 30
0.0
 11
0.0
 21
1289.471813241097
 31
0.0
210
0.0
220
0.0
230
1.0
 40
0.0139779953
 41
3.250133742365187
 42
3.250972598057648
  0
ELLIPSE
  5
C0
330
1F
100
AcDbEntity
  8
0
  6
Continuous
 62
     7
100
AcDbEllipse
 10
256.0699409618
 20
1372.0527921862
 30
0.0
 11
0.0
 21
1289.471813241095
 31
0.0
210
0.0
220
0.0
230
1.0
 40
0.3243599738
 41
3.033051777446265
 42
3.033411863931089
  0
ELLIPSE
  5
C1
330
1F
100
AcDbEntity
  8
0
  6
Continuous
 62
     7
100
AcDbEllipse
 10
255.6493216002
 20
1372.0527921856
 30
0.0
 11
0.0
 21
1289.471813241098
 31
0.0
210
0.0
220
0.0
230
1.0
 40
0.3213388071
 41
3.033411863927222
 42
3.033719068498613
  0
ELLIPSE
  5
C2
330
1F
100
AcDbEntity
  8
0
  6
Continuous
 62
     7
100
AcDbEllipse
 10
-3093.9329479215
 20
1372.0527920818
 30
0.0
 11
30696.94252832441
 21
0.0
 31
0.0
210
0.0
220
0.0
230
1.0
 40
0.0420065227
 41
4.82026256547599
 42
4.82027459855522
  0
ELLIPSE
  5
C3
330
1F
100
AcDbEntity
  8
0
  6
Continuous
 62
     7
100
AcDbEllipse
 10
211.1876506637
 20
1372.0527920819
 30
0.0
 11
0.0
 21
1289.471813241097
 31
0.0
210
0.0
220
0.0
230
1.0
 40
0.0015652678
 41
3.247305656802316
 42
3.249478272600662
  0
ELLIPSE
  5
C4
330
1F
100
AcDbEntity
  8
0
  6
Continuous
 62
     7
100
AcDbEllipse
 10
211.7628172983
 20
1372.0527920777
 30
0.0
 11
0.0
 21
1289.471813241095
 31
0.0
210
0.0
220
0.0
230
1.0
 40
0.0034748762
 41
3.247305734892953
 42
3.249461808448211
  0
ELLIPSE
  5
C5
330
1F
100
AcDbEntity
  8
0
  6
Continuous
 62
     7
100
AcDbEllipse
 10
213.6162833763
 20
1372.052792078
 30
0.0
 11
0.0
 21
1289.47181323802
 31
0.0
210
0.0
220
0.0
230
1.0
 40
0.0003386445
 41
3.033723100016195
 42
3.035879172414686
  0
ELLIPSE
  5
C6
330
1F
100
AcDbEntity
  8
0
  6
Continuous
 62
     7
100
AcDbEllipse
 10
214.0125695282
 20
1372.0527908871
 30
0.0
 11
0.0
 21
1289.471813241098
 31
0.0
210
0.0
220
0.0
230
1.0
 40
0.0029631431
 41
3.247306172936198
 42
3.251043285298274
  0
ELLIPSE
  5
C7
330
1F
100
AcDbEntity
  8
0
  6
Continuous
 62
     7
100
AcDbEllipse
 10
209.0910372619
 20
1372.0527920817
 30
0.0
 11
0.0
 21
1289.47181324057
 31
0.0
210
0.0
220
0.0
230
1.0
 40
0.0005971183
 41
3.247914397361534
 42
3.252100191560533
  0
ELLIPSE
  5
C8
330
1F
100
AcDbEntity
  8
0
  6
Continuous
 62
     7
100
AcDbEllipse
 10
208.5592015008
 20
1372.0527920818
 30
0.0
 11
0.0
 21
1289.471813241097
 31
0.0
210
0.0
220
0.0
230
1.0
 40
0.0020558813
 41
3.031089228043316
 42
3.03587674347799
  0
ELLIPSE
  5
C9
330
1F
100
AcDbEntity
  8
0
  6
Continuous
 62
     7
100
AcDbEllipse
 10
210.1597694796
 20
1372.052792094
 30
0.0
 11
0.0
 21
1289.471813241098
 31
0.0
210
0.0
220
0.0
230
1.0
 40
0.0065759575
 41
3.247305187172874
 42
3.247919249603394
  0
ELLIPSE
  5
CA
330
1F
100
AcDbEntity
  8
0
  6
Continuous
 62
     7
100
AcDbEllipse
 10
195.1650739031
 20
1372.0527920827
 30
0.0
 11
0.0
 21
1289.471813241096
 31
0.0
210
0.0
220
0.0
230
1.0
 40
0.0149530819
 41
3.250142808041835
 42
3.250980816955054
  0
ELLIPSE
  5
CB
330
1F
100
AcDbEntity
  8
0
  6
Continuous
 62
     7
100
AcDbEllipse
 10
242.7019215224
 20
1372.0527893665
 30
0.0
 11
0.0
 21
1289.471813241098
 31
0.0
210
0.0
220
0.0
230
1.0
 40
0.3303162244
 41
3.033042658273554
 42
3.033709994525251
  0
ELLIPSE
  5
CC
330
1F
100
AcDbEntity
  8
0
  6
Continuous
 62
     7
100
AcDbEllipse
 10
197.2577898103
 20
1372.0527893665
 30
0.0
 11
0.0
 21
1289.471813241098
 31
0.0
210
0.0
220
0.0
230
1.0
 40
0.0003322241
 41
3.03371445221793
 42
3.035879614775249
  0
ELLIPSE
  5
CD
330
1F
100
AcDbEntity
  8
0
  6
Continuous
 62
     7
100
AcDbEllipse
 10
-10268.7737372763
 20
1372.0527931749
 30
0.0
 11
99188.3803254042
 21
0.0
 31
0.0
210
0.0
220
0.0
230
1.0
 40
0.0130002306
 41
4.818102019198396
 42
4.818110323953702
  0
ELLIPSE
  5
CE
330
1F
100
AcDbEntity
  8
0
  6
Continuous
 62
     7
100
AcDbEllipse
 10
198.0785272371
 20
1372.0527931749
 30
0.0
 11
0.0
 21
1289.471813031936
 31
0.0
210
0.0
220
0.0
230
1.0
 40
0.0003439641
 41
3.033722674115245
 42
3.035871338943644
  0
ELLIPSE
  5
CF
330
1F
100
AcDbEntity
  8
0
  6
Continuous
 62
     7
100
AcDbEllipse
 10
198.8975525137
 20
1372.0527925856
 30
0.0
 11
0.0
 21
1289.471813241097
 31
0.0
210
0.0
220
0.0
230
1.0
 40
0.0034839393
 41
3.247306139992415
 42
3.24947129278039
  0
ELLIPSE
  5
D0
330
1F
100
AcDbEntity
  8
0
  6
Continuous
 62
     7
100
AcDbEllipse
 10
-10562.9393581932
 20
1372.0527920818
 30
0.0
 11
101996.2815380054
 21
0.0
 31
0.0
210
0.0
220
0.0
230
1.0
 40
0.0126423414
 41
4.818102466775707
 42
4.818110751798672
  0
ELLIPSE
  5
D1
330
1F
100
AcDbEntity
  8
0
  6
Continuous
 62
     7
100
AcDbEllipse
 10
199.9584276099
 20
1372.0527920818
 30
0.0
 11
0.0
 21
1289.471813241167
 31
0.0
210
0.0
220
0.0
230
1.0
 40
0.0018628175
 41
3.2473144291947
 42
3.251052412019896
  0
ELLIPSE
  5
D2
330
1F
100
AcDbEntity
  8
0
  6
Continuous
 62
     7
100
AcDbEllipse
 10
383.8613329131
 20
1372.0527921008
 30
0.0
 11
1507.206590649304
 21
0.0
 31
0.0
210
0.0
220
0.0
230
1.0
 40
0.8555375363
 41
4.602772284957178
 42
4.602875520759215
  0
ELLIPSE
  5
D3
330
1F
100
AcDbEntity
  8
0
  6
Continuous
 62
     7
100
AcDbEllipse
 10
152.4216490386
 20
1372.0527920818
 30
0.0
 11
8.810729923425241E-13
 21
1289.471813241103
 31
0.0
210
0.0
220
0.0
230
1.0
 40
0.4797291072
 41
3.251618717966877
 42
3.251627986136632
  0
ELLIPSE
  5
D4
330
1F
100
AcDbEntity
  8
0
  6
Continuous
 62
     7
100
AcDbEllipse
 10
410.8221306664
 20
1372.0527920556
 30
0.0
 11
1734.468446846322
 21
-1.364242052659392E-12
 31
0.0
210
0.0
220
0.0
230
1.0
 40
0.7434391877
 41
4.600671805619607
 42
4.600696727428842
  0
ELLIPSE
  5
D5
330
1F
100
AcDbEntity
  8
0
  6
Continuous
 62
     7
100
AcDbEllipse
 10
137.3327195834
 20
1372.0527929525
 30
0.0
 11
0.0
 21
1289.471813241095
 31
0.0
210
0.0
220
0.0
230
1.0
 40
0.5519059288
 41
3.251773465599607
 42
3.251813880197021
  0
ELLIPSE
  5
D6
330
1F
100
AcDbEntity
  8
0
  6
Continuous
 62
     7
100
AcDbEllipse
 10
453.8589437249
 20
1372.0527921293
 30
0.0
 11
2110.380505644009
 21
6.821210263296962E-13
 31
0.0
210
0.0
220
0.0
230
1.0
 40
0.6110138953
 41
4.600841512447172
 42
4.600854118885267
  0
ELLIPSE
  5
D7
330
1F
100
AcDbEntity
  8
0
  6
Continuous
 62
     7
100
AcDbEllipse
 10
651.1352032133
 20
1372.0527920745
 30
0.0
 11
3882.262402157231
 21
0.0
 31
0.0
210
0.0
220
0.0
230
1.0
 40
0.332144425
 41
4.600796056552565
 42
4.600808481459408
  0
ELLIPSE
  5
D8
330
1F
100
AcDbEntity
  8
0
  6
Continuous
 62
     7
100
AcDbEllipse
 10
57.6263102619
 20
1372.0527920818
 30
0.0
 11
1447.309494774093
 21
0.0
 31
0.0
210
0.0
220
0.0
230
1.0
 40
0.890944071
 41
4.823981904217344
 42
4.824015209655552
  0
ELLIPSE
  5
D9
330
1F
100
AcDbEntity
  8
0
  6
Continuous
 62
     7
100
AcDbEllipse
 10
221.7674126108
 20
1372.0527949046
 30
0.0
 11
0.0
 21
1289.471813230886
 31
0.0
210
0.0
220
0.0
230
1.0
 40
0.0004390818
 41
3.029475894027856
 42
3.029969730958247
  0
ELLIPSE
  5
DA
330
1F
100
AcDbEntity
  8
0
  6
Continuous
 62
     7
100
AcDbEllipse
 10
580.8116952724
 20
1372.0527920818
 30
0.0
 11
3215.646540759933
 21
0.0
 31
0.0
210
0.0
220
0.0
230
1.0
 40
0.4009992348
 41
4.600550308387272
 42
4.600558681037249
  0
ELLIPSE
  5
DB
330
1F
100
AcDbEntity
  8
0
  6
Continuous
 62
     7
100
AcDbEllipse
 10
366.04349063
 20
1372.0527920659
 30
0.0
 11
1291.169952728952
 21
0.0
 31
0.0
210
0.0
220
0.0
230
1.0
 40
0.9986841982
 41
4.600568306149381
 42
4.600601384533103
  0
ELLIPSE
  5
DC
330
1F
100
AcDbEntity
  8
0
  6
Continuous
 62
     7
100
AcDbEllipse
 10
314.3871168398
 20
1372.0527920823
 30
0.0
 11
0.0
 21
1289.47238002487
 31
0.0
210
0.0
220
0.0
230
1.0
 40
0.6420929096
 41
3.029862184848727
 42
3.029965746730417
  0
ELLIPSE
  5
DD
330
1F
100
AcDbEntity
  8
0
  6
Continuous
 62
     7
100
AcDbEllipse
 10
309.3720034262
 20
1372.0527949075
 30
0.0
 11
0.0
 21
1289.471795036655
 31
0.0
210
0.0
220
0.0
230
1.0
 40
0.6064979797
 41
3.029832838710536
 42
3.029969806282132
  0
ELLIPSE
  5
DE
330
1F
100
AcDbEntity
  8
0
  6
Continuous
 62
     7
100
AcDbEllipse
 10
506.7949948097
 20
1372.0527948274
 30
0.0
 11
2551.442073612674
 21
-5.911715561524033E-12
 31
0.0
210
0.0
220
0.0
230
1.0
 40
0.5053894135
 41
4.600545931555065
 42
4.600566870734001
  0
ELLIPSE
  5
DF
330
1F
100
AcDbEntity
  8
0
  6
Continuous
 62
     7
100
AcDbEllipse
 10
114.3205691006
 20
1372.0527920818
 30
0.0
 11
0.0
 21
1289.471813241097
 31
0.0
210
0.0
220
0.0
230
1.0
 40
0.7122497141
 41
3.252487820084972
 42
3.252558366412824
  0
ELLIPSE
  5
E0
330
1F
100
AcDbEntity
  8
0
  6
Continuous
 62
     7
100
AcDbEllipse
 10
183.4756292658
 20
1372.0527920817
 30
0.0
 11
0.0
 21
1289.471813241098
 31
0.0
210
0.0
220
0.0
230
1.0
 40
0.2681805079
 41
3.253526801435638
 42
3.25357273339048
  0
ELLIPSE
  5
E1
330
1F
100
AcDbEntity
  8
0
  6
Continuous
 62
     7
100
AcDbEllipse
 10
38.0810567096
 20
1372.0527920336
 30
0.0
 11
1647.457016747205
 21
0.0
 31
0.0
210
0.0
220
0.0
230
1.0
 40
0.782704375
 41
4.824293959720154
 42
4.824323138314295
  0
ELLIPSE
  5
E2
330
1F
100
AcDbEntity
  8
0
  6
Continuous
 62
     7
100
AcDbEllipse
 10
74.1487777596
 20
1372.0527920818
 30
0.0
 11
1305.269211050839
 21
0.0
 31
0.0
210
0.0
220
0.0
230
1.0
 40
0.9878972111
 41
4.823475775887467
 42
4.823488059945517
  0
ELLIPSE
  5
E3
330
1F
100
AcDbEntity
  8
0
  6
Continuous
 62
     7
100
AcDbEllipse
 10
42.2857127086
 20
1372.0527885646
 30
0.0
 11
1593.81810655656
 21
0.0
 31
0.0
210
0.0
220
0.0
230
1.0
 40
0.80904578
 41
4.823396901945962
 42
4.823413490917388
  0
ELLIPSE
  5
E4
330
1F
100
AcDbEntity
  8
0
  6
Continuous
 62
     7
100
AcDbEllipse
 10
199.9584276099
 20
1372.0527920818
 30
0.0
 11
0.0
 21
1289.371813741636
 31
0.0
210
0.0
220
0.0
230
1.0
 40
0.0018628175
 41
3.24732265885175
 42
3.251060938876628
  0
ELLIPSE
  5
E5
330
1F
100
AcDbEntity
  8
0
  6
Continuous
 62
     7
100
AcDbEllipse
 10
-10562.9393581932
 20
1372.0527920818
 30
0.0
 11
101988.3716504033
 21
0.0
 31
0.0
210
0.0
220
0.0
230
1.0
 40
0.0126423414
 41
4.818110696253289
 42
4.818118981926147
  0
ELLIPSE
  5
E6
330
1F
100
AcDbEntity
  8
0
  6
Continuous
 62
     7
100
AcDbEllipse
 10
-10268.7737372763
 20
1372.0527931749
 30
0.0
 11
99180.68844543496
 21
0.0
 31
0.0
210
0.0
220
0.0
230
1.0
 40
0.0130002306
 41
4.818110248370426
 42
4.818118553777104
  0
ELLIPSE
  5
E7
330
1F
100
AcDbEntity
  8
0
  6
Continuous
 62
     7
100
AcDbEllipse
 10
197.2577898103
 20
1372.0527893665
 30
0.0
 11
0.0
 21
1289.371817027742
 31
0.0
210
0.0
220
0.0
230
1.0
 40
0.0003322241
 41
3.033706025767361
 42
3.03587138631887
  0
ELLIPSE
  5
E8
330
1F
100
AcDbEntity
  8
0
  6
Continuous
 62
     7
100
AcDbEllipse
 10
214.0125695282
 20
1372.0527908871
 30
0.0
 11
8.810729923425242E-13
 21
1289.371825589162
 31
0.0
210
0.0
220
0.0
230
1.0
 40
0.0029631431
 41
3.247314481854435
 42
3.25105189511122
  0
ELLIPSE
  5
E9
330
1F
100
AcDbEntity
  8
0
  6
Continuous
 62
     7
100
AcDbEllipse
 10
213.6162833763
 20
1372.052792078
 30
0.0
 11
0.0
 21
1289.37181642257
 31
0.0
210
0.0
220
0.0
230
1.0
 40
0.0003386445
 41
3.033714658024295
 42
3.035870943135702
  0
ELLIPSE
  5
EA
330
1F
100
AcDbEntity
  8
0
  6
Continuous
 62
     7
100
AcDbEllipse
 10
211.7628172983
 20
1372.0527920777
 30
0.0
 11
-8.810729923425242E-13
 21
1289.371809374126
 31
0.0
210
0.0
220
0.0
230
1.0
 40
0.0034748762
 41
3.24731392669443
 42
3.249470179411851
  0
ELLIPSE
  5
EB
330
1F
100
AcDbEntity
  8
0
  6
Continuous
 62
     7
100
AcDbEllipse
 10
205.3527456567
 20
1372.0527920788
 30
0.0
 11
0.0
 21
1289.371813239054
 31
0.0
210
0.0
220
0.0
230
1.0
 40
0.0003380834
 41
3.033703676702589
 42
3.035860726924495
  0
ELLIPSE
  5
EC
330
1F
100
AcDbEntity
  8
0
  6
Continuous
 62
     7
100
AcDbEllipse
 10
203.6920984254
 20
1372.0527920785
 30
0.0
 11
0.0
 21
1289.371813467664
 31
0.0
210
0.0
220
0.0
230
1.0
 40
0.0003299093
 41
3.033717004304066
 42
3.035885639286969
  0
ELLIPSE
  5
ED
330
1F
100
AcDbEntity
  8
0
  6
Continuous
 62
     7
100
AcDbEllipse
 10
385.991442304
 20
1372.0527920785
 30
0.0
 11
1693.610105314448
 21
0.0
 31
0.0
210
0.0
220
0.0
230
1.0
 40
0.7613156116
 41
4.603414300683635
 42
4.604513333029692
  0
ELLIPSE
  5
EE
330
1F
100
AcDbEntity
  8
0
  6
Continuous
 62
     7
100
AcDbEllipse
 10
201.4513444095
 20
1372.0527920885
 30
0.0
 11
0.0
 21
1289.371825649103
 31
0.0
210
0.0
220
0.0
230
1.0
 40
0.0024570399
 41
3.247311405600998
 42
3.250567421502555
  0
ELLIPSE
  5
EF
330
1F
100
AcDbEntity
  8
0
  6
Continuous
 62
     7
100
AcDbEllipse
 10
201.094625335
 20
1372.0527920818
 30
0.0
 11
0.0
 21
1289.371811505765
 31
0.0
210
0.0
220
0.0
230
1.0
 40
0.0013616676
 41
3.031726977699914
 42
3.03587486704643
  0
ELLIPSE
  5
F0
330
1F
100
AcDbEntity
  8
0
  6
Continuous
 62
     7
100
AcDbEllipse
 10
205.3557293717
 20
1372.0527921014
 30
0.0
 11
0.0
 21
1289.371813245594
 31
0.0
210
0.0
220
0.0
230
1.0
 40
0.0005088571
 41
3.031791613329439
 42
3.033019194043809
  0
ELLIPSE
  5
F1
330
1F
100
AcDbEntity
  8
0
  6
Continuous
 62
     7
100
AcDbEllipse
 10
209.0910372619
 20
1372.0527920817
 30
0.0
 11
0.0
 21
1289.371813921915
 31
0.0
210
0.0
220
0.0
230
1.0
 40
0.0005971183
 41
3.247922674542775
 42
3.251399010792815
  0
ELLIPSE
  5
F2
330
1F
100
AcDbEntity
  8
0
  6
Continuous
 62
     7
100
AcDbEllipse
 10
208.5592015008
 20
1372.0527920818
 30
0.0
 11
0.0
 21
1289.371813241069
 31
0.0
210
0.0
220
0.0
230
1.0
 40
0.0020558813
 41
3.031790429092903
 42
3.035868513769087
  0
ELLIPSE
  5
F3
330
1F
100
AcDbEntity
  8
0
  6
Continuous
 62
     7
100
AcDbEllipse
 10
198.3578253486
 20
1372.0527920815
 30
0.0
 11
0.0
 21
1289.412472074483
 31
0.0
210
0.0
220
0.0
230
1.0
 40
0.0023877749
 41
3.033215189741674
 42
3.033453059247874
  0
ELLIPSE
  5
F4
330
1F
100
AcDbEntity
  8
0
  6
Continuous
 62
     7
100
AcDbEllipse
 10
3094.3371103396
 20
1372.0527921467
 30
0.0
 11
26390.96503299831
 21
0.0
 31
0.0
210
0.0
220
0.0
230
1.0
 40
0.0488603509
 41
4.602448094236951
 42
4.602456566731629
  0
ELLIPSE
  5
F5
330
1F
100
AcDbEntity
  8
0
  6
Continuous
 62
     7
100
AcDbEllipse
 10
196.9188403767
 20
1372.0527920818
 30
0.0
 11
0.0
 21
1289.47303272367
 31
0.0
210
0.0
220
0.0
230
1.0
 40
0.0179639489
 41
3.250164334032831
 42
3.25040950932493
  0
ELLIPSE
  5
F6
330
1F
100
AcDbEntity
  8
0
  6
Continuous
 62
     7
100
AcDbEllipse
 10
212.0456296804
 20
1372.0527920818
 30
0.0
 11
0.0
 21
1289.471813237912
 31
0.0
210
0.0
220
0.0
230
1.0
 40
0.0011942371
 41
3.250147056084394
 42
3.250383169312729
  0
ELLIPSE
  5
F7
330
1F
100
AcDbEntity
  8
0
  6
Continuous
 62
     7
100
AcDbEllipse
 10
3120.8718711254
 20
1372.0527940765
 30
0.0
 11
26504.69303511518
 21
-2.501110429875553E-12
 31
0.0
210
0.0
220
0.0
230
1.0
 40
0.0486506979
 41
4.602453044563629
 42
4.602461517963329
  0
ELLIPSE
  5
F8
330
1F
100
AcDbEntity
  8
0
  6
Continuous
 62
     7
100
AcDbEllipse
 10
213.4552604165
 20
1372.0527935373
 30
0.0
 11
0.0
 21
1289.471813299529
 31
0.0
210
0.0
220
0.0
230
1.0
 40
0.0011942371
 41
3.250147393464948
 42
3.250391773205018
  0
ELLIPSE
  5
F9
330
1F
100
AcDbEntity
  8
0
  6
Continuous
 62
     7
100
AcDbEllipse
 10
198.0124466385
 20
1372.0527920818
 30
0.0
 11
0.0
 21
1289.471813241097
 31
0.0
210
0.0
220
0.0
230
1.0
 40
0.1450642469
 41
3.248447418262539
 42
3.248476554188903
  0
LINE
  5
FA
330
1F
100
AcDbEntity
  8
0
  6
Continuous
 62
     7
100
AcDbLine
 10
232.2341594508
 20
716.1064232579
 30
0.0
 11
232.2341594508
 21
716.1283875695
 31
0.0
  0
LINE
  5
FB
330
1F
100
AcDbEntity
  8
0
  6
Continuous
 62
     7
100
AcDbLine
 10
182.2341587058
 20
716.1284099212
 30
0.0
 11
182.2341587058
 21
716.1064754119
 31
0.0
  0
LINE
  5
FC
330
1F
100
AcDbEntity
  8
0
  6
Continuous
 62
     7
100
AcDbLine
 10
206.0710510368
 20
855.9659059039
 30
0.0
 11
207.9484456581
 21
855.9562797537
 31
0.0
  0
LINE
  5
FD
330
1F
100
AcDbEntity
  8
0
  6
Continuous
 62
     7
100
AcDbLine
 10
207.9484456581
 20
855.9562797537
 30
0.0
 11
207.6553627803
 21
856.8435097924
 31
0.0
  0
LINE
  5
FE
330
1F
100
AcDbEntity
  8
0
  6
Continuous
 62
     7
100
AcDbLine
 10
207.6553627803
 20
856.8435097924
 30
0.0
 11
206.1291493837
 21
856.8432117692
 31
0.0
  0
LINE
  5
FF
330
1F
100
AcDbEntity
  8
0
  6
Continuous
 62
     7
100
AcDbLine
 10
206.1291493837
 20
856.8432117692
 30
0.0
 11
206.128969522
 21
858.423316001
 31
0.0
  0
LINE
  5
100
330
1F
100
AcDbEntity
  8
0
  6
Continuous
 62
     7
100
AcDbLine
 10
206.128969522
 20
858.423316001
 30
0.0
 11
207.6974539914
 21
858.4235693207
 31
0.0
  0
LINE
  5
101
330
1F
100
AcDbEntity
  8
0
  6
Continuous
 62
     7
100
AcDbLine
 10
207.6974539914
 20
858.4235693207
 30
0.0
 11
207.6973837056
 21
859.3167896262
 31
0.0
  0
LINE
  5
102
330
1F
100
AcDbEntity
  8
0
  6
Continuous
 62
     7
100
AcDbLine
 10
207.6973837056
 20
859.3167896262
 30
0.0
 11
205.2833676234
 21
859.3154336205
 31
0.0
  0
LINE
  5
103
330
1F
100
AcDbEntity
  8
0
  6
Continuous
 62
     7
100
AcDbLine
 10
205.2833676234
 20
859.3154336205
 30
0.0
 11
205.2846337565
 21
856.8273122302
 31
0.0
  0
LINE
  5
104
330
1F
100
AcDbEntity
  8
0
  6
Continuous
 62
     7
100
AcDbLine
 10
205.2846337565
 20
856.8273122302
 30
0.0
 11
204.6136662493
 21
856.8270291081
 31
0.0
  0
LINE
  5
105
330
1F
100
AcDbEntity
  8
0
  6
Continuous
 62
     7
100
AcDbLine
 10
204.6136662493
 20
856.8270291081
 30
0.0
 11
204.6081625985
 21
859.3152101031
 31
0.0
  0
LINE
  5
106
330
1F
100
AcDbEntity
  8
0
  6
Continuous
 62
     7
100
AcDbLine
 10
204.6081625985
 20
859.3152101031
 30
0.0
 11
204.4218689798
 21
859.3154336205
 31
0.0
  0
LINE
  5
107
330
1F
100
AcDbEntity
  8
0
  6
Continuous
 62
     7
100
AcDbLine
 10
204.4218689798
 20
859.3154336205
 30
0.0
 11
203.6292035727
 21
859.3152995101
 31
0.0
  0
LINE
  5
108
330
1F
100
AcDbEntity
  8
0
  6
Continuous
 62
     7
100
AcDbLine
 10
203.6292035727
 20
859.3152995101
 30
0.0
 11
203.6298471166
 21
857.2144891015
 31
0.0
  0
LINE
  5
109
330
1F
100
AcDbEntity
  8
0
  6
Continuous
 62
     7
100
AcDbLine
 10
203.6298471166
 20
857.2144891015
 30
0.0
 11
200.9008829145
 21
859.3936945191
 31
0.0
  0
LINE
  5
10A
330
1F
100
AcDbEntity
  8
0
  6
Continuous
 62
     7
100
AcDbLine
 10
200.9008829145
 20
859.3936945191
 30
0.0
 11
200.9093626066
 21
853.1664545527
 31
0.0
  0
LINE
  5
10B
330
1F
100
AcDbEntity
  8
0
  6
Continuous
 62
     7
100
AcDbLine
 10
200.9093626066
 20
853.1664545527
 30
0.0
 11
201.7856416887
 21
853.1675274363
 31
0.0
  0
LINE
  5
10C
330
1F
100
AcDbEntity
  8
0
  6
Continuous
 62
     7
100
AcDbLine
 10
201.7856416887
 20
853.1675274363
 30
0.0
 11
201.7958978786
 21
857.3415811053
 31
0.0
  0
LINE
  5
10D
330
1F
100
AcDbEntity
  8
0
  6
Continuous
 62
     7
100
AcDbLine
 10
201.7958978786
 20
857.3415811053
 30
0.0
 11
203.6463000941
 21
855.9328402272
 31
0.0
  0
LINE
  5
10E
330
1F
100
AcDbEntity
  8
0
  6
Continuous
 62
     7
100
AcDbLine
 10
203.6463000941
 20
855.9328402272
 30
0.0
 11
203.647217214
 21
853.1525964728
 31
0.0
  0
LINE
  5
10F
330
1F
100
AcDbEntity
  8
0
  6
Continuous
 62
     7
100
AcDbLine
 10
203.647217214
 20
853.1525964728
 30
0.0
 11
204.4229956473
 21
853.1622673264
 31
0.0
  0
LINE
  5
110
330
1F
100
AcDbEntity
  8
0
  6
Continuous
 62
     7
100
AcDbLine
 10
204.4229956473
 20
853.1622673264
 30
0.0
 11
204.5944658703
 21
853.1684066048
 31
0.0
  0
LINE
  5
111
330
1F
100
AcDbEntity
  8
0
  6
Continuous
 62
     7
100
AcDbLine
 10
204.5944658703
 20
853.1684066048
 30
0.0
 11
204.5776848345
 21
855.9497083417
 31
0.0
  0
LINE
  5
112
330
1F
100
AcDbEntity
  8
0
  6
Continuous
 62
     7
100
AcDbLine
 10
204.5776848345
 20
855.9497083417
 30
0.0
 11
205.3058066767
 21
855.9499318591
 31
0.0
  0
LINE
  5
113
330
1F
100
AcDbEntity
  8
0
  6
Continuous
 62
     7
100
AcDbLine
 10
205.3058066767
 20
855.9499318591
 30
0.0
 11
205.3067416082
 21
853.1845147601
 31
0.0
  0
LINE
  5
114
330
1F
100
AcDbEntity
  8
0
  6
Continuous
 62
     7
100
AcDbLine
 10
205.3067416082
 20
853.1845147601
 30
0.0
 11
207.6572980104
 21
853.1848574868
 31
0.0
  0
LINE
  5
115
330
1F
100
AcDbEntity
  8
0
  6
Continuous
 62
     7
100
AcDbLine
 10
207.6572980104
 20
853.1848574868
 30
0.0
 11
207.6563053078
 21
854.084440588
 31
0.0
  0
LINE
  5
116
330
1F
100
AcDbEntity
  8
0
  6
Continuous
 62
     7
100
AcDbLine
 10
207.6563053078
 20
854.084440588
 30
0.0
 11
206.0719030805
 21
854.0831888905
 31
0.0
  0
LINE
  5
117
330
1F
100
AcDbEntity
  8
0
  6
Continuous
 62
     7
100
AcDbLine
 10
206.0719030805
 20
854.0831888905
 30
0.0
 11
206.0710510368
 21
855.9659059039
 31
0.0
  0
LINE
  5
118
330
1F
100
AcDbEntity
  8
0
  6
Continuous
 62
     7
100
AcDbLine
 10
79.2341529986
 20
655.9849205306
 30
0.0
 11
335.2341651581
 21
655.9849205306
 31
0.0
  0
LINE
  5
119
330
1F
100
AcDbEntity
  8
0
  6
Continuous
 62
     7
100
AcDbLine
 10
79.2341529986
 20
877.0526136151
 30
0.0
 11
79.2341529986
 21
655.9849205306
 31
0.0
  0
LINE
  5
11A
330
1F
100
AcDbEntity
  8
0
  6
Continuous
 62
     7
100
AcDbLine
 10
335.2341651581
 20
655.9849205306
 30
0.0
 11
335.2341651581
 21
877.052613615
 31
0.0
  0
LINE
  5
11B
330
1F
100
AcDbEntity
  8
0
  6
Continuous
 62
     7
100
AcDbLine
 10
211.4419517702
 20
856.7966605416
 30
0.0
 11
211.4569819196
 21
857.8719283333
 31
0.0
  0
LINE
  5
11C
330
1F
100
AcDbEntity
  8
0
  6
Continuous
 62
     7
100
AcDbLine
 10
210.9107183887
 20
856.7972863904
 30
0.0
 11
211.4419517702
 21
856.7966605416
 31
0.0
  0
LINE
  5
11D
330
1F
100
AcDbEntity
  8
0
  6
Continuous
 62
     7
100
AcDbLine
 10
210.7614755759
 20
856.7963923207
 30
0.0
 11
210.9107183887
 21
856.7972863904
 31
0.0
  0
LINE
  5
11E
330
1F
100
AcDbEntity
  8
0
  6
Continuous
 62
     7
100
AcDbLine
 10
210.9111996496
 20
856.3347841492
 30
0.0
 11
210.7614755759
 21
856.7963923207
 31
0.0
  0
LINE
  5
11F
330
1F
100
AcDbEntity
  8
0
  6
Continuous
 62
     7
100
AcDbLine
 10
211.0377500894
 20
855.94096136
 30
0.0
 11
210.9111996496
 21
856.3347841492
 31
0.0
  0
LINE
  5
120
330
1F
100
AcDbEntity
  8
0
  6
Continuous
 62
     7
100
AcDbLine
 10
211.4049815236
 20
855.9563840619
 30
0.0
 11
211.0377500894
 21
855.94096136
 31
0.0
  0
LINE
  5
121
330
1F
100
AcDbEntity
  8
0
  6
Continuous
 62
     7
100
AcDbLine
 10
211.4006210713
 20
853.1708205929
 30
0.0
 11
211.4049815236
 21
855.9563840619
 31
0.0
  0
LINE
  5
122
330
1F
100
AcDbEntity
  8
0
  6
Continuous
 62
     7
100
AcDbLine
 10
212.2356099671
 20
853.1709099999
 30
0.0
 11
211.4006210713
 21
853.1708205929
 31
0.0
  0
LINE
  5
123
330
1F
100
AcDbEntity
  8
0
  6
Continuous
 62
     7
100
AcDbLine
 10
212.2452156281
 20
855.9352840176
 30
0.0
 11
212.2356099671
 21
853.1709099999
 31
0.0
  0
LINE
  5
124
330
1F
100
AcDbEntity
  8
0
  6
Continuous
 62
     7
100
AcDbLine
 10
212.9205241463
 20
855.935507535
 30
0.0
 11
212.2452156281
 21
855.9352840176
 31
0.0
  0
LINE
  5
125
330
1F
100
AcDbEntity
  8
0
  6
Continuous
 62
     7
100
AcDbLine
 10
213.5692708789
 20
855.9358204594
 30
0.0
 11
212.9205241463
 21
855.935507535
 31
0.0
  0
LINE
  5
126
330
1F
100
AcDbEntity
  8
0
  6
Continuous
 62
     7
100
AcDbLine
 10
213.5702068581
 20
853.1714464417
 30
0.0
 11
213.5692708789
 21
855.9358204594
 31
0.0
  0
LINE
  5
127
330
1F
100
AcDbEntity
  8
0
  6
Continuous
 62
     7
100
AcDbLine
 10
214.4157373941
 20
853.1714613429
 30
0.0
 11
213.5702068581
 21
853.1714464417
 31
0.0
  0
LINE
  5
128
330
1F
100
AcDbEntity
  8
0
  6
Continuous
 62
     7
100
AcDbLine
 10
214.4299339361
 20
857.9625302961
 30
0.0
 11
214.4157373941
 21
853.1714613429
 31
0.0
  0
LINE
  5
129
330
1F
100
AcDbEntity
  8
0
  6
Continuous
 62
     7
100
AcDbLine
 10
212.8770518726
 20
859.4301900071
 30
0.0
 11
212.9944605399
 21
859.4300476389
 31
0.0
  0
LINE
  5
12A
330
1F
100
AcDbEntity
  8
0
  6
Continuous
 62
     7
100
AcDbLine
 10
209.1727474135
 20
853.9513732186
 30
0.0
 11
209.175951396
 21
859.317147254
 31
0.0
  0
LINE
  5
12B
330
1F
100
AcDbEntity
  8
0
  6
Continuous
 62
     7
100
AcDbLine
 10
209.175951396
 20
859.317147254
 30
0.0
 11
208.2668526227
 21
859.311872243
 31
0.0
  0
LINE
  5
12C
330
1F
100
AcDbEntity
  8
0
  6
Continuous
 62
     7
100
AcDbLine
 10
208.2668526227
 20
859.311872243
 30
0.0
 11
208.2794701809
 21
853.1745607844
 31
0.0
  0
LINE
  5
12D
330
1F
100
AcDbEntity
  8
0
  6
Continuous
 62
     7
100
AcDbLine
 10
208.2794701809
 20
853.1745607844
 30
0.0
 11
210.9115547164
 21
853.1703735581
 31
0.0
  0
LINE
  5
12E
330
1F
100
AcDbEntity
  8
0
  6
Continuous
 62
     7
100
AcDbLine
 10
210.9115547164
 20
853.1703735581
 30
0.0
 11
211.054491544
 21
853.1702096453
 31
0.0
  0
LINE
  5
12F
330
1F
100
AcDbEntity
  8
0
  6
Continuous
 62
     7
100
AcDbLine
 10
211.054491544
 20
853.1702096453
 30
0.0
 11
211.0596694647
 21
853.957601904
 31
0.0
  0
LINE
  5
130
330
1F
100
AcDbEntity
  8
0
  6
Continuous
 62
     7
100
AcDbLine
 10
211.0596694647
 20
853.957601904
 30
0.0
 11
210.9115633311
 21
853.9567376366
 31
0.0
  0
LINE
  5
131
330
1F
100
AcDbEntity
  8
0
  6
Continuous
 62
     7
100
AcDbLine
 10
210.9115633311
 20
853.9567376366
 30
0.0
 11
209.1727474135
 21
853.9513732186
 31
0.0
  0
LINE
  5
132
330
1F
100
AcDbEntity
  8
0
  6
Continuous
 62
     7
100
AcDbLine
 10
197.2539843655
 20
856.8082834473
 30
0.0
 11
197.2700464706
 21
857.8824583322
 31
0.0
  0
LINE
  5
133
330
1F
100
AcDbEntity
  8
0
  6
Continuous
 62
     7
100
AcDbLine
 10
196.5575916356
 20
856.8080748311
 30
0.0
 11
197.2539843655
 21
856.8082834473
 31
0.0
  0
LINE
  5
134
330
1F
100
AcDbEntity
  8
0
  6
Continuous
 62
     7
100
AcDbLine
 10
196.8401707372
 20
855.9525991669
 30
0.0
 11
196.5575916356
 21
856.8080748311
 31
0.0
  0
LINE
  5
135
330
1F
100
AcDbEntity
  8
0
  6
Continuous
 62
     7
100
AcDbLine
 10
197.211665999
 20
855.946877121
 30
0.0
 11
196.8401707372
 21
855.9525991669
 31
0.0
  0
LINE
  5
136
330
1F
100
AcDbEntity
  8
0
  6
Continuous
 62
     7
100
AcDbLine
 10
197.2125880083
 20
853.1708801976
 30
0.0
 11
197.211665999
 21
855.946877121
 31
0.0
  0
LINE
  5
137
330
1F
100
AcDbEntity
  8
0
  6
Continuous
 62
     7
100
AcDbLine
 10
198.0317243969
 20
853.1815196267
 30
0.0
 11
197.2125880083
 21
853.1708801976
 31
0.0
  0
LINE
  5
138
330
1F
100
AcDbEntity
  8
0
  6
Continuous
 62
     7
100
AcDbLine
 10
198.0307772419
 20
855.9363420001
 30
0.0
 11
198.0317243969
 21
853.1815196267
 31
0.0
  0
LINE
  5
139
330
1F
100
AcDbEntity
  8
0
  6
Continuous
 62
     7
100
AcDbLine
 10
198.7335318363
 20
855.9418554297
 30
0.0
 11
198.0307772419
 21
855.9363420001
 31
0.0
  0
LINE
  5
13A
330
1F
100
AcDbEntity
  8
0
  6
Continuous
 62
     7
100
AcDbLine
 10
199.3812517858
 20
855.9474433651
 30
0.0
 11
198.7335318363
 21
855.9418554297
 31
0.0
  0
LINE
  5
13B
330
1F
100
AcDbEntity
  8
0
  6
Continuous
 62
     7
100
AcDbLine
 10
199.3715800008
 20
853.1714464417
 30
0.0
 11
199.3812517858
 21
855.9474433651
 31
0.0
  0
LINE
  5
13C
330
1F
100
AcDbEntity
  8
0
  6
Continuous
 62
     7
100
AcDbLine
 10
200.211903978
 20
853.1820709696
 30
0.0
 11
199.3715800008
 21
853.1714464417
 31
0.0
  0
LINE
  5
13D
330
1F
100
AcDbEntity
  8
0
  6
Continuous
 62
     7
100
AcDbLine
 10
200.2208307742
 20
857.9742258052
 30
0.0
 11
200.211903978
 21
853.1820709696
 31
0.0
  0
LINE
  5
13E
330
1F
100
AcDbEntity
  8
0
  6
Continuous
 62
     7
100
AcDbLine
 10
198.7313478848
 20
859.4354475728
 30
0.0
 11
198.8054594342
 21
859.4416674649
 31
0.0
  0
LINE
  5
13F
330
1F
100
AcDbEntity
  8
0
  6
Continuous
 62
     7
100
AcDbLine
 10
198.6837539938
 20
859.4355082808
 30
0.0
 11
198.7313478848
 21
859.4354475728
 31
0.0
  0
LINE
  5
140
330
1F
100
AcDbEntity
  8
0
  6
Continuous
 62
     7
100
AcDbLine
 10
194.7339973333
 20
854.0956380292
 30
0.0
 11
192.9369466043
 21
854.0946329823
 31
0.0
  0
LINE
  5
141
330
1F
100
AcDbEntity
  8
0
  6
Continuous
 62
     7
100
AcDbLine
 10
192.9369466043
 20
854.0946329823
 30
0.0
 11
192.9369214585
 21
853.164353489
 31
0.0
  0
LINE
  5
142
330
1F
100
AcDbEntity
  8
0
  6
Continuous
 62
     7
100
AcDbLine
 10
192.9369214585
 20
853.164353489
 30
0.0
 11
194.8143802246
 21
853.1652624598
 31
0.0
  0
LINE
  5
143
330
1F
100
AcDbEntity
  8
0
  6
Continuous
 62
     7
100
AcDbLine
 10
195.3114274739
 20
859.9348547663
 30
0.0
 11
198.7319394634
 21
859.9307772961
 31
0.0
  0
LINE
  5
144
330
1F
100
AcDbEntity
  8
0
  6
Continuous
 62
     7
100
AcDbLine
 10
198.7319394634
 20
859.9307772961
 30
0.0
 11
204.4215662558
 21
859.9271265116
 31
0.0
  0
LINE
  5
145
330
1F
100
AcDbEntity
  8
0
  6
Continuous
 62
     7
100
AcDbLine
 10
204.4215662558
 20
859.9271265116
 30
0.0
 11
210.9091874831
 21
859.9288848486
 31
0.0
  0
LINE
  5
146
330
1F
100
AcDbEntity
  8
0
  6
Continuous
 62
     7
100
AcDbLine
 10
210.9091874831
 20
859.9288848486
 30
0.0
 11
212.9200167642
 21
859.9244145003
 31
0.0
  0
LINE
  5
147
330
1F
100
AcDbEntity
  8
0
  6
Continuous
 62
     7
100
AcDbLine
 10
212.9200167642
 20
859.9244145003
 30
0.0
 11
214.7276607961
 21
859.9254128781
 31
0.0
  0
LINE
  5
148
330
1F
100
AcDbEntity
  8
0
  6
Continuous
 62
     7
100
AcDbLine
 10
214.7276607961
 20
859.9254128781
 30
0.0
 11
214.7276160967
 21
860.8398257272
 31
0.0
  0
LINE
  5
149
330
1F
100
AcDbEntity
  8
0
  6
Continuous
 62
     7
100
AcDbLine
 10
214.7276160967
 20
860.8398257272
 30
0.0
 11
212.9188349199
 21
860.838782646
 31
0.0
  0
LINE
  5
14A
330
1F
100
AcDbEntity
  8
0
  6
Continuous
 62
     7
100
AcDbLine
 10
212.9188349199
 20
860.838782646
 30
0.0
 11
210.9091374286
 21
860.839065768
 31
0.0
  0
LINE
  5
14B
330
1F
100
AcDbEntity
  8
0
  6
Continuous
 62
     7
100
AcDbLine
 10
210.9091374286
 20
860.839065768
 30
0.0
 11
204.4215667256
 21
860.8362196462
 31
0.0
  0
LINE
  5
14C
330
1F
100
AcDbEntity
  8
0
  6
Continuous
 62
     7
100
AcDbLine
 10
204.4215667256
 20
860.8362196462
 30
0.0
 11
198.730893592
 21
860.8292757051
 31
0.0
  0
LINE
  5
14D
330
1F
100
AcDbEntity
  8
0
  6
Continuous
 62
     7
100
AcDbLine
 10
198.730893592
 20
860.8292757051
 30
0.0
 11
195.2479501915
 21
860.828158118
 31
0.0
  0
LINE
  5
14E
330
1F
100
AcDbEntity
  8
0
  6
Continuous
 62
     7
100
AcDbLine
 10
218.9769942988
 20
858.1753764109
 30
0.0
 11
219.1316590388
 21
858.0430540995
 31
0.0
  0
LINE
  5
14F
330
1F
100
AcDbEntity
  8
0
  6
Continuous
 62
     7
100
AcDbLine
 10
220.3400230657
 20
858.7032764322
 30
0.0
 11
220.3256637974
 21
858.7088756177
 31
0.0
  0
LINE
  5
150
330
1F
100
AcDbEntity
  8
0
  6
Continuous
 62
     7
100
AcDbLine
 10
220.3462200861
 20
858.7000726825
 30
0.0
 11
220.3400230657
 21
858.7032764322
 31
0.0
  0
LINE
  5
151
330
1F
100
AcDbEntity
  8
0
  6
Continuous
 62
     7
100
AcDbLine
 10
220.3519188489
 20
858.711948908
 30
0.0
 11
220.3462200861
 21
858.7000726825
 31
0.0
  0
LINE
  5
152
330
1F
100
AcDbEntity
  8
0
  6
Continuous
 62
     7
100
AcDbLine
 10
217.9281795279
 20
860.8674804378
 30
0.0
 11
217.9602255133
 21
860.8730212142
 31
0.0
  0
LINE
  5
153
330
1F
100
AcDbEntity
  8
0
  6
Continuous
 62
     7
100
AcDbLine
 10
217.4550295206
 20
860.8673185367
 30
0.0
 11
217.4979862708
 21
860.8353863385
 31
0.0
  0
LINE
  5
154
330
1F
100
AcDbEntity
  8
0
  6
Continuous
 62
     7
100
AcDbLine
 10
215.3811184353
 20
861.7070103875
 30
0.0
 11
215.3811378485
 21
861.7230254371
 31
0.0
  0
LINE
  5
155
330
1F
100
AcDbEntity
  8
0
  6
Continuous
 62
     7
100
AcDbLine
 10
215.3812022543
 20
861.4304895392
 30
0.0
 11
215.3811184353
 21
861.7070103875
 31
0.0
  0
LINE
  5
156
330
1F
100
AcDbEntity
  8
0
  6
Continuous
 62
     7
100
AcDbLine
 10
215.5862276881
 20
858.8984143937
 30
0.0
 11
215.6148150824
 21
858.9502051195
 31
0.0
  0
LINE
  5
157
330
1F
100
AcDbEntity
  8
0
  6
Continuous
 62
     7
100
AcDbLine
 10
215.6762529283
 20
858.8156301749
 30
0.0
 11
215.6534151304
 21
858.8185973641
 31
0.0
  0
LINE
  5
158
330
1F
100
AcDbEntity
  8
0
  6
Continuous
 62
     7
100
AcDbLine
 10
218.0216736973
 20
852.4385944779
 30
0.0
 11
217.962865713
 21
852.4385552719
 31
0.0
  0
LINE
  5
159
330
1F
100
AcDbEntity
  8
0
  6
Continuous
 62
     7
100
AcDbLine
 10
220.6317336505
 20
855.4549052531
 30
0.0
 11
220.6317433251
 21
855.289930562
 31
0.0
  0
LINE
  5
15A
330
1F
100
AcDbEntity
  8
0
  6
Continuous
 62
     7
100
AcDbLine
 10
219.2481101457
 20
858.1929834956
 30
0.0
 11
219.2534912475
 21
858.1983496245
 31
0.0
  0
LINE
  5
15B
330
1F
100
AcDbEntity
  8
0
  6
Continuous
 62
     7
100
AcDbLine
 10
221.9434590779
 20
860.3634353829
 30
0.0
 11
221.938291692
 21
860.363434966
 31
0.0
  0
LINE
  5
15C
330
1F
100
AcDbEntity
  8
0
  6
Continuous
 62
     7
100
AcDbLine
 10
221.937876161
 20
861.746349453
 30
0.0
 11
221.9428368413
 21
861.7463501167
 31
0.0
  0
LINE
  5
15D
330
1F
100
AcDbEntity
  8
0
  6
Continuous
 62
     7
100
AcDbLine
 10
337.2341543099
 20
876.8045390835
 30
0.0
 11
337.2341543099
 21
656.0797254432
 31
0.0
  0
LINE
  5
15E
330
1F
100
AcDbEntity
  8
0
  6
Continuous
 62
     7
100
AcDbLine
 10
77.2341638467
 20
656.0797254434
 30
0.0
 11
77.2341638467
 21
876.8045390835
 31
0.0
  0
LINE
  5
15F
330
1F
100
AcDbEntity
  8
0
  6
Continuous
 62
     7
100
AcDbLine
 10
335.2341651581
 20
655.9849205306
 30
0.0
 11
335.2341651581
 21
654.4830362192
 31
0.0
  0
LINE
  5
160
330
1F
100
AcDbEntity
  8
0
  6
Continuous
 62
     7
100
AcDbLine
 10
335.2341651581
 20
654.4830362192
 30
0.0
 11
79.2341529986
 21
654.4830362192
 31
0.0
  0
LINE
  5
161
330
1F
100
AcDbEntity
  8
0
  6
Continuous
 62
     7
100
AcDbLine
 10
79.2341529986
 20
655.9849205306
 30
0.0
 11
79.2341529986
 21
654.4830362192
 31
0.0
  0
LINE
  5
162
330
1F
100
AcDbEntity
  8
0
  6
Continuous
 62
     7
100
AcDbLine
 10
335.2341651581
 20
615.0505925408
 30
0.0
 11
335.2341651581
 21
654.4830362192
 31
0.0
  0
LINE
  5
163
330
1F
100
AcDbEntity
  8
0
  6
Continuous
 62
     7
100
AcDbLine
 10
337.2341543099
 20
656.0797254432
 30
0.0
 11
337.2341590783
 21
617.0505927851
 31
0.0
  0
LINE
  5
164
330
1F
100
AcDbEntity
  8
0
  6
Continuous
 62
     7
100
AcDbLine
 10
79.2341529986
 20
654.4830362192
 30
0.0
 11
79.2341529986
 21
615.0505925408
 31
0.0
  0
LINE
  5
165
330
1F
100
AcDbEntity
  8
0
  6
Continuous
 62
     7
100
AcDbLine
 10
77.2341590783
 20
617.0505927851
 30
0.0
 11
77.2341638467
 21
656.0797254434
 31
0.0
  0
LINE
  5
166
330
1F
100
AcDbEntity
  8
0
  6
Continuous
 62
     7
100
AcDbLine
 10
232.2546087096
 20
633.3339602834
 30
0.0
 11
167.638360349
 21
633.3339602834
 31
0.0
  0
LINE
  5
167
330
1F
100
AcDbEntity
  8
0
  6
Continuous
 62
     7
100
AcDbLine
 10
102.2341584823
 20
623.7708019904
 30
0.0
 11
163.3710307334
 21
623.7708019904
 31
0.0
  0
LINE
  5
168
330
1F
100
AcDbEntity
  8
0
  6
Continuous
 62
     7
100
AcDbLine
 10
97.2341584823
 20
622.3545057642
 30
0.0
 11
97.2341590783
 21
621.059843391
 31
0.0
  0
LINE
  5
169
330
1F
100
AcDbEntity
  8
0
  6
Continuous
 62
     7
100
AcDbLine
 10
102.2341590783
 20
619.887417729
 30
0.0
 11
163.3710339329
 21
619.887417729
 31
0.0
  0
LINE
  5
16A
330
1F
100
AcDbEntity
  8
0
  6
Continuous
 62
     7
100
AcDbLine
 10
186.6528384285
 20
616.7611872085
 30
0.0
 11
227.8154783306
 21
616.7611872085
 31
0.0
  0
LINE
  5
16B
330
1F
100
AcDbEntity
  8
0
  6
Continuous
 62
     7
100
AcDbLine
 10
251.0972828287
 20
619.8874177294
 30
0.0
 11
312.2341550798
 21
619.8874177294
 31
0.0
  0
LINE
  5
16C
330
1F
100
AcDbEntity
  8
0
  6
Continuous
 62
     7
100
AcDbLine
 10
317.234154483
 20
622.3545057639
 30
0.0
 11
317.2341550798
 21
621.0598433914
 31
0.0
  0
LINE
  5
16D
330
1F
100
AcDbEntity
  8
0
  6
Continuous
 62
     7
100
AcDbLine
 10
251.0972796284
 20
623.7708019902
 30
0.0
 11
312.234154483
 21
623.7708019902
 31
0.0
  0
LINE
  5
16E
330
1F
100
AcDbEntity
  8
0
  6
Continuous
 62
     7
100
AcDbLine
 10
335.2341651581
 20
615.0505925408
 30
0.0
 11
79.2341529986
 21
615.0505925408
 31
0.0
  0
LINE
  5
16F
330
1F
100
AcDbEntity
  8
0
  6
Continuous
 62
     7
100
AcDbLine
 10
251.0972827805
 20
622.2688203633
 30
0.0
 11
312.2341550798
 21
622.2688203633
 31
0.0
  0
LINE
  5
170
330
1F
100
AcDbEntity
  8
0
  6
Continuous
 62
     7
100
AcDbLine
 10
186.6528384618
 20
619.1753772711
 30
0.0
 11
227.8154783306
 21
619.1753772711
 31
0.0
  0
LINE
  5
171
330
1F
100
AcDbEntity
  8
0
  6
Continuous
 62
     7
100
AcDbLine
 10
102.2341623566
 20
622.2688202461
 30
0.0
 11
163.3710346077
 21
622.2688202461
 31
0.0
  0
LINE
  5
172
330
1F
100
AcDbEntity
  8
0
  6
Continuous
 62
     7
100
AcDbLine
 10
217.9986510574
 20
857.8258191735
 30
0.0
 11
217.9611399806
 21
857.8308765881
 31
0.0
  0
LINE
  5
173
330
1F
100
AcDbEntity
  8
0
  6
Continuous
 62
     7
100
AcDbLine
 10
217.9622840352
 20
854.6347889583
 30
0.0
 11
217.9677029995
 21
854.672144574
 31
0.0
  0
LINE
  5
174
330
1F
100
AcDbEntity
  8
0
  6
Continuous
 62
     7
100
AcDbLine
 10
217.4577503948
 20
852.5874013426
 30
0.0
 11
217.4630148455
 21
852.5819173498
 31
0.0
  0
LINE
  5
175
330
1F
100
AcDbEntity
  8
0
  6
Continuous
 62
     7
100
AcDbLine
 10
218.9438661984
 20
858.129426501
 30
0.0
 11
218.9399317374
 21
858.1239045779
 31
0.0
  0
LINE
  5
176
330
1F
100
AcDbEntity
  8
0
  6
Continuous
 62
     7
100
AcDbLine
 10
218.664764393
 20
854.8002476683
 30
0.0
 11
218.6326279276
 21
854.8051408746
 31
0.0
  0
LINE
  5
177
330
1F
100
AcDbEntity
  8
0
  6
Continuous
 62
     7
100
AcDbLine
 10
198.0255329645
 20
856.8243021956
 30
0.0
 11
198.7324673346
 21
856.8244959107
 31
0.0
  0
LINE
  5
178
330
1F
100
AcDbEntity
  8
0
  6
Continuous
 62
     7
100
AcDbLine
 10
198.0248102582
 20
857.1280623665
 30
0.0
 11
198.0255329645
 21
856.8243021956
 31
0.0
  0
LINE
  5
179
330
1F
100
AcDbEntity
  8
0
  6
Continuous
 62
     7
100
AcDbLine
 10
198.7324577142
 20
858.5908960906
 30
0.0
 11
198.6837849338
 21
858.5962307063
 31
0.0
  0
LINE
  5
17A
330
1F
100
AcDbEntity
  8
0
  6
Continuous
 62
     7
100
AcDbLine
 10
198.9547057395
 20
858.5800480452
 30
0.0
 11
198.7324577142
 21
858.5908960906
 31
0.0
  0
LINE
  5
17B
330
1F
100
AcDbEntity
  8
0
  6
Continuous
 62
     7
100
AcDbLine
 10
199.4288595988
 20
856.8247492304
 30
0.0
 11
199.4345061799
 21
857.1390451489
 31
0.0
  0
LINE
  5
17C
330
1F
100
AcDbEntity
  8
0
  6
Continuous
 62
     7
100
AcDbLine
 10
198.7324673346
 20
856.8244959107
 30
0.0
 11
199.4288595988
 21
856.8247492304
 31
0.0
  0
LINE
  5
17D
330
1F
100
AcDbEntity
  8
0
  6
Continuous
 62
     7
100
AcDbLine
 10
212.2124684638
 20
856.8137223712
 30
0.0
 11
212.9204361363
 21
856.8139160862
 31
0.0
  0
LINE
  5
17E
330
1F
100
AcDbEntity
  8
0
  6
Continuous
 62
     7
100
AcDbLine
 10
212.2128298169
 20
857.1163947573
 30
0.0
 11
212.2124684638
 21
856.8137223712
 31
0.0
  0
LINE
  5
17F
330
1F
100
AcDbEntity
  8
0
  6
Continuous
 62
     7
100
AcDbLine
 10
212.919450406
 20
858.5845518281
 30
0.0
 11
212.8611592168
 21
858.5846274866
 31
0.0
  0
LINE
  5
180
330
1F
100
AcDbEntity
  8
0
  6
Continuous
 62
     7
100
AcDbLine
 10
213.1426795796
 20
858.5737037827
 30
0.0
 11
212.919450406
 21
858.5845518281
 31
0.0
  0
LINE
  5
181
330
1F
100
AcDbEntity
  8
0
  6
Continuous
 62
     7
100
AcDbLine
 10
213.6220996863
 20
856.8141545048
 30
0.0
 11
213.6224737252
 21
857.1274298941
 31
0.0
  0
LINE
  5
182
330
1F
100
AcDbEntity
  8
0
  6
Continuous
 62
     7
100
AcDbLine
 10
212.9204361363
 20
856.8139160862
 30
0.0
 11
213.6220996863
 21
856.8141545048
 31
0.0
  0
LINE
  5
183
330
1F
100
AcDbEntity
  8
0
  6
Continuous
 62
     7
100
AcDbLine
 10
218.2643687657
 20
858.2562768903
 30
0.0
 11
218.141895512
 21
858.2562161311
 31
0.0
  0
LINE
  5
184
330
1F
100
AcDbEntity
  8
0
  6
Continuous
 62
     7
100
AcDbLine
 10
217.9609741679
 20
858.3840663424
 30
0.0
 11
218.2643148636
 21
858.3842278923
 31
0.0
  0
LINE
  5
185
330
1F
100
AcDbEntity
  8
0
  6
Continuous
 62
     7
100
AcDbLine
 10
217.7751455119
 20
858.383932232
 30
0.0
 11
217.9609741679
 21
858.3840663424
 31
0.0
  0
LINE
  5
186
330
1F
100
AcDbEntity
  8
0
  6
Continuous
 62
     7
100
AcDbLine
 10
217.8922979666
 20
858.2560491215
 30
0.0
 11
217.7751994139
 21
858.25598123
 31
0.0
  0
LINE
  5
187
330
1F
100
AcDbEntity
  8
0
  6
Continuous
 62
     7
100
AcDbLine
 10
218.0246002635
 20
859.6497560731
 30
0.0
 11
217.9606313693
 21
859.6551082327
 31
0.0
  0
LINE
  5
188
330
1F
100
AcDbEntity
  8
0
  6
Continuous
 62
     7
100
AcDbLine
 10
218.875279206
 20
859.979678283
 30
0.0
 11
218.8490018547
 21
859.9584169452
 31
0.0
  0
LINE
  5
189
330
1F
100
AcDbEntity
  8
0
  6
Continuous
 62
     7
100
AcDbLine
 10
217.9606539207
 20
859.5009056219
 30
0.0
 11
218.0192552043
 21
859.5009362391
 31
0.0
  0
LINE
  5
18A
330
1F
100
AcDbEntity
  8
0
  6
Continuous
 62
     7
100
AcDbLine
 10
215.6726329376
 20
858.9869767229
 30
0.0
 11
215.6758391575
 21
858.9888849233
 31
0.0
  0
LINE
  5
18B
330
1F
100
AcDbEntity
  8
0
  6
Continuous
 62
     7
100
AcDbLine
 10
217.960330624
 20
860.7878620616
 30
0.0
 11
217.9497880524
 21
860.7878620616
 31
0.0
  0
LINE
  5
18C
330
1F
100
AcDbEntity
  8
0
  6
Continuous
 62
     7
100
AcDbLine
 10
218.8489158378
 20
860.059489066
 30
0.0
 11
218.8648513339
 21
860.0752485458
 31
0.0
  0
LINE
  5
18D
330
1F
100
AcDbEntity
  8
0
  6
Continuous
 62
     7
100
AcDbLine
 10
217.9606228472
 20
859.734889387
 30
0.0
 11
218.0245922967
 21
859.7296407483
 31
0.0
  0
LINE
  5
18E
330
1F
100
AcDbEntity
  8
0
  6
Continuous
 62
     7
100
AcDbLine
 10
215.9609416736
 20
859.8139210084
 30
0.0
 11
216.0253351705
 21
859.9043296048
 31
0.0
  0
LINE
  5
18F
330
1F
100
AcDbEntity
  8
0
  6
Continuous
 62
     7
100
AcDbLine
 10
218.9392280623
 20
860.6498484696
 30
0.0
 11
218.9656671056
 21
860.6336895448
 31
0.0
  0
LINE
  5
190
330
1F
100
AcDbEntity
  8
0
  6
Continuous
 62
     7
100
AcDbLine
 10
218.8008045441
 20
860.7080961457
 30
0.0
 11
218.8487414377
 21
860.6921762073
 31
0.0
  0
LINE
  5
191
330
1F
100
AcDbEntity
  8
0
  6
Continuous
 62
     7
100
AcDbLine
 10
218.848708052
 20
860.7507730713
 30
0.0
 11
218.8008045441
 21
860.7080961457
 31
0.0
  0
LINE
  5
192
330
1F
100
AcDbEntity
  8
0
  6
Continuous
 62
     7
100
AcDbLine
 10
218.6630822811
 20
859.3628140538
 30
0.0
 11
218.6573977541
 21
859.3627174896
 31
0.0
  0
LINE
  5
193
330
1F
100
AcDbEntity
  8
0
  6
Continuous
 62
     7
100
AcDbLine
 10
218.6575861207
 20
859.0011886865
 30
0.0
 11
218.6632706476
 21
859.0012852507
 31
0.0
  0
LINE
  5
194
330
1F
100
AcDbEntity
  8
0
  6
Continuous
 62
     7
100
AcDbLine
 10
221.9540774485
 20
861.3794381609
 30
0.0
 11
221.9805359449
 21
861.3794020935
 31
0.0
  0
LINE
  5
195
330
1F
100
AcDbEntity
  8
0
  6
Continuous
 62
     7
100
AcDbLine
 10
221.7040666974
 20
861.3793189517
 30
0.0
 11
221.9540774485
 21
861.3794381609
 31
0.0
  0
LINE
  5
196
330
1F
100
AcDbEntity
  8
0
  6
Continuous
 62
     7
100
AcDbLine
 10
221.7043442315
 20
860.7465411416
 30
0.0
 11
221.7040666974
 21
861.3793189517
 31
0.0
  0
LINE
  5
197
330
1F
100
AcDbEntity
  8
0
  6
Continuous
 62
     7
100
AcDbLine
 10
221.7890936545
 20
860.7465411416
 30
0.0
 11
221.7043442315
 21
860.7465411416
 31
0.0
  0
LINE
  5
198
330
1F
100
AcDbEntity
  8
0
  6
Continuous
 62
     7
100
AcDbLine
 10
221.7890107667
 20
861.0230619898
 30
0.0
 11
221.7890936545
 21
860.7465411416
 31
0.0
  0
LINE
  5
199
330
1F
100
AcDbEntity
  8
0
  6
Continuous
 62
     7
100
AcDbLine
 10
221.884818714
 20
861.0230470887
 30
0.0
 11
221.7890107667
 21
861.0230619898
 31
0.0
  0
LINE
  5
19A
330
1F
100
AcDbEntity
  8
0
  6
Continuous
 62
     7
100
AcDbLine
 10
221.9272972679
 20
861.0231066933
 30
0.0
 11
221.884818714
 21
861.0230470887
 31
0.0
  0
LINE
  5
19B
330
1F
100
AcDbEntity
  8
0
  6
Continuous
 62
     7
100
AcDbLine
 10
221.9540523028
 20
861.0123778573
 30
0.0
 11
221.9272972679
 21
861.0231066933
 31
0.0
  0
LINE
  5
19C
330
1F
100
AcDbEntity
  8
0
  6
Continuous
 62
     7
100
AcDbLine
 10
221.9646917319
 20
861.0068793288
 30
0.0
 11
221.9540523028
 21
861.0123778573
 31
0.0
  0
LINE
  5
19D
330
1F
100
AcDbEntity
  8
0
  6
Continuous
 62
     7
100
AcDbLine
 10
222.0071190631
 20
860.9645153275
 30
0.0
 11
221.9646917319
 21
861.0068793288
 31
0.0
  0
LINE
  5
19E
330
1F
100
AcDbEntity
  8
0
  6
Continuous
 62
     7
100
AcDbLine
 10
222.1562034441
 20
860.746619322
 30
0.0
 11
222.0709927979
 21
860.8793279024
 31
0.0
  0
LINE
  5
19F
330
1F
100
AcDbEntity
  8
0
  6
Continuous
 62
     7
100
AcDbLine
 10
222.2571788686
 20
860.746596206
 30
0.0
 11
222.1562034441
 21
860.746619322
 31
0.0
  0
LINE
  5
1A0
330
1F
100
AcDbEntity
  8
0
  6
Continuous
 62
     7
100
AcDbLine
 10
222.1507286983
 20
860.9221169837
 30
0.0
 11
222.2571788686
 21
860.746596206
 31
0.0
  0
LINE
  5
1A1
330
1F
100
AcDbEntity
  8
0
  6
Continuous
 62
     7
100
AcDbLine
 10
222.028486199
 20
861.0286166335
 30
0.0
 11
222.0815773677
 21
861.0017813293
 31
0.0
  0
LINE
  5
1A2
330
1F
100
AcDbEntity
  8
0
  6
Continuous
 62
     7
100
AcDbLine
 10
221.7889343983
 20
861.3050068608
 30
0.0
 11
221.7889958656
 21
861.0974783888
 31
0.0
  0
LINE
  5
1A3
330
1F
100
AcDbEntity
  8
0
  6
Continuous
 62
     7
100
AcDbLine
 10
221.9539889727
 20
861.3050217619
 30
0.0
 11
221.8714551663
 21
861.3050217619
 31
0.0
  0
LINE
  5
1A4
330
1F
100
AcDbEntity
  8
0
  6
Continuous
 62
     7
100
AcDbLine
 10
221.8714551663
 20
861.3050217619
 30
0.0
 11
221.7889343983
 21
861.3050068608
 31
0.0
  0
LINE
  5
1A5
330
1F
100
AcDbEntity
  8
0
  6
Continuous
 62
     7
100
AcDbLine
 10
221.9858215785
 20
861.3050813666
 30
0.0
 11
221.9539889727
 21
861.3050217619
 31
0.0
  0
LINE
  5
1A6
330
1F
100
AcDbEntity
  8
0
  6
Continuous
 62
     7
100
AcDbLine
 10
222.1029363438
 20
861.1453808663
 30
0.0
 11
222.11871634
 21
861.2042052204
 31
0.0
  0
LINE
  5
1A7
330
1F
100
AcDbEntity
  8
0
  6
Continuous
 62
     7
100
AcDbLine
 10
222.0551427319
 20
861.1079640506
 30
0.0
 11
222.1029363438
 21
861.1453808663
 31
0.0
  0
LINE
  5
1A8
330
1F
100
AcDbEntity
  8
0
  6
Continuous
 62
     7
100
AcDbLine
 10
221.9540513716
 20
861.09749329
 30
0.0
 11
221.9646963885
 21
861.0974783888
 31
0.0
  0
LINE
  5
1A9
330
1F
100
AcDbEntity
  8
0
  6
Continuous
 62
     7
100
AcDbLine
 10
221.7889958656
 20
861.0974783888
 30
0.0
 11
221.871517565
 21
861.0974783888
 31
0.0
  0
LINE
  5
1AA
330
1F
100
AcDbEntity
  8
0
  6
Continuous
 62
     7
100
AcDbLine
 10
221.871517565
 20
861.0974783888
 30
0.0
 11
221.9540513716
 21
861.09749329
 31
0.0
  0
LINE
  5
1AB
330
1F
100
AcDbEntity
  8
0
  6
Continuous
 62
     7
100
AcDbLine
 10
312.2341550798
 20
619.8874177294
 30
0.0
 11
312.2341550798
 21
622.2688203633
 31
0.0
  0
LINE
  5
1AC
330
1F
100
AcDbEntity
  8
0
  6
Continuous
 62
     7
100
AcDbLine
 10
102.2341623566
 20
622.2688202461
 30
0.0
 11
102.2341590783
 21
619.887417729
 31
0.0
  0
LINE
  5
1AD
330
1F
100
AcDbEntity
  8
0
  6
Continuous
 62
     7
100
AcDbLine
 10
163.3710339329
 20
619.887417729
 30
0.0
 11
163.3710346077
 21
622.2688202461
 31
0.0
  0
LINE
  5
1AE
330
1F
100
AcDbEntity
  8
0
  6
Continuous
 62
     7
100
AcDbLine
 10
166.7158582658
 20
621.9893605121
 30
0.0
 11
166.715857591
 21
619.6062637771
 31
0.0
  0
LINE
  5
1AF
330
1F
100
AcDbEntity
  8
0
  6
Continuous
 62
     7
100
AcDbLine
 10
247.7524591706
 20
619.6062637775
 30
0.0
 11
247.7524591223
 21
621.9893606294
 31
0.0
  0
LINE
  5
1B0
330
1F
100
AcDbEntity
  8
0
  6
Continuous
 62
     7
100
AcDbLine
 10
251.0972827805
 20
622.2688203633
 30
0.0
 11
251.0972828287
 21
619.8874177294
 31
0.0
  0
LINE
  5
1B1
330
1F
100
AcDbEntity
  8
0
  6
Continuous
 62
     7
100
AcDbLine
 10
231.1603019887
 20
619.3490667172
 30
0.0
 11
231.1603019887
 21
616.9380165761
 31
0.0
  0
LINE
  5
1B2
330
1F
100
AcDbEntity
  8
0
  6
Continuous
 62
     7
100
AcDbLine
 10
183.3080147704
 20
616.9380165761
 30
0.0
 11
183.3080148037
 21
619.3490667172
 31
0.0
  0
LINE
  5
1B3
330
1F
100
AcDbEntity
  8
0
  6
Continuous
 62
     7
100
AcDbLine
 10
227.8154783306
 20
616.7611872085
 30
0.0
 11
227.8154783306
 21
619.1753772711
 31
0.0
  0
LINE
  5
1B4
330
1F
100
AcDbEntity
  8
0
  6
Continuous
 62
     7
100
AcDbLine
 10
186.6528384618
 20
619.1753772711
 30
0.0
 11
186.6528384285
 21
616.7611872085
 31
0.0
  0
LINE
  5
1B5
330
1F
100
AcDbEntity
  8
0
  6
Continuous
 62
     7
100
AcDbLine
 10
334.7341590783
 20
613.5505925408
 30
0.0
 11
79.7341590783
 21
613.5505925408
 31
0.0
  0
LINE
  5
1B6
330
1F
100
AcDbEntity
  8
0
  6
Continuous
 62
     7
100
AcDbLine
 10
338.7341648003
 20
908.529647707
 30
0.0
 11
338.7341590783
 21
617.5505924621
 31
0.0
  0
LINE
  5
1B7
330
1F
100
AcDbEntity
  8
0
  6
Continuous
 62
     7
100
AcDbLine
 10
75.7341590783
 20
617.5505925408
 30
0.0
 11
75.7341533563
 21
908.529647707
 31
0.0
  0
LINE
  5
1B8
330
1F
100
AcDbEntity
  8
0
  6
Continuous
 62
     7
100
AcDbLine
 10
334.8341590581
 20
613.450592561
 30
0.0
 11
79.6341597495
 21
613.450592561
 31
0.0
  0
LINE
  5
1B9
330
1F
100
AcDbEntity
  8
0
  6
Continuous
 62
     7
100
AcDbLine
 10
338.8341664729
 20
908.5296477272
 30
0.0
 11
338.8341590581
 21
617.4505924591
 31
0.0
  0
LINE
  5
1BA
330
1F
100
AcDbEntity
  8
0
  6
Continuous
 62
     7
100
AcDbLine
 10
75.6341590783
 20
617.4505924389
 30
0.0
 11
75.6341516635
 21
908.529647707
 31
0.0
  0
LINE
  5
1BB
330
1F
100
AcDbEntity
  8
0
  6
Continuous
 62
     7
100
AcDbLine
 10
750.4367071246
 20
924.6505881539
 30
0.0
 11
736.4367080895
 21
924.6505881539
 31
0.0
  0
LINE
  5
1BC
330
1F
100
AcDbEntity
  8
0
  6
Continuous
 62
     7
100
AcDbLine
 10
754.4367073146
 20
924.5506013623
 30
0.0
 11
750.4367071246
 21
924.5506013623
 31
0.0
  0
LINE
  5
1BD
330
1F
100
AcDbEntity
  8
0
  6
Continuous
 62
     7
100
AcDbLine
 10
762.0336936829
 20
921.2714220276
 30
0.0
 11
754.4367073146
 21
923.0505908719
 31
0.0
  0
LINE
  5
1BE
330
1F
100
AcDbEntity
  8
0
  6
Continuous
 62
     7
100
AcDbLine
 10
874.1792200176
 20
691.0710717431
 30
0.0
 11
874.7391460506
 21
691.0956735602
 31
0.0
  0
LINE
  5
1BF
330
1F
100
AcDbEntity
  8
0
  6
Continuous
 62
     7
100
AcDbLine
 10
866.4026988713
 20
860.8281548014
 30
0.0
 11
866.3020713297
 21
860.8281548014
 31
0.0
  0
LINE
  5
1C0
330
1F
100
AcDbEntity
  8
0
  6
Continuous
 62
     7
100
AcDbLine
 10
866.5578944651
 20
859.4419593802
 30
0.0
 11
866.5574027268
 21
859.4419593802
 31
0.0
  0
LINE
  5
1C1
330
1F
100
AcDbEntity
  8
0
  6
Continuous
 62
     7
100
AcDbLine
 10
866.6529415218
 20
858.5822070828
 30
0.0
 11
866.6525913445
 21
858.5822070828
 31
0.0
  0
LINE
  5
1C2
330
1F
100
AcDbEntity
  8
0
  6
Continuous
 62
     7
100
AcDbLine
 10
873.6758215395
 20
774.1290415516
 30
0.0
 11
873.1764314739
 21
774.1070921412
 31
0.0
  0
LINE
  5
1C3
330
1F
100
AcDbEntity
  8
0
  6
Continuous
 62
     7
100
AcDbLine
 10
866.559406933
 20
859.4308282128
 30
0.0
 11
866.5586395232
 21
859.4308282128
 31
0.0
  0
LINE
  5
1C4
330
1F
100
AcDbEntity
  8
0
  6
Continuous
 62
     7
100
AcDbLine
 10
866.6191903917
 20
858.8859225503
 30
0.0
 11
866.6190339295
 21
858.8859225503
 31
0.0
  0
LINE
  5
1C5
330
1F
100
AcDbEntity
  8
0
  6
Continuous
 62
     7
100
AcDbLine
 10
866.407660958
 20
860.7896054974
 30
0.0
 11
866.4070127574
 21
860.7896054974
 31
0.0
  0
LINE
  5
1C6
330
1F
100
AcDbEntity
  8
0
  6
Continuous
 62
     7
100
AcDbLine
 10
866.6262237398
 20
858.8245595685
 30
0.0
 11
866.6258139578
 21
858.8245595685
 31
0.0
  0
LINE
  5
1C7
330
1F
100
AcDbEntity
  8
0
  6
Continuous
 62
     7
100
AcDbLine
 10
736.4367080895
 20
908.5296477069
 30
0.0
 11
750.4367071246
 21
908.5296477069
 31
0.0
  0
LINE
  5
1C8
330
1F
100
AcDbEntity
  8
0
  6
Continuous
 62
     7
100
AcDbLine
 10
736.4367080895
 20
920.337417244
 30
0.0
 11
750.4367071246
 21
920.337417244
 31
0.0
  0
LINE
  5
1C9
330
1F
100
AcDbEntity
  8
0
  6
Continuous
 62
     7
100
AcDbLine
 10
750.4367071246
 20
617.4505926547
 30
0.0
 11
750.4367071246
 21
908.5296477069
 31
0.0
  0
LINE
  5
1CA
330
1F
100
AcDbEntity
  8
0
  6
Continuous
 62
     7
100
AcDbLine
 10
736.4367080895
 20
617.4505926547
 30
0.0
 11
750.4367071246
 21
617.4505926547
 31
0.0
  0
LINE
  5
1CB
330
1F
100
AcDbEntity
  8
0
  6
Continuous
 62
     7
100
AcDbLine
 10
736.4367080895
 20
617.4505926547
 30
0.0
 11
736.4367080895
 21
908.5296477069
 31
0.0
  0
LINE
  5
1CC
330
1F
100
AcDbEntity
  8
0
  6
Continuous
 62
     7
100
AcDbLine
 10
750.4367071246
 20
613.4505925811
 30
0.0
 11
736.4367080895
 21
613.4505925811
 31
0.0
  0
LINE
  5
1CD
330
1F
100
AcDbEntity
  8
0
  6
Continuous
 62
     7
100
AcDbLine
 10
750.4367071246
 20
617.4505926547
 30
0.0
 11
750.4367071246
 21
613.4505925811
 31
0.0
  0
LINE
  5
1CE
330
1F
100
AcDbEntity
  8
0
  6
Continuous
 62
     7
100
AcDbLine
 10
736.4367080895
 20
613.4505925811
 30
0.0
 11
736.4367080895
 21
617.4505926547
 31
0.0
  0
LINE
  5
1CF
330
1F
100
AcDbEntity
  8
0
  6
Continuous
 62
     7
100
AcDbLine
 10
750.4367071246
 20
908.5296477069
 30
0.0
 11
754.4367073146
 21
908.5296477069
 31
0.0
  0
LINE
  5
1D0
330
1F
100
AcDbEntity
  8
0
  6
Continuous
 62
     7
100
AcDbLine
 10
750.4367071246
 20
920.237668871
 30
0.0
 11
754.4367073146
 21
920.237668871
 31
0.0
  0
LINE
  5
1D1
330
1F
100
AcDbEntity
  8
0
  6
Continuous
 62
     7
100
AcDbLine
 10
754.4367073146
 20
617.5505924849
 30
0.0
 11
754.4367073146
 21
908.5296477069
 31
0.0
  0
LINE
  5
1D2
330
1F
100
AcDbEntity
  8
0
  6
Continuous
 62
     7
100
AcDbLine
 10
750.4367071246
 20
617.5505924849
 30
0.0
 11
754.4367073146
 21
617.5505924849
 31
0.0
  0
LINE
  5
1D3
330
1F
100
AcDbEntity
  8
0
  6
Continuous
 62
     7
100
AcDbLine
 10
754.4367073146
 20
613.5505925278
 30
0.0
 11
750.4367071246
 21
613.5505925278
 31
0.0
  0
LINE
  5
1D4
330
1F
100
AcDbEntity
  8
0
  6
Continuous
 62
     7
100
AcDbLine
 10
754.4367073146
 20
617.5505924849
 30
0.0
 11
754.4367073146
 21
613.5505925278
 31
0.0
  0
LINE
  5
1D5
330
1F
100
AcDbEntity
  8
0
  6
Continuous
 62
     7
100
AcDbLine
 10
862.4943552581
 20
876.8045390835
 30
0.0
 11
862.8815246788
 21
876.8529380551
 31
0.0
  0
LINE
  5
1D6
330
1F
100
AcDbEntity
  8
0
  6
Continuous
 62
     7
100
AcDbLine
 10
862.8815246788
 20
876.8529380551
 30
0.0
 11
863.2538152901
 21
876.8994892827
 31
0.0
  0
LINE
  5
1D7
330
1F
100
AcDbEntity
  8
0
  6
Continuous
 62
     7
100
AcDbLine
 10
863.2538152901
 20
876.8994892827
 30
0.0
 11
863.5969145266
 21
876.9423748246
 31
0.0
  0
LINE
  5
1D8
330
1F
100
AcDbEntity
  8
0
  6
Continuous
 62
     7
100
AcDbLine
 10
863.5969145266
 20
876.9423748246
 30
0.0
 11
863.8976497618
 21
876.9799555531
 31
0.0
  0
LINE
  5
1D9
330
1F
100
AcDbEntity
  8
0
  6
Continuous
 62
     7
100
AcDbLine
 10
863.8976497618
 20
876.9799555531
 30
0.0
 11
864.1444502441
 21
877.0108009568
 31
0.0
  0
LINE
  5
1DA
330
1F
100
AcDbEntity
  8
0
  6
Continuous
 62
     7
100
AcDbLine
 10
864.1444502441
 20
877.0108009568
 30
0.0
 11
864.3278462855
 21
877.0337189427
 31
0.0
  0
LINE
  5
1DB
330
1F
100
AcDbEntity
  8
0
  6
Continuous
 62
     7
100
AcDbLine
 10
864.3278462855
 20
877.0337189427
 30
0.0
 11
864.4407821862
 21
877.0478452435
 31
0.0
  0
LINE
  5
1DC
330
1F
100
AcDbEntity
  8
0
  6
Continuous
 62
     7
100
AcDbLine
 10
864.4407821862
 20
877.0478452435
 30
0.0
 11
864.4789142577
 21
877.0526136153
 31
0.0
  0
LINE
  5
1DD
330
1F
100
AcDbEntity
  8
0
  6
Continuous
 62
     7
100
AcDbLine
 10
870.9893472571
 20
656.079726897
 30
0.0
 11
871.2243108502
 21
655.7682278551
 31
0.0
  0
LINE
  5
1DE
330
1F
100
AcDbEntity
  8
0
  6
Continuous
 62
     7
100
AcDbLine
 10
871.2243108502
 20
655.7682278551
 30
0.0
 11
871.4502497556
 21
655.4686995494
 31
0.0
  0
LINE
  5
1DF
330
1F
100
AcDbEntity
  8
0
  6
Continuous
 62
     7
100
AcDbLine
 10
871.4502497556
 20
655.4686995494
 30
0.0
 11
871.6584785821
 21
655.192651813
 31
0.0
  0
LINE
  5
1E0
330
1F
100
AcDbEntity
  8
0
  6
Continuous
 62
     7
100
AcDbLine
 10
871.6584785821
 20
655.192651813
 30
0.0
 11
871.8409880044
 21
654.9506942081
 31
0.0
  0
LINE
  5
1E1
330
1F
100
AcDbEntity
  8
0
  6
Continuous
 62
     7
100
AcDbLine
 10
871.8409880044
 20
654.9506942081
 30
0.0
 11
871.9907670261
 21
654.7521250593
 31
0.0
  0
LINE
  5
1E2
330
1F
100
AcDbEntity
  8
0
  6
Continuous
 62
     7
100
AcDbLine
 10
871.9907670261
 20
654.7521250593
 30
0.0
 11
872.1020637991
 21
654.6045774864
 31
0.0
  0
LINE
  5
1E3
330
1F
100
AcDbEntity
  8
0
  6
Continuous
 62
     7
100
AcDbLine
 10
872.1020637991
 20
654.6045774864
 30
0.0
 11
872.17060169
 21
654.5137139308
 31
0.0
  0
LINE
  5
1E4
330
1F
100
AcDbEntity
  8
0
  6
Continuous
 62
     7
100
AcDbLine
 10
872.17060169
 20
654.5137139308
 30
0.0
 11
872.1937476343
 21
654.4830318331
 31
0.0
  0
LINE
  5
1E5
330
1F
100
AcDbEntity
  8
0
  6
Continuous
 62
     7
100
AcDbLine
 10
870.9893472571
 20
656.079726897
 30
0.0
 11
871.3790891646
 21
656.0612293276
 31
0.0
  0
LINE
  5
1E6
330
1F
100
AcDbEntity
  8
0
  6
Continuous
 62
     7
100
AcDbLine
 10
871.3790891646
 20
656.0612293276
 30
0.0
 11
871.7538534643
 21
656.0434447872
 31
0.0
  0
LINE
  5
1E7
330
1F
100
AcDbEntity
  8
0
  6
Continuous
 62
     7
100
AcDbLine
 10
871.7538534643
 20
656.0434447872
 30
0.0
 11
872.099240029
 21
656.0270535099
 31
0.0
  0
LINE
  5
1E8
330
1F
100
AcDbEntity
  8
0
  6
Continuous
 62
     7
100
AcDbLine
 10
872.099240029
 20
656.0270535099
 30
0.0
 11
872.4019720198
 21
656.0126887905
 31
0.0
  0
LINE
  5
1E9
330
1F
100
AcDbEntity
  8
0
  6
Continuous
 62
     7
100
AcDbLine
 10
872.4019720198
 20
656.0126887905
 30
0.0
 11
872.6504190804
 21
656.0008982467
 31
0.0
  0
LINE
  5
1EA
330
1F
100
AcDbEntity
  8
0
  6
Continuous
 62
     7
100
AcDbLine
 10
872.6504190804
 20
656.0008982467
 30
0.0
 11
872.8350295665
 21
655.9921363639
 31
0.0
  0
LINE
  5
1EB
330
1F
100
AcDbEntity
  8
0
  6
Continuous
 62
     7
100
AcDbLine
 10
872.8350295665
 20
655.9921363639
 30
0.0
 11
872.9487105252
 21
655.9867421436
 31
0.0
  0
LINE
  5
1EC
330
1F
100
AcDbEntity
  8
0
  6
Continuous
 62
     7
100
AcDbLine
 10
872.9487105252
 20
655.9867421436
 30
0.0
 11
872.9871027284
 21
655.9849193404
 31
0.0
  0
LINE
  5
1ED
330
1F
100
AcDbEntity
  8
0
  6
Continuous
 62
     7
100
AcDbLine
 10
750.4367071246
 20
920.337417244
 30
0.0
 11
750.4367071246
 21
924.6505881539
 31
0.0
  0
LINE
  5
1EE
330
1F
100
AcDbEntity
  8
0
  6
Continuous
 62
     7
100
AcDbLine
 10
736.4367080895
 20
920.337417244
 30
0.0
 11
736.4367080895
 21
924.6505881539
 31
0.0
  0
LINE
  5
1EF
330
1F
100
AcDbEntity
  8
0
  6
Continuous
 62
     7
100
AcDbLine
 10
754.4367073146
 20
920.237668871
 30
0.0
 11
754.4367073146
 21
924.5506013623
 31
0.0
  0
LINE
  5
1F0
330
1F
100
AcDbEntity
  8
0
  6
Continuous
 62
     7
100
AcDbLine
 10
874.9130277006
 20
722.8990356317
 30
0.0
 11
874.4238139939
 21
722.8775406569
 31
0.0
  0
LINE
  5
1F1
330
1F
100
AcDbEntity
  8
0
  6
Continuous
 62
     7
100
AcDbLine
 10
874.8776374427
 20
769.3920071116
 30
0.0
 11
874.8550919858
 21
769.4728161088
 31
0.0
  0
LINE
  5
1F2
330
1F
100
AcDbEntity
  8
0
  6
Continuous
 62
     7
100
AcDbLine
 10
874.8550919858
 20
769.4728161088
 30
0.0
 11
874.7949583498
 21
769.5489461413
 31
0.0
  0
LINE
  5
1F3
330
1F
100
AcDbEntity
  8
0
  6
Continuous
 62
     7
100
AcDbLine
 10
874.7949583498
 20
769.5489461413
 30
0.0
 11
874.6995313136
 21
769.6174914828
 31
0.0
  0
LINE
  5
1F4
330
1F
100
AcDbEntity
  8
0
  6
Continuous
 62
     7
100
AcDbLine
 10
874.6995313136
 20
769.6174914828
 30
0.0
 11
874.5724989144
 21
769.6757848254
 31
0.0
  0
LINE
  5
1F5
330
1F
100
AcDbEntity
  8
0
  6
Continuous
 62
     7
100
AcDbLine
 10
874.5724989144
 20
769.6757848254
 30
0.0
 11
874.4187412826
 21
769.7215909949
 31
0.0
  0
LINE
  5
1F6
330
1F
100
AcDbEntity
  8
0
  6
Continuous
 62
     7
100
AcDbLine
 10
874.4187412826
 20
769.7215909949
 30
0.0
 11
874.2441890804
 21
769.7531665555
 31
0.0
  0
LINE
  5
1F7
330
1F
100
AcDbEntity
  8
0
  6
Continuous
 62
     7
100
AcDbLine
 10
874.2441890804
 20
769.7531665555
 30
0.0
 11
874.0555552808
 21
769.7692598095
 31
0.0
  0
LINE
  5
1F8
330
1F
100
AcDbEntity
  8
0
  6
Continuous
 62
     7
100
AcDbLine
 10
874.0555552808
 20
769.7692598095
 30
0.0
 11
873.8600995474
 21
769.7692806438
 31
0.0
  0
LINE
  5
1F9
330
1F
100
AcDbEntity
  8
0
  6
Continuous
 62
     7
100
AcDbLine
 10
873.8600995474
 20
769.7692806438
 30
0.0
 11
873.3619360296
 21
769.7473849049
 31
0.0
  0
LINE
  5
1FA
330
1F
100
AcDbEntity
  8
0
  6
Continuous
 62
     7
100
AcDbLine
 10
866.3008419839
 20
860.8387793294
 30
0.0
 11
866.4014695255
 21
860.8387793294
 31
0.0
  0
LINE
  5
1FB
330
1F
100
AcDbEntity
  8
0
  6
Continuous
 62
     7
100
AcDbLine
 10
866.3008419839
 20
860.8387793294
 30
0.0
 11
866.4014695255
 21
860.8387793294
 31
0.0
  0
LINE
  5
1FC
330
1F
100
AcDbEntity
  8
0
  6
Continuous
 62
     7
100
AcDbLine
 10
866.5426431266
 20
859.5747585288
 30
0.0
 11
866.559086558
 21
859.4267750969
 31
0.0
  0
LINE
  5
1FD
330
1F
100
AcDbEntity
  8
0
  6
Continuous
 62
     7
100
AcDbLine
 10
1280.3077436222
 20
908.529647707
 30
0.0
 11
1280.3077510371
 21
617.4505925408
 31
0.0
  0
LINE
  5
1FE
330
1F
100
AcDbEntity
  8
0
  6
Continuous
 62
     7
100
AcDbLine
 10
1543.5077547445
 20
617.4505963622
 30
0.0
 11
1543.5077547445
 21
908.5296514144
 31
0.0
  0
LINE
  5
1FF
330
1F
100
AcDbEntity
  8
0
  6
Continuous
 62
     7
100
AcDbLine
 10
1284.3077510371
 20
613.4505925408
 30
0.0
 11
1539.5077510371
 21
613.4505925408
 31
0.0
  0
LINE
  5
200
330
1F
100
AcDbEntity
  8
0
  6
Continuous
 62
     7
100
AcDbLine
 10
1317.4077532424
 20
828.450598835
 30
0.0
 11
1317.4077532424
 21
872.4505985966
 31
0.0
  0
LINE
  5
201
330
1F
100
AcDbEntity
  8
0
  6
Continuous
 62
     7
100
AcDbLine
 10
1311.4077510371
 20
872.4505957394
 30
0.0
 11
1311.4077485337
 21
828.4505927115
 31
0.0
  0
LINE
  5
202
330
1F
100
AcDbEntity
  8
0
  6
Continuous
 62
     7
100
AcDbLine
 10
1512.4077535404
 20
828.450598835
 30
0.0
 11
1512.4077535404
 21
872.4505985966
 31
0.0
  0
LINE
  5
203
330
1F
100
AcDbEntity
  8
0
  6
Continuous
 62
     7
100
AcDbLine
 10
1506.4077510371
 20
872.450595719
 30
0.0
 11
1506.4077488317
 21
828.4505926911
 31
0.0
  0
LINE
  5
204
330
1F
100
AcDbEntity
  8
0
  6
Continuous
 62
     7
100
AcDbLine
 10
1319.407749845
 20
769.4505984774
 30
0.0
 11
1309.4077519311
 21
769.4505984774
 31
0.0
  0
LINE
  5
205
330
1F
100
AcDbEntity
  8
0
  6
Continuous
 62
     7
100
AcDbLine
 10
1309.4077491703
 20
763.4505925408
 30
0.0
 11
1319.4077479782
 21
763.4505863181
 31
0.0
  0
LINE
  5
206
330
1F
100
AcDbEntity
  8
0
  6
Continuous
 62
     7
100
AcDbLine
 10
1514.407750143
 20
769.4505984774
 30
0.0
 11
1504.4077522291
 21
769.4505984774
 31
0.0
  0
LINE
  5
207
330
1F
100
AcDbEntity
  8
0
  6
Continuous
 62
     7
100
AcDbLine
 10
1504.4077491703
 20
763.4505925408
 30
0.0
 11
1514.4077482762
 21
763.4505863181
 31
0.0
  0
LINE
  5
208
330
1F
100
AcDbEntity
  8
0
  6
Continuous
 62
     7
100
AcDbLine
 10
1311.4077510371
 20
670.450593718
 30
0.0
 11
1311.4077485337
 21
663.6467437139
 31
0.0
  0
LINE
  5
209
330
1F
100
AcDbEntity
  8
0
  6
Continuous
 62
     7
100
AcDbLine
 10
1317.4077510371
 20
663.6467451103
 30
0.0
 11
1317.4077510371
 21
670.4505926876
 31
0.0
  0
LINE
  5
20A
330
1F
100
AcDbEntity
  8
0
  6
Continuous
 62
     7
100
AcDbLine
 10
1506.4077510371
 20
670.4505935221
 30
0.0
 11
1506.4077488317
 21
663.6467437139
 31
0.0
  0
LINE
  5
20B
330
1F
100
AcDbEntity
  8
0
  6
Continuous
 62
     7
100
AcDbLine
 10
1512.4077510371
 20
663.6467449812
 30
0.0
 11
1512.4077510371
 21
670.4505925585
 31
0.0
  0
LINE
  5
20C
330
1F
100
AcDbEntity
  8
0
  6
Continuous
 62
     7
100
AcDbLine
 10
1308.7920285
 20
656.3378470829
 30
0.0
 11
1320.0234732761
 21
656.3378470829
 31
0.0
  0
LINE
  5
20D
330
1F
100
AcDbEntity
  8
0
  6
Continuous
 62
     7
100
AcDbLine
 10
1503.792028798
 20
656.3378470829
 30
0.0
 11
1515.0234735741
 21
656.3378470829
 31
0.0
  0
LINE
  5
20E
330
1F
100
AcDbEntity
  8
0
  6
Continuous
 62
     7
100
AcDbLine
 10
232.1838475427
 20
82.5809801818
 30
0.0
 11
335.234165158
 21
82.5809801818
 31
0.0
  0
LINE
  5
20F
330
1F
100
AcDbEntity
  8
0
  6
Continuous
 62
     7
100
AcDbLine
 10
79.2341529986
 20
82.5809801818
 30
0.0
 11
182.2927314451
 21
82.5809801818
 31
0.0
  0
LINE
  5
210
330
1F
100
AcDbEntity
  8
0
  6
Continuous
 62
     7
100
AcDbLine
 10
222.1187166533
 20
90.6572469772
 30
0.0
 11
222.1187166533
 21
90.6740182341
 31
0.0
  0
LINE
  5
211
330
1F
100
AcDbEntity
  8
0
  6
Continuous
 62
     7
100
AcDbLine
 10
194.2224334589
 20
90.5182340444
 30
0.0
 11
194.2224338236
 21
90.4175552826
 31
0.0
  0
LINE
  5
212
330
1F
100
AcDbEntity
  8
0
  6
Continuous
 62
     7
100
AcDbLine
 10
218.8384624745
 20
90.4314321864
 30
0.0
 11
218.8384624745
 21
90.4582319248
 31
0.0
  0
LINE
  5
213
330
1F
100
AcDbEntity
  8
0
  6
Continuous
 62
     7
100
AcDbLine
 10
217.6363643269
 20
90.4313828489
 30
0.0
 11
217.6363644785
 21
90.4659309686
 31
0.0
  0
LINE
  5
214
330
1F
100
AcDbEntity
  8
0
  6
Continuous
 62
     7
100
AcDbLine
 10
194.2219454458
 20
90.513018638
 30
0.0
 11
194.2219454458
 21
90.4124581517
 31
0.0
  0
LINE
  5
215
330
1F
100
AcDbEntity
  8
0
  6
Continuous
 62
     7
100
AcDbLine
 10
198.0242579839
 20
90.3141104878
 30
0.0
 11
198.0242579839
 21
90.2134605945
 31
0.0
  0
LINE
  5
216
330
1F
100
AcDbEntity
  8
0
  6
Continuous
 62
     7
100
AcDbLine
 10
212.2128297432
 20
90.304886669
 30
0.0
 11
212.2128297432
 21
90.2042889298
 31
0.0
  0
LINE
  5
217
330
1F
100
AcDbEntity
  8
0
  6
Continuous
 62
     7
100
AcDbLine
 10
217.9479943252
 20
90.3186255396
 30
0.0
 11
217.9479943252
 21
90.3432422579
 31
0.0
  0
LINE
  5
218
330
1F
100
AcDbEntity
  8
0
  6
Continuous
 62
     7
100
AcDbLine
 10
218.0756786501
 20
90.3432497085
 30
0.0
 11
218.0756786501
 21
90.3177463711
 31
0.0
  0
LINE
  5
219
330
1F
100
AcDbEntity
  8
0
  6
Continuous
 62
     7
100
AcDbLine
 10
218.3839659801
 20
90.0614687503
 30
0.0
 11
218.3839659801
 21
89.9607965053
 31
0.0
  0
LINE
  5
21A
330
1F
100
AcDbEntity
  8
0
  6
Continuous
 62
     7
100
AcDbLine
 10
195.5639822072
 20
89.9828204216
 30
0.0
 11
195.5639822072
 21
90.0834032596
 31
0.0
  0
LINE
  5
21B
330
1F
100
AcDbEntity
  8
0
  6
Continuous
 62
     7
100
AcDbLine
 10
215.9521756357
 20
90.0224947632
 30
0.0
 11
215.9521756357
 21
89.9222770036
 31
0.0
  0
LINE
  5
21C
330
1F
100
AcDbEntity
  8
0
  6
Continuous
 62
     7
100
AcDbLine
 10
217.4820843747
 20
89.9550595583
 30
0.0
 11
217.4820843747
 21
90.0554859341
 31
0.0
  0
LINE
  5
21D
330
1F
100
AcDbEntity
  8
0
  6
Continuous
 62
     7
100
AcDbLine
 10
217.9607459939
 20
89.9335199297
 30
0.0
 11
217.9607459939
 21
89.9035611452
 31
0.0
  0
LINE
  5
21E
330
1F
100
AcDbEntity
  8
0
  6
Continuous
 62
     7
100
AcDbLine
 10
183.3309549502
 20
81.0809784831
 30
0.0
 11
231.1365231535
 21
81.0809784831
 31
0.0
  0
LINE
  5
21F
330
1F
100
AcDbEntity
  8
0
  6
Continuous
 62
     7
100
AcDbLine
 10
182.2341587058
 20
82.5816744269
 30
0.0
 11
182.2341587058
 21
82.0825153292
 31
0.0
  0
LINE
  5
220
330
1F
100
AcDbEntity
  8
0
  6
Continuous
 62
     7
100
AcDbLine
 10
232.2341594508
 20
82.0829623641
 30
0.0
 11
232.2341594508
 21
82.5809815229
 31
0.0
  0
LINE
  5
221
330
1F
100
AcDbEntity
  8
0
  6
Continuous
 62
     7
100
AcDbLine
 10
86.4231330493
 20
220.5809780658
 30
0.0
 11
86.4231330493
 21
206.5809790307
 31
0.0
  0
LINE
  5
222
330
1F
100
AcDbEntity
  8
0
  6
Continuous
 62
     7
100
AcDbLine
 10
328.0451637843
 20
220.5809780658
 30
0.0
 11
328.0451637843
 21
206.5809790307
 31
0.0
  0
LINE
  5
223
330
1F
100
AcDbEntity
  8
0
  6
Continuous
 62
     7
100
AcDbLine
 10
86.4231330493
 20
206.5809790307
 30
0.0
 11
328.0451637843
 21
206.5809790307
 31
0.0
  0
LINE
  5
224
330
1F
100
AcDbEntity
  8
0
  6
Continuous
 62
     7
100
AcDbLine
 10
86.4231330493
 20
220.5809780658
 30
0.0
 11
328.0451637843
 21
220.5809780658
 31
0.0
  0
LINE
  5
225
330
1F
100
AcDbEntity
  8
0
  6
Continuous
 62
     7
100
AcDbLine
 10
86.4302660223
 20
206.5809790307
 30
0.0
 11
86.4302660223
 21
202.5809788407
 31
0.0
  0
LINE
  5
226
330
1F
100
AcDbEntity
  8
0
  6
Continuous
 62
     7
100
AcDbLine
 10
328.0380363461
 20
206.5809790307
 30
0.0
 11
328.0380363461
 21
202.5809788407
 31
0.0
  0
LINE
  5
227
330
1F
100
AcDbEntity
  8
0
  6
Continuous
 62
     7
100
AcDbLine
 10
86.4302660223
 20
202.5809788407
 30
0.0
 11
328.0380363461
 21
202.5809788407
 31
0.0
  0
LINE
  5
228
330
1F
100
AcDbEntity
  8
0
  6
Continuous
 62
     7
100
AcDbLine
 10
338.8341451701
 20
220.5809780658
 30
0.0
 11
338.8341451701
 21
206.5809790307
 31
0.0
  0
LINE
  5
229
330
1F
100
AcDbEntity
  8
0
  6
Continuous
 62
     7
100
AcDbLine
 10
75.6341516635
 20
220.5809780658
 30
0.0
 11
75.6341516635
 21
206.5809790307
 31
0.0
  0
LINE
  5
22A
330
1F
100
AcDbEntity
  8
0
  6
Continuous
 62
     7
100
AcDbLine
 10
338.7341490122
 20
206.5809790307
 30
0.0
 11
338.7341490122
 21
202.5809788407
 31
0.0
  0
LINE
  5
22B
330
1F
100
AcDbEntity
  8
0
  6
Continuous
 62
     7
100
AcDbLine
 10
75.7341533563
 20
206.5809790307
 30
0.0
 11
75.7341533563
 21
202.5809788407
 31
0.0
  0
LINE
  5
22C
330
1F
100
AcDbEntity
  8
0
  6
Continuous
 62
     7
100
AcDbLine
 10
206.0710507092
 20
90.0790132075
 30
0.0
 11
207.948445345
 21
90.0779699713
 31
0.0
  0
LINE
  5
22D
330
1F
100
AcDbEntity
  8
0
  6
Continuous
 62
     7
100
AcDbLine
 10
207.6553624811
 20
90.1743721021
 30
0.0
 11
206.1291490832
 21
90.1743375952
 31
0.0
  0
LINE
  5
22E
330
1F
100
AcDbEntity
  8
0
  6
Continuous
 62
     7
100
AcDbLine
 10
206.1289691072
 20
90.3475671728
 30
0.0
 11
207.6974536268
 21
90.3475933961
 31
0.0
  0
LINE
  5
22F
330
1F
100
AcDbEntity
  8
0
  6
Continuous
 62
     7
100
AcDbLine
 10
207.6974536268
 20
90.3475933961
 30
0.0
 11
207.6973835401
 21
90.4463881156
 31
0.0
  0
LINE
  5
230
330
1F
100
AcDbEntity
  8
0
  6
Continuous
 62
     7
100
AcDbLine
 10
207.6973835401
 20
90.4463881156
 30
0.0
 11
205.2833674579
 21
90.4462391039
 31
0.0
  0
LINE
  5
231
330
1F
100
AcDbEntity
  8
0
  6
Continuous
 62
     7
100
AcDbLine
 10
205.2846335475
 20
90.1726078709
 30
0.0
 11
204.613666036
 21
90.1725792784
 31
0.0
  0
LINE
  5
232
330
1F
100
AcDbEntity
  8
0
  6
Continuous
 62
     7
100
AcDbLine
 10
204.6081625515
 20
90.4462156532
 30
0.0
 11
204.4218689195
 21
90.4462391068
 31
0.0
  0
LINE
  5
233
330
1F
100
AcDbEntity
  8
0
  6
Continuous
 62
     7
100
AcDbLine
 10
204.4218689195
 20
90.4462391068
 30
0.0
 11
203.6292035124
 21
90.4462242056
 31
0.0
  0
LINE
  5
234
330
1F
100
AcDbEntity
  8
0
  6
Continuous
 62
     7
100
AcDbLine
 10
200.9093625055
 20
89.7788857324
 30
0.0
 11
201.7856416887
 21
89.7790023395
 31
0.0
  0
LINE
  5
235
330
1F
100
AcDbEntity
  8
0
  6
Continuous
 62
     7
100
AcDbLine
 10
203.6472169199
 20
89.7774148426
 30
0.0
 11
204.4229954149
 21
89.7784405072
 31
0.0
  0
LINE
  5
236
330
1F
100
AcDbEntity
  8
0
  6
Continuous
 62
     7
100
AcDbLine
 10
204.4229954149
 20
89.7784405072
 30
0.0
 11
204.5944654894
 21
89.7790932212
 31
0.0
  0
LINE
  5
237
330
1F
100
AcDbEntity
  8
0
  6
Continuous
 62
     7
100
AcDbLine
 10
204.5776846056
 20
90.0772586214
 30
0.0
 11
205.3058063933
 21
90.0772788794
 31
0.0
  0
LINE
  5
238
330
1F
100
AcDbEntity
  8
0
  6
Continuous
 62
     7
100
AcDbLine
 10
205.3067413257
 20
89.780801544
 30
0.0
 11
207.6572977354
 21
89.7808351786
 31
0.0
  0
LINE
  5
239
330
1F
100
AcDbEntity
  8
0
  6
Continuous
 62
     7
100
AcDbLine
 10
207.6563050206
 20
89.8766209538
 30
0.0
 11
206.0719027879
 21
89.8764857322
 31
0.0
  0
LINE
  5
23A
330
1F
100
AcDbEntity
  8
0
  6
Continuous
 62
     7
100
AcDbLine
 10
210.9107183882
 20
90.1693383596
 30
0.0
 11
211.4419517539
 21
90.1692666468
 31
0.0
  0
LINE
  5
23B
330
1F
100
AcDbEntity
  8
0
  6
Continuous
 62
     7
100
AcDbLine
 10
210.7614756856
 20
90.1692369462
 30
0.0
 11
210.9107183882
 21
90.1693383596
 31
0.0
  0
LINE
  5
23C
330
1F
100
AcDbEntity
  8
0
  6
Continuous
 62
     7
100
AcDbLine
 10
212.2356099609
 20
89.7793599672
 30
0.0
 11
211.4006212974
 21
89.7793493457
 31
0.0
  0
LINE
  5
23D
330
1F
100
AcDbEntity
  8
0
  6
Continuous
 62
     7
100
AcDbLine
 10
212.9205242673
 20
90.0757217069
 30
0.0
 11
212.2452157608
 21
90.0756961537
 31
0.0
  0
LINE
  5
23E
330
1F
100
AcDbEntity
  8
0
  6
Continuous
 62
     7
100
AcDbLine
 10
213.569271
 20
90.0757515092
 30
0.0
 11
212.9205242673
 21
90.0757217069
 31
0.0
  0
LINE
  5
23F
330
1F
100
AcDbEntity
  8
0
  6
Continuous
 62
     7
100
AcDbLine
 10
214.4157373013
 20
89.7794183769
 30
0.0
 11
213.5702071339
 21
89.7794143779
 31
0.0
  0
LINE
  5
240
330
1F
100
AcDbEntity
  8
0
  6
Continuous
 62
     7
100
AcDbLine
 10
212.8770517703
 20
90.4589783828
 30
0.0
 11
212.9944604376
 21
90.4589615147
 31
0.0
  0
LINE
  5
241
330
1F
100
AcDbEntity
  8
0
  6
Continuous
 62
     7
100
AcDbLine
 10
208.2668526382
 20
90.4458454961
 30
0.0
 11
209.1759513695
 21
90.446430296
 31
0.0
  0
LINE
  5
242
330
1F
100
AcDbEntity
  8
0
  6
Continuous
 62
     7
100
AcDbLine
 10
208.2794702381
 20
89.7797448655
 30
0.0
 11
210.9115547042
 21
89.7793016623
 31
0.0
  0
LINE
  5
243
330
1F
100
AcDbEntity
  8
0
  6
Continuous
 62
     7
100
AcDbLine
 10
210.9115547042
 20
89.7793016623
 30
0.0
 11
211.054491544
 21
89.779285461
 31
0.0
  0
LINE
  5
244
330
1F
100
AcDbEntity
  8
0
  6
Continuous
 62
     7
100
AcDbLine
 10
210.9115634271
 20
89.8629848202
 30
0.0
 11
211.0596692575
 21
89.8630762919
 31
0.0
  0
LINE
  5
245
330
1F
100
AcDbEntity
  8
0
  6
Continuous
 62
     7
100
AcDbLine
 10
209.1727473697
 20
89.8624122777
 30
0.0
 11
210.9115634271
 21
89.8629848202
 31
0.0
  0
LINE
  5
246
330
1F
100
AcDbEntity
  8
0
  6
Continuous
 62
     7
100
AcDbLine
 10
196.5575916296
 20
90.1705079983
 30
0.0
 11
197.2539841676
 21
90.1705329452
 31
0.0
  0
LINE
  5
247
330
1F
100
AcDbEntity
  8
0
  6
Continuous
 62
     7
100
AcDbLine
 10
196.8401697472
 20
90.0775682766
 30
0.0
 11
197.2116650639
 21
90.0769493745
 31
0.0
  0
LINE
  5
248
330
1F
100
AcDbEntity
  8
0
  6
Continuous
 62
     7
100
AcDbLine
 10
198.0307761787
 20
90.0758119369
 30
0.0
 11
198.7335310765
 21
90.076409381
 31
0.0
  0
LINE
  5
249
330
1F
100
AcDbEntity
  8
0
  6
Continuous
 62
     7
100
AcDbLine
 10
198.7335310765
 20
90.076409381
 30
0.0
 11
199.381251518
 21
90.0770133783
 31
0.0
  0
LINE
  5
24A
330
1F
100
AcDbEntity
  8
0
  6
Continuous
 62
     7
100
AcDbLine
 10
198.7313479464
 20
90.4595630896
 30
0.0
 11
198.8054594265
 21
90.460253413
 31
0.0
  0
LINE
  5
24B
330
1F
100
AcDbEntity
  8
0
  6
Continuous
 62
     7
100
AcDbLine
 10
198.6837539861
 20
90.4595694017
 30
0.0
 11
198.7313479464
 21
90.4595630896
 31
0.0
  0
LINE
  5
24C
330
1F
100
AcDbEntity
  8
0
  6
Continuous
 62
     7
100
AcDbLine
 10
194.7339973333
 20
89.8778169358
 30
0.0
 11
192.9369466043
 21
89.8777076305
 31
0.0
  0
LINE
  5
24D
330
1F
100
AcDbEntity
  8
0
  6
Continuous
 62
     7
100
AcDbLine
 10
192.9369466043
 20
89.8777076305
 30
0.0
 11
192.9369214585
 21
89.778659612
 31
0.0
  0
LINE
  5
24E
330
1F
100
AcDbEntity
  8
0
  6
Continuous
 62
     7
100
AcDbLine
 10
192.9369214585
 20
89.778659612
 30
0.0
 11
194.8143802246
 21
89.7787564696
 31
0.0
  0
LINE
  5
24F
330
1F
100
AcDbEntity
  8
0
  6
Continuous
 62
     7
100
AcDbLine
 10
195.3114272852
 20
90.5151218231
 30
0.0
 11
198.7319397281
 21
90.5146665774
 31
0.0
  0
LINE
  5
250
330
1F
100
AcDbEntity
  8
0
  6
Continuous
 62
     7
100
AcDbLine
 10
198.7319397281
 20
90.5146665774
 30
0.0
 11
204.4215666909
 21
90.5142606469
 31
0.0
  0
LINE
  5
251
330
1F
100
AcDbEntity
  8
0
  6
Continuous
 62
     7
100
AcDbLine
 10
204.4215666909
 20
90.5142606469
 30
0.0
 11
210.9091872944
 21
90.5144566
 31
0.0
  0
LINE
  5
252
330
1F
100
AcDbEntity
  8
0
  6
Continuous
 62
     7
100
AcDbLine
 10
210.9091872944
 20
90.5144566
 30
0.0
 11
212.9200166016
 21
90.5139588939
 31
0.0
  0
LINE
  5
253
330
1F
100
AcDbEntity
  8
0
  6
Continuous
 62
     7
100
AcDbLine
 10
212.9200166016
 20
90.5139588939
 30
0.0
 11
214.7276606074
 21
90.5140691699
 31
0.0
  0
LINE
  5
254
330
1F
100
AcDbEntity
  8
0
  6
Continuous
 62
     7
100
AcDbLine
 10
214.7276606074
 20
90.5140691699
 30
0.0
 11
214.7276159039
 21
90.6163060368
 31
0.0
  0
LINE
  5
255
330
1F
100
AcDbEntity
  8
0
  6
Continuous
 62
     7
100
AcDbLine
 10
214.7276159039
 20
90.6163060368
 30
0.0
 11
212.9188347271
 21
90.6161868275
 31
0.0
  0
LINE
  5
256
330
1F
100
AcDbEntity
  8
0
  6
Continuous
 62
     7
100
AcDbLine
 10
212.9188347271
 20
90.6161868275
 30
0.0
 11
210.9091372358
 21
90.6162166298
 31
0.0
  0
LINE
  5
257
330
1F
100
AcDbEntity
  8
0
  6
Continuous
 62
     7
100
AcDbLine
 10
210.9091372358
 20
90.6162166298
 30
0.0
 11
204.4215665328
 21
90.6158962549
 31
0.0
  0
LINE
  5
258
330
1F
100
AcDbEntity
  8
0
  6
Continuous
 62
     7
100
AcDbLine
 10
198.7308940091
 20
90.6151182025
 30
0.0
 11
204.4215665328
 21
90.6158962549
 31
0.0
  0
LINE
  5
259
330
1F
100
AcDbEntity
  8
0
  6
Continuous
 62
     7
100
AcDbLine
 10
198.7308940091
 20
90.6151182025
 30
0.0
 11
195.2479499987
 21
90.6149947346
 31
0.0
  0
LINE
  5
25A
330
1F
100
AcDbEntity
  8
0
  6
Continuous
 62
     7
100
AcDbLine
 10
193.2594151994
 20
90.4245992775
 30
0.0
 11
193.2747920573
 21
90.3971931074
 31
0.0
  0
LINE
  5
25B
330
1F
100
AcDbEntity
  8
0
  6
Continuous
 62
     7
100
AcDbLine
 10
220.3256635201
 20
90.3790834134
 30
0.0
 11
220.340022893
 21
90.3784649405
 31
0.0
  0
LINE
  5
25C
330
1F
100
AcDbEntity
  8
0
  6
Continuous
 62
     7
100
AcDbLine
 10
220.340022893
 20
90.3784649405
 30
0.0
 11
220.3462202342
 21
90.3781101725
 31
0.0
  0
LINE
  5
25D
330
1F
100
AcDbEntity
  8
0
  6
Continuous
 62
     7
100
AcDbLine
 10
217.9281794612
 20
90.6194038885
 30
0.0
 11
217.9602254915
 21
90.620025715
 31
0.0
  0
LINE
  5
25E
330
1F
100
AcDbEntity
  8
0
  6
Continuous
 62
     7
100
AcDbLine
 10
215.3811184331
 20
90.7138639393
 30
0.0
 11
215.3811378463
 21
90.7156723034
 31
0.0
  0
LINE
  5
25F
330
1F
100
AcDbEntity
  8
0
  6
Continuous
 62
     7
100
AcDbLine
 10
215.3812022521
 20
90.6826907101
 30
0.0
 11
215.3811184331
 21
90.7138639393
 31
0.0
  0
LINE
  5
260
330
1F
100
AcDbEntity
  8
0
  6
Continuous
 62
     7
100
AcDbLine
 10
215.6534152501
 20
90.3912094682
 30
0.0
 11
215.6762526992
 21
90.3908807781
 31
0.0
  0
LINE
  5
261
330
1F
100
AcDbEntity
  8
0
  6
Continuous
 62
     7
100
AcDbLine
 10
218.0216734682
 20
89.7018598978
 30
0.0
 11
217.9628654838
 21
89.7018595035
 31
0.0
  0
LINE
  5
262
330
1F
100
AcDbEntity
  8
0
  6
Continuous
 62
     7
100
AcDbLine
 10
220.6317329731
 20
90.0237676894
 30
0.0
 11
220.631743096
 21
90.0059706614
 31
0.0
  0
LINE
  5
263
330
1F
100
AcDbEntity
  8
0
  6
Continuous
 62
     7
100
AcDbLine
 10
219.2481098067
 20
90.3221932686
 30
0.0
 11
219.2534905701
 21
90.3227841372
 31
0.0
  0
LINE
  5
264
330
1F
100
AcDbEntity
  8
0
  6
Continuous
 62
     7
100
AcDbLine
 10
221.9434590779
 20
90.5629586595
 30
0.0
 11
221.938291692
 21
90.5629582118
 31
0.0
  0
LINE
  5
265
330
1F
100
AcDbEntity
  8
0
  6
Continuous
 62
     7
100
AcDbLine
 10
221.937876161
 20
90.7183044852
 30
0.0
 11
221.9428368413
 21
90.718304954
 31
0.0
  0
LINE
  5
266
330
1F
100
AcDbEntity
  8
0
  6
Continuous
 62
     7
100
AcDbLine
 10
77.2341590783
 20
84.5809797999
 30
0.0
 11
77.2341638467
 21
94.5233308975
 31
0.0
  0
LINE
  5
267
330
1F
100
AcDbEntity
  8
0
  6
Continuous
 62
     7
100
AcDbLine
 10
337.2341543099
 20
94.5233308972
 30
0.0
 11
337.2341590783
 21
84.5809797999
 31
0.0
  0
LINE
  5
268
330
1F
100
AcDbEntity
  8
0
  6
Continuous
 62
     7
100
AcDbLine
 10
218.8503313473
 20
90.2077385486
 30
0.0
 11
218.8658965415
 21
90.2073734702
 31
0.0
  0
LINE
  5
269
330
1F
100
AcDbEntity
  8
0
  6
Continuous
 62
     7
100
AcDbLine
 10
221.9540775968
 20
90.6769416846
 30
0.0
 11
221.9805360932
 21
90.6769402744
 31
0.0
  0
LINE
  5
26A
330
1F
100
AcDbEntity
  8
0
  6
Continuous
 62
     7
100
AcDbLine
 10
221.7043443586
 20
90.6769342339
 30
0.0
 11
221.9540775968
 21
90.6769416846
 31
0.0
  0
LINE
  5
26B
330
1F
100
AcDbEntity
  8
0
  6
Continuous
 62
     7
100
AcDbLine
 10
221.7890937816
 20
90.6058482445
 30
0.0
 11
221.7043447003
 21
90.6058452675
 31
0.0
  0
LINE
  5
26C
330
1F
100
AcDbEntity
  8
0
  6
Continuous
 62
     7
100
AcDbLine
 10
221.7890108938
 20
90.6368724621
 30
0.0
 11
221.7890937816
 21
90.6058482445
 31
0.0
  0
LINE
  5
26D
330
1F
100
AcDbEntity
  8
0
  6
Continuous
 62
     7
100
AcDbLine
 10
221.8848188411
 20
90.6368724621
 30
0.0
 11
221.7890108938
 21
90.6368724621
 31
0.0
  0
LINE
  5
26E
330
1F
100
AcDbEntity
  8
0
  6
Continuous
 62
     7
100
AcDbLine
 10
221.927297395
 20
90.6368725536
 30
0.0
 11
221.8848188411
 21
90.6368724621
 31
0.0
  0
LINE
  5
26F
330
1F
100
AcDbEntity
  8
0
  6
Continuous
 62
     7
100
AcDbLine
 10
221.954052688
 20
90.6356676706
 30
0.0
 11
221.9646914838
 21
90.6350510664
 31
0.0
  0
LINE
  5
270
330
1F
100
AcDbEntity
  8
0
  6
Continuous
 62
     7
100
AcDbLine
 10
222.2571787386
 20
90.6058525321
 30
0.0
 11
222.1562037197
 21
90.6058514671
 31
0.0
  0
LINE
  5
271
330
1F
100
AcDbEntity
  8
0
  6
Continuous
 62
     7
100
AcDbLine
 10
216.0253347492
 20
90.6123423276
 30
0.0
 11
216.0253351705
 21
90.5117202618
 31
0.0
  0
LINE
  5
272
330
1F
100
AcDbEntity
  8
0
  6
Continuous
 62
     7
100
AcDbLine
 10
219.837733587
 20
90.6237193353
 30
0.0
 11
219.837733587
 21
90.5231014987
 31
0.0
  0
LINE
  5
273
330
1F
100
AcDbEntity
  8
0
  6
Continuous
 62
     7
100
AcDbLine
 10
221.7043443586
 20
90.6769342339
 30
0.0
 11
221.7043447003
 21
90.6058452675
 31
0.0
  0
LINE
  5
274
330
1F
100
AcDbEntity
  8
0
  6
Continuous
 62
     7
100
AcDbLine
 10
218.9388280452
 20
90.6642721337
 30
0.0
 11
218.9389329846
 21
90.6546883566
 31
0.0
  0
LINE
  5
275
330
1F
100
AcDbEntity
  8
0
  6
Continuous
 62
     7
100
AcDbLine
 10
222.0868691428
 20
90.6752773807
 30
0.0
 11
222.0868687269
 21
90.66555843
 31
0.0
  0
LINE
  5
276
330
1F
100
AcDbEntity
  8
0
  6
Continuous
 62
     7
100
AcDbLine
 10
221.7889343983
 20
90.6685644091
 30
0.0
 11
221.7889958656
 21
90.6452291907
 31
0.0
  0
LINE
  5
277
330
1F
100
AcDbEntity
  8
0
  6
Continuous
 62
     7
100
AcDbLine
 10
221.9539889729
 20
90.6685644091
 30
0.0
 11
221.7889343983
 21
90.6685644091
 31
0.0
  0
LINE
  5
278
330
1F
100
AcDbEntity
  8
0
  6
Continuous
 62
     7
100
AcDbLine
 10
221.9858215418
 20
90.6685723509
 30
0.0
 11
221.9539889729
 21
90.6685644091
 31
0.0
  0
LINE
  5
279
330
1F
100
AcDbEntity
  8
0
  6
Continuous
 62
     7
100
AcDbLine
 10
221.9540513715
 20
90.6452291907
 30
0.0
 11
221.9646963154
 21
90.645226892
 31
0.0
  0
LINE
  5
27A
330
1F
100
AcDbEntity
  8
0
  6
Continuous
 62
     7
100
AcDbLine
 10
221.7889958656
 20
90.6452291907
 30
0.0
 11
221.9540513715
 21
90.6452291907
 31
0.0
  0
LINE
  5
27B
330
1F
100
AcDbEntity
  8
0
  6
Continuous
 62
     7
100
AcDbLine
 10
221.7889343983
 20
90.6769314111
 30
0.0
 11
221.7889343983
 21
90.6685644091
 31
0.0
  0
LINE
  5
27C
330
1F
100
AcDbEntity
  8
0
  6
Continuous
 62
     7
100
AcDbLine
 10
218.8486404143
 20
90.6582566738
 30
0.0
 11
218.8486424329
 21
90.6487171677
 31
0.0
  0
LINE
  5
27D
330
1F
100
AcDbEntity
  8
0
  6
Continuous
 62
     7
100
AcDbLine
 10
218.6626719441
 20
90.6450893374
 30
0.0
 11
218.6626674827
 21
90.6349483653
 31
0.0
  0
LINE
  5
27E
330
1F
100
AcDbEntity
  8
0
  6
Continuous
 62
     7
100
AcDbLine
 10
222.0284865454
 20
90.6458428809
 30
0.0
 11
222.0284863474
 21
90.6374942879
 31
0.0
  0
LINE
  5
27F
330
1F
100
AcDbEntity
  8
0
  6
Continuous
 62
     7
100
AcDbLine
 10
218.9389636026
 20
90.6284017469
 30
0.0
 11
218.9391401685
 21
90.6158600016
 31
0.0
  0
LINE
  5
280
330
1F
100
AcDbEntity
  8
0
  6
Continuous
 62
     7
100
AcDbLine
 10
221.927297395
 20
90.6452320135
 30
0.0
 11
221.927297395
 21
90.6368725536
 31
0.0
  0
LINE
  5
281
330
1F
100
AcDbEntity
  8
0
  6
Continuous
 62
     7
100
AcDbLine
 10
221.9540513715
 20
90.6452291907
 30
0.0
 11
221.954052688
 21
90.6356676706
 31
0.0
  0
LINE
  5
282
330
1F
100
AcDbEntity
  8
0
  6
Continuous
 62
     7
100
AcDbLine
 10
221.7889958656
 20
90.6452291907
 30
0.0
 11
221.7890108938
 21
90.6368724621
 31
0.0
  0
LINE
  5
283
330
1F
100
AcDbEntity
  8
0
  6
Continuous
 62
     7
100
AcDbLine
 10
221.9646963154
 20
90.645226892
 30
0.0
 11
221.9646914838
 21
90.6350510664
 31
0.0
  0
LINE
  5
284
330
1F
100
AcDbEntity
  8
0
  6
Continuous
 62
     7
100
AcDbLine
 10
222.0709928888
 20
90.6350815
 30
0.0
 11
222.0709926702
 21
90.6207340777
 31
0.0
  0
LINE
  5
285
330
1F
100
AcDbEntity
  8
0
  6
Continuous
 62
     7
100
AcDbLine
 10
214.7276606335
 20
90.6146892608
 30
0.0
 11
212.9200166016
 21
90.6145775021
 31
0.0
  0
LINE
  5
286
330
1F
100
AcDbEntity
  8
0
  6
Continuous
 62
     7
100
AcDbLine
 10
210.9091872944
 20
90.6150759719
 30
0.0
 11
212.9200166016
 21
90.6145775021
 31
0.0
  0
LINE
  5
287
330
1F
100
AcDbEntity
  8
0
  6
Continuous
 62
     7
100
AcDbLine
 10
210.9091872944
 20
90.6150759719
 30
0.0
 11
204.4215660671
 21
90.6148829759
 31
0.0
  0
LINE
  5
288
330
1F
100
AcDbEntity
  8
0
  6
Continuous
 62
     7
100
AcDbLine
 10
199.535280109
 20
90.6152283813
 30
0.0
 11
204.4215660671
 21
90.6148829759
 31
0.0
  0
LINE
  5
289
330
1F
100
AcDbEntity
  8
0
  6
Continuous
 62
     7
100
AcDbLine
 10
222.1562033165
 20
90.6245240277
 30
0.0
 11
222.1562037197
 21
90.6058514671
 31
0.0
  0
LINE
  5
28A
330
1F
100
AcDbEntity
  8
0
  6
Continuous
 62
     7
100
AcDbLine
 10
218.8487315377
 20
90.6182254938
 30
0.0
 11
218.8487080513
 21
90.6063173639
 31
0.0
  0
LINE
  5
28B
330
1F
100
AcDbEntity
  8
0
  6
Continuous
 62
     7
100
AcDbLine
 10
217.9603304976
 20
90.6104742085
 30
0.0
 11
217.9497880574
 21
90.6104721874
 31
0.0
  0
LINE
  5
28C
330
1F
100
AcDbEntity
  8
0
  6
Continuous
 62
     7
100
AcDbLine
 10
217.9606228521
 20
90.4928493312
 30
0.0
 11
218.0245925098
 21
90.4922691671
 31
0.0
  0
LINE
  5
28D
330
1F
100
AcDbEntity
  8
0
  6
Continuous
 62
     7
100
AcDbLine
 10
216.3916821406
 20
90.64736403
 30
0.0
 11
216.3916824813
 21
90.5467442277
 31
0.0
  0
LINE
  5
28E
330
1F
100
AcDbEntity
  8
0
  6
Continuous
 62
     7
100
AcDbLine
 10
217.9497880574
 20
90.6198226661
 30
0.0
 11
217.9497880574
 21
90.6104721874
 31
0.0
  0
LINE
  5
28F
330
1F
100
AcDbEntity
  8
0
  6
Continuous
 62
     7
100
AcDbLine
 10
218.8008045448
 20
90.6123795735
 30
0.0
 11
218.8008046897
 21
90.6015340768
 31
0.0
  0
LINE
  5
290
330
1F
100
AcDbEntity
  8
0
  6
Continuous
 62
     7
100
AcDbLine
 10
218.8487555545
 20
90.5997508019
 30
0.0
 11
218.8487559275
 21
90.591414366
 31
0.0
  0
LINE
  5
291
330
1F
100
AcDbEntity
  8
0
  6
Continuous
 62
     7
100
AcDbLine
 10
218.9392428558
 20
90.5950047821
 30
0.0
 11
218.9392424287
 21
90.5866633431
 31
0.0
  0
LINE
  5
292
330
1F
100
AcDbEntity
  8
0
  6
Continuous
 62
     7
100
AcDbLine
 10
215.7433130592
 20
90.4527548647
 30
0.0
 11
215.7433128103
 21
90.4277923258
 31
0.0
  0
LINE
  5
293
330
1F
100
AcDbEntity
  8
0
  6
Continuous
 62
     7
100
AcDbLine
 10
217.9606309187
 20
90.48397222
 30
0.0
 11
218.0246000015
 21
90.4833774591
 31
0.0
  0
LINE
  5
294
330
1F
100
AcDbEntity
  8
0
  6
Continuous
 62
     7
100
AcDbLine
 10
217.9606534701
 20
90.4668301883
 30
0.0
 11
218.01925463
 21
90.4668338961
 31
0.0
  0
LINE
  5
295
330
1F
100
AcDbEntity
  8
0
  6
Continuous
 62
     7
100
AcDbLine
 10
215.672632487
 20
90.4098345671
 30
0.0
 11
215.675838707
 21
90.4100458041
 31
0.0
  0
LINE
  5
296
330
1F
100
AcDbEntity
  8
0
  6
Continuous
 62
     7
100
AcDbLine
 10
195.3114270827
 20
90.6149947346
 30
0.0
 11
195.3114272852
 21
90.5151218231
 31
0.0
  0
LINE
  5
297
330
1F
100
AcDbEntity
  8
0
  6
Continuous
 62
     7
100
AcDbLine
 10
218.8752782382
 20
90.530307915
 30
0.0
 11
218.8752786314
 21
90.5201149455
 31
0.0
  0
LINE
  5
298
330
1F
100
AcDbEntity
  8
0
  6
Continuous
 62
     7
100
AcDbLine
 10
218.9393308008
 20
90.5272378699
 30
0.0
 11
218.939429117
 21
90.5171570277
 31
0.0
  0
LINE
  5
299
330
1F
100
AcDbEntity
  8
0
  6
Continuous
 62
     7
100
AcDbLine
 10
218.8490018979
 20
90.5290264584
 30
0.0
 11
218.8490015911
 21
90.5177450714
 31
0.0
  0
LINE
  5
29A
330
1F
100
AcDbEntity
  8
0
  6
Continuous
 62
     7
100
AcDbLine
 10
218.6629033318
 20
90.5118298842
 30
0.0
 11
218.6629886252
 21
90.5005447981
 31
0.0
  0
LINE
  5
29B
330
1F
100
AcDbEntity
  8
0
  6
Continuous
 62
     7
100
AcDbLine
 10
204.4215660671
 20
90.6148829759
 30
0.0
 11
204.4215666909
 21
90.5142606469
 31
0.0
  0
LINE
  5
29C
330
1F
100
AcDbEntity
  8
0
  6
Continuous
 62
     7
100
AcDbLine
 10
210.9091872944
 20
90.6150759719
 30
0.0
 11
210.9091872944
 21
90.5144566
 31
0.0
  0
LINE
  5
29D
330
1F
100
AcDbEntity
  8
0
  6
Continuous
 62
     7
100
AcDbLine
 10
212.9200166016
 20
90.6145775021
 30
0.0
 11
212.9200166016
 21
90.5139588939
 31
0.0
  0
LINE
  5
29E
330
1F
100
AcDbEntity
  8
0
  6
Continuous
 62
     7
100
AcDbLine
 10
218.0245925098
 20
90.4922691671
 30
0.0
 11
218.0246000015
 21
90.4833774591
 31
0.0
  0
LINE
  5
29F
330
1F
100
AcDbEntity
  8
0
  6
Continuous
 62
     7
100
AcDbLine
 10
217.9606228521
 20
90.4928493312
 30
0.0
 11
217.9606309187
 21
90.48397222
 31
0.0
  0
LINE
  5
2A0
330
1F
100
AcDbEntity
  8
0
  6
Continuous
 62
     7
100
AcDbLine
 10
213.5702071339
 20
89.8799726032
 30
0.0
 11
214.4157376068
 21
89.8799783257
 31
0.0
  0
LINE
  5
2A1
330
1F
100
AcDbEntity
  8
0
  6
Continuous
 62
     7
100
AcDbLine
 10
211.4006210651
 20
89.8799130025
 30
0.0
 11
212.2356097916
 21
89.8799201055
 31
0.0
  0
LINE
  5
2A2
330
1F
100
AcDbEntity
  8
0
  6
Continuous
 62
     7
100
AcDbLine
 10
206.0718821963
 20
89.8813733131
 30
0.0
 11
205.3067413296
 21
89.8813658625
 31
0.0
  0
LINE
  5
2A3
330
1F
100
AcDbEntity
  8
0
  6
Continuous
 62
     7
100
AcDbLine
 10
204.4229954149
 20
89.8790018555
 30
0.0
 11
204.5944654837
 21
89.8796546205
 31
0.0
  0
LINE
  5
2A4
330
1F
100
AcDbEntity
  8
0
  6
Continuous
 62
     7
100
AcDbLine
 10
203.6472169179
 20
89.8779761104
 30
0.0
 11
204.4229954149
 21
89.8790018555
 31
0.0
  0
LINE
  5
2A5
330
1F
100
AcDbEntity
  8
0
  6
Continuous
 62
     7
100
AcDbLine
 10
201.7856419124
 20
89.8795609154
 30
0.0
 11
200.9093626
 21
89.8794436158
 31
0.0
  0
LINE
  5
2A6
330
1F
100
AcDbEntity
  8
0
  6
Continuous
 62
     7
100
AcDbLine
 10
200.9093626
 20
89.8794436158
 30
0.0
 11
200.9093625055
 21
89.7788857324
 31
0.0
  0
LINE
  5
2A7
330
1F
100
AcDbEntity
  8
0
  6
Continuous
 62
     7
100
AcDbLine
 10
218.4817920975
 20
90.4638777425
 30
0.0
 11
218.4817918167
 21
90.4314287304
 31
0.0
  0
LINE
  5
2A8
330
1F
100
AcDbEntity
  8
0
  6
Continuous
 62
     7
100
AcDbLine
 10
209.1727473697
 20
89.9629795285
 30
0.0
 11
209.1727473697
 21
89.8624122777
 31
0.0
  0
LINE
  5
2A9
330
1F
100
AcDbEntity
  8
0
  6
Continuous
 62
     7
100
AcDbLine
 10
208.2794702381
 20
89.8803063161
 30
0.0
 11
209.1727473814
 21
89.8801558884
 31
0.0
  0
LINE
  5
2AA
330
1F
100
AcDbEntity
  8
0
  6
Continuous
 62
     7
100
AcDbLine
 10
205.2846335475
 20
90.2732001433
 30
0.0
 11
205.2846335475
 21
90.1726078709
 31
0.0
  0
LINE
  5
2AB
330
1F
100
AcDbEntity
  8
0
  6
Continuous
 62
     7
100
AcDbLine
 10
203.6298470543
 20
90.3154590657
 30
0.0
 11
203.6298470543
 21
90.2148663569
 31
0.0
  0
LINE
  5
2AC
330
1F
100
AcDbEntity
  8
0
  6
Continuous
 62
     7
100
AcDbLine
 10
208.2794702381
 20
89.8803063161
 30
0.0
 11
208.2794702381
 21
89.7797448655
 31
0.0
  0
LINE
  5
2AD
330
1F
100
AcDbEntity
  8
0
  6
Continuous
 62
     7
100
AcDbLine
 10
194.3562123588
 20
90.2698912919
 30
0.0
 11
194.3562127451
 21
90.1692994779
 31
0.0
  0
LINE
  5
2AE
330
1F
100
AcDbEntity
  8
0
  6
Continuous
 62
     7
100
AcDbLine
 10
218.6635034368
 20
90.4114339056
 30
0.0
 11
218.6635034368
 21
90.3755561258
 31
0.0
  0
LINE
  5
2AF
330
1F
100
AcDbEntity
  8
0
  6
Continuous
 62
     7
100
AcDbLine
 10
218.2643687657
 20
90.329161284
 30
0.0
 11
218.141895512
 21
90.3291585619
 31
0.0
  0
LINE
  5
2B0
330
1F
100
AcDbEntity
  8
0
  6
Continuous
 62
     7
100
AcDbLine
 10
217.9609741679
 20
90.3432422579
 30
0.0
 11
218.2643148636
 21
90.3432579353
 31
0.0
  0
LINE
  5
2B1
330
1F
100
AcDbEntity
  8
0
  6
Continuous
 62
     7
100
AcDbLine
 10
217.7751455087
 20
90.3432273568
 30
0.0
 11
217.9609741679
 21
90.3432422579
 31
0.0
  0
LINE
  5
2B2
330
1F
100
AcDbEntity
  8
0
  6
Continuous
 62
     7
100
AcDbLine
 10
217.8922979666
 20
90.3291401706
 30
0.0
 11
217.7751994099
 21
90.3291307434
 31
0.0
  0
LINE
  5
2B3
330
1F
100
AcDbEntity
  8
0
  6
Continuous
 62
     7
100
AcDbLine
 10
217.4557326529
 20
90.4116872253
 30
0.0
 11
217.455732967
 21
90.3766629864
 31
0.0
  0
LINE
  5
2B4
330
1F
100
AcDbEntity
  8
0
  6
Continuous
 62
     7
100
AcDbLine
 10
220.3519185718
 20
90.4045158328
 30
0.0
 11
220.3519188271
 21
90.3794225024
 31
0.0
  0
LINE
  5
2B5
330
1F
100
AcDbEntity
  8
0
  6
Continuous
 62
     7
100
AcDbLine
 10
215.5957766622
 20
90.4019493557
 30
0.0
 11
215.5957769779
 21
90.3943041259
 31
0.0
  0
LINE
  5
2B6
330
1F
100
AcDbEntity
  8
0
  6
Continuous
 62
     7
100
AcDbLine
 10
217.3281796444
 20
90.4178786578
 30
0.0
 11
217.3281799736
 21
90.3561265555
 31
0.0
  0
LINE
  5
2B7
330
1F
100
AcDbEntity
  8
0
  6
Continuous
 62
     7
100
AcDbLine
 10
218.9396019578
 20
90.456237134
 30
0.0
 11
218.9397339727
 21
90.372608957
 31
0.0
  0
LINE
  5
2B8
330
1F
100
AcDbEntity
  8
0
  6
Continuous
 62
     7
100
AcDbLine
 10
198.6837539861
 20
90.4595694017
 30
0.0
 11
198.683789814
 21
90.3666442131
 31
0.0
  0
LINE
  5
2B9
330
1F
100
AcDbEntity
  8
0
  6
Continuous
 62
     7
100
AcDbLine
 10
198.0255308105
 20
90.1722812355
 30
0.0
 11
198.7324651854
 21
90.1723035872
 31
0.0
  0
LINE
  5
2BA
330
1F
100
AcDbEntity
  8
0
  6
Continuous
 62
     7
100
AcDbLine
 10
198.683789814
 20
90.3666442131
 30
0.0
 11
198.7324593128
 21
90.3660556822
 31
0.0
  0
LINE
  5
2BB
330
1F
100
AcDbEntity
  8
0
  6
Continuous
 62
     7
100
AcDbLine
 10
198.7324651854
 20
90.1723035872
 30
0.0
 11
199.4288597245
 21
90.1723280694
 31
0.0
  0
LINE
  5
2BC
330
1F
100
AcDbEntity
  8
0
  6
Continuous
 62
     7
100
AcDbLine
 10
212.212468289
 20
90.1711263991
 30
0.0
 11
212.9204359616
 21
90.1711487492
 31
0.0
  0
LINE
  5
2BD
330
1F
100
AcDbEntity
  8
0
  6
Continuous
 62
     7
100
AcDbLine
 10
212.9194503324
 20
90.3653555826
 30
0.0
 11
212.861159143
 21
90.3653618138
 31
0.0
  0
LINE
  5
2BE
330
1F
100
AcDbEntity
  8
0
  6
Continuous
 62
     7
100
AcDbLine
 10
212.9204359616
 20
90.1711487492
 30
0.0
 11
213.6220995416
 21
90.1711749265
 31
0.0
  0
LINE
  5
2BF
330
1F
100
AcDbEntity
  8
0
  6
Continuous
 62
     7
100
AcDbLine
 10
212.2128297432
 20
90.2042889298
 30
0.0
 11
212.2128297432
 21
90.20414787
 31
0.0
  0
LINE
  5
2C0
330
1F
100
AcDbEntity
  8
0
  6
Continuous
 62
     7
100
AcDbLine
 10
220.3462198087
 20
90.405968697
 30
0.0
 11
220.3462202342
 21
90.3781101725
 31
0.0
  0
LINE
  5
2C1
330
1F
100
AcDbEntity
  8
0
  6
Continuous
 62
     7
100
AcDbLine
 10
218.7480162996
 20
90.4145035448
 30
0.0
 11
218.7480160089
 21
90.3632152073
 31
0.0
  0
LINE
  5
2C2
330
1F
100
AcDbEntity
  8
0
  6
Continuous
 62
     7
100
AcDbLine
 10
198.9547072631
 20
90.4654616469
 30
0.0
 11
198.9547074462
 21
90.3648573333
 31
0.0
  0
LINE
  5
2C3
330
1F
100
AcDbEntity
  8
0
  6
Continuous
 62
     7
100
AcDbLine
 10
199.4345062091
 20
90.3072187004
 30
0.0
 11
199.4345054562
 21
90.2066237843
 31
0.0
  0
LINE
  5
2C4
330
1F
100
AcDbEntity
  8
0
  6
Continuous
 62
     7
100
AcDbLine
 10
213.1426795049
 20
90.4647632222
 30
0.0
 11
213.1426795049
 21
90.3641568636
 31
0.0
  0
LINE
  5
2C5
330
1F
100
AcDbEntity
  8
0
  6
Continuous
 62
     7
100
AcDbLine
 10
213.6224736504
 20
90.305946107
 30
0.0
 11
213.6224736504
 21
90.2053539745
 31
0.0
  0
LINE
  5
2C6
330
1F
100
AcDbEntity
  8
0
  6
Continuous
 62
     7
100
AcDbLine
 10
218.8491871502
 20
90.4580049305
 30
0.0
 11
218.8495655965
 21
90.3684839846
 31
0.0
  0
LINE
  5
2C7
330
1F
100
AcDbEntity
  8
0
  6
Continuous
 62
     7
100
AcDbLine
 10
198.7324593127
 20
90.4595756232
 30
0.0
 11
198.7324593128
 21
90.3660556822
 31
0.0
  0
LINE
  5
2C8
330
1F
100
AcDbEntity
  8
0
  6
Continuous
 62
     7
100
AcDbLine
 10
212.9194503323
 20
90.4589721279
 30
0.0
 11
212.9194503324
 21
90.3653555826
 31
0.0
  0
LINE
  5
2C9
330
1F
100
AcDbEntity
  8
0
  6
Continuous
 62
     7
100
AcDbLine
 10
218.9769940215
 20
90.3333255542
 30
0.0
 11
218.9769940215
 21
90.320255252
 31
0.0
  0
LINE
  5
2CA
330
1F
100
AcDbEntity
  8
0
  6
Continuous
 62
     7
100
AcDbLine
 10
206.1289691072
 20
90.4462912373
 30
0.0
 11
206.1289691072
 21
90.3475671728
 31
0.0
  0
LINE
  5
2CB
330
1F
100
AcDbEntity
  8
0
  6
Continuous
 62
     7
100
AcDbLine
 10
217.9611399816
 20
90.2823869083
 30
0.0
 11
217.9986510585
 21
90.2818316859
 31
0.0
  0
LINE
  5
2CC
330
1F
100
AcDbEntity
  8
0
  6
Continuous
 62
     7
100
AcDbLine
 10
218.9397581108
 20
90.3461920781
 30
0.0
 11
218.9398319588
 21
90.3339330528
 31
0.0
  0
LINE
  5
2CD
330
1F
100
AcDbEntity
  8
0
  6
Continuous
 62
     7
100
AcDbLine
 10
219.0140774148
 20
90.3505065725
 30
0.0
 11
219.0140771549
 21
90.3374187817
 31
0.0
  0
LINE
  5
2CE
330
1F
100
AcDbEntity
  8
0
  6
Continuous
 62
     7
100
AcDbLine
 10
218.8495648639
 20
90.3397790633
 30
0.0
 11
218.8496443278
 21
90.3280429543
 31
0.0
  0
LINE
  5
2CF
330
1F
100
AcDbEntity
  8
0
  6
Continuous
 62
     7
100
AcDbLine
 10
217.9986508236
 20
90.3432422564
 30
0.0
 11
217.9986510585
 21
90.2818316859
 31
0.0
  0
LINE
  5
2D0
330
1F
100
AcDbEntity
  8
0
  6
Continuous
 62
     7
100
AcDbLine
 10
218.9438659371
 20
90.3296225952
 30
0.0
 11
218.9438661994
 21
90.31519865
 31
0.0
  0
LINE
  5
2D1
330
1F
100
AcDbEntity
  8
0
  6
Continuous
 62
     7
100
AcDbLine
 10
219.1045209439
 20
90.30825433
 30
0.0
 11
219.1045212048
 21
90.3002659996
 31
0.0
  0
LINE
  5
2D2
330
1F
100
AcDbEntity
  8
0
  6
Continuous
 62
     7
100
AcDbLine
 10
218.93993219
 20
90.3145908275
 30
0.0
 11
218.9438661994
 21
90.31519865
 31
0.0
  0
LINE
  5
2D3
330
1F
100
AcDbEntity
  8
0
  6
Continuous
 62
     7
100
AcDbLine
 10
218.9398837078
 20
90.3291748996
 30
0.0
 11
218.93993219
 21
90.3145908275
 31
0.0
  0
LINE
  5
2D4
330
1F
100
AcDbEntity
  8
0
  6
Continuous
 62
     7
100
AcDbLine
 10
218.6326279287
 20
89.9538173512
 30
0.0
 11
218.6647648455
 21
89.9532915449
 31
0.0
  0
LINE
  5
2D5
330
1F
100
AcDbEntity
  8
0
  6
Continuous
 62
     7
100
AcDbLine
 10
200.2119038651
 20
89.8811039143
 30
0.0
 11
200.2119038663
 21
89.7805429036
 31
0.0
  0
LINE
  5
2D6
330
1F
100
AcDbEntity
  8
0
  6
Continuous
 62
     7
100
AcDbLine
 10
218.6637925813
 20
90.2783410209
 30
0.0
 11
218.6637854414
 21
90.2492155909
 31
0.0
  0
LINE
  5
2D7
330
1F
100
AcDbEntity
  8
0
  6
Continuous
 62
     7
100
AcDbLine
 10
214.4157376068
 20
89.8799783257
 30
0.0
 11
214.4157373013
 21
89.7794183769
 31
0.0
  0
LINE
  5
2D8
330
1F
100
AcDbEntity
  8
0
  6
Continuous
 62
     7
100
AcDbLine
 10
217.4577503948
 20
89.7175770471
 30
0.0
 11
217.4630148455
 21
89.7169976834
 31
0.0
  0
LINE
  5
2D9
330
1F
100
AcDbEntity
  8
0
  6
Continuous
 62
     7
100
AcDbLine
 10
217.0784324071
 20
90.316859752
 30
0.0
 11
217.0784325085
 21
90.2946485197
 31
0.0
  0
LINE
  5
2DA
330
1F
100
AcDbEntity
  8
0
  6
Continuous
 62
     7
100
AcDbLine
 10
218.3992648171
 20
89.8153909729
 30
0.0
 11
218.3992646364
 21
89.7148324999
 31
0.0
  0
LINE
  5
2DB
330
1F
100
AcDbEntity
  8
0
  6
Continuous
 62
     7
100
AcDbLine
 10
219.7054336184
 20
90.2675592602
 30
0.0
 11
219.7054336184
 21
90.2544695015
 31
0.0
  0
LINE
  5
2DC
330
1F
100
AcDbEntity
  8
0
  6
Continuous
 62
     7
100
AcDbLine
 10
220.0620118192
 20
90.2080216707
 30
0.0
 11
220.062011933
 21
90.1986492135
 31
0.0
  0
LINE
  5
2DD
330
1F
100
AcDbEntity
  8
0
  6
Continuous
 62
     7
100
AcDbLine
 10
219.2481098067
 20
90.3221932686
 30
0.0
 11
219.2483433947
 21
90.2486409601
 31
0.0
  0
LINE
  5
2DE
330
1F
100
AcDbEntity
  8
0
  6
Continuous
 62
     7
100
AcDbLine
 10
218.6105930852
 20
90.2480014847
 30
0.0
 11
218.6105934631
 21
90.2334535145
 31
0.0
  0
LINE
  5
2DF
330
1F
100
AcDbEntity
  8
0
  6
Continuous
 62
     7
100
AcDbLine
 10
219.0090808681
 20
90.2768054307
 30
0.0
 11
219.0090813135
 21
90.2486382957
 31
0.0
  0
LINE
  5
2E0
330
1F
100
AcDbEntity
  8
0
  6
Continuous
 62
     7
100
AcDbLine
 10
218.9402271442
 20
90.256183683
 30
0.0
 11
218.9403168651
 21
90.2265071022
 31
0.0
  0
LINE
  5
2E1
330
1F
100
AcDbEntity
  8
0
  6
Continuous
 62
     7
100
AcDbLine
 10
201.7856419124
 20
89.8795609154
 30
0.0
 11
201.7856416887
 21
89.7790023395
 31
0.0
  0
LINE
  5
2E2
330
1F
100
AcDbEntity
  8
0
  6
Continuous
 62
     7
100
AcDbLine
 10
201.7958977145
 20
90.3293605411
 30
0.0
 11
201.795897434
 21
90.2287637998
 31
0.0
  0
LINE
  5
2E3
330
1F
100
AcDbEntity
  8
0
  6
Continuous
 62
     7
100
AcDbLine
 10
203.6462996885
 20
90.1760162496
 30
0.0
 11
203.6462996885
 21
90.0754315046
 31
0.0
  0
LINE
  5
2E4
330
1F
100
AcDbEntity
  8
0
  6
Continuous
 62
     7
100
AcDbLine
 10
218.8658965415
 20
90.2272739709
 30
0.0
 11
218.8658969211
 21
90.1881564612
 31
0.0
  0
LINE
  5
2E5
330
1F
100
AcDbEntity
  8
0
  6
Continuous
 62
     7
100
AcDbLine
 10
212.2124682891
 20
90.2717166861
 30
0.0
 11
212.212468289
 21
90.1711263991
 31
0.0
  0
LINE
  5
2E6
330
1F
100
AcDbEntity
  8
0
  6
Continuous
 62
     7
100
AcDbLine
 10
196.8401697471
 20
90.1705201832
 30
0.0
 11
196.8401697472
 21
90.0775682766
 31
0.0
  0
LINE
  5
2E7
330
1F
100
AcDbEntity
  8
0
  6
Continuous
 62
     7
100
AcDbLine
 10
217.553429273
 20
89.8158752606
 30
0.0
 11
217.5534297158
 21
89.7153212825
 31
0.0
  0
LINE
  5
2E8
330
1F
100
AcDbEntity
  8
0
  6
Continuous
 62
     7
100
AcDbLine
 10
219.2485556524
 20
90.1829316222
 30
0.0
 11
219.2488942463
 21
90.1008107201
 31
0.0
  0
LINE
  5
2E9
330
1F
100
AcDbEntity
  8
0
  6
Continuous
 62
     7
100
AcDbLine
 10
220.3866848385
 20
90.1439839304
 30
0.0
 11
220.3866844211
 21
90.1175676198
 31
0.0
  0
LINE
  5
2EA
330
1F
100
AcDbEntity
  8
0
  6
Continuous
 62
     7
100
AcDbLine
 10
211.0377500426
 20
90.1693160083
 30
0.0
 11
211.0377500426
 21
90.0763113002
 31
0.0
  0
LINE
  5
2EB
330
1F
100
AcDbEntity
  8
0
  6
Continuous
 62
     7
100
AcDbLine
 10
218.7595162204
 20
90.1760512293
 30
0.0
 11
218.7595158988
 21
90.1100026508
 31
0.0
  0
LINE
  5
2EC
330
1F
100
AcDbEntity
  8
0
  6
Continuous
 62
     7
100
AcDbLine
 10
218.8503313473
 20
90.2077385486
 30
0.0
 11
218.8503317748
 21
90.1071530355
 31
0.0
  0
LINE
  5
2ED
330
1F
100
AcDbEntity
  8
0
  6
Continuous
 62
     7
100
AcDbLine
 10
218.6799738219
 20
90.1243292988
 30
0.0
 11
218.6799735415
 21
90.0386090297
 31
0.0
  0
LINE
  5
2EE
330
1F
100
AcDbEntity
  8
0
  6
Continuous
 62
     7
100
AcDbLine
 10
218.940401632
 20
90.1869909636
 30
0.0
 11
218.9405333351
 21
90.1048310907
 31
0.0
  0
LINE
  5
2EF
330
1F
100
AcDbEntity
  8
0
  6
Continuous
 62
     7
100
AcDbLine
 10
206.0710507093
 20
90.1795977025
 30
0.0
 11
206.0710507092
 21
90.0790132075
 31
0.0
  0
LINE
  5
2F0
330
1F
100
AcDbEntity
  8
0
  6
Continuous
 62
     7
100
AcDbLine
 10
211.4049814512
 20
90.169271201
 30
0.0
 11
211.4049814514
 21
90.0779819494
 31
0.0
  0
LINE
  5
2F1
330
1F
100
AcDbEntity
  8
0
  6
Continuous
 62
     7
100
AcDbLine
 10
197.2116650639
 20
90.1705276338
 30
0.0
 11
197.2116650639
 21
90.0769493745
 31
0.0
  0
LINE
  5
2F2
330
1F
100
AcDbEntity
  8
0
  6
Continuous
 62
     7
100
AcDbLine
 10
205.3058063973
 20
90.1778667581
 30
0.0
 11
205.3058063933
 21
90.0772788794
 31
0.0
  0
LINE
  5
2F3
330
1F
100
AcDbEntity
  8
0
  6
Continuous
 62
     7
100
AcDbLine
 10
205.3067413296
 20
89.8813658625
 30
0.0
 11
205.3067413257
 21
89.780801544
 31
0.0
  0
LINE
  5
2F4
330
1F
100
AcDbEntity
  8
0
  6
Continuous
 62
     7
100
AcDbLine
 10
204.5776846056
 20
90.1778468164
 30
0.0
 11
204.5776846056
 21
90.0772586214
 31
0.0
  0
LINE
  5
2F5
330
1F
100
AcDbEntity
  8
0
  6
Continuous
 62
     7
100
AcDbLine
 10
199.3812517851
 20
90.1723264426
 30
0.0
 11
199.381251518
 21
90.0770133783
 31
0.0
  0
LINE
  5
2F6
330
1F
100
AcDbEntity
  8
0
  6
Continuous
 62
     7
100
AcDbLine
 10
197.2125873214
 20
89.8799090875
 30
0.0
 11
197.2125873211
 21
89.7793514756
 31
0.0
  0
LINE
  5
2F7
330
1F
100
AcDbEntity
  8
0
  6
Continuous
 62
     7
100
AcDbLine
 10
198.0307763305
 20
90.1722823288
 30
0.0
 11
198.0307761787
 21
90.0758119369
 31
0.0
  0
LINE
  5
2F8
330
1F
100
AcDbEntity
  8
0
  6
Continuous
 62
     7
100
AcDbLine
 10
213.5692709999
 20
90.1711710949
 30
0.0
 11
213.569271
 21
90.0757515092
 31
0.0
  0
LINE
  5
2F9
330
1F
100
AcDbEntity
  8
0
  6
Continuous
 62
     7
100
AcDbLine
 10
213.5702071339
 20
89.8799726032
 30
0.0
 11
213.5702071339
 21
89.7794143779
 31
0.0
  0
LINE
  5
2FA
330
1F
100
AcDbEntity
  8
0
  6
Continuous
 62
     7
100
AcDbLine
 10
212.2452157608
 20
90.1711263915
 30
0.0
 11
212.2452157608
 21
90.0756961537
 31
0.0
  0
LINE
  5
2FB
330
1F
100
AcDbEntity
  8
0
  6
Continuous
 62
     7
100
AcDbLine
 10
212.2356097916
 20
89.8799201055
 30
0.0
 11
212.2356099609
 21
89.7793599672
 31
0.0
  0
LINE
  5
2FC
330
1F
100
AcDbEntity
  8
0
  6
Continuous
 62
     7
100
AcDbLine
 10
203.6472169179
 20
89.8779761104
 30
0.0
 11
203.6472169199
 21
89.7774148426
 31
0.0
  0
LINE
  5
2FD
330
1F
100
AcDbEntity
  8
0
  6
Continuous
 62
     7
100
AcDbLine
 10
219.2498271351
 20
89.7485915771
 30
0.0
 11
219.2498816339
 21
89.7350593198
 31
0.0
  0
LINE
  5
2FE
330
1F
100
AcDbEntity
  8
0
  6
Continuous
 62
     7
100
AcDbLine
 10
220.509531027
 20
90.0556274936
 30
0.0
 11
220.509531027
 21
89.9550529575
 31
0.0
  0
LINE
  5
2FF
330
1F
100
AcDbEntity
  8
0
  6
Continuous
 62
     7
100
AcDbLine
 10
218.6326281772
 20
90.0543906974
 30
0.0
 11
218.6326279287
 21
89.9538173512
 31
0.0
  0
LINE
  5
300
330
1F
100
AcDbEntity
  8
0
  6
Continuous
 62
     7
100
AcDbLine
 10
218.664764394
 20
90.0538691567
 30
0.0
 11
218.6647648455
 21
89.9532915449
 31
0.0
  0
LINE
  5
301
330
1F
100
AcDbEntity
  8
0
  6
Continuous
 62
     7
100
AcDbLine
 10
218.8505522225
 20
90.0334524529
 30
0.0
 11
218.8506455407
 21
89.94868435
 31
0.0
  0
LINE
  5
302
330
1F
100
AcDbEntity
  8
0
  6
Continuous
 62
     7
100
AcDbLine
 10
194.8143802246
 20
89.8793169559
 30
0.0
 11
194.8143802246
 21
89.7787564696
 31
0.0
  0
LINE
  5
303
330
1F
100
AcDbEntity
  8
0
  6
Continuous
 62
     7
100
AcDbLine
 10
217.9259667239
 20
89.811427264
 30
0.0
 11
217.9259667239
 21
89.7108698408
 31
0.0
  0
LINE
  5
304
330
1F
100
AcDbEntity
  8
0
  6
Continuous
 62
     7
100
AcDbLine
 10
211.054491544
 20
89.8630746902
 30
0.0
 11
211.054491544
 21
89.779285461
 31
0.0
  0
LINE
  5
305
330
1F
100
AcDbEntity
  8
0
  6
Continuous
 62
     7
100
AcDbLine
 10
204.4229954149
 20
89.8790018555
 30
0.0
 11
204.4229954149
 21
89.7784405072
 31
0.0
  0
LINE
  5
306
330
1F
100
AcDbEntity
  8
0
  6
Continuous
 62
     7
100
AcDbLine
 10
218.6654808312
 20
89.7221206007
 30
0.0
 11
218.6654643771
 21
89.7114783142
 31
0.0
  0
LINE
  5
307
330
1F
100
AcDbEntity
  8
0
  6
Continuous
 62
     7
100
AcDbLine
 10
217.9628651042
 20
89.8024129336
 30
0.0
 11
217.9628654838
 21
89.7018595035
 31
0.0
  0
LINE
  5
308
330
1F
100
AcDbEntity
  8
0
  6
Continuous
 62
     7
100
AcDbLine
 10
214.0468864711
 20
83.1575853909
 30
0.0
 11
214.0468861503
 21
83.6557533927
 31
0.0
  0
LINE
  5
309
330
1F
100
AcDbEntity
  8
0
  6
Continuous
 62
     7
100
AcDbLine
 10
200.421432327
 20
83.1575853909
 30
0.0
 11
200.4214320063
 21
83.6557533927
 31
0.0
  0
LINE
  5
30A
330
1F
100
AcDbEntity
  8
0
  6
Continuous
 62
     7
100
AcDbLine
 10
231.3014349459
 20
82.1046584548
 30
0.0
 11
231.3014346252
 21
82.5938745652
 31
0.0
  0
LINE
  5
30B
330
1F
100
AcDbEntity
  8
0
  6
Continuous
 62
     7
100
AcDbLine
 10
183.1668838522
 20
82.1046584548
 30
0.0
 11
183.1668835314
 21
82.5938745652
 31
0.0
  0
LINE
  5
30C
330
1F
100
AcDbEntity
  8
0
  6
Continuous
 62
     7
100
AcDbLine
 10
79.2341529986
 20
92.5387718976
 30
0.0
 11
79.2341529986
 21
82.5809801818
 31
0.0
  0
LINE
  5
30D
330
1F
100
AcDbEntity
  8
0
  6
Continuous
 62
     7
100
AcDbLine
 10
335.234165158
 20
82.5809801818
 30
0.0
 11
335.234165158
 21
92.5387718976
 31
0.0
  0
LINE
  5
30E
330
1F
100
AcDbEntity
  8
0
  6
Continuous
 62
     7
100
AcDbLine
 10
219.2470469707
 20
90.6564656532
 30
0.0
 11
219.2471202455
 21
90.6439076636
 31
0.0
  0
LINE
  5
30F
330
1F
100
AcDbEntity
  8
0
  6
Continuous
 62
     7
100
AcDbLine
 10
216.3911351302
 20
90.6797023346
 30
0.0
 11
216.3913770385
 21
90.6635388879
 31
0.0
  0
LINE
  5
310
330
1F
100
AcDbEntity
  8
0
  6
Continuous
 62
     7
100
AcDbLine
 10
219.2469912352
 20
90.6804297601
 30
0.0
 11
219.2471029014
 21
90.6714702698
 31
0.0
  0
LINE
  5
311
330
1F
100
AcDbEntity
  8
0
  6
Continuous
 62
     7
100
AcDbLine
 10
221.9858215418
 20
90.6769090579
 30
0.0
 11
221.9858215418
 21
90.6685723509
 31
0.0
  0
LINE
  5
312
330
1F
100
AcDbEntity
  8
0
  6
Continuous
 62
     7
100
AcDbLine
 10
221.9540775968
 20
90.6769416846
 30
0.0
 11
221.9539889729
 21
90.6685644091
 31
0.0
  0
LINE
  5
313
330
1F
100
AcDbEntity
  8
0
  6
Continuous
 62
     7
100
AcDbLine
 10
222.1616740553
 20
90.6704969324
 30
0.0
 11
222.1616743552
 21
90.6440245289
 31
0.0
  0
LINE
  5
314
330
1F
100
AcDbEntity
  8
0
  6
Continuous
 62
     7
100
AcDbLine
 10
221.8848188411
 20
90.6452320135
 30
0.0
 11
221.8848188411
 21
90.6368724621
 31
0.0
  0
LINE
  5
315
330
1F
100
AcDbEntity
  8
0
  6
Continuous
 62
     7
100
AcDbLine
 10
222.0071347572
 20
90.6455122966
 30
0.0
 11
222.0071346313
 21
90.6302920935
 31
0.0
  0
LINE
  5
316
330
1F
100
AcDbEntity
  8
0
  6
Continuous
 62
     7
100
AcDbLine
 10
218.6627885553
 20
90.6074834542
 30
0.0
 11
218.662803292
 21
90.5991669022
 31
0.0
  0
LINE
  5
317
330
1F
100
AcDbEntity
  8
0
  6
Continuous
 62
     7
100
AcDbLine
 10
217.4550774321
 20
90.6193796492
 30
0.0
 11
217.4550769858
 21
90.6044731974
 31
0.0
  0
LINE
  5
318
330
1F
100
AcDbEntity
  8
0
  6
Continuous
 62
     7
100
AcDbLine
 10
216.3917583255
 20
90.4863017243
 30
0.0
 11
216.3917407191
 21
90.4750384247
 31
0.0
  0
LINE
  5
319
330
1F
100
AcDbEntity
  8
0
  6
Continuous
 62
     7
100
AcDbLine
 10
217.4553265883
 20
90.5117740943
 30
0.0
 11
217.4553155853
 21
90.5011081621
 31
0.0
  0
LINE
  5
31A
330
1F
100
AcDbEntity
  8
0
  6
Continuous
 62
     7
100
AcDbLine
 10
219.2475710613
 20
90.5118442129
 30
0.0
 11
219.2476563562
 21
90.5005591222
 31
0.0
  0
LINE
  5
31B
330
1F
100
AcDbEntity
  8
0
  6
Continuous
 62
     7
100
AcDbLine
 10
198.7319392747
 20
90.6151213945
 30
0.0
 11
198.7319397281
 21
90.5146665774
 31
0.0
  0
LINE
  5
31C
330
1F
100
AcDbEntity
  8
0
  6
Continuous
 62
     7
100
AcDbLine
 10
218.6630864193
 20
90.4615303442
 30
0.0
 11
218.6630818345
 21
90.4514950931
 31
0.0
  0
LINE
  5
31D
330
1F
100
AcDbEntity
  8
0
  6
Continuous
 62
     7
100
AcDbLine
 10
217.4554384913
 20
90.4644285624
 30
0.0
 11
217.4554996942
 21
90.4508613693
 31
0.0
  0
LINE
  5
31E
330
1F
100
AcDbEntity
  8
0
  6
Continuous
 62
     7
100
AcDbLine
 10
217.9606534701
 20
90.4668301883
 30
0.0
 11
217.9607341532
 21
90.4166859324
 31
0.0
  0
LINE
  5
31F
330
1F
100
AcDbEntity
  8
0
  6
Continuous
 62
     7
100
AcDbLine
 10
216.391941737
 20
90.436076035
 30
0.0
 11
216.3919950988
 21
90.393069188
 31
0.0
  0
LINE
  5
320
330
1F
100
AcDbEntity
  8
0
  6
Continuous
 62
     7
100
AcDbLine
 10
219.2478022456
 20
90.4468009218
 30
0.0
 11
219.2478529139
 21
90.38437442
 31
0.0
  0
LINE
  5
321
330
1F
100
AcDbEntity
  8
0
  6
Continuous
 62
     7
100
AcDbLine
 10
216.3920498031
 20
90.3790011687
 30
0.0
 11
216.3921487488
 21
90.3690046189
 31
0.0
  0
LINE
  5
322
330
1F
100
AcDbEntity
  8
0
  6
Continuous
 62
     7
100
AcDbLine
 10
219.2479345075
 20
90.3632462729
 30
0.0
 11
219.2480075569
 21
90.3508995882
 31
0.0
  0
LINE
  5
323
330
1F
100
AcDbEntity
  8
0
  6
Continuous
 62
     7
100
AcDbLine
 10
217.7751455087
 20
90.3432273568
 30
0.0
 11
217.7751994099
 21
90.3291307434
 31
0.0
  0
LINE
  5
324
330
1F
100
AcDbEntity
  8
0
  6
Continuous
 62
     7
100
AcDbLine
 10
217.8922979666
 20
90.3432366691
 30
0.0
 11
217.8922979666
 21
90.3291401706
 31
0.0
  0
LINE
  5
325
330
1F
100
AcDbEntity
  8
0
  6
Continuous
 62
     7
100
AcDbLine
 10
218.1418957356
 20
90.3432536426
 30
0.0
 11
218.141895512
 21
90.3291585619
 31
0.0
  0
LINE
  5
326
330
1F
100
AcDbEntity
  8
0
  6
Continuous
 62
     7
100
AcDbLine
 10
218.6635836189
 20
90.3256986864
 30
0.0
 11
218.6636698097
 21
90.3145930129
 31
0.0
  0
LINE
  5
327
330
1F
100
AcDbEntity
  8
0
  6
Continuous
 62
     7
100
AcDbLine
 10
218.8496206625
 20
90.3163368319
 30
0.0
 11
218.8497210898
 21
90.2970337954
 31
0.0
  0
LINE
  5
328
330
1F
100
AcDbEntity
  8
0
  6
Continuous
 62
     7
100
AcDbLine
 10
217.9609741679
 20
90.3432422579
 30
0.0
 11
217.9611399816
 21
90.2823869083
 31
0.0
  0
LINE
  5
329
330
1F
100
AcDbEntity
  8
0
  6
Continuous
 62
     7
100
AcDbLine
 10
216.8555939233
 20
90.2410277427
 30
0.0
 11
216.8555936089
 21
90.2083968977
 31
0.0
  0
LINE
  5
32A
330
1F
100
AcDbEntity
  8
0
  6
Continuous
 62
     7
100
AcDbLine
 10
216.3927728167
 20
90.1417483555
 30
0.0
 11
216.3929207974
 21
90.1082286071
 31
0.0
  0
LINE
  5
32B
330
1F
100
AcDbEntity
  8
0
  6
Continuous
 62
     7
100
AcDbLine
 10
210.9107183882
 20
90.1693383596
 30
0.0
 11
210.9111995973
 21
90.1190211036
 31
0.0
  0
LINE
  5
32C
330
1F
100
AcDbEntity
  8
0
  6
Continuous
 62
     7
100
AcDbLine
 10
218.664843863
 20
89.8769499616
 30
0.0
 11
218.6650816702
 21
89.8151459926
 31
0.0
  0
LINE
  5
32D
330
1F
100
AcDbEntity
  8
0
  6
Continuous
 62
     7
100
AcDbLine
 10
198.7335309249
 20
90.1723046805
 30
0.0
 11
198.7335310765
 21
90.076409381
 31
0.0
  0
LINE
  5
32E
330
1F
100
AcDbEntity
  8
0
  6
Continuous
 62
     7
100
AcDbLine
 10
212.9204359616
 20
90.1711487492
 30
0.0
 11
212.9205242673
 21
90.0757217069
 31
0.0
  0
LINE
  5
32F
330
1F
100
AcDbEntity
  8
0
  6
Continuous
 62
     7
100
AcDbLine
 10
219.2489986898
 20
90.0259981765
 30
0.0
 11
219.2493056873
 21
89.9418995578
 31
0.0
  0
LINE
  5
330
330
1F
100
AcDbEntity
  8
0
  6
Continuous
 62
     7
100
AcDbLine
 10
218.9407538445
 20
90.0311475848
 30
0.0
 11
218.9411575914
 21
89.9464259854
 31
0.0
  0
LINE
  5
331
330
1F
100
AcDbEntity
  8
0
  6
Continuous
 62
     7
100
AcDbLine
 10
210.9115634271
 20
89.8629848202
 30
0.0
 11
210.9115547042
 21
89.7793016623
 31
0.0
  0
LINE
  5
332
330
1F
100
AcDbEntity
  8
0
  6
Continuous
 62
     7
100
AcDbLine
 10
217.4577503948
 20
89.7175770471
 30
0.0
 11
217.4578432195
 21
89.7074759043
 31
0.0
  0
LINE
  5
333
330
1F
100
AcDbEntity
  8
0
  6
Continuous
 62
     7
100
AcDbLine
 10
218.9416574034
 20
89.7328212233
 30
0.0
 11
218.9417247388
 21
89.7204397575
 31
0.0
  0
LINE
  5
334
330
1F
100
AcDbEntity
  8
0
  6
Continuous
 62
     7
100
AcDbLine
 10
218.8514889655
 20
89.7288652712
 30
0.0
 11
218.8514592429
 21
89.7170441132
 31
0.0
  0
LINE
  5
335
330
1F
100
AcDbEntity
  8
0
  6
Continuous
 62
     7
100
AcDbLine
 10
183.3841539588
 20
81.0823270382
 30
0.0
 11
183.3309549502
 21
81.082401544
 31
0.0
  0
LINE
  5
336
330
1F
100
AcDbEntity
  8
0
  6
Continuous
 62
     7
100
AcDbLine
 10
231.1365245144
 20
81.0824238957
 30
0.0
 11
231.1119636754
 21
81.0819172562
 31
0.0
  0
LWPOLYLINE
  5
337
330
1F
100
AcDbEntity
  8
0
  6
Continuous
 62
     7
100
AcDbPolyline
 90
        3
 70
   128
 43
0.0
 10
86.5371823311
 20
887.6015032521
 10
221.7322120994
 20
892.241204521
 10
327.9310762545
 20
887.6015032521
  0
LWPOLYLINE
  5
338
330
1F
100
AcDbEntity
  8
0
  6
Continuous
 62
     7
100
AcDbPolyline
 90
        3
 70
   128
 43
0.0
 10
327.7914524078
 20
885.9887803784
 10
192.7528122495
 20
890.6293896128
 10
86.6766273639
 20
885.9887803784
  0
LWPOLYLINE
  5
339
330
1F
100
AcDbEntity
  8
0
  6
Continuous
 62
     7
100
AcDbPolyline
 90
        3
 70
   128
 43
0.0
 10
201.3297080994
 20
769.3920001755
 10
190.7893505279
 20
743.5455917908
 10
184.1295745533
 20
722.6329729455
  0
LWPOLYLINE
  5
33A
330
1F
100
AcDbEntity
  8
0
  6
Continuous
 62
     7
100
AcDbPolyline
 90
        3
 70
   128
 43
0.0
 10
183.1668615341
 20
722.8990374701
 10
191.9183466332
 20
749.4862738011
 10
200.4214320063
 20
769.7692806438
  0
LWPOLYLINE
  5
33B
330
1F
100
AcDbEntity
  8
0
  6
Continuous
 62
     7
100
AcDbPolyline
 90
        3
 70
   128
 43
0.0
 10
230.3386926651
 20
722.6329729455
 10
221.6150170386
 20
749.1566704047
 10
213.1385225407
 20
769.3920001755
  0
LWPOLYLINE
  5
33C
330
1F
100
AcDbEntity
  8
0
  6
Continuous
 62
     7
100
AcDbPolyline
 90
        3
 70
   128
 43
0.0
 10
214.0468358994
 20
769.7692806438
 10
224.6204502859
 20
743.8618526411
 10
231.3014346252
 20
722.8990374701
  0
LWPOLYLINE
  5
33D
330
1F
100
AcDbEntity
  8
0
  6
Continuous
 62
     7
100
AcDbPolyline
 90
        5
 70
   128
 43
0.0
 10
231.3014268875
 20
722.8990374701
 10
227.1705092702
 20
701.026509059
 10
207.2380052454
 20
691.0956236848
 10
187.3033266896
 20
701.0192090826
 10
183.1668835314
 20
722.8990374701
  0
LWPOLYLINE
  5
33E
330
1F
100
AcDbEntity
  8
0
  6
Continuous
 62
     7
100
AcDbPolyline
 90
        5
 70
   128
 43
0.0
 10
184.1294765472
 20
722.6329729455
 10
188.0968459929
 20
701.6152090813
 10
207.2378466163
 20
692.0752670897
 10
226.3767542162
 20
701.6222069863
 10
230.3387436033
 20
722.6329729455
  0
ARC
  5
33F
330
1F
100
AcDbEntity
  8
0
  6
Continuous
 62
     7
100
AcDbCircle
 10
207.2341283644
 20
766.67333851
 30
0.0
 40
6.500174340527333
100
AcDbArc
 50
24.7238000879
 51
155.2761999121
  0
ARC
  5
340
330
1F
100
AcDbEntity
  8
0
  6
Continuous
 62
     7
100
AcDbCircle
 10
207.2341097317
 20
766.6269107544
 30
0.0
 40
7.502560299830633
100
AcDbArc
 50
24.7613527388
 51
155.2386472612
  0
LWPOLYLINE
  5
341
330
1F
100
AcDbEntity
  8
0
  6
Continuous
 62
     7
100
AcDbPolyline
 90
        3
 70
   128
 43
0.0
 10
86.6765975952
 20
885.9887803784
 10
80.7906246647
 20
882.3584639955
 10
79.2341529986
 20
877.0526136151
  0
LWPOLYLINE
  5
342
330
1F
100
AcDbEntity
  8
0
  6
Continuous
 62
     7
100
AcDbPolyline
 90
        3
 70
   128
 43
0.0
 10
335.2339267731
 20
877.052613615
 10
332.7350587717
 20
883.5522996172
 10
327.7916907927
 20
885.9887803784
  0
LWPOLYLINE
  5
343
330
1F
100
AcDbEntity
  8
0
  6
Continuous
 62
     7
100
AcDbPolyline
 90
        3
 70
   128
 43
0.0
 10
212.9944562912
 20
859.4300476389
 10
214.1212979017
 20
858.9048726911
 10
214.4299339361
 20
857.9625302961
  0
LWPOLYLINE
  5
344
330
1F
100
AcDbEntity
  8
0
  6
Continuous
 62
     7
100
AcDbPolyline
 90
        3
 70
   128
 43
0.0
 10
211.4568948746
 20
857.8719283333
 10
211.9517454728
 20
859.0406414252
 10
212.8770518726
 20
859.4301900071
  0
LWPOLYLINE
  5
345
330
1F
100
AcDbEntity
  8
0
  6
Continuous
 62
     7
100
AcDbPolyline
 90
        3
 70
   128
 43
0.0
 10
197.2700357437
 20
857.8824583322
 10
197.7604663226
 20
859.0486272499
 10
198.6837539938
 20
859.4355082808
  0
LWPOLYLINE
  5
346
330
1F
100
AcDbEntity
  8
0
  6
Continuous
 62
     7
100
AcDbPolyline
 90
        3
 70
   128
 43
0.0
 10
198.8054513931
 20
859.4416674649
 10
199.9208160265
 20
858.9126843291
 10
200.2208307742
 20
857.9742258052
  0
LWPOLYLINE
  5
347
330
1F
100
AcDbEntity
  8
0
  6
Continuous
 62
     7
100
AcDbPolyline
 90
        3
 70
   128
 43
0.0
 10
194.3562030792
 20
856.7969598533
 10
195.1647973627
 20
855.8937424139
 10
195.5638314063
 20
855.0587748953
  0
LWPOLYLINE
  5
348
330
1F
100
AcDbEntity
  8
0
  6
Continuous
 62
     7
100
AcDbPolyline
 90
        3
 70
   128
 43
0.0
 10
195.5637931824
 20
855.0587748953
 10
195.3370433403
 20
854.2892409338
 10
194.7339973333
 20
854.0956380292
  0
LWPOLYLINE
  5
349
330
1F
100
AcDbEntity
  8
0
  6
Continuous
 62
     7
100
AcDbPolyline
 90
        3
 70
   128
 43
0.0
 10
194.814324379
 20
853.1652624598
 10
196.0146274331
 20
853.70047801
 10
196.5051988629
 20
854.6068253869
  0
LWPOLYLINE
  5
34A
330
1F
100
AcDbEntity
  8
0
  6
Continuous
 62
     7
100
AcDbPolyline
 90
        3
 70
   128
 43
0.0
 10
196.505188942
 20
854.6068253869
 10
196.4188126947
 20
855.691377877
 10
195.9782102709
 20
856.4309623029
  0
LWPOLYLINE
  5
34B
330
1F
100
AcDbEntity
  8
0
  6
Continuous
 62
     7
100
AcDbPolyline
 90
        3
 70
   128
 43
0.0
 10
195.9781646729
 20
856.4309623029
 10
195.5155943354
 20
856.9819232213
 10
195.1104520428
 20
857.3771095561
  0
LWPOLYLINE
  5
34C
330
1F
100
AcDbEntity
  8
0
  6
Continuous
 62
     7
100
AcDbPolyline
 90
        3
 70
   128
 43
0.0
 10
195.1104402542
 20
857.3771095561
 10
194.4005694542
 20
858.2178044256
 10
194.2224340123
 20
859.0566734544
  0
LWPOLYLINE
  5
34D
330
1F
100
AcDbEntity
  8
0
  6
Continuous
 62
     7
100
AcDbPolyline
 90
        3
 70
   128
 43
0.0
 10
194.2223310471
 20
859.0566734544
 10
194.6377394545
 20
859.7842923421
 10
195.3114274739
 20
859.9348547663
  0
LWPOLYLINE
  5
34E
330
1F
100
AcDbEntity
  8
0
  6
Continuous
 62
     7
100
AcDbPolyline
 90
        3
 70
   128
 43
0.0
 10
195.2478885651
 20
860.828158118
 10
193.7545098473
 20
860.2725575962
 10
193.2594153921
 20
859.1202484773
  0
LWPOLYLINE
  5
34F
330
1F
100
AcDbEntity
  8
0
  6
Continuous
 62
     7
100
AcDbPolyline
 90
        3
 70
   128
 43
0.0
 10
193.2593584061
 20
859.1202484773
 10
193.5972230727
 20
857.7018401736
 10
194.3562127451
 20
856.7969598533
  0
LWPOLYLINE
  5
350
330
1F
100
AcDbEntity
  8
0
  6
Continuous
 62
     7
100
AcDbPolyline
 90
        3
 70
   128
 43
0.0
 10
219.2479372025
 20
858.4535372487
 10
219.0851596533
 20
858.3084524756
 10
218.9769942988
 20
858.1753764109
  0
LWPOLYLINE
  5
351
330
1F
100
AcDbEntity
  8
0
  6
Continuous
 62
     7
100
AcDbPolyline
 90
        3
 70
   128
 43
0.0
 10
220.32558918
 20
858.7088756177
 10
219.6992151217
 20
858.6456911046
 10
219.2480078342
 20
858.4535372487
  0
LWPOLYLINE
  5
352
330
1F
100
AcDbEntity
  8
0
  6
Continuous
 62
     7
100
AcDbPolyline
 90
        3
 70
   128
 43
0.0
 10
220.3222513199
 20
859.0069018909
 10
220.3739900436
 20
858.8439184541
 10
220.3519188489
 20
858.711948908
  0
LWPOLYLINE
  5
353
330
1F
100
AcDbEntity
  8
0
  6
Continuous
 62
     7
100
AcDbPolyline
 90
        3
 70
   128
 43
0.0
 10
219.9920415878
 20
859.7512306187
 10
220.2080262536
 20
859.3482371334
 10
220.3222987406
 20
859.0069018909
  0
LWPOLYLINE
  5
354
330
1F
100
AcDbEntity
  8
0
  6
Continuous
 62
     7
100
AcDbPolyline
 90
        3
 70
   128
 43
0.0
 10
220.587015152
 20
861.735103298
 10
220.3934448159
 20
860.5834671805
 10
219.9921481842
 20
859.7512306187
  0
LWPOLYLINE
  5
355
330
1F
100
AcDbEntity
  8
0
  6
Continuous
 62
     7
100
AcDbPolyline
 90
        3
 70
   128
 43
0.0
 10
219.2469835281
 20
861.4104184075
 10
219.9859080692
 20
861.6424563568
 10
220.5870397937
 20
861.735103298
  0
LWPOLYLINE
  5
356
330
1F
100
AcDbEntity
  8
0
  6
Continuous
 62
     7
100
AcDbPolyline
 90
        3
 70
   128
 43
0.0
 10
218.9388275146
 20
861.2668674608
 10
219.1095969567
 20
861.3511317789
 10
219.246991257
 20
861.4104184075
  0
LWPOLYLINE
  5
357
330
1F
100
AcDbEntity
  8
0
  6
Continuous
 62
     7
100
AcDbPolyline
 90
        3
 70
   128
 43
0.0
 10
218.8485860825
 20
861.2133866678
 10
218.8987869314
 20
861.2439190605
 10
218.938828067
 20
861.2668674608
  0
LWPOLYLINE
  5
358
330
1F
100
AcDbEntity
  8
0
  6
Continuous
 62
     7
100
AcDbPolyline
 90
        3
 70
   128
 43
0.0
 10
218.6626195908
 20
861.0962514968
 10
218.765311666
 20
861.1641909707
 10
218.8486404361
 20
861.2133866678
  0
LWPOLYLINE
  5
359
330
1F
100
AcDbEntity
  8
0
  6
Continuous
 62
     7
100
AcDbPolyline
 90
        3
 70
   128
 43
0.0
 10
218.3433771133
 20
860.8409375901
 10
218.5160341853
 20
860.991753262
 10
218.6626719659
 20
861.0962514968
  0
LWPOLYLINE
  5
35A
330
1F
100
AcDbEntity
  8
0
  6
Continuous
 62
     7
100
AcDbPolyline
 90
        3
 70
   128
 43
0.0
 10
217.9601192474
 20
860.8730212142
 10
218.1764108385
 20
860.8676428377
 10
218.343419893
 20
860.8409375901
  0
ARC
  5
35B
330
1F
100
AcDbEntity
  8
0
  6
Continuous
 62
     7
100
AcDbCircle
 10
217.8909862745
 20
858.4662871944
 30
0.0
 40
2.401481278339524
100
AcDbArc
 50
89.1125886902
 51
99.4197631629
  0
LWPOLYLINE
  5
35C
330
1F
100
AcDbEntity
  8
0
  6
Continuous
 62
     7
100
AcDbPolyline
 90
        3
 70
   128
 43
0.0
 10
216.3910865784
 20
861.462610008
 10
217.003444991
 20
861.1587553654
 10
217.4550295206
 20
860.8673185367
  0
LWPOLYLINE
  5
35D
330
1F
100
AcDbEntity
  8
0
  6
Continuous
 62
     7
100
AcDbPolyline
 90
        3
 70
   128
 43
0.0
 10
215.381026268
 20
861.7230254371
 10
215.9559359795
 20
861.6121389003
 10
216.3912051754
 20
861.462610008
  0
LWPOLYLINE
  5
35E
330
1F
100
AcDbEntity
  8
0
  6
Continuous
 62
     7
100
AcDbPolyline
 90
        3
 70
   128
 43
0.0
 10
215.9132957458
 20
859.7446844093
 10
215.5125051211
 20
860.6597853104
 10
215.3812022543
 20
861.4304895392
  0
LWPOLYLINE
  5
35F
330
1F
100
AcDbEntity
  8
0
  6
Continuous
 62
     7
100
AcDbPolyline
 90
        3
 70
   128
 43
0.0
 10
215.6147956848
 20
858.9502051195
 10
215.7539735547
 20
859.4051888065
 10
215.9133169883
 20
859.7446844093
  0
LWPOLYLINE
  5
360
330
1F
100
AcDbEntity
  8
0
  6
Continuous
 62
     7
100
AcDbPolyline
 90
       11
 70
   128
 43
0.0
 10
215.5628204346
 20
858.8300742938
 10
215.5633850861
 20
858.8306470301
 10
215.5636648567
 20
858.831175449
 10
215.5640832586
 20
858.8321563532
 10
215.5647327387
 20
858.8339425492
 10
215.5657304414
 20
858.8371903946
 10
215.5674165927
 20
858.8430137545
 10
215.570350058
 20
858.8534355564
 10
215.5749587929
 20
858.8686664458
 10
215.5801802571
 20
858.8837024786
 10
215.5862276881
 20
858.8984143937
  0
LWPOLYLINE
  5
361
330
1F
100
AcDbEntity
  8
0
  6
Continuous
 62
     7
100
AcDbPolyline
 90
        3
 70
   128
 43
0.0
 10
215.6533002853
 20
858.8185973641
 10
215.6027546977
 20
858.8252821232
 10
215.5628916627
 20
858.8300742938
  0
LWPOLYLINE
  5
362
330
1F
100
AcDbEntity
  8
0
  6
Continuous
 62
     7
100
AcDbPolyline
 90
        3
 70
   128
 43
0.0
 10
216.3920402527
 20
858.6176294955
 10
215.9984129989
 20
858.7533376418
 10
215.6762529283
 20
858.8156301749
  0
LWPOLYLINE
  5
363
330
1F
100
AcDbEntity
  8
0
  6
Continuous
 62
     7
100
AcDbPolyline
 90
        3
 70
   128
 43
0.0
 10
216.8978452682
 20
857.5540405048
 10
216.845390457
 20
858.2617836729
 10
216.3921489779
 20
858.6176294955
  0
LWPOLYLINE
  5
364
330
1F
100
AcDbEntity
  8
0
  6
Continuous
 62
     7
100
AcDbPolyline
 90
        3
 70
   128
 43
0.0
 10
216.3927555084
 20
856.54390372
 10
216.7006442049
 20
857.0978831624
 10
216.8979283157
 20
857.5540405048
  0
LWPOLYLINE
  5
365
330
1F
100
AcDbEntity
  8
0
  6
Continuous
 62
     7
100
AcDbPolyline
 90
        3
 70
   128
 43
0.0
 10
215.8986330032
 20
855.1234942079
 10
216.1347078322
 20
855.9339180096
 10
216.3927730458
 20
856.54390372
  0
LWPOLYLINE
  5
366
330
1F
100
AcDbEntity
  8
0
  6
Continuous
 62
     7
100
AcDbPolyline
 90
        3
 70
   128
 43
0.0
 10
216.393828392
 20
853.0867465701
 10
215.861190053
 20
854.1685331103
 10
215.8987033421
 20
855.1234942079
  0
LWPOLYLINE
  5
367
330
1F
100
AcDbEntity
  8
0
  6
Continuous
 62
     7
100
AcDbPolyline
 90
        3
 70
   128
 43
0.0
 10
217.4577713013
 20
852.4917650338
 10
216.8160144781
 20
852.7487242278
 10
216.3939153804
 20
853.0867465701
  0
LWPOLYLINE
  5
368
330
1F
100
AcDbEntity
  8
0
  6
Continuous
 62
     7
100
AcDbPolyline
 90
        3
 70
   128
 43
0.0
 10
217.9628610611
 20
852.4385552719
 10
217.6784509077
 20
852.454488305
 10
217.4578434486
 20
852.4917650338
  0
LWPOLYLINE
  5
369
330
1F
100
AcDbEntity
  8
0
  6
Continuous
 62
     7
100
AcDbPolyline
 90
        3
 70
   128
 43
0.0
 10
218.6653614044
 20
852.5297064011
 10
218.3075293094
 20
852.4602245507
 10
218.0216736973
 20
852.4385944779
  0
LWPOLYLINE
  5
36A
330
1F
100
AcDbEntity
  8
0
  6
Continuous
 62
     7
100
AcDbPolyline
 90
        3
 70
   128
 43
0.0
 10
218.8514471054
 20
852.5824009835
 10
218.7479448497
 20
852.5506686913
 10
218.6654646062
 20
852.5297064011
  0
LWPOLYLINE
  5
36B
330
1F
100
AcDbEntity
  8
0
  6
Continuous
 62
     7
100
AcDbPolyline
 90
        3
 70
   128
 43
0.0
 10
218.9416885376
 20
852.6145393019
 10
218.8913347743
 20
852.5961030678
 10
218.851459472
 20
852.5824009835
  0
LWPOLYLINE
  5
36C
330
1F
100
AcDbEntity
  8
0
  6
Continuous
 62
     7
100
AcDbPolyline
 90
        3
 70
   128
 43
0.0
 10
219.2498445511
 20
852.7528192562
 10
219.0786626959
 20
852.6723899957
 10
218.9417249679
 20
852.6145393019
  0
LWPOLYLINE
  5
36D
330
1F
100
AcDbEntity
  8
0
  6
Continuous
 62
     7
100
AcDbPolyline
 90
        3
 70
   128
 43
0.0
 10
220.610499382
 20
854.9550923285
 10
220.1283100036
 20
853.5423424786
 10
219.249881863
 20
852.7528192562
  0
LWPOLYLINE
  5
36E
330
1F
100
AcDbEntity
  8
0
  6
Continuous
 62
     7
100
AcDbPolyline
 90
        3
 70
   128
 43
0.0
 10
220.6317186356
 20
855.289930562
 10
220.6233969777
 20
855.1022152253
 10
220.6105695083
 20
854.9550923285
  0
LWPOLYLINE
  5
36F
330
1F
100
AcDbEntity
  8
0
  6
Continuous
 62
     7
100
AcDbPolyline
 90
        3
 70
   128
 43
0.0
 10
219.2534208298
 20
858.1983496245
 10
220.3229396164
 20
856.8003190997
 10
220.6317336505
 20
855.4549052531
  0
LWPOLYLINE
  5
370
330
1F
100
AcDbEntity
  8
0
  6
Continuous
 62
     7
100
AcDbPolyline
 90
        3
 70
   128
 43
0.0
 10
219.1315889359
 20
858.0430540995
 10
219.1907000887
 20
858.1319987351
 10
219.2481101457
 20
858.1929834956
  0
LWPOLYLINE
  5
371
330
1F
100
AcDbEntity
  8
0
  6
Continuous
 62
     7
100
AcDbPolyline
 90
        3
 70
   128
 43
0.0
 10
221.938252449
 20
860.363434966
 10
221.4087595103
 20
860.6121354143
 10
221.2518139585
 20
861.049484764
  0
LWPOLYLINE
  5
372
330
1F
100
AcDbEntity
  8
0
  6
Continuous
 62
     7
100
AcDbPolyline
 90
        3
 70
   128
 43
0.0
 10
222.6347923279
 20
861.0498550217
 10
222.3833637982
 20
860.5223217417
 10
221.9434590779
 20
860.3634353829
  0
LWPOLYLINE
  5
373
330
1F
100
AcDbEntity
  8
0
  6
Continuous
 62
     7
100
AcDbPolyline
 90
        3
 70
   128
 43
0.0
 10
221.942782402
 20
861.7463501167
 10
222.4753315354
 20
861.4902117423
 10
222.6348831593
 20
861.0498550217
  0
LWPOLYLINE
  5
374
330
1F
100
AcDbEntity
  8
0
  6
Continuous
 62
     7
100
AcDbPolyline
 90
        3
 70
   128
 43
0.0
 10
221.2517261505
 20
861.049484764
 10
221.4970656137
 20
861.5840964387
 10
221.937876161
 20
861.746349453
  0
LWPOLYLINE
  5
375
330
1F
100
AcDbEntity
  8
0
  6
Continuous
 62
     7
100
AcDbPolyline
 90
        3
 70
   128
 43
0.0
 10
167.6383018494
 20
633.3339602834
 10
246.6956448717
 20
627.0923024749
 10
300.1773689019
 20
614.149986969
  0
LWPOLYLINE
  5
376
330
1F
100
AcDbEntity
  8
0
  6
Continuous
 62
     7
100
AcDbPolyline
 90
        3
 70
   128
 43
0.0
 10
153.4330844879
 20
621.9251804334
 10
194.9107169063
 20
631.0277406262
 10
232.2546087096
 20
633.3339602834
  0
LWPOLYLINE
  5
377
330
1F
100
AcDbEntity
  8
0
  6
Continuous
 62
     7
100
AcDbPolyline
 90
        3
 70
   128
 43
0.0
 10
163.3709669113
 20
623.7708019904
 10
165.3658910235
 20
623.8938552528
 10
166.7158543915
 20
624.1539442231
  0
LWPOLYLINE
  5
378
330
1F
100
AcDbEntity
  8
0
  6
Continuous
 62
     7
100
AcDbPolyline
 90
        4
 70
   128
 43
0.0
 10
97.2341299057
 20
622.3545057642
 10
97.6142903631
 20
622.8818379495
 10
98.6964128315
 20
623.3427705981
 10
102.2341584823
 20
623.7708019904
  0
LWPOLYLINE
  5
379
330
1F
100
AcDbEntity
  8
0
  6
Continuous
 62
     7
100
AcDbPolyline
 90
        5
 70
   128
 43
0.0
 10
102.2341251373
 20
619.887417729
 10
98.6969077539
 20
620.2185040767
 10
97.6155138275
 20
620.5962653954
 10
97.3307920745
 20
620.8208145756
 10
97.2341590783
 20
621.059843391
  0
LWPOLYLINE
  5
37A
330
1F
100
AcDbEntity
  8
0
  6
Continuous
 62
     7
100
AcDbPolyline
 90
        3
 70
   128
 43
0.0
 10
166.7157411575
 20
619.6062637771
 10
164.956560215
 20
619.8302459393
 10
163.3710339329
 20
619.887417729
  0
LWPOLYLINE
  5
37B
330
1F
100
AcDbEntity
  8
0
  6
Continuous
 62
     7
100
AcDbPolyline
 90
        3
 70
   128
 43
0.0
 10
186.6527795792
 20
616.7611872085
 10
184.6547564515
 20
616.8176516976
 10
183.3080147704
 20
616.9380165761
  0
LWPOLYLINE
  5
37C
330
1F
100
AcDbEntity
  8
0
  6
Continuous
 62
     7
100
AcDbPolyline
 90
        3
 70
   128
 43
0.0
 10
231.1602830887
 20
616.9380165761
 10
229.4033934052
 20
616.7961654354
 10
227.8154783306
 20
616.7611872085
  0
LWPOLYLINE
  5
37D
330
1F
100
AcDbEntity
  8
0
  6
Continuous
 62
     7
100
AcDbPolyline
 90
        3
 70
   128
 43
0.0
 10
251.097202301
 20
619.8874177294
 10
249.1013850057
 20
619.7954902209
 10
247.7524591706
 20
619.6062637775
  0
LWPOLYLINE
  5
37E
330
1F
100
AcDbEntity
  8
0
  6
Continuous
 62
     7
100
AcDbPolyline
 90
        5
 70
   128
 43
0.0
 10
317.2340393066
 20
621.0598433914
 10
317.1385732461
 20
620.8220930029
 10
316.8545003832
 20
620.5972397685
 10
315.7738939766
 20
620.2190757442
 10
312.2341550798
 20
619.8874177294
  0
LWPOLYLINE
  5
37F
330
1F
100
AcDbEntity
  8
0
  6
Continuous
 62
     7
100
AcDbPolyline
 90
        4
 70
   128
 43
0.0
 10
312.2339248657
 20
623.7708019902
 10
315.7693598259
 20
623.3435033205
 10
316.852313324
 20
622.8829944545
 10
317.234154483
 20
622.3545057639
  0
LWPOLYLINE
  5
380
330
1F
100
AcDbEntity
  8
0
  6
Continuous
 62
     7
100
AcDbPolyline
 90
        3
 70
   128
 43
0.0
 10
247.7524280548
 20
624.1539442228
 10
249.5128713209
 20
623.8470707457
 10
251.0972796284
 20
623.7708019902
  0
LWPOLYLINE
  5
381
330
1F
100
AcDbEntity
  8
0
  6
Continuous
 62
     7
100
AcDbPolyline
 90
        3
 70
   128
 43
0.0
 10
312.2339248657
 20
622.2688203633
 10
315.1982694692
 20
622.4868535436
 10
316.7028568597
 20
622.9340305508
  0
LWPOLYLINE
  5
382
330
1F
100
AcDbEntity
  8
0
  6
Continuous
 62
     7
100
AcDbPolyline
 90
        3
 70
   128
 43
0.0
 10
247.7524280548
 20
621.9893606294
 10
249.5117259571
 20
622.2119781758
 10
251.0972827805
 20
622.2688203633
  0
LWPOLYLINE
  5
383
330
1F
100
AcDbEntity
  8
0
  6
Continuous
 62
     7
100
AcDbPolyline
 90
        3
 70
   128
 43
0.0
 10
227.8153896332
 20
619.1753772711
 10
229.8136481243
 20
619.2308145221
 10
231.1603019887
 20
619.3490667172
  0
LWPOLYLINE
  5
384
330
1F
100
AcDbEntity
  8
0
  6
Continuous
 62
     7
100
AcDbPolyline
 90
        3
 70
   128
 43
0.0
 10
183.3080053329
 20
619.3490667172
 10
185.0648279334
 20
619.2097167994
 10
186.6528384618
 20
619.1753772711
  0
LWPOLYLINE
  5
385
330
1F
100
AcDbEntity
  8
0
  6
Continuous
 62
     7
100
AcDbPolyline
 90
        3
 70
   128
 43
0.0
 10
163.3709669113
 20
622.2688202461
 10
165.3669607295
 20
622.1774267246
 10
166.7158582658
 20
621.9893605121
  0
LWPOLYLINE
  5
386
330
1F
100
AcDbEntity
  8
0
  6
Continuous
 62
     7
100
AcDbPolyline
 90
        3
 70
   128
 43
0.0
 10
97.7581739426
 20
622.9334045848
 10
99.8451738605
 20
622.4042193087
 10
102.2341623566
 20
622.2688202461
  0
LWPOLYLINE
  5
387
330
1F
100
AcDbEntity
  8
0
  6
Continuous
 62
     7
100
AcDbPolyline
 90
        3
 70
   128
 43
0.0
 10
217.9259061813
 20
852.5239002418
 10
217.8909418789
 20
853.709313702
 10
217.9622840352
 20
854.6347889583
  0
LWPOLYLINE
  5
388
330
1F
100
AcDbEntity
  8
0
  6
Continuous
 62
     7
100
AcDbPolyline
 90
        3
 70
   128
 43
0.0
 10
217.5533771515
 20
852.56604805
 10
217.7611708801
 20
852.5334871537
 10
217.9259667228
 20
852.5239002418
  0
LWPOLYLINE
  5
389
330
1F
100
AcDbEntity
  8
0
  6
Continuous
 62
     7
100
AcDbPolyline
 90
        3
 70
   128
 43
0.0
 10
217.4562215805
 20
856.7620349244
 10
217.5858597633
 20
854.4146002141
 10
217.5534297148
 20
852.56604805
  0
LWPOLYLINE
  5
38A
330
1F
100
AcDbEntity
  8
0
  6
Continuous
 62
     7
100
AcDbPolyline
 90
        3
 70
   128
 43
0.0
 10
216.9295549393
 20
858.3520771519
 10
217.3272453684
 20
857.4979857509
 10
217.4563280149
 20
856.7620349244
  0
LWPOLYLINE
  5
38B
330
1F
100
AcDbEntity
  8
0
  6
Continuous
 62
     7
100
AcDbPolyline
 90
        3
 70
   128
 43
0.0
 10
217.4559831619
 20
858.0648507516
 10
217.1729969159
 20
858.2505594022
 10
216.929576623
 20
858.3520771519
  0
LWPOLYLINE
  5
38C
330
1F
100
AcDbEntity
  8
0
  6
Continuous
 62
     7
100
AcDbPolyline
 90
        3
 70
   128
 43
0.0
 10
217.9610729218
 20
857.8308765881
 10
217.6672851015
 20
857.9374264014
 10
217.456023533
 20
858.0648507516
  0
LWPOLYLINE
  5
38D
330
1F
100
AcDbEntity
  8
0
  6
Continuous
 62
     7
100
AcDbPolyline
 90
        3
 70
   128
 43
0.0
 10
218.6635732651
 20
858.123921681
 10
218.3103483058
 20
857.9087342848
 10
217.9986510574
 20
857.8258191735
  0
LWPOLYLINE
  5
38E
330
1F
100
AcDbEntity
  8
0
  6
Continuous
 62
     7
100
AcDbPolyline
 90
        3
 70
   128
 43
0.0
 10
218.8495397568
 20
858.2461211387
 10
218.7452111059
 20
858.1781221033
 10
218.6636698086
 20
858.123921681
  0
LWPOLYLINE
  5
38F
330
1F
100
AcDbEntity
  8
0
  6
Continuous
 62
     7
100
AcDbPolyline
 90
        3
 70
   128
 43
0.0
 10
218.939781189
 20
858.2996019318
 10
218.8888727499
 20
858.2703908675
 10
218.8496443268
 20
858.2461211387
  0
LWPOLYLINE
  5
390
330
1F
100
AcDbEntity
  8
0
  6
Continuous
 62
     7
100
AcDbPolyline
 90
        3
 70
   128
 43
0.0
 10
219.0140485764
 20
858.3312426175
 10
218.9722619568
 20
858.3141615385
 10
218.9398319577
 20
858.2996019318
  0
LWPOLYLINE
  5
391
330
1F
100
AcDbEntity
  8
0
  6
Continuous
 62
     7
100
AcDbPolyline
 90
        3
 70
   128
 43
0.0
 10
218.939781189
 20
858.2564003418
 10
218.9813168957
 20
858.2984249681
 10
219.0140771539
 20
858.3312426175
  0
LWPOLYLINE
  5
392
330
1F
100
AcDbEntity
  8
0
  6
Continuous
 62
     7
100
AcDbPolyline
 90
        3
 70
   128
 43
0.0
 10
218.8495397568
 20
858.1397709934
 10
218.8989566051
 20
858.2060263567
 10
218.9398837177
 20
858.2564003418
  0
LWPOLYLINE
  5
393
330
1F
100
AcDbEntity
  8
0
  6
Continuous
 62
     7
100
AcDbPolyline
 90
        3
 70
   128
 43
0.0
 10
218.6636924744
 20
857.7940189553
 10
218.7582475775
 20
857.9928317179
 10
218.8496206724
 20
858.1397709934
  0
LWPOLYLINE
  5
394
330
1F
100
AcDbEntity
  8
0
  6
Continuous
 62
     7
100
AcDbPolyline
 90
        3
 70
   128
 43
0.0
 10
218.3991670609
 20
852.5614205697
 10
218.3153783181
 20
855.5146839659
 10
218.6637925912
 20
857.7940189553
  0
LWPOLYLINE
  5
395
330
1F
100
AcDbEntity
  8
0
  6
Continuous
 62
     7
100
AcDbPolyline
 90
        3
 70
   128
 43
0.0
 10
218.0163860321
 20
852.5183662211
 10
218.2322494271
 20
852.5316838317
 10
218.3992646354
 20
852.5614205697
  0
LWPOLYLINE
  5
396
330
1F
100
AcDbEntity
  8
0
  6
Continuous
 62
     7
100
AcDbPolyline
 90
        3
 70
   128
 43
0.0
 10
217.9676294327
 20
854.672144574
 10
217.9882579131
 20
853.4664431706
 10
218.0163939349
 20
852.5183662211
  0
LWPOLYLINE
  5
397
330
1F
100
AcDbEntity
  8
0
  6
Continuous
 62
     7
100
AcDbPolyline
 90
        3
 70
   128
 43
0.0
 10
216.3928747177
 20
856.235378076
 10
215.952396016
 20
854.5442513478
 10
216.393808644
 20
853.2574688049
  0
LWPOLYLINE
  5
398
330
1F
100
AcDbEntity
  8
0
  6
Continuous
 62
     7
100
AcDbPolyline
 90
        3
 70
   128
 43
0.0
 10
216.8555259705
 20
857.1552868033
 10
216.5900008603
 20
856.6433324286
 10
216.3929207974
 20
856.235378076
  0
LWPOLYLINE
  5
399
330
1F
100
AcDbEntity
  8
0
  6
Continuous
 62
     7
100
AcDbPolyline
 90
        3
 70
   128
 43
0.0
 10
217.0783281326
 20
857.9425183941
 10
216.9970456546
 20
857.4899388703
 10
216.8555936089
 20
857.1552868033
  0
LWPOLYLINE
  5
39A
330
1F
100
AcDbEntity
  8
0
  6
Continuous
 62
     7
100
AcDbPolyline
 90
        3
 70
   128
 43
0.0
 10
217.4565792084
 20
855.8369223652
 10
217.3217641991
 20
857.0313924395
 10
217.0784325085
 20
857.9425183941
  0
LWPOLYLINE
  5
39B
330
1F
100
AcDbEntity
  8
0
  6
Continuous
 62
     7
100
AcDbPolyline
 90
        3
 70
   128
 43
0.0
 10
217.4628973007
 20
852.5819173498
 10
217.4796746356
 20
854.4051455723
 10
217.4566701523
 20
855.8369223652
  0
LWPOLYLINE
  5
39C
330
1F
100
AcDbEntity
  8
0
  6
Continuous
 62
     7
100
AcDbPolyline
 90
        3
 70
   128
 43
0.0
 10
216.3937091827
 20
853.2574688049
 10
216.9478390092
 20
852.8164869004
 10
217.4577503948
 20
852.5874013426
  0
LWPOLYLINE
  5
39D
330
1F
100
AcDbEntity
  8
0
  6
Continuous
 62
     7
100
AcDbPolyline
 90
        3
 70
   128
 43
0.0
 10
218.6653614044
 20
852.6304035504
 10
218.7698598554
 20
852.6655203547
 10
218.851488513
 20
852.6942085579
  0
LWPOLYLINE
  5
39E
330
1F
100
AcDbEntity
  8
0
  6
Continuous
 62
     7
100
AcDbPolyline
 90
        3
 70
   128
 43
0.0
 10
218.4681892395
 20
852.5717279597
 10
218.5788774641
 20
852.6039523782
 10
218.6654803787
 20
852.6304035504
  0
LWPOLYLINE
  5
39F
330
1F
100
AcDbEntity
  8
0
  6
Continuous
 62
     7
100
AcDbPolyline
 90
        3
 70
   128
 43
0.0
 10
218.6105251312
 20
857.3844458777
 10
218.3848987185
 20
854.6954223582
 10
218.4682128999
 20
852.5717279597
  0
LWPOLYLINE
  5
3A0
330
1F
100
AcDbEntity
  8
0
  6
Continuous
 62
     7
100
AcDbPolyline
 90
        3
 70
   128
 43
0.0
 10
218.6636924744
 20
857.5284046733
 10
218.634386873
 20
857.4476441486
 10
218.6105930106
 20
857.3844458777
  0
LWPOLYLINE
  5
3A1
330
1F
100
AcDbEntity
  8
0
  6
Continuous
 62
     7
100
AcDbPolyline
 90
        3
 70
   128
 43
0.0
 10
218.8496589661
 20
857.9642286687
 10
218.7381011142
 20
857.7233032794
 10
218.6637849888
 20
857.5284046733
  0
LWPOLYLINE
  5
3A2
330
1F
100
AcDbEntity
  8
0
  6
Continuous
 62
     7
100
AcDbPolyline
 90
        3
 70
   128
 43
0.0
 10
218.9399003983
 20
858.1239045779
 10
218.8876241883
 20
858.0355029511
 10
218.8497206373
 20
857.9642286687
  0
LWPOLYLINE
  5
3A3
330
1F
100
AcDbEntity
  8
0
  6
Continuous
 62
     7
100
AcDbPolyline
 90
        3
 70
   128
 43
0.0
 10
219.1044092178
 20
857.9936355859
 10
219.0147791906
 20
858.0699417804
 10
218.9438661984
 20
858.129426501
  0
LWPOLYLINE
  5
3A4
330
1F
100
AcDbEntity
  8
0
  6
Continuous
 62
     7
100
AcDbPolyline
 90
        3
 70
   128
 43
0.0
 10
218.9401388168
 20
857.5919955679
 10
219.0245304915
 20
857.8201344874
 10
219.1045212038
 20
857.9936355859
  0
LWPOLYLINE
  5
3A5
330
1F
100
AcDbEntity
  8
0
  6
Continuous
 62
     7
100
AcDbPolyline
 90
        3
 70
   128
 43
0.0
 10
218.8497781754
 20
857.2676269864
 10
218.8985538495
 20
857.4498081715
 10
218.9402271432
 20
857.5919955679
  0
LWPOLYLINE
  5
3A6
330
1F
100
AcDbEntity
  8
0
  6
Continuous
 62
     7
100
AcDbPolyline
 90
        3
 70
   128
 43
0.0
 10
218.6640501022
 20
856.2731283691
 10
218.753140479
 20
856.8329088301
 10
218.8498193609
 20
857.2676269864
  0
LWPOLYLINE
  5
3A7
330
1F
100
AcDbEntity
  8
0
  6
Continuous
 62
     7
100
AcDbPolyline
 90
        3
 70
   128
 43
0.0
 10
218.6650037766
 20
853.5077643593
 10
218.5673761765
 20
855.0567746531
 10
218.664146699
 20
856.2731283691
  0
LWPOLYLINE
  5
3A8
330
1F
100
AcDbEntity
  8
0
  6
Continuous
 62
     7
100
AcDbPolyline
 90
        3
 70
   128
 43
0.0
 10
218.7125682831
 20
853.2472581793
 10
218.6859337707
 20
853.3931300523
 10
218.6650816692
 20
853.5077643593
  0
LWPOLYLINE
  5
3A9
330
1F
100
AcDbEntity
  8
0
  6
Continuous
 62
     7
100
AcDbPolyline
 90
        3
 70
   128
 43
0.0
 10
218.664765358
 20
854.0875229506
 10
218.6940980396
 20
853.6171143431
 10
218.7126229734
 20
853.2472581793
  0
LWPOLYLINE
  5
3AA
330
1F
100
AcDbEntity
  8
0
  6
Continuous
 62
     7
100
AcDbPolyline
 90
        3
 70
   128
 43
0.0
 10
218.6325788498
 20
854.8051408746
 10
218.6462427922
 20
854.4030744416
 10
218.6648438619
 20
854.0875229506
  0
LWPOLYLINE
  5
3AB
330
1F
100
AcDbEntity
  8
0
  6
Continuous
 62
     7
100
AcDbPolyline
 90
        3
 70
   128
 43
0.0
 10
218.8506126404
 20
854.7573409191
 10
218.7462323028
 20
854.7799978065
 10
218.664764393
 20
854.8002476683
  0
LWPOLYLINE
  5
3AC
330
1F
100
AcDbEntity
  8
0
  6
Continuous
 62
     7
100
AcDbPolyline
 90
        3
 70
   128
 43
0.0
 10
218.9410924911
 20
854.7363038563
 10
218.8905963835
 20
854.7486470859
 10
218.8506450881
 20
854.7573409191
  0
LWPOLYLINE
  5
3AD
330
1F
100
AcDbEntity
  8
0
  6
Continuous
 62
     7
100
AcDbPolyline
 90
        3
 70
   128
 43
0.0
 10
219.2492485046
 20
854.6941295909
 10
219.0762063919
 20
854.7141183621
 10
218.9411571388
 20
854.7363038563
  0
LWPOLYLINE
  5
3AE
330
1F
100
AcDbEntity
  8
0
  6
Continuous
 62
     7
100
AcDbPolyline
 90
        3
 70
   128
 43
0.0
 10
220.5095291138
 20
854.816648109
 10
219.8076037389
 20
854.6990990688
 10
219.2493052347
 20
854.6941295909
  0
LWPOLYLINE
  5
3AF
330
1F
100
AcDbEntity
  8
0
  6
Continuous
 62
     7
100
AcDbPolyline
 90
        3
 70
   128
 43
0.0
 10
219.2497253418
 20
852.8806466365
 10
220.1570683517
 20
853.832540395
 10
220.5095305745
 20
854.816648109
  0
LWPOLYLINE
  5
3B0
330
1F
100
AcDbEntity
  8
0
  6
Continuous
 62
     7
100
AcDbPolyline
 90
        3
 70
   128
 43
0.0
 10
218.9415693283
 20
852.731617992
 10
219.1162263075
 20
852.8110662703
 10
219.2498266825
 20
852.8806466365
  0
LWPOLYLINE
  5
3B1
330
1F
100
AcDbEntity
  8
0
  6
Continuous
 62
     7
100
AcDbPolyline
 90
        3
 70
   128
 43
0.0
 10
218.8514471054
 20
852.6942085579
 10
218.9021982809
 20
852.7146253291
 10
218.9416569509
 20
852.731617992
  0
LWPOLYLINE
  5
3B2
330
1F
100
AcDbEntity
  8
0
  6
Continuous
 62
     7
100
AcDbPolyline
 90
        3
 70
   128
 43
0.0
 10
218.6799049377
 20
855.5923753401
 10
218.7748421775
 20
855.5631529245
 10
218.8505522225
 20
855.5446292771
  0
LWPOLYLINE
  5
3B3
330
1F
100
AcDbEntity
  8
0
  6
Continuous
 62
     7
100
AcDbPolyline
 90
        3
 70
   128
 43
0.0
 10
218.7594175339
 20
856.2517237704
 10
218.6958502908
 20
855.884809647
 10
218.6799735415
 20
855.5923753401
  0
LWPOLYLINE
  5
3B4
330
1F
100
AcDbEntity
  8
0
  6
Continuous
 62
     7
100
AcDbPolyline
 90
        3
 70
   128
 43
0.0
 10
218.8502550125
 20
856.2254670213
 10
218.8000283894
 20
856.24225525
 10
218.7595158988
 20
856.2517237704
  0
LWPOLYLINE
  5
3B5
330
1F
100
AcDbEntity
  8
0
  6
Continuous
 62
     7
100
AcDbPolyline
 90
        3
 70
   128
 43
0.0
 10
218.9404964447
 20
856.204068594
 10
218.8900404216
 20
856.2161164695
 10
218.8503317748
 20
856.2254670213
  0
LWPOLYLINE
  5
3B6
330
1F
100
AcDbEntity
  8
0
  6
Continuous
 62
     7
100
AcDbPolyline
 90
        3
 70
   128
 43
0.0
 10
219.2488908768
 20
856.1670100449
 10
219.0753469097
 20
856.181338647
 10
218.9405333351
 20
856.204068594
  0
LWPOLYLINE
  5
3B7
330
1F
100
AcDbEntity
  8
0
  6
Continuous
 62
     7
100
AcDbPolyline
 90
        3
 70
   128
 43
0.0
 10
220.3866243362
 20
856.3214041316
 10
219.759679915
 20
856.1708572076
 10
219.2488942463
 20
856.1670100449
  0
LWPOLYLINE
  5
3B8
330
1F
100
AcDbEntity
  8
0
  6
Continuous
 62
     7
100
AcDbPolyline
 90
        3
 70
   128
 43
0.0
 10
220.5036878586
 20
855.6462662233
 10
220.4658955952
 20
856.0301017347
 10
220.3866844211
 20
856.3214041316
  0
LWPOLYLINE
  5
3B9
330
1F
100
AcDbEntity
  8
0
  6
Continuous
 62
     7
100
AcDbPolyline
 90
        3
 70
   128
 43
0.0
 10
218.9407348633
 20
855.5232825262
 10
219.1127400608
 20
855.4924026563
 10
219.2489986898
 20
855.475578763
  0
LWPOLYLINE
  5
3BA
330
1F
100
AcDbEntity
  8
0
  6
Continuous
 62
     7
100
AcDbPolyline
 90
        3
 70
   128
 43
0.0
 10
218.8504934311
 20
855.5446292771
 10
218.9006545864
 20
855.5309514108
 10
218.9407538445
 20
855.5232825262
  0
LWPOLYLINE
  5
3BB
330
1F
100
AcDbEntity
  8
0
  6
Continuous
 62
     7
100
AcDbPolyline
 90
        3
 70
   128
 43
0.0
 10
219.2488908768
 20
855.475578763
 10
219.9673338984
 20
855.4821521649
 10
220.503803849
 20
855.6462662233
  0
LWPOLYLINE
  5
3BC
330
1F
100
AcDbEntity
  8
0
  6
Continuous
 62
     7
100
AcDbPolyline
 90
        5
 70
   128
 43
0.0
 10
199.4343996048
 20
857.1390451489
 10
199.3910611494
 20
857.9699453074
 10
199.2834940829
 20
858.3711957652
 10
199.1547409053
 20
858.5328973038
 10
198.9547057395
 20
858.5800480452
  0
LWPOLYLINE
  5
3BD
330
1F
100
AcDbEntity
  8
0
  6
Continuous
 62
     7
100
AcDbPolyline
 90
        4
 70
   128
 43
0.0
 10
198.6837387085
 20
858.5962307063
 10
198.2963136122
 20
858.4052721032
 10
198.1114443081
 20
858.0034402605
 10
198.0248102582
 20
857.1280623665
  0
LWPOLYLINE
  5
3BE
330
1F
100
AcDbEntity
  8
0
  6
Continuous
 62
     7
100
AcDbPolyline
 90
        4
 70
   128
 43
0.0
 10
212.8610610962
 20
858.5846274866
 10
212.4796950706
 20
858.3895815069
 10
212.3018589571
 20
857.9873226467
 10
212.2128298169
 20
857.1163947573
  0
LWPOLYLINE
  5
3BF
330
1F
100
AcDbEntity
  8
0
  6
Continuous
 62
     7
100
AcDbPolyline
 90
        5
 70
   128
 43
0.0
 10
213.6224508286
 20
857.1274298941
 10
213.581135461
 20
857.9603312382
 10
213.4722167364
 20
858.362267848
 10
213.342990435
 20
858.5243577083
 10
213.1426795796
 20
858.5737037827
  0
LWPOLYLINE
  5
3C0
330
1F
100
AcDbEntity
  8
0
  6
Continuous
 62
     7
100
AcDbPolyline
 90
        3
 70
   128
 43
0.0
 10
218.9403772354
 20
856.9592169948
 10
219.1124718669
 20
856.9339608268
 10
219.2485556524
 20
856.9220036634
  0
LWPOLYLINE
  5
3C1
330
1F
100
AcDbEntity
  8
0
  6
Continuous
 62
     7
100
AcDbPolyline
 90
        3
 70
   128
 43
0.0
 10
218.8658714294
 20
856.9698996473
 10
218.9076689039
 20
856.9642109934
 10
218.940401632
 20
856.9592169948
  0
LWPOLYLINE
  5
3C2
330
1F
100
AcDbEntity
  8
0
  6
Continuous
 62
     7
100
AcDbPolyline
 90
        3
 70
   128
 43
0.0
 10
218.9402580261
 20
857.3209523801
 10
218.8945093947
 20
857.1252331133
 10
218.8658969211
 20
856.9698996473
  0
LWPOLYLINE
  5
3C3
330
1F
100
AcDbEntity
  8
0
  6
Continuous
 62
     7
100
AcDbPolyline
 90
        3
 70
   128
 43
0.0
 10
219.0090417862
 20
857.5231319592
 10
218.9694783768
 20
857.410282802
 10
218.9403168651
 20
857.3209523801
  0
LWPOLYLINE
  5
3C4
330
1F
100
AcDbEntity
  8
0
  6
Continuous
 62
     7
100
AcDbPolyline
 90
        3
 70
   128
 43
0.0
 10
219.2482948303
 20
857.5231562824
 10
219.1143375797
 20
857.5191486502
 10
219.0090813135
 20
857.5231319592
  0
LWPOLYLINE
  5
3C5
330
1F
100
AcDbEntity
  8
0
  6
Continuous
 62
     7
100
AcDbPolyline
 90
        3
 70
   128
 43
0.0
 10
219.7053432465
 20
857.5763539362
 10
219.4501757889
 20
857.5397611299
 10
219.2483433947
 20
857.5231562824
  0
LWPOLYLINE
  5
3C6
330
1F
100
AcDbEntity
  8
0
  6
Continuous
 62
     7
100
AcDbPolyline
 90
        3
 70
   128
 43
0.0
 10
220.0618982315
 20
857.0660363761
 10
219.8807681778
 20
857.3640811343
 10
219.7054336184
 20
857.5763539362
  0
LWPOLYLINE
  5
3C7
330
1F
100
AcDbEntity
  8
0
  6
Continuous
 62
     7
100
AcDbPolyline
 90
        3
 70
   128
 43
0.0
 10
219.2485332489
 20
856.9220036634
 10
219.7139515176
 20
856.9527934485
 10
220.062011933
 20
857.0660363761
  0
LWPOLYLINE
  5
3C8
330
1F
100
AcDbEntity
  8
0
  6
Continuous
 62
     7
100
AcDbPolyline
 90
        3
 70
   128
 43
0.0
 10
217.3280715942
 20
858.5008941288
 10
216.8119597868
 20
858.7113889929
 10
216.3919950988
 20
858.835377058
  0
LWPOLYLINE
  5
3C9
330
1F
100
AcDbEntity
  8
0
  6
Continuous
 62
     7
100
AcDbPolyline
 90
        3
 70
   128
 43
0.0
 10
217.4556255341
 20
858.6869321186
 10
217.3842289419
 20
858.5828023201
 10
217.3281799736
 20
858.5008941288
  0
LWPOLYLINE
  5
3CA
330
1F
100
AcDbEntity
  8
0
  6
Continuous
 62
     7
100
AcDbPolyline
 90
        3
 70
   128
 43
0.0
 10
217.9607152939
 20
859.048787782
 10
217.6466610781
 20
858.8904789392
 10
217.455732967
 20
858.6869321186
  0
LWPOLYLINE
  5
3CB
330
1F
100
AcDbEntity
  8
0
  6
Continuous
 62
     7
100
AcDbPolyline
 90
        3
 70
   128
 43
0.0
 10
218.6634540558
 20
858.6769114605
 10
218.3137320621
 20
858.977709956
 10
217.9607341532
 20
859.048787782
  0
LWPOLYLINE
  5
3CC
330
1F
100
AcDbEntity
  8
0
  6
Continuous
 62
     7
100
AcDbPolyline
 90
        3
 70
   128
 43
0.0
 10
218.7479734421
 20
858.5651376826
 10
218.7005525169
 20
858.6276287181
 10
218.6635034368
 20
858.6769114605
  0
LWPOLYLINE
  5
3CD
330
1F
100
AcDbEntity
  8
0
  6
Continuous
 62
     7
100
AcDbPolyline
 90
        3
 70
   128
 43
0.0
 10
218.8495397568
 20
858.6128688187
 10
218.7930172706
 20
858.5854601477
 10
218.7480160089
 20
858.5651376826
  0
LWPOLYLINE
  5
3CE
330
1F
100
AcDbEntity
  8
0
  6
Continuous
 62
     7
100
AcDbPolyline
 90
        3
 70
   128
 43
0.0
 10
218.9396619797
 20
858.6502265764
 10
218.8887042333
 20
858.6305253232
 10
218.8495655965
 20
858.6128688187
  0
LWPOLYLINE
  5
3CF
330
1F
100
AcDbEntity
  8
0
  6
Continuous
 62
     7
100
AcDbPolyline
 90
        3
 70
   128
 43
0.0
 10
219.2478179932
 20
858.7567255476
 10
219.0734338796
 20
858.7023621011
 10
218.9397339727
 20
858.6502265764
  0
LWPOLYLINE
  5
3D0
330
1F
100
AcDbEntity
  8
0
  6
Continuous
 62
     7
100
AcDbPolyline
 90
        3
 70
   128
 43
0.0
 10
220.1837301254
 20
858.7785004292
 10
219.6575108
 20
858.8211467519
 10
219.2478529139
 20
858.7567255476
  0
LWPOLYLINE
  5
3D1
330
1F
100
AcDbEntity
  8
0
  6
Continuous
 62
     7
100
AcDbPolyline
 90
        3
 70
   128
 43
0.0
 10
219.2478179932
 20
858.5654191614
 10
219.7624217773
 20
858.7284294393
 10
220.1838431273
 20
858.7785004292
  0
LWPOLYLINE
  5
3D2
330
1F
100
AcDbEntity
  8
0
  6
Continuous
 62
     7
100
AcDbPolyline
 90
        3
 70
   128
 43
0.0
 10
218.9396619797
 20
858.4108094661
 10
219.1111026055
 20
858.4998582891
 10
219.2479345075
 20
858.5654191614
  0
LWPOLYLINE
  5
3D3
330
1F
100
AcDbEntity
  8
0
  6
Continuous
 62
     7
100
AcDbPolyline
 90
        3
 70
   128
 43
0.0
 10
218.8495397568
 20
858.352626121
 10
218.9014921101
 20
858.3830582601
 10
218.9397581108
 20
858.4108094661
  0
LWPOLYLINE
  5
3D4
330
1F
100
AcDbEntity
  8
0
  6
Continuous
 62
     7
100
AcDbPolyline
 90
        3
 70
   128
 43
0.0
 10
218.6635732651
 20
858.2247939362
 10
218.767653752
 20
858.2964943992
 10
218.8495648639
 20
858.352626121
  0
LWPOLYLINE
  5
3D5
330
1F
100
AcDbEntity
  8
0
  6
Continuous
 62
     7
100
AcDbPolyline
 90
        7
 70
   128
 43
0.0
 10
218.1417942047
 20
858.2562161311
 10
218.1127463706
 20
858.2470770809
 10
218.0917498855
 20
858.2242799759
 10
218.0760523412
 20
858.1647987575
 10
218.0822738772
 20
858.1034728732
 10
218.0952103858
 20
858.0752604137
 10
218.120990256
 20
858.0597154848
  0
LWPOLYLINE
  5
3D6
330
1F
100
AcDbEntity
  8
0
  6
Continuous
 62
     7
100
AcDbPolyline
 90
        3
 70
   128
 43
0.0
 10
218.3386087418
 20
858.320318676
 10
218.3087608495
 20
858.2709284575
 10
218.2643687657
 20
858.2562768903
  0
LWPOLYLINE
  5
3D7
330
1F
100
AcDbEntity
  8
0
  6
Continuous
 62
     7
100
AcDbPolyline
 90
        3
 70
   128
 43
0.0
 10
218.2642221451
 20
858.3842278923
 10
218.3188325845
 20
858.3617816969
 10
218.3386526564
 20
858.320318676
  0
LWPOLYLINE
  5
3D8
330
1F
100
AcDbEntity
  8
0
  6
Continuous
 62
     7
100
AcDbPolyline
 90
        3
 70
   128
 43
0.0
 10
217.7003622055
 20
858.3200976456
 10
217.7322693064
 20
858.3674471793
 10
217.7751455119
 20
858.383932232
  0
LWPOLYLINE
  5
3D9
330
1F
100
AcDbEntity
  8
0
  6
Continuous
 62
     7
100
AcDbPolyline
 90
        3
 70
   128
 43
0.0
 10
217.7751064301
 20
858.25598123
 10
217.7189349125
 20
858.2768706435
 10
217.7004484568
 20
858.3200976456
  0
LWPOLYLINE
  5
3DA
330
1F
100
AcDbEntity
  8
0
  6
Continuous
 62
     7
100
AcDbPolyline
 90
        7
 70
   128
 43
0.0
 10
217.8922891617
 20
858.0650527937
 10
217.9195381109
 20
858.0762197233
 10
217.9371269275
 20
858.1013297714
 10
217.947994556
 20
858.1605360538
 10
217.9371605591
 20
858.2196231534
 10
217.9195079319
 20
858.2448954811
 10
217.8922979666
 20
858.2560491215
  0
LWPOLYLINE
  5
3DB
330
1F
100
AcDbEntity
  8
0
  6
Continuous
 62
     7
100
AcDbPolyline
 90
        3
 70
   128
 43
0.0
 10
217.4558639526
 20
858.1817943658
 10
217.6953442639
 20
858.0948884
 10
217.8923799305
 20
858.0650527937
  0
LWPOLYLINE
  5
3DC
330
1F
100
AcDbEntity
  8
0
  6
Continuous
 62
     7
100
AcDbPolyline
 90
        3
 70
   128
 43
0.0
 10
216.8174982071
 20
858.5111674712
 10
217.1723169372
 20
858.3211928713
 10
217.4559565363
 20
858.1817943658
  0
LWPOLYLINE
  5
3DD
330
1F
100
AcDbEntity
  8
0
  6
Continuous
 62
     7
100
AcDbPolyline
 90
        3
 70
   128
 43
0.0
 10
216.3920402527
 20
858.7080978491
 10
216.6341790576
 20
858.6059324958
 10
216.8175253744
 20
858.5111674712
  0
LWPOLYLINE
  5
3DE
330
1F
100
AcDbEntity
  8
0
  6
Continuous
 62
     7
100
AcDbPolyline
 90
        3
 70
   128
 43
0.0
 10
215.7330513
 20
858.8513050937
 10
216.1072773873
 20
858.7954818099
 10
216.3920498031
 20
858.7080978491
  0
LWPOLYLINE
  5
3DF
330
1F
100
AcDbEntity
  8
0
  6
Continuous
 62
     7
100
AcDbPolyline
 90
        3
 70
   128
 43
0.0
 10
216.3919210434
 20
858.835377058
 10
216.0224989438
 20
858.8854479891
 10
215.7331391391
 20
858.8513050937
  0
LWPOLYLINE
  5
3E0
330
1F
100
AcDbEntity
  8
0
  6
Continuous
 62
     7
100
AcDbPolyline
 90
        3
 70
   128
 43
0.0
 10
218.120932579
 20
858.0597154848
 10
218.4422889084
 20
858.096846097
 10
218.6635836189
 20
858.2247939362
  0
LWPOLYLINE
  5
3E1
330
1F
100
AcDbEntity
  8
0
  6
Continuous
 62
     7
100
AcDbPolyline
 90
        3
 70
   128
 43
0.0
 10
216.3916826248
 20
859.5747645972
 10
215.9811443842
 20
859.2551594881
 10
215.6726329376
 20
858.9869767229
  0
LWPOLYLINE
  5
3E2
330
1F
100
AcDbEntity
  8
0
  6
Continuous
 62
     7
100
AcDbPolyline
 90
        3
 70
   128
 43
0.0
 10
217.15259552
 20
860.0378072176
 10
216.7175895699
 20
859.7930727278
 10
216.3917411697
 20
859.5747645972
  0
LWPOLYLINE
  5
3E3
330
1F
100
AcDbEntity
  8
0
  6
Continuous
 62
     7
100
AcDbPolyline
 90
        3
 70
   128
 43
0.0
 10
217.4552679062
 20
859.8090874594
 10
217.2761389253
 20
859.9251223685
 10
217.1526617193
 20
860.0378072176
  0
LWPOLYLINE
  5
3E4
330
1F
100
AcDbEntity
  8
0
  6
Continuous
 62
     7
100
AcDbPolyline
 90
        3
 70
   128
 43
0.0
 10
217.9605960846
 20
859.6551082327
 10
217.6696609015
 20
859.7142506482
 10
217.4553160358
 20
859.8090874594
  0
LWPOLYLINE
  5
3E5
330
1F
100
AcDbEntity
  8
0
  6
Continuous
 62
     7
100
AcDbPolyline
 90
        3
 70
   128
 43
0.0
 10
218.6629772186
 20
859.8040230931
 10
218.3174437469
 20
859.6716764482
 10
218.0246002635
 20
859.6497560731
  0
LWPOLYLINE
  5
3E6
330
1F
100
AcDbEntity
  8
0
  6
Continuous
 62
     7
100
AcDbPolyline
 90
        3
 70
   128
 43
0.0
 10
218.8489437103
 20
859.9584169452
 10
218.7467302242
 20
859.8696872172
 10
218.6629888888
 20
859.8040230931
  0
LWPOLYLINE
  5
3E7
330
1F
100
AcDbEntity
  8
0
  6
Continuous
 62
     7
100
AcDbPolyline
 90
        3
 70
   128
 43
0.0
 10
218.9394235611
 20
859.9531433199
 10
218.9047449978
 20
859.9710805082
 10
218.875279206
 20
859.979678283
  0
LWPOLYLINE
  5
3E8
330
1F
100
AcDbEntity
  8
0
  6
Continuous
 62
     7
100
AcDbPolyline
 90
        3
 70
   128
 43
0.0
 10
219.2475795746
 20
859.8041536983
 10
219.0753593882
 20
859.888218962
 10
218.9394296916
 20
859.9531433199
  0
LWPOLYLINE
  5
3E9
330
1F
100
AcDbEntity
  8
0
  6
Continuous
 62
     7
100
AcDbPolyline
 90
        3
 70
   128
 43
0.0
 10
220.3189134598
 20
858.9413241473
 10
219.7750710855
 20
859.4940047639
 10
219.2476569305
 20
859.8041536983
  0
LWPOLYLINE
  5
3EA
330
1F
100
AcDbEntity
  8
0
  6
Continuous
 62
     7
100
AcDbPolyline
 90
        3
 70
   128
 43
0.0
 10
220.32558918
 20
858.7376592032
 10
220.3409384122
 20
858.8515580226
 10
220.3190165951
 20
858.9413241473
  0
LWPOLYLINE
  5
3EB
330
1F
100
AcDbEntity
  8
0
  6
Continuous
 62
     7
100
AcDbPolyline
 90
        3
 70
   128
 43
0.0
 10
218.9395427704
 20
859.40552757
 10
219.1129972553
 20
859.3607030787
 10
219.24780282
 20
859.3205134493
  0
LWPOLYLINE
  5
3EC
330
1F
100
AcDbEntity
  8
0
  6
Continuous
 62
     7
100
AcDbPolyline
 90
        3
 70
   128
 43
0.0
 10
218.8491821289
 20
859.4214485463
 10
218.8998830713
 20
859.4128806496
 10
218.9396025321
 20
859.40552757
  0
LWPOLYLINE
  5
3ED
330
1F
100
AcDbEntity
  8
0
  6
Continuous
 62
     7
100
AcDbPolyline
 90
        3
 70
   128
 43
0.0
 10
218.6629772186
 20
859.4531934409
 10
218.7676226407
 20
859.4373982474
 10
218.8491877245
 20
859.4214485463
  0
LWPOLYLINE
  5
3EE
330
1F
100
AcDbEntity
  8
0
  6
Continuous
 62
     7
100
AcDbPolyline
 90
        3
 70
   128
 43
0.0
 10
218.0192470551
 20
859.5009362391
 10
218.3808085489
 20
859.4866337228
 10
218.6630869936
 20
859.4531934409
  0
LWPOLYLINE
  5
3EF
330
1F
100
AcDbEntity
  8
0
  6
Continuous
 62
     7
100
AcDbPolyline
 90
        3
 70
   128
 43
0.0
 10
217.4553871155
 20
859.4792880866
 10
217.7380935886
 20
859.497551487
 10
217.9606539207
 20
859.5009056219
  0
LWPOLYLINE
  5
3F0
330
1F
100
AcDbEntity
  8
0
  6
Continuous
 62
     7
100
AcDbPolyline
 90
        3
 70
   128
 43
0.0
 10
216.3919210434
 20
859.2238294552
 10
216.9781790695
 20
859.4070847176
 10
217.4554389419
 20
859.4792880866
  0
LWPOLYLINE
  5
3F1
330
1F
100
AcDbEntity
  8
0
  6
Continuous
 62
     7
100
AcDbPolyline
 90
        3
 70
   128
 43
0.0
 10
215.5957221985
 20
858.8466118635
 10
216.0378483955
 20
859.0660499318
 10
216.3919421876
 20
859.2238294552
  0
LWPOLYLINE
  5
3F2
330
1F
100
AcDbEntity
  8
0
  6
Continuous
 62
     7
100
AcDbPolyline
 90
        3
 70
   128
 43
0.0
 10
215.6758308411
 20
858.9888849233
 10
215.621971959
 20
858.9141572858
 10
215.5957774285
 20
858.8466118635
  0
LWPOLYLINE
  5
3F3
330
1F
100
AcDbEntity
  8
0
  6
Continuous
 62
     7
100
AcDbPolyline
 90
        3
 70
   128
 43
0.0
 10
219.2476987839
 20
859.3205134493
 10
219.8865738158
 20
859.0545086434
 10
220.3256980178
 20
858.7376592032
  0
LWPOLYLINE
  5
3F4
330
1F
100
AcDbEntity
  8
0
  6
Continuous
 62
     7
100
AcDbPolyline
 90
        3
 70
   128
 43
0.0
 10
218.6627388
 20
860.6869774982
 10
218.2736973049
 20
860.7751376487
 10
217.960330624
 20
860.7878620616
  0
LWPOLYLINE
  5
3F5
330
1F
100
AcDbEntity
  8
0
  6
Continuous
 62
     7
100
AcDbPolyline
 90
        3
 70
   128
 43
0.0
 10
218.8487052917
 20
860.6177673404
 10
218.7455101751
 20
860.6588573532
 10
218.6628034184
 20
860.6869774982
  0
LWPOLYLINE
  5
3F6
330
1F
100
AcDbEntity
  8
0
  6
Continuous
 62
     7
100
AcDbPolyline
 90
        3
 70
   128
 43
0.0
 10
218.9391851425
 20
860.5753362498
 10
218.8896316851
 20
860.6013988713
 10
218.8487560539
 20
860.6177673404
  0
LWPOLYLINE
  5
3F7
330
1F
100
AcDbEntity
  8
0
  6
Continuous
 62
     7
100
AcDbPolyline
 90
        3
 70
   128
 43
0.0
 10
219.247341156
 20
860.4053143352
 10
219.0782640702
 20
860.5067275883
 10
218.9392425551
 20
860.5753362498
  0
LWPOLYLINE
  5
3F8
330
1F
100
AcDbEntity
  8
0
  6
Continuous
 62
     7
100
AcDbPolyline
 90
        3
 70
   128
 43
0.0
 10
219.2474603653
 20
859.9054476982
 10
219.7693302789
 20
859.5997316919
 10
220.1252313601
 20
859.2887777869
  0
LWPOLYLINE
  5
3F9
330
1F
100
AcDbEntity
  8
0
  6
Continuous
 62
     7
100
AcDbPolyline
 90
        3
 70
   128
 43
0.0
 10
218.9393043518
 20
860.0435336004
 10
219.1129418327
 20
859.9684082531
 10
219.2475711877
 20
859.9054476982
  0
LWPOLYLINE
  5
3FA
330
1F
100
AcDbEntity
  8
0
  6
Continuous
 62
     7
100
AcDbPolyline
 90
        3
 70
   128
 43
0.0
 10
218.8647985458
 20
860.0752485458
 10
218.9068747247
 20
860.0582049195
 10
218.9393309272
 20
860.0435336004
  0
LWPOLYLINE
  5
3FB
330
1F
100
AcDbEntity
  8
0
  6
Continuous
 62
     7
100
AcDbPolyline
 90
        3
 70
   128
 43
0.0
 10
218.6628580093
 20
859.9053019195
 10
218.7709012164
 20
859.9871461754
 10
218.8489158378
 20
860.059489066
  0
LWPOLYLINE
  5
3FC
330
1F
100
AcDbEntity
  8
0
  6
Continuous
 62
     7
100
AcDbPolyline
 90
        3
 70
   128
 43
0.0
 10
218.0244922638
 20
859.7296407483
 10
218.3973284334
 20
859.7793940422
 10
218.6629031188
 20
859.9053019195
  0
LWPOLYLINE
  5
3FD
330
1F
100
AcDbEntity
  8
0
  6
Continuous
 62
     7
100
AcDbPolyline
 90
        3
 70
   128
 43
0.0
 10
217.4552679062
 20
859.9048366199
 10
217.7281545604
 20
859.7776334872
 10
217.9606228472
 20
859.734889387
  0
LWPOLYLINE
  5
3FE
330
1F
100
AcDbEntity
  8
0
  6
Continuous
 62
     7
100
AcDbPolyline
 90
        3
 70
   128
 43
0.0
 10
217.1839475632
 20
860.127834576
 10
217.3286582626
 20
859.9940197907
 10
217.4553265833
 20
859.9048366199
  0
LWPOLYLINE
  5
3FF
330
1F
100
AcDbEntity
  8
0
  6
Continuous
 62
     7
100
AcDbPolyline
 90
        3
 70
   128
 43
0.0
 10
216.3916826248
 20
859.676043132
 10
216.8223683086
 20
859.9525794757
 10
217.1839813739
 20
860.127834576
  0
LWPOLYLINE
  5
400
330
1F
100
AcDbEntity
  8
0
  6
Continuous
 62
     7
100
AcDbPolyline
 90
        3
 70
   128
 43
0.0
 10
215.743303299
 20
859.1490974268
 10
216.0995545329
 20
859.4526005387
 10
216.3917583206
 20
859.676043132
  0
LWPOLYLINE
  5
401
330
1F
100
AcDbEntity
  8
0
  6
Continuous
 62
     7
100
AcDbPolyline
 90
        3
 70
   128
 43
0.0
 10
216.3915634155
 20
860.2183360897
 10
215.9605260498
 20
859.659714408
 10
215.7433128053
 20
859.1490974268
  0
LWPOLYLINE
  5
402
330
1F
100
AcDbEntity
  8
0
  6
Continuous
 62
     7
100
AcDbPolyline
 90
        3
 70
   128
 43
0.0
 10
217.4550294876
 20
860.7343476007
 10
216.8195863726
 20
860.5201227362
 10
216.3916824764
 20
860.2183360897
  0
LWPOLYLINE
  5
403
330
1F
100
AcDbEntity
  8
0
  6
Continuous
 62
     7
100
AcDbPolyline
 90
        3
 70
   128
 43
0.0
 10
217.9497480392
 20
860.7878620616
 10
217.671534976
 20
860.7681141725
 10
217.4550769808
 20
860.7343476007
  0
LWPOLYLINE
  5
404
330
1F
100
AcDbEntity
  8
0
  6
Continuous
 62
     7
100
AcDbPolyline
 90
        3
 70
   128
 43
0.0
 10
220.1251983643
 20
859.2887777869
 10
219.729039387
 20
859.9885709034
 10
219.2474446765
 20
860.4053143352
  0
LWPOLYLINE
  5
405
330
1F
100
AcDbEntity
  8
0
  6
Continuous
 62
     7
100
AcDbPolyline
 90
        3
 70
   128
 43
0.0
 10
216.8596982956
 20
860.611869218
 10
216.9569029546
 20
860.6591055625
 10
217.0353100981
 20
860.6916030214
  0
LWPOLYLINE
  5
406
330
1F
100
AcDbEntity
  8
0
  6
Continuous
 62
     7
100
AcDbPolyline
 90
        3
 70
   128
 43
0.0
 10
216.3913249969
 20
861.0370540275
 10
216.6605477411
 20
860.8063436649
 10
216.8597215878
 20
860.611869218
  0
LWPOLYLINE
  5
407
330
1F
100
AcDbEntity
  8
0
  6
Continuous
 62
     7
100
AcDbPolyline
 90
        3
 70
   128
 43
0.0
 10
215.6151533127
 20
861.4729418074
 10
216.0660474084
 20
861.256874664
 10
216.3914204312
 20
861.0370540275
  0
LWPOLYLINE
  5
408
330
1F
100
AcDbEntity
  8
0
  6
Continuous
 62
     7
100
AcDbPolyline
 90
        3
 70
   128
 43
0.0
 10
216.0252332687
 20
859.9043296048
 10
215.6913689436
 20
860.7610269618
 10
215.6152436534
 20
861.4729418074
  0
LWPOLYLINE
  5
409
330
1F
100
AcDbEntity
  8
0
  6
Continuous
 62
     7
100
AcDbPolyline
 90
        3
 70
   128
 43
0.0
 10
215.4766321182
 20
861.6217287607
 10
215.6277956271
 20
860.5791088288
 10
215.9609416736
 20
859.8139210084
  0
LWPOLYLINE
  5
40A
330
1F
100
AcDbEntity
  8
0
  6
Continuous
 62
     7
100
AcDbPolyline
 90
        3
 70
   128
 43
0.0
 10
216.3913249969
 20
861.2603481025
 10
215.8978763043
 20
861.512071309
 10
215.4767216971
 20
861.6217287607
  0
LWPOLYLINE
  5
40B
330
1F
100
AcDbEntity
  8
0
  6
Continuous
 62
     7
100
AcDbPolyline
 90
        3
 70
   128
 43
0.0
 10
217.0352935791
 20
860.6916030214
 10
216.6929687895
 20
861.0309165533
 10
216.3913770385
 20
861.2603481025
  0
LWPOLYLINE
  5
40C
330
1F
100
AcDbEntity
  8
0
  6
Continuous
 62
     7
100
AcDbPolyline
 90
        3
 70
   128
 43
0.0
 10
219.2471027374
 20
860.8836741574
 10
219.8294572475
 20
861.262351246
 10
220.3429841421
 20
861.4425384437
  0
LWPOLYLINE
  5
40D
330
1F
100
AcDbEntity
  8
0
  6
Continuous
 62
     7
100
AcDbPolyline
 90
        3
 70
   128
 43
0.0
 10
218.9656496048
 20
860.6336895448
 10
219.1202420153
 20
860.7771730627
 10
219.2471889916
 20
860.8836741574
  0
LWPOLYLINE
  5
40E
330
1F
100
AcDbEntity
  8
0
  6
Continuous
 62
     7
100
AcDbPolyline
 90
        3
 70
   128
 43
0.0
 10
218.8487052917
 20
860.6921762073
 10
218.8991444507
 20
860.6679512386
 10
218.9392280623
 20
860.6498484696
  0
LWPOLYLINE
  5
40F
330
1F
100
AcDbEntity
  8
0
  6
Continuous
 62
     7
100
AcDbPolyline
 90
        3
 70
   128
 43
0.0
 10
218.9390659332
 20
860.8358795715
 10
218.8893369697
 20
860.7873274146
 10
218.848708052
 20
860.7507730713
  0
LWPOLYLINE
  5
410
330
1F
100
AcDbEntity
  8
0
  6
Continuous
 62
     7
100
AcDbPolyline
 90
        3
 70
   128
 43
0.0
 10
219.2471027374
 20
861.0857292339
 10
219.0728703979
 20
860.9479881158
 10
218.9391401574
 20
860.8358795715
  0
LWPOLYLINE
  5
411
330
1F
100
AcDbEntity
  8
0
  6
Continuous
 62
     7
100
AcDbPolyline
 90
        3
 70
   128
 43
0.0
 10
220.5286026001
 20
861.6390490518
 10
219.7724020842
 20
861.4151011319
 10
219.2471202344
 20
861.0857292339
  0
LWPOLYLINE
  5
412
330
1F
100
AcDbEntity
  8
0
  6
Continuous
 62
     7
100
AcDbPolyline
 90
        3
 70
   128
 43
0.0
 10
219.8376655579
 20
860.0064326376
 10
219.9015680085
 20
859.9198902267
 10
219.9443068068
 20
859.847038486
  0
LWPOLYLINE
  5
413
330
1F
100
AcDbEntity
  8
0
  6
Continuous
 62
     7
100
AcDbPolyline
 90
        3
 70
   128
 43
0.0
 10
220.342874527
 20
861.4425384437
 10
220.15359489
 20
860.6043219536
 10
219.8377335759
 20
860.0064326376
  0
LWPOLYLINE
  5
414
330
1F
100
AcDbEntity
  8
0
  6
Continuous
 62
     7
100
AcDbPolyline
 90
        3
 70
   128
 43
0.0
 10
219.9442386627
 20
859.847038486
 10
220.3973758479
 20
860.814763685
 10
220.5286339936
 20
861.6390490518
  0
LWPOLYLINE
  5
415
330
1F
100
AcDbEntity
  8
0
  6
Continuous
 62
     7
100
AcDbPolyline
 90
        5
 70
   128
 43
0.0
 10
217.3917293549
 20
859.1708037231
 10
217.4077956025
 20
859.219336532
 10
217.4555581994
 20
859.2387722583
 10
217.5032549063
 20
859.2195626788
 10
217.5194593589
 20
859.1708579954
  0
LWPOLYLINE
  5
416
330
1F
100
AcDbEntity
  8
0
  6
Continuous
 62
     7
100
AcDbPolyline
 90
        5
 70
   128
 43
0.0
 10
217.519402504
 20
859.1708579954
 10
217.5034515394
 20
859.1224038362
 10
217.4557166676
 20
859.1030444361
 10
217.4080509798
 20
859.1221812394
 10
217.3918184153
 20
859.1708037231
  0
LWPOLYLINE
  5
417
330
1F
100
AcDbEntity
  8
0
  6
Continuous
 62
     7
100
AcDbPolyline
 90
        5
 70
   128
 43
0.0
 10
217.2744274139
 20
859.1814859423
 10
217.3298839599
 20
859.0556968019
 10
217.4553654849
 20
859.0008157264
 10
217.5820289797
 20
859.0554203694
 10
217.6363643269
 20
859.181467233
  0
LWPOLYLINE
  5
418
330
1F
100
AcDbEntity
  8
0
  6
Continuous
 62
     7
100
AcDbPolyline
 90
        3
 70
   128
 43
0.0
 10
217.4553871155
 20
859.3570731645
 10
217.3181926812
 20
859.2923043133
 10
217.2745257123
 20
859.1814859423
  0
LWPOLYLINE
  5
419
330
1F
100
AcDbEntity
  8
0
  6
Continuous
 62
     7
100
AcDbPolyline
 90
        3
 70
   128
 43
0.0
 10
217.636346817
 20
859.181467233
 10
217.5691656991
 20
859.3163271916
 10
217.4554996942
 20
859.3570731645
  0
LWPOLYLINE
  5
41A
330
1F
100
AcDbEntity
  8
0
  6
Continuous
 62
     7
100
AcDbPolyline
 90
        5
 70
   128
 43
0.0
 10
218.5832262039
 20
859.171189522
 10
218.6017650679
 20
859.2207388216
 10
218.6522818984
 20
859.2391514895
 10
218.7027328767
 20
859.2208324021
 10
218.7212477713
 20
859.1712314515
  0
LWPOLYLINE
  5
41B
330
1F
100
AcDbEntity
  8
0
  6
Continuous
 62
     7
100
AcDbPolyline
 90
        5
 70
   128
 43
0.0
 10
218.7211513519
 20
859.1712314515
 10
218.7028271258
 20
859.1217574944
 10
218.6523682178
 20
859.1034243824
 10
218.601925407
 20
859.1216692938
 10
218.5832715486
 20
859.171189522
  0
LWPOLYLINE
  5
41C
330
1F
100
AcDbEntity
  8
0
  6
Continuous
 62
     7
100
AcDbPolyline
 90
        3
 70
   128
 43
0.0
 10
218.4817790985
 20
859.1818528568
 10
218.5444724845
 20
859.0438202366
 10
218.6575861207
 20
859.0011886865
  0
LWPOLYLINE
  5
41D
330
1F
100
AcDbEntity
  8
0
  6
Continuous
 62
     7
100
AcDbPolyline
 90
        3
 70
   128
 43
0.0
 10
218.657374382
 20
859.3627174896
 10
218.5212008534
 20
859.296009442
 10
218.4817918226
 20
859.1818528568
  0
LWPOLYLINE
  5
41E
330
1F
100
AcDbEntity
  8
0
  6
Continuous
 62
     7
100
AcDbPolyline
 90
        3
 70
   128
 43
0.0
 10
218.8384532928
 20
859.1819436716
 10
218.7771459376
 20
859.3211767619
 10
218.6630822811
 20
859.3628140538
  0
LWPOLYLINE
  5
41F
330
1F
100
AcDbEntity
  8
0
  6
Continuous
 62
     7
100
AcDbPolyline
 90
        3
 70
   128
 43
0.0
 10
218.6632156372
 20
859.0012852507
 10
218.7985758186
 20
859.068992861
 10
218.8384629211
 20
859.1819436716
  0
LWPOLYLINE
  5
420
330
1F
100
AcDbEntity
  8
0
  6
Continuous
 62
     7
100
AcDbPolyline
 90
        3
 70
   128
 43
0.0
 10
222.2092151642
 20
861.2042041025
 10
222.194567586
 20
861.1333989022
 10
222.1616742069
 20
861.0867486326
  0
LWPOLYLINE
  5
421
330
1F
100
AcDbEntity
  8
0
  6
Continuous
 62
     7
100
AcDbPolyline
 90
        3
 70
   128
 43
0.0
 10
222.1828699112
 20
861.2995786496
 10
222.2036644993
 20
861.2476943735
 10
222.2092534752
 20
861.2042041025
  0
LWPOLYLINE
  5
422
330
1F
100
AcDbEntity
  8
0
  6
Continuous
 62
     7
100
AcDbPolyline
 90
        3
 70
   128
 43
0.0
 10
222.1082448959
 20
861.3582687969
 10
222.1543193124
 20
861.3306667064
 10
222.1829090229
 20
861.2995786496
  0
LWPOLYLINE
  5
423
330
1F
100
AcDbEntity
  8
0
  6
Continuous
 62
     7
100
AcDbPolyline
 90
        3
 70
   128
 43
0.0
 10
221.9804525375
 20
861.3794020935
 10
222.0531715986
 20
861.3733283577
 10
222.1083582914
 20
861.3582687969
  0
LWPOLYLINE
  5
424
330
1F
100
AcDbEntity
  8
0
  6
Continuous
 62
     7
100
AcDbPolyline
 90
        3
 70
   128
 43
0.0
 10
222.0709323883
 20
860.8793279024
 10
222.0366985387
 20
860.928177852
 10
222.0071190631
 20
860.9645153275
  0
LWPOLYLINE
  5
425
330
1F
100
AcDbEntity
  8
0
  6
Continuous
 62
     7
100
AcDbPolyline
 90
        3
 70
   128
 43
0.0
 10
222.0815420151
 20
861.0017813293
 10
222.1224806616
 20
860.9589724401
 10
222.1507286983
 20
860.9221169837
  0
LWPOLYLINE
  5
426
330
1F
100
AcDbEntity
  8
0
  6
Continuous
 62
     7
100
AcDbPolyline
 90
        3
 70
   128
 43
0.0
 10
222.1616506577
 20
861.0867486326
 10
222.0911102994
 20
861.0453078821
 10
222.028486199
 20
861.0286166335
  0
LWPOLYLINE
  5
427
330
1F
100
AcDbEntity
  8
0
  6
Continuous
 62
     7
100
AcDbPolyline
 90
        3
 70
   128
 43
0.0
 10
221.3320732117
 20
861.0494988017
 10
221.553232632
 20
860.5820597543
 10
221.9433477819
 20
860.4433273371
  0
LWPOLYLINE
  5
428
330
1F
100
AcDbEntity
  8
0
  6
Continuous
 62
     7
100
AcDbPolyline
 90
        3
 70
   128
 43
0.0
 10
221.9429016113
 20
861.6661997805
 10
221.4707606339
 20
861.441422709
 10
221.3321189468
 20
861.0494988017
  0
LWPOLYLINE
  5
429
330
1F
100
AcDbEntity
  8
0
  6
Continuous
 62
     7
100
AcDbPolyline
 90
        3
 70
   128
 43
0.0
 10
222.5550413132
 20
861.0498469551
 10
222.3343959419
 20
861.5226224021
 10
221.9429478287
 20
861.6661997805
  0
LWPOLYLINE
  5
42A
330
1F
100
AcDbEntity
  8
0
  6
Continuous
 62
     7
100
AcDbPolyline
 90
        3
 70
   128
 43
0.0
 10
221.9432592392
 20
860.4433273371
 10
222.412669018
 20
860.6641075305
 10
222.5550946813
 20
861.0498469551
  0
LWPOLYLINE
  5
42B
330
1F
100
AcDbEntity
  8
0
  6
Continuous
 62
     7
100
AcDbPolyline
 90
        3
 70
   128
 43
0.0
 10
215.9821987152
 20
861.5317764645
 10
216.2164842341
 20
861.4318872956
 10
216.3912593243
 20
861.3348657116
  0
LWPOLYLINE
  5
42C
330
1F
100
AcDbEntity
  8
0
  6
Continuous
 62
     7
100
AcDbPolyline
 90
        3
 70
   128
 43
0.0
 10
216.3910865784
 20
861.4039572992
 10
216.1660378257
 20
861.4888514126
 10
215.9822168468
 20
861.5317764645
  0
LWPOLYLINE
  5
42D
330
1F
100
AcDbEntity
  8
0
  6
Continuous
 62
     7
100
AcDbPolyline
 90
        3
 70
   128
 43
0.0
 10
217.4334526062
 20
860.8140658448
 10
216.8659364599
 20
861.1733893677
 10
216.3911351302
 20
861.4039572992
  0
LWPOLYLINE
  5
42E
330
1F
100
AcDbEntity
  8
0
  6
Continuous
 62
     7
100
AcDbPolyline
 90
        3
 70
   128
 43
0.0
 10
217.0884609222
 20
860.7183079513
 10
217.2789986183
 20
860.7817896959
 10
217.4334685139
 20
860.8140658448
  0
LWPOLYLINE
  5
42F
330
1F
100
AcDbEntity
  8
0
  6
Continuous
 62
     7
100
AcDbPolyline
 90
        3
 70
   128
 43
0.0
 10
216.3912057877
 20
861.3348657116
 10
216.8099302863
 20
861.0203547351
 10
217.0884654012
 20
860.7183079513
  0
LWPOLYLINE
  5
430
330
1F
100
AcDbEntity
  8
0
  6
Continuous
 62
     7
100
AcDbPolyline
 90
        3
 70
   128
 43
0.0
 10
219.6884155273
 20
861.4689558956
 10
219.4380203198
 20
861.401650875
 10
219.2471029014
 20
861.3308350396
  0
LWPOLYLINE
  5
431
330
1F
100
AcDbEntity
  8
0
  6
Continuous
 62
     7
100
AcDbPolyline
 90
        3
 70
   128
 43
0.0
 10
219.2469835281
 20
861.1974581396
 10
219.4879745735
 20
861.3595464919
 10
219.688481544
 20
861.4689558956
  0
LWPOLYLINE
  5
432
330
1F
100
AcDbEntity
  8
0
  6
Continuous
 62
     7
100
AcDbPolyline
 90
        3
 70
   128
 43
0.0
 10
218.9389467239
 20
860.947660277
 10
219.1073034104
 20
861.0926767088
 10
219.2470469707
 20
861.1974581396
  0
LWPOLYLINE
  5
433
330
1F
100
AcDbEntity
  8
0
  6
Continuous
 62
     7
100
AcDbPolyline
 90
        3
 70
   128
 43
0.0
 10
218.8487052917
 20
860.8569724792
 10
218.8991212491
 20
860.9078955065
 10
218.9389636026
 20
860.947660277
  0
LWPOLYLINE
  5
434
330
1F
100
AcDbEntity
  8
0
  6
Continuous
 62
     7
100
AcDbPolyline
 90
        3
 70
   128
 43
0.0
 10
218.7366485596
 20
860.7347363237
 10
218.7994163304
 20
860.8032292741
 10
218.8487315377
 20
860.8569724792
  0
LWPOLYLINE
  5
435
330
1F
100
AcDbEntity
  8
0
  6
Continuous
 62
     7
100
AcDbPolyline
 90
        3
 70
   128
 43
0.0
 10
218.4336185455
 20
860.8252737707
 10
218.5625194944
 20
860.7914471392
 10
218.6627885553
 20
860.7611796596
  0
LWPOLYLINE
  5
436
330
1F
100
AcDbEntity
  8
0
  6
Continuous
 62
     7
100
AcDbPolyline
 90
        3
 70
   128
 43
0.0
 10
218.6626195908
 20
861.0059712385
 10
218.5333494983
 20
860.9060865012
 10
218.4336282818
 20
860.8252737707
  0
LWPOLYLINE
  5
437
330
1F
100
AcDbEntity
  8
0
  6
Continuous
 62
     7
100
AcDbPolyline
 90
        3
 70
   128
 43
0.0
 10
218.8485860825
 20
861.128532431
 10
218.7436444431
 20
861.0611953294
 10
218.6626674827
 20
861.0059712385
  0
LWPOLYLINE
  5
438
330
1F
100
AcDbEntity
  8
0
  6
Continuous
 62
     7
100
AcDbPolyline
 90
        3
 70
   128
 43
0.0
 10
218.9388275146
 20
861.1816513659
 10
218.8888971328
 20
861.1509993393
 10
218.8486424329
 20
861.128532431
  0
LWPOLYLINE
  5
439
330
1F
100
AcDbEntity
  8
0
  6
Continuous
 62
     7
100
AcDbPolyline
 90
        3
 70
   128
 43
0.0
 10
219.2471027374
 20
861.3308350396
 10
219.0725799819
 20
861.2512186947
 10
218.9389329846
 20
861.1816513659
  0
LWPOLYLINE
  5
43A
330
1F
100
AcDbEntity
  8
0
  6
Continuous
 62
     7
100
AcDbPolyline
 90
        3
 70
   128
 43
0.0
 10
218.6627388
 20
860.7611796596
 10
218.7045299108
 20
860.7471725834
 10
218.7367576795
 20
860.7347363237
  0
LWPOLYLINE
  5
43B
330
1F
100
AcDbEntity
  8
0
  6
Continuous
 62
     7
100
AcDbPolyline
 90
        3
 70
   128
 43
0.0
 10
222.0867872238
 20
861.2782956342
 10
222.032432259
 20
861.3009780384
 10
221.9858215785
 20
861.3050813666
  0
LWPOLYLINE
  5
43C
330
1F
100
AcDbEntity
  8
0
  6
Continuous
 62
     7
100
AcDbPolyline
 90
        3
 70
   128
 43
0.0
 10
222.1186161041
 20
861.2042052204
 10
222.1089170744
 20
861.249287367
 10
222.0868687636
 20
861.2782956342
  0
LWPOLYLINE
  5
43D
330
1F
100
AcDbEntity
  8
0
  6
Continuous
 62
     7
100
AcDbPolyline
 90
        3
 70
   128
 43
0.0
 10
221.964597702
 20
861.0974783888
 10
222.0156628386
 20
861.1007858075
 10
222.0551427319
 20
861.1079640506
  0
LWPOLYLINE
  5
43E
330
1F
100
AcDbEntity
  8
0
  6
Continuous
 62
     7
100
AcDbPolyline
 90
        3
 70
   128
 43
0.0
 10
77.2341489792
 20
876.8045390835
 10
80.4252563149
 20
884.7304937617
 10
86.5372419021
 20
887.6015032521
  0
LWPOLYLINE
  5
43F
330
1F
100
AcDbEntity
  8
0
  6
Continuous
 62
     7
100
AcDbPolyline
 90
        3
 70
   128
 43
0.0
 10
327.9309272766
 20
887.6015032521
 10
335.2384789524
 20
883.2860754346
 10
337.2341543099
 20
876.8045390835
  0
LWPOLYLINE
  5
440
330
1F
100
AcDbEntity
  8
0
  6
Continuous
 62
     7
100
AcDbPolyline
 90
        9
 70
   128
 43
0.0
 10
196.994304657
 20
920.5242182007
 10
191.4344081917
 20
918.5440480214
 10
190.8094566518
 20
917.6402085653
 10
191.0486227552
 20
916.7169244516
 10
207.2667847297
 20
913.3285120343
 10
223.4298757236
 20
916.7321988722
 10
223.6567151463
 20
917.6555931035
 10
223.0155238657
 20
918.5586266026
 10
217.3967715016
 20
920.5253208866
  0
LWPOLYLINE
  5
441
330
1F
100
AcDbEntity
  8
0
  6
Continuous
 62
     7
100
AcDbPolyline
 90
        3
 70
   128
 43
0.0
 10
327.9309272766
 20
887.6015032521
 10
327.9310762545
 20
906.8370532188
 10
327.9310762545
 20
918.7415028801
  0
LWPOLYLINE
  5
442
330
1F
100
AcDbEntity
  8
0
  6
Continuous
 62
     7
100
AcDbPolyline
 90
        3
 70
   128
 43
0.0
 10
86.5371823311
 20
918.7415028801
 10
86.5372419021
 20
903.0958638609
 10
86.5372419021
 20
887.6015032521
  0
LWPOLYLINE
  5
443
330
1F
100
AcDbEntity
  8
0
  6
Continuous
 62
     7
100
AcDbPolyline
 90
        3
 70
   128
 43
0.0
 10
77.2341489792
 20
908.529647707
 10
80.518783624
 20
916.1153885861
 10
86.5372419021
 20
918.7415028801
  0
LWPOLYLINE
  5
444
330
1F
100
AcDbEntity
  8
0
  6
Continuous
 62
     7
100
AcDbPolyline
 90
        3
 70
   128
 43
0.0
 10
77.2341489792
 20
876.8045390835
 10
77.2341638467
 20
896.4053926419
 10
77.2341638467
 20
908.529647707
  0
LWPOLYLINE
  5
445
330
1F
100
AcDbEntity
  8
0
  6
Continuous
 62
     7
100
AcDbPolyline
 90
        3
 70
   128
 43
0.0
 10
327.9309272766
 20
918.7415028801
 10
335.1630673384
 20
914.7607652289
 10
337.2341543099
 20
908.529647707
  0
LWPOLYLINE
  5
446
330
1F
100
AcDbEntity
  8
0
  6
Continuous
 62
     7
100
AcDbPolyline
 90
        3
 70
   128
 43
0.0
 10
337.2340202332
 20
908.529647707
 10
337.2341543099
 20
892.5984217813
 10
337.2341543099
 20
876.8045390835
  0
LWPOLYLINE
  5
447
330
1F
100
AcDbEntity
  8
0
  6
Continuous
 62
     7
100
AcDbPolyline
 90
        3
 70
   128
 43
0.0
 10
328.0379772186
 20
920.2376703174
 10
336.3441796474
 20
915.6935486107
 10
338.7341648003
 20
908.529647707
  0
LWPOLYLINE
  5
448
330
1F
100
AcDbEntity
  8
0
  6
Continuous
 62
     7
100
AcDbPolyline
 90
        3
 70
   128
 43
0.0
 10
75.7341384888
 20
908.529647707
 10
79.517433478
 20
917.2325830742
 10
86.4302717448
 20
920.2376703174
  0
LWPOLYLINE
  5
449
330
1F
100
AcDbEntity
  8
0
  6
Continuous
 62
     7
100
AcDbPolyline
 90
        3
 70
   128
 43
0.0
 10
328.045129776
 20
920.3374157175
 10
336.4233108822
 20
915.7547005855
 10
338.8341664729
 20
908.5296477272
  0
LWPOLYLINE
  5
44A
330
1F
100
AcDbEntity
  8
0
  6
Continuous
 62
     7
100
AcDbPolyline
 90
        3
 70
   128
 43
0.0
 10
75.6341218948
 20
908.529647707
 10
79.4505267986
 20
917.3069160357
 10
86.4231404646
 20
920.3374157175
  0
LWPOLYLINE
  5
44B
330
1F
100
AcDbEntity
  8
0
  6
Continuous
 62
     7
100
AcDbPolyline
 90
        3
 70
   128
 43
0.0
 10
861.3886833191
 20
892.2807956925
 10
824.1609027597
 20
904.8226249702
 10
794.4624742536
 20
913.2270897618
  0
LWPOLYLINE
  5
44C
330
1F
100
AcDbEntity
  8
0
  6
Continuous
 62
     7
100
AcDbPolyline
 90
        5
 70
   128
 43
0.0
 10
750.4363059998
 20
908.5296477069
 10
750.4367071246
 20
914.2660301107
 10
750.4367071246
 20
917.3069175622
 10
750.4367071246
 20
919.4137246567
 10
750.4367071246
 20
920.337417244
  0
LWPOLYLINE
  5
44D
330
1F
100
AcDbEntity
  8
0
  6
Continuous
 62
     7
100
AcDbPolyline
 90
        5
 70
   128
 43
0.0
 10
736.4363670349
 20
908.5296477069
 10
736.4367080895
 20
914.2677265659
 10
736.4367080895
 20
917.3118242983
 10
736.4367080895
 20
919.4177391876
 10
736.4367080895
 20
920.337417244
  0
LWPOLYLINE
  5
44E
330
1F
100
AcDbEntity
  8
0
  6
Continuous
 62
     7
100
AcDbPolyline
 90
        5
 70
   128
 43
0.0
 10
754.4364929199
 20
908.5296477069
 10
754.4367073146
 20
914.2163555777
 10
754.4367073146
 20
917.2325816278
 10
754.4367073146
 20
919.3221482491
 10
754.4367073146
 20
920.237668871
  0
LWPOLYLINE
  5
44F
330
1F
100
AcDbEntity
  8
0
  6
Continuous
 62
     7
100
AcDbPolyline
 90
        3
 70
   128
 43
0.0
 10
754.4364929199
 20
918.7415028801
 10
815.2138079305
 20
903.0958638609
 10
862.0301915375
 20
887.6015032521
  0
LWPOLYLINE
  5
450
330
1F
100
AcDbEntity
  8
0
  6
Continuous
 62
     7
100
AcDbPolyline
 90
        3
 70
   128
 43
0.0
 10
862.4939918518
 20
876.8045390835
 10
862.1616373537
 20
884.7301407211
 10
862.0301915375
 20
887.6015032521
  0
LWPOLYLINE
  5
451
330
1F
100
AcDbEntity
  8
0
  6
Continuous
 62
     7
100
AcDbPolyline
 90
        3
 70
   128
 43
0.0
 10
862.4939918518
 20
876.8045390835
 10
802.5146130225
 20
896.4053926418
 10
754.4367073146
 20
908.5296477069
  0
LWPOLYLINE
  5
452
330
1F
100
AcDbEntity
  8
0
  6
Continuous
 62
     7
100
AcDbPolyline
 90
        3
 70
   128
 43
0.0
 10
863.3298873901
 20
885.9887803784
 10
863.8044705938
 20
882.3584639954
 10
864.4789142577
 20
877.0526136153
  0
LWPOLYLINE
  5
453
330
1F
100
AcDbEntity
  8
0
  6
Continuous
 62
     7
100
AcDbPolyline
 90
       11
 70
   128
 43
0.0
 10
762.0553970337
 20
921.3649715176
 10
778.3216993575
 20
917.4340414375
 10
793.2917318685
 20
913.6523093733
 10
794.4678738623
 20
913.3484913299
 10
794.4902101108
 20
913.3427112412
 10
794.4976933301
 20
913.3407745352
 10
794.4979045431
 20
913.3407198246
 10
794.4979230829
 20
913.3407149952
 10
794.4979143237
 20
913.3407172511
 10
794.4973003759
 20
913.3408759886
 10
794.4935021965
 20
913.3418585053
  0
LWPOLYLINE
  5
454
330
1F
100
AcDbEntity
  8
0
  6
Continuous
 62
     7
100
AcDbPolyline
 90
        3
 70
   128
 43
0.0
 10
862.699508667
 20
890.6942690602
 10
862.8966088986
 20
889.2433967028
 10
863.3301539389
 20
885.9887803784
  0
LWPOLYLINE
  5
455
330
1F
100
AcDbEntity
  8
0
  6
Continuous
 62
     7
100
AcDbPolyline
 90
        5
 70
   128
 43
0.0
 10
875.9245872498
 20
722.6329798816
 10
875.9039163511
 20
707.91054694
 10
875.8193483406
 20
699.7033116123
 10
875.7321408525
 20
694.127720754
 10
875.6940560517
 20
692.0794378041
  0
LWPOLYLINE
  5
456
330
1F
100
AcDbEntity
  8
0
  6
Continuous
 62
     7
100
AcDbPolyline
 90
        3
 70
   128
 43
0.0
 10
874.9127388
 20
722.8990356317
 10
874.5236488165
 20
749.4862729969
 10
873.8600995474
 20
769.7692806438
  0
LWPOLYLINE
  5
457
330
1F
100
AcDbEntity
  8
0
  6
Continuous
 62
     7
100
AcDbPolyline
 90
        3
 70
   128
 43
0.0
 10
874.8774528503
 20
769.3920071116
 10
875.6660298497
 20
743.5455987467
 10
875.9248973903
 20
722.6329798816
  0
LWPOLYLINE
  5
458
330
1F
100
AcDbEntity
  8
0
  6
Continuous
 62
     7
100
AcDbPolyline
 90
        3
 70
   128
 43
0.0
 10
866.6505813599
 20
858.5962290755
 10
866.710726083
 20
858.0545489283
 10
866.7821643917
 20
857.4027205696
  0
LWPOLYLINE
  5
459
330
1F
100
AcDbEntity
  8
0
  6
Continuous
 62
     7
100
AcDbPolyline
 90
       10
 70
   128
 43
0.0
 10
874.7224807739
 20
773.0869884482
 10
874.7211923704
 20
773.1188142419
 10
874.7209811828
 20
773.1236538141
 10
874.7209797122
 20
773.1236859277
 10
874.7209797907
 20
773.1236823337
 10
874.7209807175
 20
773.123659779
 10
874.7209916018
 20
773.1234041179
 10
874.7210801815
 20
773.1213495412
 10
874.7288909335
 20
772.94087277
 10
874.8776374427
 20
769.3920071116
  0
LWPOLYLINE
  5
45A
330
1F
100
AcDbEntity
  8
0
  6
Continuous
 62
     7
100
AcDbPolyline
 90
        3
 70
   128
 43
0.0
 10
866.3129806519
 20
861.6217310419
 10
866.363651731
 20
861.1758649765
 10
866.4018271533
 20
860.8358885041
  0
LWPOLYLINE
  5
45B
330
1F
100
AcDbEntity
  8
0
  6
Continuous
 62
     7
100
AcDbPolyline
 90
        3
 70
   128
 43
0.0
 10
866.3301467896
 20
861.4729429474
 10
866.3493011257
 20
861.3034581973
 10
866.3689626423
 20
861.1285324087
  0
LWPOLYLINE
  5
45C
330
1F
100
AcDbEntity
  8
0
  6
Continuous
 62
     7
100
AcDbPolyline
 90
        3
 70
   128
 43
0.0
 10
866.4999008179
 20
859.9584187264
 10
866.5300255781
 20
859.6882691705
 10
866.5561286773
 20
859.4531948561
  0
LWPOLYLINE
  5
45D
330
1F
100
AcDbEntity
  8
0
  6
Continuous
 62
     7
100
AcDbPolyline
 90
        3
 70
   128
 43
0.0
 10
866.3234710693
 20
861.5317764645
 10
866.3348384659
 20
861.4318872956
 10
866.3457622246
 20
861.3348657116
  0
LWPOLYLINE
  5
45E
330
1F
100
AcDbEntity
  8
0
  6
Continuous
 62
     7
100
AcDbPolyline
 90
        3
 70
   128
 43
0.0
 10
866.3787841797
 20
861.0370541802
 10
866.3916813866
 20
860.9262772451
 10
866.4018271533
 20
860.8358885041
  0
LWPOLYLINE
  5
45F
330
1F
100
AcDbEntity
  8
0
  6
Continuous
 62
     7
100
AcDbPolyline
 90
        3
 70
   128
 43
0.0
 10
867.2385215759
 20
853.1653816691
 10
867.2789585892
 20
852.7874481249
 10
867.300106403
 20
852.5873954287
  0
LWPOLYLINE
  5
460
330
1F
100
AcDbEntity
  8
0
  6
Continuous
 62
     7
100
AcDbPolyline
 90
        8
 70
   128
 43
0.0
 10
867.301940918
 20
852.56604805
 10
867.3064829576
 20
852.5270570402
 10
867.3067958766
 20
852.5240937751
 10
867.3068152587
 20
852.5239102269
 10
867.3068161261
 20
852.5239020118
 10
867.3068163048
 20
852.5239003199
 10
867.3068163302
 20
852.523900079
 10
867.306816313
 20
852.5239002418
  0
LWPOLYLINE
  5
461
330
1F
100
AcDbEntity
  8
0
  6
Continuous
 62
     7
100
AcDbPolyline
 90
        3
 70
   128
 43
0.0
 10
866.3625717163
 20
861.1816513436
 10
866.3664373714
 20
861.1509993171
 10
866.3689626423
 20
861.1285324087
  0
LWPOLYLINE
  5
462
330
1F
100
AcDbEntity
  8
0
  6
Continuous
 62
     7
100
AcDbPolyline
 90
       10
 70
   128
 43
0.0
 10
862.0300292969
 20
887.6015032521
 10
861.431469473
 20
892.0580816685
 10
861.3929970691
 20
892.3388533007
 10
861.3904614495
 20
892.3572313909
 10
861.3903761597
 20
892.3578273087
 10
861.3903748605
 20
892.35783455
 10
861.3903744618
 20
892.3578352153
 10
861.3903763718
 20
892.3578167746
 10
861.3903991941
 20
892.3576381358
 10
861.3974286286
 20
892.3060680619
  0
LWPOLYLINE
  5
463
330
1F
100
AcDbEntity
  8
0
  6
Continuous
 62
     7
100
AcDbPolyline
 90
       10
 70
   128
 43
0.0
 10
874.7382164001
 20
691.1142925611
 10
874.7376931188
 20
691.0766382916
 10
874.737663895
 20
691.0749387373
 10
874.7376599488
 20
691.0747167058
 10
874.7376597226
 20
691.0747070347
 10
874.7376602621
 20
691.0747438339
 10
874.7377398565
 20
691.0795087783
 10
874.7401201869
 20
691.2211225303
 10
874.7797136167
 20
693.7126719441
 10
874.9130277006
 20
722.8990356317
  0
LWPOLYLINE
  5
464
330
1F
100
AcDbEntity
  8
0
  6
Continuous
 62
     7
100
AcDbPolyline
 90
       10
 70
   128
 43
0.0
 10
873.8598823547
 20
769.7692806438
 10
873.6874998157
 20
773.8611152287
 10
873.67848208
 20
774.0690228716
 10
873.6783796503
 20
774.0713824698
 10
873.6783669952
 20
774.0716743015
 10
873.6783659008
 20
774.0716996146
 10
873.678365772
 20
774.0717027517
 10
873.6783674297
 20
774.0716647556
 10
873.6786103826
 20
774.0660736665
 10
873.680204775
 20
774.029370317
  0
LWPOLYLINE
  5
465
330
1F
100
AcDbEntity
  8
0
  6
Continuous
 62
     7
100
AcDbPolyline
 90
        3
 70
   128
 43
0.0
 10
1291.0966873169
 20
920.3374157175
 10
1282.712919143
 20
915.7468239158
 10
1280.3077436222
 20
908.529647707
  0
LWPOLYLINE
  5
466
330
1F
100
AcDbEntity
  8
0
  6
Continuous
 62
     7
100
AcDbPolyline
 90
        3
 70
   128
 43
0.0
 10
1543.5075759888
 20
908.5296514144
 10
1539.6857376507
 20
917.3118227718
 10
1532.7187696508
 20
920.3374157175
  0
LWPOLYLINE
  5
467
330
1F
100
AcDbEntity
  8
0
  6
Continuous
 62
     7
100
AcDbPolyline
 90
        5
 70
   128
 43
0.0
 10
182.2408437729
 20
82.0735671819
 10
182.6547592477
 20
81.2665820854
 10
183.1948487567
 20
81.0820461715
 10
183.2258082241
 20
81.0811962579
 10
183.3841539588
 20
81.0823270382
  0
ARC
  5
468
330
1F
100
AcDbEntity
  8
0
  6
Continuous
 62
     7
100
AcDbCircle
 10
231.2058294654
 20
82.09140696
 30
0.0
 40
1.013851661034207
100
AcDbArc
 50
264.6832412697
 51
359.9897201697
  0
LWPOLYLINE
  5
469
330
1F
100
AcDbEntity
  8
0
  6
Continuous
 62
     7
100
AcDbPolyline
 90
        5
 70
   128
 43
0.0
 10
208.3789110184
 20
162.5124008656
 10
219.4977868142
 20
167.8795521664
 10
223.6724415973
 20
179.2497234642
 10
218.7136137597
 20
190.3388878733
 10
207.2341590783
 20
194.9620831088
  0
LWPOLYLINE
  5
46A
330
1F
100
AcDbEntity
  8
0
  6
Continuous
 62
     7
100
AcDbPolyline
 90
        5
 70
   128
 43
0.0
 10
207.2341442108
 20
194.9620831088
 10
195.3563781324
 20
189.9411823
 10
190.796407176
 20
178.1395258465
 10
196.168680125
 20
166.6878826541
 10
208.3790094721
 20
162.5124008656
  0
LWPOLYLINE
  5
46B
330
1F
100
AcDbEntity
  8
0
  6
Continuous
 62
     7
100
AcDbPolyline
 90
        3
 70
   128
 43
0.0
 10
327.9309272766
 20
94.9874946179
 10
327.9310762545
 20
154.7255805987
 10
327.9310762545
 20
202.5809788408
  0
LWPOLYLINE
  5
46C
330
1F
100
AcDbEntity
  8
0
  6
Continuous
 62
     7
100
AcDbPolyline
 90
        3
 70
   128
 43
0.0
 10
86.5371823311
 20
94.9874946178
 10
221.7322120994
 20
95.6113270246
 10
327.9310762546
 20
94.9874946179
  0
LWPOLYLINE
  5
46D
330
1F
100
AcDbEntity
  8
0
  6
Continuous
 62
     7
100
AcDbPolyline
 90
        3
 70
   128
 43
0.0
 10
86.5371823311
 20
202.5809788407
 10
86.5372419021
 20
141.8038782248
 10
86.5372419021
 20
94.9874946178
  0
LINE
  5
46E
330
1F
100
AcDbEntity
  8
0
  6
Continuous
 62
     7
100
AcDbLine
 10
328.045129776
 20
206.5809790307
 30
0.0
 11
330.2073540818
 21
206.5809790307
 31
0.0
  0
LINE
  5
46F
330
1F
100
AcDbEntity
  8
0
  6
Continuous
 62
     7
100
AcDbLine
 10
330.2073478699
 20
206.5809790307
 30
0.0
 11
331.2507416266
 21
206.5809790307
 31
0.0
  0
LINE
  5
470
330
1F
100
AcDbEntity
  8
0
  6
Continuous
 62
     7
100
AcDbLine
 10
331.250667572
 20
206.5809790307
 30
0.0
 11
332.264782999
 21
206.5809790307
 31
0.0
  0
LINE
  5
471
330
1F
100
AcDbEntity
  8
0
  6
Continuous
 62
     7
100
AcDbLine
 10
332.2646617889
 20
206.5809790307
 30
0.0
 11
334.128902688
 21
206.5809790307
 31
0.0
  0
LINE
  5
472
330
1F
100
AcDbEntity
  8
0
  6
Continuous
 62
     7
100
AcDbLine
 10
334.1288566589
 20
206.5809790307
 30
0.0
 11
335.7533434527
 21
206.5809790307
 31
0.0
  0
LINE
  5
473
330
1F
100
AcDbEntity
  8
0
  6
Continuous
 62
     7
100
AcDbLine
 10
335.7532024384
 20
206.5809790307
 30
0.0
 11
337.0655086667
 21
206.5809790307
 31
0.0
  0
LINE
  5
474
330
1F
100
AcDbEntity
  8
0
  6
Continuous
 62
     7
100
AcDbLine
 10
337.0654582977
 20
206.5809790307
 30
0.0
 11
337.5987427675
 21
206.5809790307
 31
0.0
  0
LINE
  5
475
330
1F
100
AcDbEntity
  8
0
  6
Continuous
 62
     7
100
AcDbLine
 10
337.5985622406
 20
206.5809790307
 30
0.0
 11
338.0381317179
 21
206.5809790307
 31
0.0
  0
LINE
  5
476
330
1F
100
AcDbEntity
  8
0
  6
Continuous
 62
     7
100
AcDbLine
 10
338.0379676819
 20
206.5809790307
 30
0.0
 11
338.6319791591
 21
206.5809790307
 31
0.0
  0
LINE
  5
477
330
1F
100
AcDbEntity
  8
0
  6
Continuous
 62
     7
100
AcDbLine
 10
338.6318683624
 20
206.5809790307
 30
0.0
 11
338.7835508778
 21
206.5809790307
 31
0.0
  0
LINE
  5
478
330
1F
100
AcDbEntity
  8
0
  6
Continuous
 62
     7
100
AcDbLine
 10
338.7835025787
 20
206.5809790307
 30
0.0
 11
338.8341451701
 21
206.5809790307
 31
0.0
  0
LINE
  5
479
330
1F
100
AcDbEntity
  8
0
  6
Continuous
 62
     7
100
AcDbLine
 10
328.045129776
 20
220.5809780658
 30
0.0
 11
338.8341451701
 21
220.5809780658
 31
0.0
  0
LINE
  5
47A
330
1F
100
AcDbEntity
  8
0
  6
Continuous
 62
     7
100
AcDbLine
 10
75.6341218948
 20
206.5809790307
 30
0.0
 11
75.8334269069
 21
206.5809790307
 31
0.0
  0
LINE
  5
47B
330
1F
100
AcDbEntity
  8
0
  6
Continuous
 62
     7
100
AcDbLine
 10
75.8333802223
 20
206.5809790307
 30
0.0
 11
76.0805203877
 21
206.5809790307
 31
0.0
  0
LINE
  5
47C
330
1F
100
AcDbEntity
  8
0
  6
Continuous
 62
     7
100
AcDbLine
 10
76.0805010796
 20
206.5809790307
 30
0.0
 11
76.4269756928
 21
206.5809790307
 31
0.0
  0
LINE
  5
47D
330
1F
100
AcDbEntity
  8
0
  6
Continuous
 62
     7
100
AcDbLine
 10
76.426923275
 20
206.5809790307
 30
0.0
 11
77.3928231777
 21
206.5809790307
 31
0.0
  0
LINE
  5
47E
330
1F
100
AcDbEntity
  8
0
  6
Continuous
 62
     7
100
AcDbLine
 10
77.3928165436
 20
206.5809790307
 30
0.0
 11
78.008307879
 21
206.5809790307
 31
0.0
  0
LINE
  5
47F
330
1F
100
AcDbEntity
  8
0
  6
Continuous
 62
     7
100
AcDbLine
 10
78.0082941055
 20
206.5809790307
 30
0.0
 11
78.7103985127
 21
206.5809790307
 31
0.0
  0
LINE
  5
480
330
1F
100
AcDbEntity
  8
0
  6
Continuous
 62
     7
100
AcDbLine
 10
78.7103772163
 20
206.5809790307
 30
0.0
 11
80.3230203811
 21
206.5809790307
 31
0.0
  0
LINE
  5
481
330
1F
100
AcDbEntity
  8
0
  6
Continuous
 62
     7
100
AcDbLine
 10
80.3229808807
 20
206.5809790307
 30
0.0
 11
82.1970002233
 21
206.5809790307
 31
0.0
  0
LINE
  5
482
330
1F
100
AcDbEntity
  8
0
  6
Continuous
 62
     7
100
AcDbLine
 10
82.1969509125
 20
206.5809790307
 30
0.0
 11
84.2431891599
 21
206.5809790307
 31
0.0
  0
LINE
  5
483
330
1F
100
AcDbEntity
  8
0
  6
Continuous
 62
     7
100
AcDbLine
 10
84.2431783676
 20
206.5809790307
 30
0.0
 11
85.3232878254
 21
206.5809790307
 31
0.0
  0
LINE
  5
484
330
1F
100
AcDbEntity
  8
0
  6
Continuous
 62
     7
100
AcDbLine
 10
85.3232741356
 20
206.5809790307
 30
0.0
 11
86.4231330493
 21
206.5809790307
 31
0.0
  0
LINE
  5
485
330
1F
100
AcDbEntity
  8
0
  6
Continuous
 62
     7
100
AcDbLine
 10
75.6341218948
 20
220.5809780658
 30
0.0
 11
86.4231330493
 21
220.5809780658
 31
0.0
  0
LINE
  5
486
330
1F
100
AcDbEntity
  8
0
  6
Continuous
 62
     7
100
AcDbLine
 10
328.0379772186
 20
202.5809788407
 30
0.0
 11
330.1797814255
 21
202.5809788407
 31
0.0
  0
LINE
  5
487
330
1F
100
AcDbEntity
  8
0
  6
Continuous
 62
     7
100
AcDbLine
 10
330.1796913147
 20
202.5809788407
 30
0.0
 11
331.2107884795
 21
202.5809788407
 31
0.0
  0
LINE
  5
488
330
1F
100
AcDbEntity
  8
0
  6
Continuous
 62
     7
100
AcDbLine
 10
331.2106132507
 20
202.5809788407
 30
0.0
 11
332.2147669998
 21
202.5809788407
 31
0.0
  0
LINE
  5
489
330
1F
100
AcDbEntity
  8
0
  6
Continuous
 62
     7
100
AcDbLine
 10
332.2145938873
 20
202.5809788407
 30
0.0
 11
334.0675257736
 21
202.5809788407
 31
0.0
  0
LINE
  5
48A
330
1F
100
AcDbEntity
  8
0
  6
Continuous
 62
     7
100
AcDbLine
 10
334.0673446655
 20
202.5809788407
 30
0.0
 11
334.9051320237
 21
202.5809788407
 31
0.0
  0
LINE
  5
48B
330
1F
100
AcDbEntity
  8
0
  6
Continuous
 62
     7
100
AcDbLine
 10
334.9049091339
 20
202.5809788407
 30
0.0
 11
335.6785394344
 21
202.5809788407
 31
0.0
  0
LINE
  5
48C
330
1F
100
AcDbEntity
  8
0
  6
Continuous
 62
     7
100
AcDbLine
 10
335.6783390045
 20
202.5809788407
 30
0.0
 11
336.9802382809
 21
202.5809788407
 31
0.0
  0
LINE
  5
48D
330
1F
100
AcDbEntity
  8
0
  6
Continuous
 62
     7
100
AcDbLine
 10
336.9801044464
 20
202.5809788407
 30
0.0
 11
337.9454298339
 21
202.5809788407
 31
0.0
  0
LINE
  5
48E
330
1F
100
AcDbEntity
  8
0
  6
Continuous
 62
     7
100
AcDbLine
 10
337.9452228546
 20
202.5809788407
 30
0.0
 11
338.5335560791
 21
202.5809788407
 31
0.0
  0
LINE
  5
48F
330
1F
100
AcDbEntity
  8
0
  6
Continuous
 62
     7
100
AcDbLine
 10
338.5334014893
 20
202.5809788407
 30
0.0
 11
338.6838803366
 21
202.5809788407
 31
0.0
  0
LINE
  5
490
330
1F
100
AcDbEntity
  8
0
  6
Continuous
 62
     7
100
AcDbLine
 10
338.6838436127
 20
202.5809788407
 30
0.0
 11
338.7341490122
 21
202.5809788407
 31
0.0
  0
LINE
  5
491
330
1F
100
AcDbEntity
  8
0
  6
Continuous
 62
     7
100
AcDbLine
 10
75.7341384888
 20
202.5809788407
 30
0.0
 11
75.9315237359
 21
202.5809788407
 31
0.0
  0
LINE
  5
492
330
1F
100
AcDbEntity
  8
0
  6
Continuous
 62
     7
100
AcDbLine
 10
75.9314894676
 20
202.5809788407
 30
0.0
 11
76.1759201776
 21
202.5809788407
 31
0.0
  0
LINE
  5
493
330
1F
100
AcDbEntity
  8
0
  6
Continuous
 62
     7
100
AcDbLine
 10
76.1758685112
 20
202.5809788407
 30
0.0
 11
76.5186884547
 21
202.5809788407
 31
0.0
  0
LINE
  5
494
330
1F
100
AcDbEntity
  8
0
  6
Continuous
 62
     7
100
AcDbLine
 10
76.5186548233
 20
202.5809788407
 30
0.0
 11
77.4769781137
 21
202.5809788407
 31
0.0
  0
LINE
  5
495
330
1F
100
AcDbEntity
  8
0
  6
Continuous
 62
     7
100
AcDbLine
 10
77.4769186974
 20
202.5809788407
 30
0.0
 11
78.0862996179
 21
202.5809788407
 31
0.0
  0
LINE
  5
496
330
1F
100
AcDbEntity
  8
0
  6
Continuous
 62
     7
100
AcDbLine
 10
78.0862569809
 20
202.5809788407
 30
0.0
 11
78.7824657748
 21
202.5809788407
 31
0.0
  0
LINE
  5
497
330
1F
100
AcDbEntity
  8
0
  6
Continuous
 62
     7
100
AcDbLine
 10
78.7824392319
 20
202.5809788407
 30
0.0
 11
80.3824428529
 21
202.5809788407
 31
0.0
  0
LINE
  5
498
330
1F
100
AcDbEntity
  8
0
  6
Continuous
 62
     7
100
AcDbLine
 10
80.3824067116
 20
202.5809788407
 30
0.0
 11
81.2821288341
 21
202.5809788407
 31
0.0
  0
LINE
  5
499
330
1F
100
AcDbEntity
  8
0
  6
Continuous
 62
     7
100
AcDbLine
 10
81.2820792198
 20
202.5809788407
 30
0.0
 11
82.2405525836
 21
202.5809788407
 31
0.0
  0
LINE
  5
49A
330
1F
100
AcDbEntity
  8
0
  6
Continuous
 62
     7
100
AcDbLine
 10
82.2405219078
 20
202.5809788407
 30
0.0
 11
84.2695853481
 21
202.5809788407
 31
0.0
  0
LINE
  5
49B
330
1F
100
AcDbEntity
  8
0
  6
Continuous
 62
     7
100
AcDbLine
 10
84.2695832253
 20
202.5809788407
 30
0.0
 11
86.4302660223
 21
202.5809788407
 31
0.0
  0
LWPOLYLINE
  5
49C
330
1F
100
AcDbEntity
  8
0
  6
Continuous
 62
     7
100
AcDbPolyline
 90
        3
 70
   128
 43
0.0
 10
77.2341489792
 20
94.5233308975
 10
80.4252563149
 20
94.8560655501
 10
86.5372419021
 20
94.9874946178
  0
LWPOLYLINE
  5
49D
330
1F
100
AcDbEntity
  8
0
  6
Continuous
 62
     7
100
AcDbPolyline
 90
        3
 70
   128
 43
0.0
 10
77.2341489792
 20
94.5233308975
 10
77.2341638467
 20
154.5030731331
 10
77.2341638467
 20
202.580978841
  0
LWPOLYLINE
  5
49E
330
1F
100
AcDbEntity
  8
0
  6
Continuous
 62
     7
100
AcDbPolyline
 90
        3
 70
   128
 43
0.0
 10
337.2340202332
 20
202.5809788407
 10
337.2341543099
 20
141.5238919904
 10
337.2341543099
 20
94.5233308972
  0
LWPOLYLINE
  5
49F
330
1F
100
AcDbEntity
  8
0
  6
Continuous
 62
     7
100
AcDbPolyline
 90
        3
 70
   128
 43
0.0
 10
327.9309272766
 20
94.9874946179
 10
335.2384789525
 20
94.7921445349
 10
337.2341543099
 20
94.5233308972
  0
LWPOLYLINE
  5
4A0
330
1F
100
AcDbEntity
  8
0
  6
Continuous
 62
     7
100
AcDbPolyline
 90
        3
 70
   128
 43
0.0
 10
327.7914524078
 20
93.6875322164
 10
192.7528122495
 20
94.309066517
 10
86.6766273639
 20
93.6875322164
  0
LWPOLYLINE
  5
4A1
330
1F
100
AcDbEntity
  8
0
  6
Continuous
 62
     7
100
AcDbPolyline
 90
        3
 70
   128
 43
0.0
 10
86.6765975952
 20
93.6875322164
 10
80.7906246647
 20
93.2132155615
 10
79.2341529986
 20
92.5387718976
  0
LWPOLYLINE
  5
4A2
330
1F
100
AcDbEntity
  8
0
  6
Continuous
 62
     7
100
AcDbPolyline
 90
        3
 70
   128
 43
0.0
 10
335.2339267731
 20
92.5387718976
 10
332.7350587716
 20
93.3680298685
 10
327.7916907927
 20
93.6875322164
  0
LWPOLYLINE
  5
4A3
330
1F
100
AcDbEntity
  8
0
  6
Continuous
 62
     7
100
AcDbPolyline
 90
        3
 70
   128
 43
0.0
 10
183.1668615341
 20
82.5938745652
 10
191.890725742
 20
82.9851082222
 10
200.4214320063
 20
83.6557533927
  0
LWPOLYLINE
  5
4A4
330
1F
100
AcDbEntity
  8
0
  6
Continuous
 62
     7
100
AcDbPolyline
 90
       10
 70
   128
 43
0.0
 10
231.3014268875
 20
82.5938745652
 10
232.1587160105
 20
82.5809152422
 10
232.1964485743
 20
82.580821595
 10
232.1967886903
 20
82.5808683647
 10
232.1968013375
 20
82.5808781315
 10
232.1968018938
 20
82.5808818758
 10
232.1968001633
 20
82.5808856647
 10
232.196741633
 20
82.5809093379
 10
232.1950186901
 20
82.581063024
 10
232.1838475427
 20
82.5809801818
  0
LWPOLYLINE
  5
4A5
330
1F
100
AcDbEntity
  8
0
  6
Continuous
 62
     7
100
AcDbPolyline
 90
        3
 70
   128
 43
0.0
 10
182.2926998138
 20
82.5809801818
 10
182.5990320178
 20
82.5850739244
 10
183.1668835314
 20
82.5938745652
  0
LWPOLYLINE
  5
4A6
330
1F
100
AcDbEntity
  8
0
  6
Continuous
 62
     7
100
AcDbPolyline
 90
        3
 70
   128
 43
0.0
 10
214.0468358994
 20
83.6557533927
 10
224.5932628661
 20
82.8596260982
 10
231.3014346252
 20
82.5938745652
  0
ARC
  5
4A7
330
1F
100
AcDbEntity
  8
0
  6
Continuous
 62
     7
100
AcDbCircle
 10
207.2341097317
 20
-34.0627666436
 30
0.0
 40
117.9154946649045
100
AcDbArc
 50
86.687790399
 51
93.312209601
  0
LWPOLYLINE
  5
4A8
330
1F
100
AcDbEntity
  8
0
  6
Continuous
 62
     7
100
AcDbPolyline
 90
        5
 70
   128
 43
0.0
 10
212.9944562912
 20
90.4589615147
 10
214.3345806453
 20
90.3588609714
 10
214.4091421986
 20
90.3282812651
 10
214.4261341823
 20
90.3126482605
 10
214.4299338337
 20
90.2968459917
  0
LWPOLYLINE
  5
4A9
330
1F
100
AcDbEntity
  8
0
  6
Continuous
 62
     7
100
AcDbPolyline
 90
        4
 70
   128
 43
0.0
 10
211.4568948746
 20
90.2868940629
 10
211.4851636129
 20
90.3186380811
 10
211.5621038553
 20
90.3494539629
 10
212.8770517703
 20
90.4589783828
  0
LWPOLYLINE
  5
4AA
330
1F
100
AcDbEntity
  8
0
  6
Continuous
 62
     7
100
AcDbPolyline
 90
        4
 70
   128
 43
0.0
 10
197.2700357437
 20
90.2880509063
 10
197.2984951153
 20
90.3196865064
 10
197.3745038466
 20
90.3504249497
 10
198.6837539861
 20
90.4595694017
  0
LWPOLYLINE
  5
4AB
330
1F
100
AcDbEntity
  8
0
  6
Continuous
 62
     7
100
AcDbPolyline
 90
        5
 70
   128
 43
0.0
 10
198.8054513931
 20
90.460253413
 10
200.1290940285
 20
90.3598082804
 10
200.2010311753
 20
90.3293745834
 10
200.2172786846
 20
90.3138292233
 10
200.2208307669
 20
90.2981327373
  0
ARC
  5
4AC
330
1F
100
AcDbEntity
  8
0
  6
Continuous
 62
     7
100
AcDbCircle
 10
194.5506707662
 20
87.448763409
 30
0.0
 40
2.72747762285261
100
AcDbArc
 50
68.1940454904
 51
94.0886274209
  0
ARC
  5
4AD
330
1F
100
AcDbEntity
  8
0
  6
Continuous
 62
     7
100
AcDbCircle
 10
195.0378091448
 20
90.8220884439
 30
0.0
 40
0.9919426887445716
100
AcDbArc
 50
252.1648356311
 51
302.0227857243
  0
ARC
  5
4AE
330
1F
100
AcDbEntity
  8
0
  6
Continuous
 62
     7
100
AcDbCircle
 10
195.2563716054
 20
94.2912168823
 30
0.0
 40
4.534060512050665
100
AcDbArc
 50
264.4050731522
 51
285.9877851981
  0
LWPOLYLINE
  5
4AF
330
1F
100
AcDbEntity
  8
0
  6
Continuous
 62
     7
100
AcDbPolyline
 90
        4
 70
   128
 43
0.0
 10
196.5020895004
 20
89.9737525828
 10
196.5084886233
 20
89.9949451374
 10
196.4994708092
 20
90.0160026391
 10
195.9782100822
 20
90.1294697173
  0
LWPOLYLINE
  5
4B0
330
1F
100
AcDbEntity
  8
0
  6
Continuous
 62
     7
100
AcDbPolyline
 90
        3
 70
   128
 43
0.0
 10
195.9781646729
 20
90.1294697173
 10
195.5155941467
 20
90.1894683113
 10
195.1104518541
 20
90.2326509764
  0
LWPOLYLINE
  5
4B1
330
1F
100
AcDbEntity
  8
0
  6
Continuous
 62
     7
100
AcDbPolyline
 90
        4
 70
   128
 43
0.0
 10
195.1104402542
 20
90.2326509764
 10
194.2711213785
 20
90.3636855962
 10
194.2312126585
 20
90.3903255874
 10
194.2224338236
 20
90.4175552826
  0
LWPOLYLINE
  5
4B2
330
1F
100
AcDbEntity
  8
0
  6
Continuous
 62
     7
100
AcDbPolyline
 90
        5
 70
   128
 43
0.0
 10
194.2223310471
 20
90.4175552826
 10
194.2265939875
 20
90.4284756529
 10
194.2400202561
 20
90.4392557753
 10
194.2999167578
 20
90.4600974443
 10
195.3114272852
 20
90.5151218231
  0
ARC
  5
4B3
330
1F
100
AcDbEntity
  8
0
  6
Continuous
 62
     7
100
AcDbCircle
 10
194.5091299227
 20
87.8516068784
 30
0.0
 40
2.860432969928142
100
AcDbArc
 50
75.0326767706
 51
115.9060676148
  0
LWPOLYLINE
  5
4B4
330
1F
100
AcDbEntity
  8
0
  6
Continuous
 62
     7
100
AcDbPolyline
 90
        3
 70
   128
 43
0.0
 10
193.3084726334
 20
90.336998518
 10
193.81467941
 20
90.2376246369
 10
194.3562127451
 20
90.1692994779
  0
LWPOLYLINE
  5
4B5
330
1F
100
AcDbEntity
  8
0
  6
Continuous
 62
     7
100
AcDbPolyline
 90
        3
 70
   128
 43
0.0
 10
219.2479372025
 20
90.3508995882
 10
219.0851593759
 20
90.3349083776
 10
218.9769940215
 20
90.320255252
  0
LWPOLYLINE
  5
4B6
330
1F
100
AcDbEntity
  8
0
  6
Continuous
 62
     7
100
AcDbPolyline
 90
        3
 70
   128
 43
0.0
 10
220.32558918
 20
90.3790834134
 10
219.6992148444
 20
90.3721043332
 10
219.2480075569
 20
90.3508995882
  0
LWPOLYLINE
  5
4B7
330
1F
100
AcDbEntity
  8
0
  6
Continuous
 62
     7
100
AcDbPolyline
 90
        5
 70
   128
 43
0.0
 10
220.3222513199
 20
90.4120437305
 10
220.3740481043
 20
90.3939253503
 10
220.3748012238
 20
90.3907564827
 10
220.3726828158
 20
90.3875912724
 10
220.3519188271
 20
90.3794225024
  0
LWPOLYLINE
  5
4B8
330
1F
100
AcDbEntity
  8
0
  6
Continuous
 62
     7
100
AcDbPolyline
 90
        3
 70
   128
 43
0.0
 10
219.9920415878
 20
90.4946705437
 10
220.2080262318
 20
90.4498805325
 10
220.3222987188
 20
90.4120437305
  0
LWPOLYLINE
  5
4B9
330
1F
100
AcDbEntity
  8
0
  6
Continuous
 62
     7
100
AcDbPolyline
 90
        4
 70
   128
 43
0.0
 10
220.587015152
 20
90.7170353085
 10
220.586355007
 20
90.6873496491
 10
220.5607018774
 20
90.6578811743
 10
219.9921481624
 20
90.4946705437
  0
LWPOLYLINE
  5
4BA
330
1F
100
AcDbEntity
  8
0
  6
Continuous
 62
     7
100
AcDbPolyline
 90
        3
 70
   128
 43
0.0
 10
219.2469835281
 20
90.6804297601
 10
219.9859080474
 20
90.706581624
 10
220.5870397719
 20
90.7170353085
  0
LWPOLYLINE
  5
4BB
330
1F
100
AcDbEntity
  8
0
  6
Continuous
 62
     7
100
AcDbPolyline
 90
        3
 70
   128
 43
0.0
 10
218.9388275146
 20
90.6642721337
 10
219.1095969349
 20
90.6737546765
 10
219.2469912352
 20
90.6804297601
  0
LWPOLYLINE
  5
4BC
330
1F
100
AcDbEntity
  8
0
  6
Continuous
 62
     7
100
AcDbPolyline
 90
        3
 70
   128
 43
0.0
 10
218.8485860825
 20
90.6582566738
 10
218.8987870399
 20
90.6616906547
 10
218.9388280452
 20
90.6642721337
  0
LWPOLYLINE
  5
4BD
330
1F
100
AcDbEntity
  8
0
  6
Continuous
 62
     7
100
AcDbPolyline
 90
        3
 70
   128
 43
0.0
 10
218.6626195908
 20
90.6450893374
 10
218.7653116443
 20
90.6527251922
 10
218.8486404143
 20
90.6582566738
  0
LWPOLYLINE
  5
4BE
330
1F
100
AcDbEntity
  8
0
  6
Continuous
 62
     7
100
AcDbPolyline
 90
        3
 70
   128
 43
0.0
 10
218.3433771133
 20
90.6164266989
 10
218.5160341635
 20
90.6333517862
 10
218.6626719441
 20
90.6450893374
  0
LWPOLYLINE
  5
4BF
330
1F
100
AcDbEntity
  8
0
  6
Continuous
 62
     7
100
AcDbPolyline
 90
        3
 70
   128
 43
0.0
 10
217.9601192474
 20
90.620025715
 10
218.1764108167
 20
90.6194222185
 10
218.3434198712
 20
90.6164266989
  0
LWPOLYLINE
  5
4C0
330
1F
100
AcDbEntity
  8
0
  6
Continuous
 62
     7
100
AcDbPolyline
 90
        3
 70
   128
 43
0.0
 10
217.4979448318
 20
90.615803838
 10
217.7381334899
 20
90.6187906126
 10
217.9281794612
 20
90.6194038885
  0
LWPOLYLINE
  5
4C1
330
1F
100
AcDbEntity
  8
0
  6
Continuous
 62
     7
100
AcDbPolyline
 90
        3
 70
   128
 43
0.0
 10
216.3910865784
 20
90.6863084794
 10
217.0034534032
 20
90.6521136271
 10
217.4550774321
 20
90.6193796492
  0
LWPOLYLINE
  5
4C2
330
1F
100
AcDbEntity
  8
0
  6
Continuous
 62
     7
100
AcDbPolyline
 90
        3
 70
   128
 43
0.0
 10
215.381026268
 20
90.7156723034
 10
215.9559359773
 20
90.7031621231
 10
216.3912051732
 20
90.6863084794
  0
ARC
  5
4C3
330
1F
100
AcDbEntity
  8
0
  6
Continuous
 62
     7
100
AcDbCircle
 10
215.8598253777
 20
91.1875831351
 30
0.0
 40
0.6956985390056184
100
AcDbArc
 50
226.5299831544
 51
274.4080166337
  0
LWPOLYLINE
  5
4C4
330
1F
100
AcDbEntity
  8
0
  6
Continuous
 62
     7
100
AcDbPolyline
 90
        3
 70
   128
 43
0.0
 10
215.6147956848
 20
90.4057683604
 10
215.7539735525
 20
90.4562029969
 10
215.9133169861
 20
90.4939424667
  0
ARC
  5
4C5
330
1F
100
AcDbEntity
  8
0
  6
Continuous
 62
     7
100
AcDbCircle
 10
215.8511568641
 20
89.5395785406
 30
0.0
 40
0.9003200524352624
100
AcDbArc
 50
107.1132274947
 51
108.6786445736
  0
LWPOLYLINE
  5
4C6
330
1F
100
AcDbEntity
  8
0
  6
Continuous
 62
     7
100
AcDbPolyline
 90
        3
 70
   128
 43
0.0
 10
215.6533002853
 20
90.3912094682
 10
215.6027547627
 20
90.3919488975
 10
215.5628917823
 20
90.3924784762
  0
LWPOLYLINE
  5
4C7
330
1F
100
AcDbEntity
  8
0
  6
Continuous
 62
     7
100
AcDbPolyline
 90
        3
 70
   128
 43
0.0
 10
216.3920402527
 20
90.3690046189
 10
215.9984127697
 20
90.3839946136
 10
215.6762526992
 20
90.3908807781
  0
LWPOLYLINE
  5
4C8
330
1F
100
AcDbEntity
  8
0
  6
Continuous
 62
     7
100
AcDbPolyline
 90
        7
 70
   128
 43
0.0
 10
216.8978452682
 20
90.2520234972
 10
216.942757007
 20
90.2693433643
 10
216.9602446871
 20
90.2872277248
 10
216.9580535433
 20
90.2940517686
 10
216.9504258424
 20
90.3008240194
 10
216.9188832273
 20
90.3139819777
 10
216.3921487488
 20
90.3690046189
  0
LWPOLYLINE
  5
4C9
330
1F
100
AcDbEntity
  8
0
  6
Continuous
 62
     7
100
AcDbPolyline
 90
        3
 70
   128
 43
0.0
 10
216.3927555084
 20
90.1417483555
 10
216.7006439758
 20
90.2021257301
 10
216.8979280866
 20
90.2520234972
  0
LWPOLYLINE
  5
4CA
330
1F
100
AcDbEntity
  8
0
  6
Continuous
 62
     7
100
AcDbPolyline
 90
        3
 70
   128
 43
0.0
 10
215.8986330032
 20
89.9880468017
 10
216.134707603
 20
90.0755491249
 10
216.3927728167
 20
90.1417483555
  0
LWPOLYLINE
  5
4CB
330
1F
100
AcDbEntity
  8
0
  6
Continuous
 62
     7
100
AcDbPolyline
 90
        5
 70
   128
 43
0.0
 10
216.393828392
 20
89.7704294964
 10
215.8603003018
 20
89.8861823658
 10
215.8364750048
 20
89.9079507355
 10
215.8308461921
 20
89.9298391024
 10
215.898703113
 20
89.9880468017
  0
LWPOLYLINE
  5
4CC
330
1F
100
AcDbEntity
  8
0
  6
Continuous
 62
     7
100
AcDbPolyline
 90
        3
 70
   128
 43
0.0
 10
217.4577713013
 20
89.7074759043
 10
216.816014249
 20
89.7346298847
 10
216.3939151513
 20
89.7704294964
  0
LWPOLYLINE
  5
4CD
330
1F
100
AcDbEntity
  8
0
  6
Continuous
 62
     7
100
AcDbPolyline
 90
        3
 70
   128
 43
0.0
 10
217.9628610611
 20
89.7018595035
 10
217.6784506786
 20
89.7035409443
 10
217.4578432195
 20
89.7074759043
  0
LWPOLYLINE
  5
4CE
330
1F
100
AcDbEntity
  8
0
  6
Continuous
 62
     7
100
AcDbPolyline
 90
        3
 70
   128
 43
0.0
 10
218.6653614044
 20
89.7114783142
 10
218.3075290802
 20
89.70414259
 10
218.0216734682
 20
89.7018598978
  0
LWPOLYLINE
  5
4CF
330
1F
100
AcDbEntity
  8
0
  6
Continuous
 62
     7
100
AcDbPolyline
 90
        3
 70
   128
 43
0.0
 10
218.8514471054
 20
89.7170441132
 10
218.7479446206
 20
89.7136921674
 10
218.6654643771
 20
89.7114783142
  0
LWPOLYLINE
  5
4D0
330
1F
100
AcDbEntity
  8
0
  6
Continuous
 62
     7
100
AcDbPolyline
 90
        3
 70
   128
 43
0.0
 10
218.9416885376
 20
89.7204397575
 10
218.8913342632
 20
89.7184917969
 10
218.8514592429
 20
89.7170441132
  0
LWPOLYLINE
  5
4D1
330
1F
100
AcDbEntity
  8
0
  6
Continuous
 62
     7
100
AcDbPolyline
 90
        3
 70
   128
 43
0.0
 10
219.2498445511
 20
89.7350593198
 10
219.0786622755
 20
89.7265541221
 10
218.9417247388
 20
89.7204397575
  0
ARC
  5
4D2
330
1F
100
AcDbEntity
  8
0
  6
Continuous
 62
     7
100
AcDbCircle
 10
219.5541355379
 20
92.0310356027
 30
0.0
 40
2.316047825426586
100
AcDbArc
 50
262.4513656866
 51
297.1361336809
  0
LWPOLYLINE
  5
4D3
330
1F
100
AcDbEntity
  8
0
  6
Continuous
 62
     7
100
AcDbPolyline
 90
        3
 70
   128
 43
0.0
 10
220.6317186356
 20
90.0059706614
 10
220.6233969577
 20
89.9857525625
 10
220.6105692791
 20
89.9699259601
  0
ARC
  5
4D4
330
1F
100
AcDbEntity
  8
0
  6
Continuous
 62
     7
100
AcDbCircle
 10
219.5294681361
 20
88.2690568243
 30
0.0
 40
2.072196417078512
100
AcDbArc
 50
57.8640042545
 51
97.655405164
  0
LWPOLYLINE
  5
4D5
330
1F
100
AcDbEntity
  8
0
  6
Continuous
 62
     7
100
AcDbPolyline
 90
        3
 70
   128
 43
0.0
 10
219.1315889359
 20
90.3056991505
 10
219.1906997498
 20
90.3154820369
 10
219.2481098067
 20
90.3221932686
  0
LWPOLYLINE
  5
4D6
330
1F
100
AcDbEntity
  8
0
  6
Continuous
 62
     7
100
AcDbPolyline
 90
        5
 70
   128
 43
0.0
 10
221.938252449
 20
90.5629582118
 10
221.3045002476
 20
90.6103453657
 10
221.2653393766
 20
90.6247660288
 10
221.2552509088
 20
90.6322505335
 10
221.2518139585
 20
90.6398350169
  0
LWPOLYLINE
  5
4D7
330
1F
100
AcDbEntity
  8
0
  6
Continuous
 62
     7
100
AcDbPolyline
 90
        5
 70
   128
 43
0.0
 10
222.6347923279
 20
90.6398770049
 10
222.6315128204
 20
90.6322891013
 10
222.6214567986
 20
90.6248213606
 10
222.5817595038
 20
90.6104305031
 10
221.9434590779
 20
90.5629586595
  0
LWPOLYLINE
  5
4D8
330
1F
100
AcDbEntity
  8
0
  6
Continuous
 62
     7
100
AcDbPolyline
 90
        5
 70
   128
 43
0.0
 10
221.942782402
 20
90.718304954
 10
222.5810943429
 20
90.66963311
 10
222.6210400532
 20
90.6550779224
 10
222.6313620043
 20
90.6475275332
 10
222.6348831593
 20
90.6398770049
  0
LWPOLYLINE
  5
4D9
330
1F
100
AcDbEntity
  8
0
  6
Continuous
 62
     7
100
AcDbPolyline
 90
        5
 70
   128
 43
0.0
 10
221.2517261505
 20
90.6398350169
 10
221.254987239
 20
90.6474658723
 10
221.264540386
 20
90.6549902084
 10
221.3026380148
 20
90.6695651416
 10
221.937876161
 20
90.7183044852
  0
LWPOLYLINE
  5
4DA
330
1F
100
AcDbEntity
  8
0
  6
Continuous
 62
     7
100
AcDbPolyline
 90
        3
 70
   128
 43
0.0
 10
220.5095291138
 20
90.0169813336
 10
220.5884558845
 20
90.046343302
 10
220.6105691975
 20
90.0705063046
  0
LWPOLYLINE
  5
4DB
330
1F
100
AcDbEntity
  8
0
  6
Continuous
 62
     7
100
AcDbPolyline
 90
        3
 70
   128
 43
0.0
 10
219.5920944214
 20
90.6371080479
 10
219.747739288
 20
90.6204504232
 10
219.8377335156
 20
90.6049066386
  0
LWPOLYLINE
  5
4DC
330
1F
100
AcDbEntity
  8
0
  6
Continuous
 62
     7
100
AcDbPolyline
 90
        3
 70
   128
 43
0.0
 10
216.0252332687
 20
90.5968118406
 10
216.2122982871
 20
90.6264471641
 10
216.3916821406
 20
90.64736403
  0
LWPOLYLINE
  5
4DD
330
1F
100
AcDbEntity
  8
0
  6
Continuous
 62
     7
100
AcDbPolyline
 90
        3
 70
   128
 43
0.0
 10
220.5286026001
 20
90.7061979256
 10
219.7724020952
 20
90.6809577484
 10
219.2471202455
 20
90.6439076636
  0
LWPOLYLINE
  5
4DE
330
1F
100
AcDbEntity
  8
0
  6
Continuous
 62
     7
100
AcDbPolyline
 90
        3
 70
   128
 43
0.0
 10
219.2471027374
 20
90.621221518
 10
219.8294572585
 20
90.6637646695
 10
220.3429841531
 20
90.6840479363
  0
LWPOLYLINE
  5
4DF
330
1F
100
AcDbEntity
  8
0
  6
Continuous
 62
     7
100
AcDbPolyline
 90
        3
 70
   128
 43
0.0
 10
218.9656496048
 20
90.5931986334
 10
219.1202420264
 20
90.6092768747
 10
219.2471890026
 20
90.621221518
  0
LWPOLYLINE
  5
4E0
330
1F
100
AcDbEntity
  8
0
  6
Continuous
 62
     7
100
AcDbPolyline
 90
        3
 70
   128
 43
0.0
 10
218.8487052917
 20
90.5997508019
 10
218.8991444514
 20
90.5970359143
 10
218.9392428558
 20
90.5950047821
  0
LWPOLYLINE
  5
4E1
330
1F
100
AcDbEntity
  8
0
  6
Continuous
 62
     7
100
AcDbPolyline
 90
        3
 70
   128
 43
0.0
 10
218.9390659332
 20
90.6158600016
 10
218.8893369639
 20
90.6104153796
 10
218.8487080513
 20
90.6063173639
  0
LWPOLYLINE
  5
4E2
330
1F
100
AcDbEntity
  8
0
  6
Continuous
 62
     7
100
AcDbPolyline
 90
        3
 70
   128
 43
0.0
 10
219.2471027374
 20
90.6439076636
 10
219.0728704089
 20
90.6284390019
 10
218.9391401685
 20
90.6158600016
  0
ARC
  5
4E3
330
1F
100
AcDbEntity
  8
0
  6
Continuous
 62
     7
100
AcDbCircle
 10
220.0198091002
 20
91.2360393503
 30
0.0
 40
0.7345983384262055
100
AcDbArc
 50
264.0953571837
 51
313.8408273372
  0
LWPOLYLINE
  5
4E4
330
1F
100
AcDbEntity
  8
0
  6
Continuous
 62
     7
100
AcDbPolyline
 90
        3
 70
   128
 43
0.0
 10
219.8376655579
 20
90.5231014987
 10
219.9015679724
 20
90.5134546077
 10
219.9443068178
 20
90.5053384349
  0
LWPOLYLINE
  5
4E5
330
1F
100
AcDbEntity
  8
0
  6
Continuous
 62
     7
100
AcDbPolyline
 90
        3
 70
   128
 43
0.0
 10
220.342874527
 20
90.6840479363
 10
220.153594901
 20
90.5899097866
 10
219.837733587
 20
90.5231014987
  0
LWPOLYLINE
  5
4E6
330
1F
100
AcDbEntity
  8
0
  6
Continuous
 62
     7
100
AcDbPolyline
 90
        5
 70
   128
 43
0.0
 10
222.5550413132
 20
90.6398760988
 10
222.5521714901
 20
90.6466477279
 10
222.5434491596
 20
90.6533213343
 10
222.5088752541
 20
90.6662247184
 10
221.9429478287
 20
90.7092602056
  0
LWPOLYLINE
  5
4E7
330
1F
100
AcDbEntity
  8
0
  6
Continuous
 62
     7
100
AcDbPolyline
 90
        4
 70
   128
 43
0.0
 10
222.2092151642
 20
90.6572270036
 10
222.206557347
 20
90.6535757931
 10
222.1976647206
 20
90.6500719986
 10
222.1616743552
 20
90.6440245289
  0
LWPOLYLINE
  5
4E8
330
1F
100
AcDbEntity
  8
0
  6
Continuous
 62
     7
100
AcDbPolyline
 90
        4
 70
   128
 43
0.0
 10
222.1828699112
 20
90.6679555543
 10
222.2021517683
 20
90.6627721222
 10
222.2073506693
 20
90.6600241732
 10
222.2092536235
 20
90.6572270036
  0
LWPOLYLINE
  5
4E9
330
1F
100
AcDbEntity
  8
0
  6
Continuous
 62
     7
100
AcDbPolyline
 90
        3
 70
   128
 43
0.0
 10
222.1082448959
 20
90.6745610751
 10
222.1543194607
 20
90.6714541471
 10
222.1829091712
 20
90.6679555543
  0
LWPOLYLINE
  5
4EA
330
1F
100
AcDbEntity
  8
0
  6
Continuous
 62
     7
100
AcDbPolyline
 90
        3
 70
   128
 43
0.0
 10
221.9804525375
 20
90.6769402744
 10
222.053171747
 20
90.6762564533
 10
222.1083584397
 20
90.6745610751
  0
LWPOLYLINE
  5
4EB
330
1F
100
AcDbEntity
  8
0
  6
Continuous
 62
     7
100
AcDbPolyline
 90
        3
 70
   128
 43
0.0
 10
222.0709323883
 20
90.6207340777
 10
222.0367084035
 20
90.6262140993
 10
222.0071346313
 20
90.6302920935
  0
LWPOLYLINE
  5
4EC
330
1F
100
AcDbEntity
  8
0
  6
Continuous
 62
     7
100
AcDbPolyline
 90
        3
 70
   128
 43
0.0
 10
222.0815420151
 20
90.6344810445
 10
222.1224810102
 20
90.6296747355
 10
222.1507290469
 20
90.6255380001
  0
LWPOLYLINE
  5
4ED
330
1F
100
AcDbEntity
  8
0
  6
Continuous
 62
     7
100
AcDbPolyline
 90
        3
 70
   128
 43
0.0
 10
222.1616506577
 20
90.6440245289
 10
222.0911104477
 20
90.6393690209
 10
222.0284863474
 20
90.6374942879
  0
LWPOLYLINE
  5
4EE
330
1F
100
AcDbEntity
  8
0
  6
Continuous
 62
     7
100
AcDbPolyline
 90
        5
 70
   128
 43
0.0
 10
221.9432592392
 20
90.5718919938
 10
222.5068391782
 20
90.6138279886
 10
222.5426590142
 20
90.6265477983
 10
222.5519406391
 20
90.6331622039
 10
222.5550946813
 20
90.6398760988
  0
LWPOLYLINE
  5
4EF
330
1F
100
AcDbEntity
  8
0
  6
Continuous
 62
     7
100
AcDbPolyline
 90
        5
 70
   128
 43
0.0
 10
221.3320732117
 20
90.6398369913
 10
221.3350499225
 20
90.633121216
 10
221.3437654526
 20
90.6265079914
 10
221.3783368903
 20
90.613749111
 10
221.9433477819
 20
90.5718919938
  0
LWPOLYLINE
  5
4F0
330
1F
100
AcDbEntity
  8
0
  6
Continuous
 62
     7
100
AcDbPolyline
 90
        5
 70
   128
 43
0.0
 10
221.9429016113
 20
90.7092602056
 10
221.3784919257
 20
90.6662839568
 10
221.3439637549
 20
90.6533319473
 10
221.3351042112
 20
90.6466242683
 10
221.3321189468
 20
90.6398369913
  0
LWPOLYLINE
  5
4F1
330
1F
100
AcDbEntity
  8
0
  6
Continuous
 62
     7
100
AcDbPolyline
 90
        4
 70
   128
 43
0.0
 10
215.4766321182
 20
90.7042439613
 10
215.4676938185
 20
90.677554518
 10
215.4873832034
 20
90.6510666742
 10
215.9609418335
 20
90.5016498802
  0
LWPOLYLINE
  5
4F2
330
1F
100
AcDbEntity
  8
0
  6
Continuous
 62
     7
100
AcDbPolyline
 90
        3
 70
   128
 43
0.0
 10
216.3913249969
 20
90.6635388879
 10
215.8978763043
 20
90.6918810827
 10
215.4767216971
 20
90.7042439613
  0
LWPOLYLINE
  5
4F3
330
1F
100
AcDbEntity
  8
0
  6
Continuous
 62
     7
100
AcDbPolyline
 90
        3
 70
   128
 43
0.0
 10
216.8596982956
 20
90.5907545003
 10
216.9569029546
 20
90.5960450224
 10
217.0353100981
 20
90.599685797
  0
LWPOLYLINE
  5
4F4
330
1F
100
AcDbEntity
  8
0
  6
Continuous
 62
     7
100
AcDbPolyline
 90
        3
 70
   128
 43
0.0
 10
216.3913249969
 20
90.6384391526
 10
216.6605477411
 20
90.6125471633
 10
216.8597215878
 20
90.5907545003
  0
LWPOLYLINE
  5
4F5
330
1F
100
AcDbEntity
  8
0
  6
Continuous
 62
     7
100
AcDbPolyline
 90
        3
 70
   128
 43
0.0
 10
215.6151533127
 20
90.687472447
 10
216.0660474084
 20
90.6631479523
 10
216.3914204312
 20
90.6384391526
  0
LWPOLYLINE
  5
4F6
330
1F
100
AcDbEntity
  8
0
  6
Continuous
 62
     7
100
AcDbPolyline
 90
        4
 70
   128
 43
0.0
 10
216.0252332687
 20
90.5117202618
 10
215.6327359862
 20
90.6416071309
 10
215.6149867081
 20
90.664404832
 10
215.6152436534
 20
90.687472447
  0
LWPOLYLINE
  5
4F7
330
1F
100
AcDbEntity
  8
0
  6
Continuous
 62
     7
100
AcDbPolyline
 90
        3
 70
   128
 43
0.0
 10
217.0352935791
 20
90.599685797
 10
216.6929687895
 20
90.6377500097
 10
216.3913770385
 20
90.6635388879
  0
LWPOLYLINE
  5
4F8
330
1F
100
AcDbEntity
  8
0
  6
Continuous
 62
     7
100
AcDbPolyline
 90
        3
 70
   128
 43
0.0
 10
216.3910865784
 20
90.6797023346
 10
216.1660378257
 20
90.6892650166
 10
215.9822168468
 20
90.6941022969
  0
LWPOLYLINE
  5
4F9
330
1F
100
AcDbEntity
  8
0
  6
Continuous
 62
     7
100
AcDbPolyline
 90
        3
 70
   128
 43
0.0
 10
217.4334526062
 20
90.61341312
 10
216.86593646
 20
90.6537594737
 10
216.3911351302
 20
90.6797023346
  0
LWPOLYLINE
  5
4FA
330
1F
100
AcDbEntity
  8
0
  6
Continuous
 62
     7
100
AcDbPolyline
 90
        3
 70
   128
 43
0.0
 10
217.0884609222
 20
90.6026782422
 10
217.2789986186
 20
90.6097940133
 10
217.4334685142
 20
90.61341312
  0
LWPOLYLINE
  5
4FB
330
1F
100
AcDbEntity
  8
0
  6
Continuous
 62
     7
100
AcDbPolyline
 90
        3
 70
   128
 43
0.0
 10
216.3912057877
 20
90.6719239307
 10
216.8099302865
 20
90.6365632643
 10
217.0884654015
 20
90.6026782422
  0
LWPOLYLINE
  5
4FC
330
1F
100
AcDbEntity
  8
0
  6
Continuous
 62
     7
100
AcDbPolyline
 90
        3
 70
   128
 43
0.0
 10
215.9821987152
 20
90.6941022969
 10
216.2164842341
 20
90.6828476894
 10
216.3912593243
 20
90.6719239307
  0
LWPOLYLINE
  5
4FD
330
1F
100
AcDbEntity
  8
0
  6
Continuous
 62
     7
100
AcDbPolyline
 90
        3
 70
   128
 43
0.0
 10
219.6884155273
 20
90.6870233893
 10
219.4380203198
 20
90.6794425338
 10
219.2471029014
 20
90.6714702698
  0
LWPOLYLINE
  5
4FE
330
1F
100
AcDbEntity
  8
0
  6
Continuous
 62
     7
100
AcDbPolyline
 90
        3
 70
   128
 43
0.0
 10
219.2469835281
 20
90.6564656532
 10
219.4879745735
 20
90.6747020051
 10
219.688481544
 20
90.6870233893
  0
LWPOLYLINE
  5
4FF
330
1F
100
AcDbEntity
  8
0
  6
Continuous
 62
     7
100
AcDbPolyline
 90
        3
 70
   128
 43
0.0
 10
218.9389467239
 20
90.6284017469
 10
219.1073034104
 20
90.6446878258
 10
219.2470469707
 20
90.6564656532
  0
LWPOLYLINE
  5
500
330
1F
100
AcDbEntity
  8
0
  6
Continuous
 62
     7
100
AcDbPolyline
 90
        3
 70
   128
 43
0.0
 10
218.8487052917
 20
90.6182254938
 10
218.8991212491
 20
90.623938865
 10
218.9389636026
 20
90.6284017469
  0
LWPOLYLINE
  5
501
330
1F
100
AcDbEntity
  8
0
  6
Continuous
 62
     7
100
AcDbPolyline
 90
        3
 70
   128
 43
0.0
 10
218.7366485596
 20
90.6045194219
 10
218.7994161323
 20
90.6121979696
 10
218.8487315377
 20
90.6182254938
  0
LWPOLYLINE
  5
502
330
1F
100
AcDbEntity
  8
0
  6
Continuous
 62
     7
100
AcDbPolyline
 90
        3
 70
   128
 43
0.0
 10
218.6627388
 20
90.6074834542
 10
218.7045299108
 20
90.6059133328
 10
218.7367576795
 20
90.6045194219
  0
LWPOLYLINE
  5
503
330
1F
100
AcDbEntity
  8
0
  6
Continuous
 62
     7
100
AcDbPolyline
 90
        3
 70
   128
 43
0.0
 10
218.4336185455
 20
90.6146700532
 10
218.5625200511
 20
90.6108767527
 10
218.6627885553
 20
90.6074834542
  0
LWPOLYLINE
  5
504
330
1F
100
AcDbEntity
  8
0
  6
Continuous
 62
     7
100
AcDbPolyline
 90
        3
 70
   128
 43
0.0
 10
218.6626195908
 20
90.6349483653
 10
218.5333502336
 20
90.62373593
 10
218.4336282818
 20
90.6146700532
  0
LWPOLYLINE
  5
505
330
1F
100
AcDbEntity
  8
0
  6
Continuous
 62
     7
100
AcDbPolyline
 90
        3
 70
   128
 43
0.0
 10
218.8485860825
 20
90.6487171677
 10
218.7436444431
 20
90.6411508962
 10
218.6626674827
 20
90.6349483653
  0
LWPOLYLINE
  5
506
330
1F
100
AcDbEntity
  8
0
  6
Continuous
 62
     7
100
AcDbPolyline
 90
        3
 70
   128
 43
0.0
 10
218.9388275146
 20
90.6546883566
 10
218.8888972982
 20
90.6512424981
 10
218.8486424329
 20
90.6487171677
  0
LWPOLYLINE
  5
507
330
1F
100
AcDbEntity
  8
0
  6
Continuous
 62
     7
100
AcDbPolyline
 90
        3
 70
   128
 43
0.0
 10
219.2471027374
 20
90.6714702698
 10
219.0725799819
 20
90.6625119096
 10
218.9389329846
 20
90.6546883566
  0
LWPOLYLINE
  5
508
330
1F
100
AcDbEntity
  8
0
  6
Continuous
 62
     7
100
AcDbPolyline
 90
        3
 70
   128
 43
0.0
 10
222.0867872238
 20
90.66555843
 10
222.0324322223
 20
90.668110609
 10
221.9858215418
 20
90.6685723509
  0
LWPOLYLINE
  5
509
330
1F
100
AcDbEntity
  8
0
  6
Continuous
 62
     7
100
AcDbPolyline
 90
        4
 70
   128
 43
0.0
 10
222.1186161041
 20
90.6572469772
 10
222.1183212812
 20
90.6583989364
 10
222.1170002854
 20
90.6595582369
 10
222.0868687269
 20
90.66555843
  0
LWPOLYLINE
  5
50A
330
1F
100
AcDbEntity
  8
0
  6
Continuous
 62
     7
100
AcDbPolyline
 90
        3
 70
   128
 43
0.0
 10
221.964597702
 20
90.645226892
 10
222.0156737955
 20
90.6455986187
 10
222.0551622329
 20
90.6464054239
  0
LWPOLYLINE
  5
50B
330
1F
100
AcDbEntity
  8
0
  6
Continuous
 62
     7
100
AcDbPolyline
 90
        5
 70
   128
 43
0.0
 10
194.3562030792
 20
90.2698912919
 10
193.3212491317
 20
90.4312575266
 10
193.2626241105
 20
90.4641251828
 10
193.2514163287
 20
90.4808628006
 10
193.2517429477
 20
90.497581035
  0
LWPOLYLINE
  5
50C
330
1F
100
AcDbEntity
  8
0
  6
Continuous
 62
     7
100
AcDbPolyline
 90
        3
 70
   128
 43
0.0
 10
194.772362709
 20
90.605323881
 10
194.3265813987
 20
90.5664405765
 10
194.2224334589
 20
90.5182340444
  0
LWPOLYLINE
  5
50D
330
1F
100
AcDbEntity
  8
0
  6
Continuous
 62
     7
100
AcDbPolyline
 90
        3
 70
   128
 43
0.0
 10
196.505188942
 20
90.03310439
 10
195.9617082619
 20
89.9310606025
 10
195.1885530388
 20
89.8879894317
  0
ARC
  5
50E
330
1F
100
AcDbEntity
  8
0
  6
Continuous
 62
     7
100
AcDbCircle
 10
194.5198063668
 20
87.3517428339
 30
0.0
 40
2.922730473791378
100
AcDbArc
 50
69.0719248724
 51
93.2086939164
  0
LWPOLYLINE
  5
50F
330
1F
100
AcDbEntity
  8
0
  6
Continuous
 62
     7
100
AcDbPolyline
 90
        3
 70
   128
 43
0.0
 10
218.6627388
 20
90.5991669022
 10
218.2736971785
 20
90.6090472369
 10
217.9603304976
 20
90.6104742085
  0
LWPOLYLINE
  5
510
330
1F
100
AcDbEntity
  8
0
  6
Continuous
 62
     7
100
AcDbPolyline
 90
        3
 70
   128
 43
0.0
 10
218.8487052917
 20
90.591414366
 10
218.7455100487
 20
90.5960165835
 10
218.662803292
 20
90.5991669022
  0
LWPOLYLINE
  5
511
330
1F
100
AcDbEntity
  8
0
  6
Continuous
 62
     7
100
AcDbPolyline
 90
        3
 70
   128
 43
0.0
 10
218.9391851425
 20
90.5866633431
 10
218.8896315587
 20
90.5895814147
 10
218.8487559275
 20
90.591414366
  0
LWPOLYLINE
  5
512
330
1F
100
AcDbEntity
  8
0
  6
Continuous
 62
     7
100
AcDbPolyline
 90
        3
 70
   128
 43
0.0
 10
219.247341156
 20
90.567640205
 10
219.0782639438
 20
90.5789842189
 10
218.9392424287
 20
90.5866633431
  0
LWPOLYLINE
  5
513
330
1F
100
AcDbEntity
  8
0
  6
Continuous
 62
     7
100
AcDbPolyline
 90
        3
 70
   128
 43
0.0
 10
220.1251983643
 20
90.443282402
 10
219.7290392606
 20
90.5211088904
 10
219.2474445501
 20
90.567640205
  0
LWPOLYLINE
  5
514
330
1F
100
AcDbEntity
  8
0
  6
Continuous
 62
     7
100
AcDbPolyline
 90
        3
 70
   128
 43
0.0
 10
219.2474603653
 20
90.5118442129
 10
219.7693301525
 20
90.4778169307
 10
220.1252312337
 20
90.443282402
  0
LWPOLYLINE
  5
515
330
1F
100
AcDbEntity
  8
0
  6
Continuous
 62
     7
100
AcDbPolyline
 90
        3
 70
   128
 43
0.0
 10
218.9393043518
 20
90.5272378699
 10
219.1129417063
 20
90.5188611151
 10
219.2475710613
 20
90.5118442129
  0
LWPOLYLINE
  5
516
330
1F
100
AcDbEntity
  8
0
  6
Continuous
 62
     7
100
AcDbPolyline
 90
        3
 70
   128
 43
0.0
 10
218.8647985458
 20
90.5307755426
 10
218.9068745983
 20
90.5288742968
 10
218.9393308008
 20
90.5272378699
  0
LWPOLYLINE
  5
517
330
1F
100
AcDbEntity
  8
0
  6
Continuous
 62
     7
100
AcDbPolyline
 90
        3
 70
   128
 43
0.0
 10
218.6628580093
 20
90.5118298842
 10
218.7709015033
 20
90.5209519669
 10
218.8490018979
 20
90.5290264584
  0
LWPOLYLINE
  5
518
330
1F
100
AcDbEntity
  8
0
  6
Continuous
 62
     7
100
AcDbPolyline
 90
        3
 70
   128
 43
0.0
 10
218.0244922638
 20
90.4922691671
 10
218.3973286464
 20
90.4978069523
 10
218.6629033318
 20
90.5118298842
  0
LWPOLYLINE
  5
519
330
1F
100
AcDbEntity
  8
0
  6
Continuous
 62
     7
100
AcDbPolyline
 90
        3
 70
   128
 43
0.0
 10
217.4552679062
 20
90.5117740943
 10
217.7281545653
 20
90.4976067994
 10
217.9606228521
 20
90.4928493312
  0
LWPOLYLINE
  5
51A
330
1F
100
AcDbEntity
  8
0
  6
Continuous
 62
     7
100
AcDbPolyline
 90
        3
 70
   128
 43
0.0
 10
217.1839475632
 20
90.5366410232
 10
217.3286582676
 20
90.5217143663
 10
217.4553265883
 20
90.5117740943
  0
LWPOLYLINE
  5
51B
330
1F
100
AcDbEntity
  8
0
  6
Continuous
 62
     7
100
AcDbPolyline
 90
        3
 70
   128
 43
0.0
 10
216.3916826248
 20
90.4863017243
 10
216.8223683136
 20
90.5170947018
 10
217.1839813789
 20
90.5366410232
  0
LWPOLYLINE
  5
51C
330
1F
100
AcDbEntity
  8
0
  6
Continuous
 62
     7
100
AcDbPolyline
 90
        3
 70
   128
 43
0.0
 10
215.743303299
 20
90.4277923258
 10
216.0995545378
 20
90.4614650094
 10
216.3917583255
 20
90.4863017243
  0
LWPOLYLINE
  5
51D
330
1F
100
AcDbEntity
  8
0
  6
Continuous
 62
     7
100
AcDbPolyline
 90
        3
 70
   128
 43
0.0
 10
216.3915634155
 20
90.5467442277
 10
215.9605260548
 20
90.4844853988
 10
215.7433128103
 20
90.4277923258
  0
LWPOLYLINE
  5
51E
330
1F
100
AcDbEntity
  8
0
  6
Continuous
 62
     7
100
AcDbPolyline
 90
        3
 70
   128
 43
0.0
 10
217.4550294876
 20
90.6044731974
 10
216.8195863776
 20
90.5804811499
 10
216.3916824813
 20
90.5467442277
  0
LWPOLYLINE
  5
51F
330
1F
100
AcDbEntity
  8
0
  6
Continuous
 62
     7
100
AcDbPolyline
 90
        3
 70
   128
 43
0.0
 10
217.9497480392
 20
90.6104721874
 10
217.6715349809
 20
90.6082581182
 10
217.4550769858
 20
90.6044731974
  0
LWPOLYLINE
  5
520
330
1F
100
AcDbEntity
  8
0
  6
Continuous
 62
     7
100
AcDbPolyline
 90
        3
 70
   128
 43
0.0
 10
216.3916826248
 20
90.4750384247
 10
215.9811439336
 20
90.4395504811
 10
215.672632487
 20
90.4098345671
  0
LWPOLYLINE
  5
521
330
1F
100
AcDbEntity
  8
0
  6
Continuous
 62
     7
100
AcDbPolyline
 90
        3
 70
   128
 43
0.0
 10
217.15259552
 20
90.5265963547
 10
216.7175891193
 20
90.4993251493
 10
216.3917407191
 20
90.4750384247
  0
LWPOLYLINE
  5
522
330
1F
100
AcDbEntity
  8
0
  6
Continuous
 62
     7
100
AcDbPolyline
 90
        3
 70
   128
 43
0.0
 10
217.4552679062
 20
90.5011081621
 10
217.2761384747
 20
90.514033589
 10
217.1526612688
 20
90.5265963547
  0
LWPOLYLINE
  5
523
330
1F
100
AcDbEntity
  8
0
  6
Continuous
 62
     7
100
AcDbPolyline
 90
        3
 70
   128
 43
0.0
 10
217.9605960846
 20
90.48397222
 10
217.6696604509
 20
90.4905517195
 10
217.4553155853
 20
90.5011081621
  0
LWPOLYLINE
  5
524
330
1F
100
AcDbEntity
  8
0
  6
Continuous
 62
     7
100
AcDbPolyline
 90
        3
 70
   128
 43
0.0
 10
218.6629772186
 20
90.5005447981
 10
218.3174434842
 20
90.4858156769
 10
218.0246000015
 20
90.4833774591
  0
LWPOLYLINE
  5
525
330
1F
100
AcDbEntity
  8
0
  6
Continuous
 62
     7
100
AcDbPolyline
 90
        3
 70
   128
 43
0.0
 10
218.8489437103
 20
90.5177450714
 10
218.7467299606
 20
90.5078578196
 10
218.6629886252
 20
90.5005447981
  0
LWPOLYLINE
  5
526
330
1F
100
AcDbEntity
  8
0
  6
Continuous
 62
     7
100
AcDbPolyline
 90
        3
 70
   128
 43
0.0
 10
218.9394235611
 20
90.5171570277
 10
218.9047444231
 20
90.5191564694
 10
218.8752786314
 20
90.5201149455
  0
LWPOLYLINE
  5
527
330
1F
100
AcDbEntity
  8
0
  6
Continuous
 62
     7
100
AcDbPolyline
 90
        3
 70
   128
 43
0.0
 10
219.2475795746
 20
90.5005591222
 10
219.0753593643
 20
90.5099222638
 10
218.939429117
 20
90.5171570277
  0
LWPOLYLINE
  5
528
330
1F
100
AcDbEntity
  8
0
  6
Continuous
 62
     7
100
AcDbPolyline
 90
        3
 70
   128
 43
0.0
 10
220.3189134598
 20
90.4047820097
 10
219.7750705113
 20
90.4660637231
 10
219.2476563562
 20
90.5005591222
  0
LWPOLYLINE
  5
529
330
1F
100
AcDbEntity
  8
0
  6
Continuous
 62
     7
100
AcDbPolyline
 90
        5
 70
   128
 43
0.0
 10
220.32558918
 20
90.3822602674
 10
220.342980908
 20
90.387675241
 10
220.3442098759
 20
90.3898505504
 10
220.3436574974
 20
90.3920244313
 10
220.3190160208
 20
90.4047820097
  0
LWPOLYLINE
  5
52A
330
1F
100
AcDbEntity
  8
0
  6
Continuous
 62
     7
100
AcDbPolyline
 90
        3
 70
   128
 43
0.0
 10
219.2476987839
 20
90.4468009218
 10
219.8865732414
 20
90.4173123693
 10
220.3256974434
 20
90.3822602674
  0
LWPOLYLINE
  5
52B
330
1F
100
AcDbEntity
  8
0
  6
Continuous
 62
     7
100
AcDbPolyline
 90
        3
 70
   128
 43
0.0
 10
218.9395427704
 20
90.456237134
 10
219.112996681
 20
90.4512610909
 10
219.2478022456
 20
90.4468009218
  0
LWPOLYLINE
  5
52C
330
1F
100
AcDbEntity
  8
0
  6
Continuous
 62
     7
100
AcDbPolyline
 90
        3
 70
   128
 43
0.0
 10
218.8491821289
 20
90.4580049305
 10
218.8998826615
 20
90.4570536115
 10
218.9396019578
 20
90.456237134
  0
LWPOLYLINE
  5
52D
330
1F
100
AcDbEntity
  8
0
  6
Continuous
 62
     7
100
AcDbPolyline
 90
        3
 70
   128
 43
0.0
 10
218.6629772186
 20
90.4615303442
 10
218.7676222483
 20
90.459775919
 10
218.8491871502
 20
90.4580049305
  0
LWPOLYLINE
  5
52E
330
1F
100
AcDbEntity
  8
0
  6
Continuous
 62
     7
100
AcDbPolyline
 90
        3
 70
   128
 43
0.0
 10
218.0192470551
 20
90.4668338961
 10
218.3808079746
 20
90.4652448275
 10
218.6630864193
 20
90.4615303442
  0
LWPOLYLINE
  5
52F
330
1F
100
AcDbEntity
  8
0
  6
Continuous
 62
     7
100
AcDbPolyline
 90
        3
 70
   128
 43
0.0
 10
217.4553871155
 20
90.4644285624
 10
217.738093138
 20
90.4664575325
 10
217.9606534701
 20
90.4668301883
  0
LWPOLYLINE
  5
530
330
1F
100
AcDbEntity
  8
0
  6
Continuous
 62
     7
100
AcDbPolyline
 90
        3
 70
   128
 43
0.0
 10
216.3919210434
 20
90.436076035
 10
216.9781786189
 20
90.4564097077
 10
217.4554384913
 20
90.4644285624
  0
LWPOLYLINE
  5
531
330
1F
100
AcDbEntity
  8
0
  6
Continuous
 62
     7
100
AcDbPolyline
 90
        3
 70
   128
 43
0.0
 10
215.5957221985
 20
90.3943041259
 10
216.0378479449
 20
90.4185908341
 10
216.391941737
 20
90.436076035
  0
LWPOLYLINE
  5
532
330
1F
100
AcDbEntity
  8
0
  6
Continuous
 62
     7
100
AcDbPolyline
 90
        3
 70
   128
 43
0.0
 10
215.6758308411
 20
90.4100458041
 10
215.6219715084
 20
90.4017756374
 10
215.5957769779
 20
90.3943041259
  0
LWPOLYLINE
  5
533
330
1F
100
AcDbEntity
  8
0
  6
Continuous
 62
     7
100
AcDbPolyline
 90
        9
 70
   128
 43
0.0
 10
218.5832262039
 20
90.4302435815
 10
218.5831624613
 20
90.4310010672
 10
218.583677746
 20
90.4317578349
 10
218.5868061116
 20
90.4332275434
 10
218.6522818984
 20
90.4377786021
 10
218.7177174864
 20
90.4332409052
 10
218.7208555106
 20
90.431766236
 10
218.7213656545
 20
90.4310077127
 10
218.7212477713
 20
90.4302482292
  0
LWPOLYLINE
  5
534
330
1F
100
AcDbEntity
  8
0
  6
Continuous
 62
     7
100
AcDbPolyline
 90
        9
 70
   128
 43
0.0
 10
218.7211513519
 20
90.4302482292
 10
218.72137238
 20
90.4294919687
 10
218.7208715448
 20
90.428736379
 10
218.7177657257
 20
90.4272689014
 10
218.6523682178
 20
90.4227340156
 10
218.5868669626
 20
90.4272557171
 10
218.5837003885
 20
90.4287252501
 10
218.5831680177
 20
90.4294829145
 10
218.5832715486
 20
90.4302435815
  0
LWPOLYLINE
  5
535
330
1F
100
AcDbEntity
  8
0
  6
Continuous
 62
     7
100
AcDbPolyline
 90
        5
 70
   128
 43
0.0
 10
218.4817790985
 20
90.4314287304
 10
218.4826530165
 20
90.4294864681
 10
218.4851729506
 20
90.427568807
 10
218.4949879082
 20
90.4238667062
 10
218.6575861148
 20
90.4114145057
  0
LWPOLYLINE
  5
536
330
1F
100
AcDbEntity
  8
0
  6
Continuous
 62
     7
100
AcDbPolyline
 90
        5
 70
   128
 43
0.0
 10
218.657374382
 20
90.451490986
 10
218.494934491
 20
90.439011349
 10
218.4851487916
 20
90.4352951761
 10
218.4826411203
 20
90.4333728476
 10
218.4817918167
 20
90.4314287304
  0
LWPOLYLINE
  5
537
330
1F
100
AcDbEntity
  8
0
  6
Continuous
 62
     7
100
AcDbPolyline
 90
        5
 70
   128
 43
0.0
 10
218.8384532928
 20
90.4314321864
 10
218.8376768579
 20
90.4333835403
 10
218.8353258171
 20
90.4353140915
 10
218.8259991344
 20
90.4390503857
 10
218.6630818345
 20
90.4514950931
  0
LWPOLYLINE
  5
538
330
1F
100
AcDbEntity
  8
0
  6
Continuous
 62
     7
100
AcDbPolyline
 90
        5
 70
   128
 43
0.0
 10
218.6634540558
 20
90.4114339056
 10
218.8251536901
 20
90.4239233667
 10
218.8350763529
 20
90.4275971813
 10
218.8376149314
 20
90.4295020011
 10
218.8384624745
 20
90.4314321864
  0
LWPOLYLINE
  5
539
330
1F
100
AcDbEntity
  8
0
  6
Continuous
 62
     7
100
AcDbPolyline
 90
        9
 70
   128
 43
0.0
 10
217.3917293549
 20
90.430200818
 10
217.391683002
 20
90.4309292484
 10
217.3920842869
 20
90.4316583899
 10
217.3946890389
 20
90.4330825723
 10
217.4555581994
 20
90.4377365463
 10
217.5165113195
 20
90.4331050237
 10
217.5191774656
 20
90.4316720016
 10
217.5195897845
 20
90.430940221
 10
217.5194593589
 20
90.4302068338
  0
LWPOLYLINE
  5
53A
330
1F
100
AcDbEntity
  8
0
  6
Continuous
 62
     7
100
AcDbPolyline
 90
        9
 70
   128
 43
0.0
 10
217.519402504
 20
90.4302068338
 10
217.5195946483
 20
90.4294792653
 10
217.5191919911
 20
90.4287510767
 10
217.5165801789
 20
90.4273291811
 10
217.4557166676
 20
90.4226919212
 10
217.3947749539
 20
90.4273068404
 10
217.3921019042
 20
90.4287375264
 10
217.3916881695
 20
90.4294683316
 10
217.3918184153
 20
90.430200818
  0
LWPOLYLINE
  5
53B
330
1F
100
AcDbEntity
  8
0
  6
Continuous
 62
     7
100
AcDbPolyline
 90
       11
 70
   128
 43
0.0
 10
217.2744274139
 20
90.4313849229
 10
217.2755592398
 20
90.4294295823
 10
217.2785089981
 20
90.4275103709
 10
217.2896883192
 20
90.423829872
 10
217.3298839599
 20
90.4174473256
 10
217.4553654849
 20
90.4113700812
 10
217.5820289797
 20
90.417416524
 10
217.6218009113
 20
90.4238215209
 10
217.6326283724
 20
90.4275055857
 10
217.6354321241
 20
90.4294260602
 10
217.6363643269
 20
90.4313828489
  0
LWPOLYLINE
  5
53C
330
1F
100
AcDbEntity
  8
0
  6
Continuous
 62
     7
100
AcDbPolyline
 90
        6
 70
   128
 43
0.0
 10
217.4553871155
 20
90.4508613693
 10
217.3297186867
 20
90.4450147472
 10
217.2895706352
 20
90.4388058433
 10
217.2784442751
 20
90.4352010237
 10
217.2755257681
 20
90.4333136507
 10
217.2745257123
 20
90.4313849229
  0
ARC
  5
53D
330
1F
100
AcDbEntity
  8
0
  6
Continuous
 62
     7
100
AcDbCircle
 10
217.5202472951
 20
90.2027352352
 30
0.0
 40
0.2564348460148002
100
AcDbArc
 50
63.0800809828
 51
104.624991283
  0
LWPOLYLINE
  5
53E
330
1F
100
AcDbEntity
  8
0
  6
Continuous
 62
     7
100
AcDbPolyline
 90
        3
 70
   128
 43
0.0
 10
218.6634540558
 20
90.3755561258
 10
218.3137320621
 20
90.4088162292
 10
217.9607341532
 20
90.4166859324
  0
LWPOLYLINE
  5
53F
330
1F
100
AcDbEntity
  8
0
  6
Continuous
 62
     7
100
AcDbPolyline
 90
        3
 70
   128
 43
0.0
 10
217.3280715942
 20
90.3561265555
 10
216.8119597868
 20
90.3793647778
 10
216.3919950988
 20
90.393069188
  0
LWPOLYLINE
  5
540
330
1F
100
AcDbEntity
  8
0
  6
Continuous
 62
     7
100
AcDbPolyline
 90
        3
 70
   128
 43
0.0
 10
217.4556255341
 20
90.3766629864
 10
217.3842289419
 20
90.3651648996
 10
217.3281799736
 20
90.3561265555
  0
LWPOLYLINE
  5
541
330
1F
100
AcDbEntity
  8
0
  6
Continuous
 62
     7
100
AcDbPolyline
 90
        3
 70
   128
 43
0.0
 10
217.9607152939
 20
90.4166859324
 10
217.6466610781
 20
90.3991635152
 10
217.455732967
 20
90.3766629864
  0
LWPOLYLINE
  5
542
330
1F
100
AcDbEntity
  8
0
  6
Continuous
 62
     7
100
AcDbPolyline
 90
        3
 70
   128
 43
0.0
 10
218.7479734421
 20
90.3632152073
 10
218.7005525169
 20
90.3701136127
 10
218.6635034368
 20
90.3755561258
  0
LWPOLYLINE
  5
543
330
1F
100
AcDbEntity
  8
0
  6
Continuous
 62
     7
100
AcDbPolyline
 90
        3
 70
   128
 43
0.0
 10
218.8495397568
 20
90.3684839846
 10
218.7930172706
 20
90.3654582723
 10
218.7480160089
 20
90.3632152073
  0
LWPOLYLINE
  5
544
330
1F
100
AcDbEntity
  8
0
  6
Continuous
 62
     7
100
AcDbPolyline
 90
        3
 70
   128
 43
0.0
 10
218.9396619797
 20
90.372608957
 10
218.8887042333
 20
90.3704334448
 10
218.8495655965
 20
90.3684839846
  0
LWPOLYLINE
  5
545
330
1F
100
AcDbEntity
  8
0
  6
Continuous
 62
     7
100
AcDbPolyline
 90
        3
 70
   128
 43
0.0
 10
219.2478179932
 20
90.38437442
 10
219.0734338796
 20
90.3783675045
 10
218.9397339727
 20
90.372608957
  0
LWPOLYLINE
  5
546
330
1F
100
AcDbEntity
  8
0
  6
Continuous
 62
     7
100
AcDbPolyline
 90
        3
 70
   128
 43
0.0
 10
220.1837301254
 20
90.3867811007
 10
219.6575108
 20
90.3914956847
 10
219.2478529139
 20
90.38437442
  0
LWPOLYLINE
  5
547
330
1F
100
AcDbEntity
  8
0
  6
Continuous
 62
     7
100
AcDbPolyline
 90
        3
 70
   128
 43
0.0
 10
219.2478179932
 20
90.3632462729
 10
219.7624217773
 20
90.3812468887
 10
220.1838431273
 20
90.3867811007
  0
LWPOLYLINE
  5
548
330
1F
100
AcDbEntity
  8
0
  6
Continuous
 62
     7
100
AcDbPolyline
 90
        3
 70
   128
 43
0.0
 10
218.9396619797
 20
90.3461920781
 10
219.1110994275
 20
90.3560121101
 10
219.2479345075
 20
90.3632462729
  0
LWPOLYLINE
  5
549
330
1F
100
AcDbEntity
  8
0
  6
Continuous
 62
     7
100
AcDbPolyline
 90
        3
 70
   128
 43
0.0
 10
218.8495397568
 20
90.3397790633
 10
218.9014909247
 20
90.3431328985
 10
218.9397581108
 20
90.3461920781
  0
LWPOLYLINE
  5
54A
330
1F
100
AcDbEntity
  8
0
  6
Continuous
 62
     7
100
AcDbPolyline
 90
        3
 70
   128
 43
0.0
 10
218.6635732651
 20
90.3256986864
 10
218.767653752
 20
90.333594714
 10
218.8495648639
 20
90.3397790633
  0
LWPOLYLINE
  5
54B
330
1F
100
AcDbEntity
  8
0
  6
Continuous
 62
     7
100
AcDbPolyline
 90
        3
 70
   128
 43
0.0
 10
218.120932579
 20
90.307534823
 10
218.4422889084
 20
90.3116184962
 10
218.6635836189
 20
90.3256986864
  0
LWPOLYLINE
  5
54C
330
1F
100
AcDbEntity
  8
0
  6
Continuous
 62
     7
100
AcDbPolyline
 90
        7
 70
   128
 43
0.0
 10
218.1417942047
 20
90.3291585619
 10
218.0781954693
 20
90.3212085436
 10
218.0761804876
 20
90.3193062707
 10
218.075671203
 20
90.3173969495
 10
218.07742119
 20
90.3148488745
 10
218.0822738772
 20
90.3123474271
 10
218.120990256
 20
90.307534823
  0
ARC
  5
54D
330
1F
100
AcDbEntity
  8
0
  6
Continuous
 62
     7
100
AcDbCircle
 10
218.2898064407
 20
90.4556388319
 30
0.0
 40
0.1290102531980221
100
AcDbArc
 50
258.6281554107
 51
292.2273276676
  0
ARC
  5
54E
330
1F
100
AcDbEntity
  8
0
  6
Continuous
 62
     7
100
AcDbCircle
 10
218.2915955566
 20
90.2357225523
 30
0.0
 40
0.110964689239074
100
AcDbArc
 50
64.9080150176
 51
104.2814803128
  0
ARC
  5
54F
330
1F
100
AcDbEntity
  8
0
  6
Continuous
 62
     7
100
AcDbCircle
 10
217.7501445833
 20
90.2079831822
 30
0.0
 40
0.1375355700922448
100
AcDbArc
 50
79.5266661123
 51
111.2206164859
  0
LWPOLYLINE
  5
550
330
1F
100
AcDbEntity
  8
0
  6
Continuous
 62
     7
100
AcDbPolyline
 90
        5
 70
   128
 43
0.0
 10
217.7751064301
 20
90.3291307434
 10
217.7065942012
 20
90.3332675446
 10
217.7019768548
 20
90.3346884837
 10
217.7008235723
 20
90.3354319911
 10
217.7004484528
 20
90.336192963
  0
LWPOLYLINE
  5
551
330
1F
100
AcDbEntity
  8
0
  6
Continuous
 62
     7
100
AcDbPolyline
 90
        5
 70
   128
 43
0.0
 10
217.8922891617
 20
90.3081217596
 10
217.9455387581
 20
90.3153005245
 10
217.947994556
 20
90.3186257243
 10
217.9455767432
 20
90.3219363677
 10
217.8922979666
 20
90.3291401706
  0
LWPOLYLINE
  5
552
330
1F
100
AcDbEntity
  8
0
  6
Continuous
 62
     7
100
AcDbPolyline
 90
        3
 70
   128
 43
0.0
 10
217.4558639526
 20
90.3209652979
 10
217.6953442639
 20
90.3114031546
 10
217.8923799305
 20
90.3081217596
  0
LWPOLYLINE
  5
553
330
1F
100
AcDbEntity
  8
0
  6
Continuous
 62
     7
100
AcDbPolyline
 90
        3
 70
   128
 43
0.0
 10
216.8174982071
 20
90.3572599001
 10
217.1723169372
 20
90.336316261
 10
217.4559565363
 20
90.3209652979
  0
LWPOLYLINE
  5
554
330
1F
100
AcDbEntity
  8
0
  6
Continuous
 62
     7
100
AcDbPolyline
 90
        3
 70
   128
 43
0.0
 10
216.3920402527
 20
90.3790011687
 10
216.6341790576
 20
90.3677182104
 10
216.8175253744
 20
90.3572599001
  0
LWPOLYLINE
  5
555
330
1F
100
AcDbEntity
  8
0
  6
Continuous
 62
     7
100
AcDbPolyline
 90
        3
 70
   128
 43
0.0
 10
215.7330513
 20
90.3948305955
 10
216.1072773873
 20
90.3886581596
 10
216.3920498031
 20
90.3790011687
  0
LWPOLYLINE
  5
556
330
1F
100
AcDbEntity
  8
0
  6
Continuous
 62
     7
100
AcDbPolyline
 90
        3
 70
   128
 43
0.0
 10
216.3919210434
 20
90.393069188
 10
216.0224989438
 20
90.3986069565
 10
215.7331391391
 20
90.3948305955
  0
LWPOLYLINE
  5
557
330
1F
100
AcDbEntity
  8
0
  6
Continuous
 62
     7
100
AcDbPolyline
 90
        4
 70
   128
 43
0.0
 10
198.6837387085
 20
90.3666442131
 10
198.1835758149
 20
90.3244575339
 10
198.0394012978
 20
90.2536369842
 10
198.024802739
 20
90.2054208114
  0
LWPOLYLINE
  5
558
330
1F
100
AcDbEntity
  8
0
  6
Continuous
 62
     7
100
AcDbPolyline
 90
        4
 70
   128
 43
0.0
 10
199.4343996048
 20
90.2066237843
 10
199.3751821537
 20
90.3084892958
 10
199.2352666237
 20
90.350758059
 10
198.9547074462
 20
90.3648573333
  0
LWPOLYLINE
  5
559
330
1F
100
AcDbEntity
  8
0
  6
Continuous
 62
     7
100
AcDbPolyline
 90
        4
 70
   128
 43
0.0
 10
212.8610610962
 20
90.3653618138
 10
212.3018588833
 20
90.2995715573
 10
212.2311881093
 20
90.2520981288
 10
212.2128297432
 20
90.20414787
  0
LWPOLYLINE
  5
55A
330
1F
100
AcDbEntity
  8
0
  6
Continuous
 62
     7
100
AcDbPolyline
 90
        4
 70
   128
 43
0.0
 10
213.6224508286
 20
90.2053539745
 10
213.5650556449
 20
90.3074521315
 10
213.4236115484
 20
90.3497864823
 10
213.1426795049
 20
90.3641568636
  0
LWPOLYLINE
  5
55B
330
1F
100
AcDbEntity
  8
0
  6
Continuous
 62
     7
100
AcDbPolyline
 90
        3
 70
   128
 43
0.0
 10
217.4559831619
 20
90.3080955707
 10
217.172996917
 20
90.3285316801
 10
216.929576624
 20
90.339714598
  0
LWPOLYLINE
  5
55C
330
1F
100
AcDbEntity
  8
0
  6
Continuous
 62
     7
100
AcDbPolyline
 90
        3
 70
   128
 43
0.0
 10
217.9259061813
 20
89.7108698408
 10
217.89094188
 20
89.8366017319
 10
217.9622840363
 20
89.9355333919
  0
LWPOLYLINE
  5
55D
330
1F
100
AcDbEntity
  8
0
  6
Continuous
 62
     7
100
AcDbPolyline
 90
        3
 70
   128
 43
0.0
 10
217.5533771515
 20
89.7153212825
 10
217.7611708812
 20
89.7118822397
 10
217.9259667239
 20
89.7108698408
  0
LWPOLYLINE
  5
55E
330
1F
100
AcDbEntity
  8
0
  6
Continuous
 62
     7
100
AcDbPolyline
 90
        3
 70
   128
 43
0.0
 10
217.4562215805
 20
90.1654942026
 10
217.5858597644
 20
89.9119343559
 10
217.5534297158
 20
89.7153212825
  0
LWPOLYLINE
  5
55F
330
1F
100
AcDbEntity
  8
0
  6
Continuous
 62
     7
100
AcDbPolyline
 90
        3
 70
   128
 43
0.0
 10
216.9295549393
 20
90.339714598
 10
217.3272453695
 20
90.2458839803
 10
217.456328016
 20
90.1654942026
  0
LWPOLYLINE
  5
560
330
1F
100
AcDbEntity
  8
0
  6
Continuous
 62
     7
100
AcDbPolyline
 90
        3
 70
   128
 43
0.0
 10
217.9610729218
 20
90.2823869083
 10
217.6672851025
 20
90.2940890567
 10
217.456023534
 20
90.3080955707
  0
LWPOLYLINE
  5
561
330
1F
100
AcDbEntity
  8
0
  6
Continuous
 62
     7
100
AcDbPolyline
 90
        3
 70
   128
 43
0.0
 10
218.6635732651
 20
90.3145930129
 10
218.3103483069
 20
90.2909369826
 10
217.9986510585
 20
90.2818316859
  0
LWPOLYLINE
  5
562
330
1F
100
AcDbEntity
  8
0
  6
Continuous
 62
     7
100
AcDbPolyline
 90
        3
 70
   128
 43
0.0
 10
218.8495397568
 20
90.3280429543
 10
218.7452113263
 20
90.3205571107
 10
218.6636698097
 20
90.3145930129
  0
LWPOLYLINE
  5
563
330
1F
100
AcDbEntity
  8
0
  6
Continuous
 62
     7
100
AcDbPolyline
 90
        3
 70
   128
 43
0.0
 10
218.939781189
 20
90.3339330528
 10
218.888872852
 20
90.3307156301
 10
218.8496443278
 20
90.3280429543
  0
LWPOLYLINE
  5
564
330
1F
100
AcDbEntity
  8
0
  6
Continuous
 62
     7
100
AcDbPolyline
 90
        3
 70
   128
 43
0.0
 10
219.0140485764
 20
90.3374187817
 10
218.9722621485
 20
90.3355370157
 10
218.9398319588
 20
90.3339330528
  0
LWPOLYLINE
  5
565
330
1F
100
AcDbEntity
  8
0
  6
Continuous
 62
     7
100
AcDbPolyline
 90
        3
 70
   128
 43
0.0
 10
218.939781189
 20
90.3291748996
 10
218.9813168919
 20
90.3338033711
 10
219.0140771549
 20
90.3374187817
  0
LWPOLYLINE
  5
566
330
1F
100
AcDbEntity
  8
0
  6
Continuous
 62
     7
100
AcDbPolyline
 90
        3
 70
   128
 43
0.0
 10
218.8495397568
 20
90.3163368319
 10
218.8989565952
 20
90.3236286257
 10
218.9398837078
 20
90.3291748996
  0
LWPOLYLINE
  5
567
330
1F
100
AcDbEntity
  8
0
  6
Continuous
 62
     7
100
AcDbPolyline
 90
        3
 70
   128
 43
0.0
 10
218.6636924744
 20
90.2783410209
 10
218.7582475676
 20
90.3001776656
 10
218.8496206625
 20
90.3163368319
  0
LWPOLYLINE
  5
568
330
1F
100
AcDbEntity
  8
0
  6
Continuous
 62
     7
100
AcDbPolyline
 90
        4
 70
   128
 43
0.0
 10
218.3991670609
 20
89.7148324999
 10
218.3134113969
 20
89.9252322867
 10
218.3767154049
 20
90.1385437667
 10
218.6637925813
 20
90.2783410209
  0
LWPOLYLINE
  5
569
330
1F
100
AcDbEntity
  8
0
  6
Continuous
 62
     7
100
AcDbPolyline
 90
        3
 70
   128
 43
0.0
 10
218.0163860321
 20
89.7102854691
 10
218.2322494283
 20
89.7116918064
 10
218.3992646364
 20
89.7148324999
  0
LWPOLYLINE
  5
56A
330
1F
100
AcDbEntity
  8
0
  6
Continuous
 62
     7
100
AcDbPolyline
 90
        3
 70
   128
 43
0.0
 10
217.9676294327
 20
89.9395408296
 10
217.9882579142
 20
89.8107509174
 10
218.0163939359
 20
89.7102854691
  0
LWPOLYLINE
  5
56B
330
1F
100
AcDbEntity
  8
0
  6
Continuous
 62
     7
100
AcDbPolyline
 90
        3
 70
   128
 43
0.0
 10
219.1044092178
 20
90.3002659996
 10
219.0147786387
 20
90.3086553766
 10
218.9438661994
 20
90.31519865
  0
LWPOLYLINE
  5
56C
330
1F
100
AcDbEntity
  8
0
  6
Continuous
 62
     7
100
AcDbPolyline
 90
        3
 70
   128
 43
0.0
 10
218.6654806137
 20
89.7221206007
 10
218.7698607327
 20
89.725832258
 10
218.8514889655
 20
89.7288652712
  0
LWPOLYLINE
  5
56D
330
1F
100
AcDbEntity
  8
0
  6
Continuous
 62
     7
100
AcDbPolyline
 90
        3
 70
   128
 43
0.0
 10
218.4681892395
 20
89.7159209818
 10
218.5788776933
 20
89.7193256551
 10
218.6654808312
 20
89.7221206007
  0
LWPOLYLINE
  5
56E
330
1F
100
AcDbEntity
  8
0
  6
Continuous
 62
     7
100
AcDbPolyline
 90
        3
 70
   128
 43
0.0
 10
218.6105251312
 20
90.2334535145
 10
218.384899171
 20
89.9420382778
 10
218.4682133524
 20
89.7159209818
  0
LWPOLYLINE
  5
56F
330
1F
100
AcDbEntity
  8
0
  6
Continuous
 62
     7
100
AcDbPolyline
 90
        3
 70
   128
 43
0.0
 10
218.6636924744
 20
90.2492155909
 10
218.6343873255
 20
90.2403710907
 10
218.6105934631
 20
90.2334535145
  0
LWPOLYLINE
  5
570
330
1F
100
AcDbEntity
  8
0
  6
Continuous
 62
     7
100
AcDbPolyline
 90
        3
 70
   128
 43
0.0
 10
218.8496589661
 20
90.2970337954
 10
218.7381036159
 20
90.2705816898
 10
218.6637854414
 20
90.2492155909
  0
LWPOLYLINE
  5
571
330
1F
100
AcDbEntity
  8
0
  6
Continuous
 62
     7
100
AcDbPolyline
 90
        3
 70
   128
 43
0.0
 10
218.9399003983
 20
90.3145908275
 10
218.8876244806
 20
90.3048681799
 10
218.8497210898
 20
90.2970337954
  0
LWPOLYLINE
  5
572
330
1F
100
AcDbEntity
  8
0
  6
Continuous
 62
     7
100
AcDbPolyline
 90
        3
 70
   128
 43
0.0
 10
218.9401388168
 20
90.256183683
 10
219.0245304943
 20
90.281207631
 10
219.1045212048
 20
90.3002659996
  0
LWPOLYLINE
  5
573
330
1F
100
AcDbEntity
  8
0
  6
Continuous
 62
     7
100
AcDbPolyline
 90
        3
 70
   128
 43
0.0
 10
218.8497781754
 20
90.2206753188
 10
218.8985538496
 20
90.2406083154
 10
218.9402271442
 20
90.256183683
  0
LWPOLYLINE
  5
574
330
1F
100
AcDbEntity
  8
0
  6
Continuous
 62
     7
100
AcDbPolyline
 90
        3
 70
   128
 43
0.0
 10
218.6640501022
 20
90.1123260689
 10
218.7531404801
 20
90.1732175034
 10
218.849819362
 20
90.2206753188
  0
LWPOLYLINE
  5
575
330
1F
100
AcDbEntity
  8
0
  6
Continuous
 62
     7
100
AcDbPolyline
 90
        4
 70
   128
 43
0.0
 10
218.6650037766
 20
89.8151459926
 10
218.5839763607
 20
89.8886204377
 10
218.564710047
 20
89.9629626781
 10
218.6641467
 20
90.1123260689
  0
LWPOLYLINE
  5
576
330
1F
100
AcDbEntity
  8
0
  6
Continuous
 62
     7
100
AcDbPolyline
 90
        3
 70
   128
 43
0.0
 10
218.7125682831
 20
89.787461593
 10
218.6859337718
 20
89.8029570357
 10
218.6650816702
 20
89.8151459926
  0
LWPOLYLINE
  5
577
330
1F
100
AcDbEntity
  8
0
  6
Continuous
 62
     7
100
AcDbPolyline
 90
        3
 70
   128
 43
0.0
 10
218.664765358
 20
89.8769499616
 10
218.6940980407
 20
89.8267827357
 10
218.7126229745
 20
89.787461593
  0
LWPOLYLINE
  5
578
330
1F
100
AcDbEntity
  8
0
  6
Continuous
 62
     7
100
AcDbPolyline
 90
        3
 70
   128
 43
0.0
 10
218.6325788498
 20
89.9538173512
 10
218.6462428186
 20
89.9107000332
 10
218.664843863
 20
89.8769499616
  0
LWPOLYLINE
  5
579
330
1F
100
AcDbEntity
  8
0
  6
Continuous
 62
     7
100
AcDbPolyline
 90
        3
 70
   128
 43
0.0
 10
218.8506126404
 20
89.94868435
 10
218.7462328038
 20
89.9511171129
 10
218.6647648455
 20
89.9532915449
  0
LWPOLYLINE
  5
57A
330
1F
100
AcDbEntity
  8
0
  6
Continuous
 62
     7
100
AcDbPolyline
 90
        3
 70
   128
 43
0.0
 10
218.9410924911
 20
89.9464259854
 10
218.8905968361
 20
89.9477510098
 10
218.8506455407
 20
89.94868435
  0
LWPOLYLINE
  5
57B
330
1F
100
AcDbEntity
  8
0
  6
Continuous
 62
     7
100
AcDbPolyline
 90
        3
 70
   128
 43
0.0
 10
219.2492485046
 20
89.9418995578
 10
219.0762068444
 20
89.944044713
 10
218.9411575914
 20
89.9464259854
  0
LWPOLYLINE
  5
57C
330
1F
100
AcDbEntity
  8
0
  6
Continuous
 62
     7
100
AcDbPolyline
 90
        3
 70
   128
 43
0.0
 10
220.5095291138
 20
89.9550529575
 10
219.8076041914
 20
89.9424328267
 10
219.2493056873
 20
89.9418995578
  0
LWPOLYLINE
  5
57D
330
1F
100
AcDbEntity
  8
0
  6
Continuous
 62
     7
100
AcDbPolyline
 90
        3
 70
   128
 43
0.0
 10
219.2497253418
 20
89.7485915771
 10
220.1570688042
 20
89.8497352524
 10
220.509531027
 20
89.9550529575
  0
LWPOLYLINE
  5
57E
330
1F
100
AcDbEntity
  8
0
  6
Continuous
 62
     7
100
AcDbPolyline
 90
        3
 70
   128
 43
0.0
 10
218.9415693283
 20
89.7328212233
 10
219.1162267601
 20
89.7412263364
 10
219.2498271351
 20
89.7485915771
  0
LWPOLYLINE
  5
57F
330
1F
100
AcDbEntity
  8
0
  6
Continuous
 62
     7
100
AcDbPolyline
 90
        3
 70
   128
 43
0.0
 10
218.8514471054
 20
89.7288652712
 10
218.9021988109
 20
89.7310241594
 10
218.9416574034
 20
89.7328212233
  0
LWPOLYLINE
  5
580
330
1F
100
AcDbEntity
  8
0
  6
Continuous
 62
     7
100
AcDbPolyline
 90
        7
 70
   128
 43
0.0
 10
216.3928747177
 20
90.1082286071
 10
216.0874836856
 20
90.0187786232
 10
215.991616711
 20
89.9723804026
 10
215.9523013705
 20
89.924982342
 10
215.9672471438
 20
89.8934584491
 10
216.0228011763
 20
89.8623088407
 10
216.393808644
 20
89.7885456857
  0
LWPOLYLINE
  5
581
330
1F
100
AcDbEntity
  8
0
  6
Continuous
 62
     7
100
AcDbPolyline
 90
        3
 70
   128
 43
0.0
 10
216.8555259705
 20
90.2083968977
 10
216.5900008603
 20
90.152568072
 10
216.3929207974
 20
90.1082286071
  0
LWPOLYLINE
  5
582
330
1F
100
AcDbEntity
  8
0
  6
Continuous
 62
     7
100
AcDbPolyline
 90
        3
 70
   128
 43
0.0
 10
217.0783281326
 20
90.2946485197
 10
216.9970456546
 20
90.2450026487
 10
216.8555936089
 20
90.2083968977
  0
LWPOLYLINE
  5
583
330
1F
100
AcDbEntity
  8
0
  6
Continuous
 62
     7
100
AcDbPolyline
 90
        3
 70
   128
 43
0.0
 10
217.4565792084
 20
90.0650483222
 10
217.3217641991
 20
90.1948709756
 10
217.0784325085
 20
90.2946485197
  0
LWPOLYLINE
  5
584
330
1F
100
AcDbEntity
  8
0
  6
Continuous
 62
     7
100
AcDbPolyline
 90
        3
 70
   128
 43
0.0
 10
217.4628973007
 20
89.7169976834
 10
217.4796746356
 20
89.9109218907
 10
217.4566701523
 20
90.0650483222
  0
LWPOLYLINE
  5
585
330
1F
100
AcDbEntity
  8
0
  6
Continuous
 62
     7
100
AcDbPolyline
 90
        3
 70
   128
 43
0.0
 10
216.3937091827
 20
89.7885456857
 10
216.9478390092
 20
89.7418002485
 10
217.4577503948
 20
89.7175770471
  0
LWPOLYLINE
  5
586
330
1F
100
AcDbEntity
  8
0
  6
Continuous
 62
     7
100
AcDbPolyline
 90
        3
 70
   128
 43
0.0
 10
220.0618982315
 20
90.1986492135
 10
219.8807681778
 20
90.2312253959
 10
219.7054336184
 20
90.2544695015
  0
LWPOLYLINE
  5
587
330
1F
100
AcDbEntity
  8
0
  6
Continuous
 62
     7
100
AcDbPolyline
 90
        3
 70
   128
 43
0.0
 10
218.9403772354
 20
90.1869909636
 10
219.1124718669
 20
90.1842358261
 10
219.2485556524
 20
90.1829316222
  0
LWPOLYLINE
  5
588
330
1F
100
AcDbEntity
  8
0
  6
Continuous
 62
     7
100
AcDbPolyline
 90
        3
 70
   128
 43
0.0
 10
218.8658714294
 20
90.1881564612
 10
218.9076689039
 20
90.187535807
 10
218.940401632
 20
90.1869909636
  0
LWPOLYLINE
  5
589
330
1F
100
AcDbEntity
  8
0
  6
Continuous
 62
     7
100
AcDbPolyline
 90
        3
 70
   128
 43
0.0
 10
218.9402580261
 20
90.2265071022
 10
218.8945093947
 20
90.2051138151
 10
218.8658969211
 20
90.1881564612
  0
LWPOLYLINE
  5
58A
330
1F
100
AcDbEntity
  8
0
  6
Continuous
 62
     7
100
AcDbPolyline
 90
        3
 70
   128
 43
0.0
 10
219.0090417862
 20
90.2486382957
 10
218.9694788464
 20
90.2362814539
 10
218.9403168651
 20
90.2265071022
  0
LWPOLYLINE
  5
58B
330
1F
100
AcDbEntity
  8
0
  6
Continuous
 62
     7
100
AcDbPolyline
 90
        3
 70
   128
 43
0.0
 10
219.2482948303
 20
90.2486409601
 10
219.1143375797
 20
90.2482019588
 10
219.0090813135
 20
90.2486382957
  0
LWPOLYLINE
  5
58C
330
1F
100
AcDbEntity
  8
0
  6
Continuous
 62
     7
100
AcDbPolyline
 90
        3
 70
   128
 43
0.0
 10
219.7053432465
 20
90.2544695015
 10
219.4501757889
 20
90.2504600117
 10
219.2483433947
 20
90.2486409601
  0
LWPOLYLINE
  5
58D
330
1F
100
AcDbEntity
  8
0
  6
Continuous
 62
     7
100
AcDbPolyline
 90
        3
 70
   128
 43
0.0
 10
219.2485332489
 20
90.1829316222
 10
219.7139515176
 20
90.1862891254
 10
220.062011933
 20
90.1986492135
  0
LWPOLYLINE
  5
58E
330
1F
100
AcDbEntity
  8
0
  6
Continuous
 62
     7
100
AcDbPolyline
 90
        3
 70
   128
 43
0.0
 10
220.3866243362
 20
90.1175676198
 10
219.759679915
 20
90.101228026
 10
219.2488942463
 20
90.1008107201
  0
LWPOLYLINE
  5
58F
330
1F
100
AcDbEntity
  8
0
  6
Continuous
 62
     7
100
AcDbPolyline
 90
        3
 70
   128
 43
0.0
 10
218.6799049377
 20
90.0386090297
 10
218.7748421775
 20
90.035452794
 10
218.8505522225
 20
90.0334524529
  0
LWPOLYLINE
  5
590
330
1F
100
AcDbEntity
  8
0
  6
Continuous
 62
     7
100
AcDbPolyline
 90
        3
 70
   128
 43
0.0
 10
218.7594175339
 20
90.1100026508
 10
218.6958502908
 20
90.0702312002
 10
218.6799735415
 20
90.0386090297
  0
LWPOLYLINE
  5
591
330
1F
100
AcDbEntity
  8
0
  6
Continuous
 62
     7
100
AcDbPolyline
 90
        3
 70
   128
 43
0.0
 10
218.8502550125
 20
90.1071530355
 10
218.8000283894
 20
90.1089749803
 10
218.7595158988
 20
90.1100026508
  0
LWPOLYLINE
  5
592
330
1F
100
AcDbEntity
  8
0
  6
Continuous
 62
     7
100
AcDbPolyline
 90
        3
 70
   128
 43
0.0
 10
218.9404964447
 20
90.1048310907
 10
218.8900404216
 20
90.1061383621
 10
218.8503317748
 20
90.1071530355
  0
LWPOLYLINE
  5
593
330
1F
100
AcDbEntity
  8
0
  6
Continuous
 62
     7
100
AcDbPolyline
 90
        3
 70
   128
 43
0.0
 10
219.2488908768
 20
90.1008107201
 10
219.0753469097
 20
90.1023650583
 10
218.9405333351
 20
90.1048310907
  0
LWPOLYLINE
  5
594
330
1F
100
AcDbEntity
  8
0
  6
Continuous
 62
     7
100
AcDbPolyline
 90
        3
 70
   128
 43
0.0
 10
220.5036878586
 20
90.0444314085
 10
220.4658955952
 20
90.0859673592
 10
220.3866844211
 20
90.1175676198
  0
LWPOLYLINE
  5
595
330
1F
100
AcDbEntity
  8
0
  6
Continuous
 62
     7
100
AcDbPolyline
 90
        3
 70
   128
 43
0.0
 10
219.2488908768
 20
90.0259981765
 10
219.9673338984
 20
90.0267076276
 10
220.503803849
 20
90.0444314085
  0
LWPOLYLINE
  5
596
330
1F
100
AcDbEntity
  8
0
  6
Continuous
 62
     7
100
AcDbPolyline
 90
        3
 70
   128
 43
0.0
 10
218.9407348633
 20
90.0311475848
 10
219.1127400608
 20
90.0278140356
 10
219.2489986898
 20
90.0259981765
  0
LWPOLYLINE
  5
597
330
1F
100
AcDbEntity
  8
0
  6
Continuous
 62
     7
100
AcDbPolyline
 90
        3
 70
   128
 43
0.0
 10
218.8504934311
 20
90.0334524529
 10
218.9006545864
 20
90.0319755742
 10
218.9407538445
 20
90.0311475848
  0
ARC
  5
598
330
1F
100
AcDbEntity
  8
0
  6
Continuous
 62
     7
100
AcDbCircle
 10
207.2341098921
 20
-35.2178210447
 30
0.0
 40
118.5712898365658
100
AcDbArc
 50
86.706129785
 51
93.293870215
  0
ARC
  5
599
330
1F
100
AcDbEntity
  8
0
  6
Continuous
 62
     7
100
AcDbCircle
 10
207.2341287047
 20
-21.0665367922
 30
0.0
 40
103.3753365327941
100
AcDbArc
 50
86.7257419556
 51
93.2742580448
  0
LWPOLYLINE
  5
59A
330
1F
100
AcDbEntity
  8
0
  6
Continuous
 62
     7
100
AcDbPolyline
 90
        3
 70
   128
 43
0.0
 10
230.3386926651
 20
81.0927876533
 10
221.6150176062
 20
81.4787794252
 10
213.1385232212
 20
82.1400476009
  0
LWPOLYLINE
  5
59B
330
1F
100
AcDbEntity
  8
0
  6
Continuous
 62
     7
100
AcDbPolyline
 90
        3
 70
   128
 43
0.0
 10
184.1294765472
 20
81.0927876533
 10
183.573491932
 20
81.0843914877
 10
183.3841539588
 20
81.0823270382
  0
LWPOLYLINE
  5
59C
330
1F
100
AcDbEntity
  8
0
  6
Continuous
 62
     7
100
AcDbPolyline
 90
        3
 70
   128
 43
0.0
 10
231.1118841171
 20
81.0819172562
 10
230.8144311757
 20
81.085527792
 10
230.3387442837
 20
81.0927876533
  0
LWPOLYLINE
  5
59D
330
1F
100
AcDbEntity
  8
0
  6
Continuous
 62
     7
100
AcDbPolyline
 90
        3
 70
   128
 43
0.0
 10
201.3297080994
 20
82.1400476009
 10
190.7893510956
 20
81.3516551939
 10
184.1295752343
 20
81.0927876533
  0
LWPOLYLINE
  5
59E
330
1F
100
AcDbEntity
  8
0
  6
Continuous
 62
     7
100
AcDbPolyline
 90
        3
 70
   128
 43
0.0
 10
183.1668615341
 20
82.1046584548
 10
191.9183470508
 20
82.4940366567
 10
200.421432327
 20
83.1575853909
  0
LWPOLYLINE
  5
59F
330
1F
100
AcDbEntity
  8
0
  6
Continuous
 62
     7
100
AcDbPolyline
 90
        3
 70
   128
 43
0.0
 10
214.0468358994
 20
83.1575853909
 10
224.6204507035
 20
82.3662314893
 10
231.3014349459
 20
82.1046584548
  0
LWPOLYLINE
  5
5A0
330
1F
100
AcDbEntity
  8
0
  6
Continuous
 62
     7
100
AcDbPolyline
 90
        9
 70
   128
 43
0.0
 10
231.3014268875
 20
82.1046584548
 10
232.1445554701
 20
82.0847171511
 10
232.1530678545
 20
82.0841278754
 10
232.1551221377
 20
82.0837611268
 10
232.155178581
 20
82.0836980713
 10
232.1551620083
 20
82.0836518028
 10
232.1550977351
 20
82.0836063628
 10
232.1548361292
 20
82.0835177939
 10
232.1486460535
 20
82.0828804077
  0
ARC
  5
5A1
330
1F
100
AcDbEntity
  8
0
  6
Continuous
 62
     7
100
AcDbCircle
 10
182.8545355067
 20
77.2233435921
 30
0.0
 40
4.891298015616782
100
AcDbArc
 50
86.3387167871
 51
96.5803376918
  0
ENDSEC
  0
SECTION
  2
OBJECTS
  0
DICTIONARY
  5
C
330
0
100
AcDbDictionary
281
     1
  3
ACAD_GROUP
350
D
  3
ACAD_LAYOUT
350
1A
  3
ACAD_MLINESTYLE
350
17
  3
ACAD_PLOTSETTINGS
350
19
  3
ACAD_PLOTSTYLENAME
350
E
  3
ACAD_SCALELIST
350
47
  3
DWGPROPS
350
5A2
  0
DICTIONARY
  5
D
102
{ACAD_REACTORS
330
C
102
}
330
C
100
AcDbDictionary
281
     1
  0
DICTIONARY
  5
1A
102
{ACAD_REACTORS
330
C
102
}
330
C
100
AcDbDictionary
281
     1
  3
Layout1
350
1E
  3
Layout2
350
26
  3
Model
350
22
  0
DICTIONARY
  5
17
102
{ACAD_REACTORS
330
C
102
}
330
C
100
AcDbDictionary
281
     1
  3
Standard
350
18
  0
DICTIONARY
  5
19
102
{ACAD_REACTORS
330
C
102
}
330
C
100
AcDbDictionary
281
     1
  0
ACDBDICTIONARYWDFLT
  5
E
102
{ACAD_REACTORS
330
C
102
}
330
C
100
AcDbDictionary
281
     1
  3
Normal
350
F
100
AcDbDictionaryWithDefault
340
F
  0
DICTIONARY
  5
47
102
{ACAD_REACTORS
330
C
102
}
330
C
100
AcDbDictionary
281
     1
  3
A0
350
48
  3
A1
350
49
  3
A2
350
4A
  3
A3
350
4B
  3
A4
350
4C
  3
A5
350
4D
  3
A6
350
4E
  3
A7
350
4F
  3
A8
350
50
  3
A9
350
51
  3
B0
350
52
  3
B1
350
53
  3
B2
350
54
  3
B3
350
55
  3
B4
350
56
  3
B5
350
57
  3
B6
350
58
  3
B7
350
59
  3
B8
350
5A
  3
B9
350
5B
  3
C0
350
5C
  3
C1
350
5D
  3
C2
350
5E
  3
C3
350
5F
  3
C4
350
60
  3
C5
350
61
  3
C6
350
62
  3
C7
350
63
  3
C8
350
64
  3
C9
350
65
  3
D0
350
66
  3
D1
350
67
  3
D2
350
68
  0
XRECORD
  5
5A2
102
{ACAD_REACTORS
330
C
102
}
330
C
100
AcDbXrecord
280
     1
  1
DWGPROPS COOKIE
  2

  3

  4

  6

  7

  8
radek.stransky
  9

300
=
301
=
302
=
303
=
304
=
305
=
306
=
307
=
308
=
309
=
 40
0.0
 41
2459087.209483171
 42
2459087.209573171
  1

 90
        0
  0
LAYOUT
  5
1E
102
{ACAD_REACTORS
330
1A
102
}
330
1A
100
AcDbPlotSettings
  1

  2
none_device
  4

  6

 40
0.0
 41
0.0
 42
0.0
 43
0.0
 44
0.0
 45
0.0
 46
0.0
 47
0.0
 48
0.0
 49
0.0
140
0.0
141
0.0
142
1.0
143
1.0
 70
   688
 72
     1
 73
     0
 74
     5
  7

 75
    16
147
1.0
148
0.0
149
0.0
100
AcDbLayout
  1
Layout1
 70
     1
 71
     1
 10
0.0
 20
0.0
 11
420.0
 21
297.0
 12
0.0
 22
0.0
 32
0.0
 14
1.0000000000E+20
 24
1.0000000000E+20
 34
1.0000000000E+20
 15
-1.0000000000E+20
 25
-1.0000000000E+20
 35
-1.0000000000E+20
146
0.0
 13
0.0
 23
0.0
 33
0.0
 16
1.0
 26
0.0
 36
0.0
 17
0.0
 27
1.0
 37
0.0
 76
     0
330
1B
  0
LAYOUT
  5
26
102
{ACAD_REACTORS
330
1A
102
}
330
1A
100
AcDbPlotSettings
  1

  2
none_device
  4

  6

 40
0.0
 41
0.0
 42
0.0
 43
0.0
 44
0.0
 45
0.0
 46
0.0
 47
0.0
 48
0.0
 49
0.0
140
0.0
141
0.0
142
1.0
143
1.0
 70
   688
 72
     1
 73
     0
 74
     5
  7

 75
    16
147
1.0
148
0.0
149
0.0
100
AcDbLayout
  1
Layout2
 70
     1
 71
     2
 10
0.0
 20
0.0
 11
0.0
 21
0.0
 12
0.0
 22
0.0
 32
0.0
 14
0.0
 24
0.0
 34
0.0
 15
0.0
 25
0.0
 35
0.0
146
0.0
 13
0.0
 23
0.0
 33
0.0
 16
1.0
 26
0.0
 36
0.0
 17
0.0
 27
1.0
 37
0.0
 76
     0
330
23
  0
LAYOUT
  5
22
102
{ACAD_REACTORS
330
1A
102
}
330
1A
100
AcDbPlotSettings
  1

  2
none_device
  4
ANSI_A_(11.00_x_8.50_Inches)
  6

 40
6.35
 41
19.05
 42
6.35000508
 43
19.05000254
 44
279.4
 45
215.9
 46
-19.2054909373
 47
-5.8596705752
 48
0.0
 49
0.0
140
0.0
141
0.0
142
0.0074188948
143
1.0
 70
  1696
 72
     0
 73
     0
 74
     0
  7

 75
     0
147
0.0179189148
148
-1300.4909072572
149
0.0
100
AcDbLayout
  1
Model
 70
     1
 71
     0
 10
0.0
 20
0.0
 11
420.0
 21
297.0
 12
0.0
 22
0.0
 32
0.0
 14
75.6341218948
 24
81.077555299
 34
0.0
 15
1543.5077547445
 25
924.6505925408
 35
0.0
146
0.0
 13
0.0
 23
0.0
 33
0.0
 16
1.0
 26
0.0
 36
0.0
 17
0.0
 27
1.0
 37
0.0
 76
     0
330
1F
331
29
  0
MLINESTYLE
  5
18
102
{ACAD_REACTORS
330
17
102
}
330
17
100
AcDbMlineStyle
  2
Standard
 70
     0
  3

 62
   256
 51
90.0
 52
90.0
 71
     2
 49
0.5
 62
   256
  6
BYLAYER
 49
-0.5
 62
   256
  6
BYLAYER
  0
ACDBPLACEHOLDER
  5
F
102
{ACAD_REACTORS
330
E
102
}
330
E
  0
SCALE
  5
48
102
{ACAD_REACTORS
330
47
102
}
330
47
100
AcDbScale
 70
     0
300
1:1
140
1.0
141
1.0
290
     1
  0
SCALE
  5
49
102
{ACAD_REACTORS
330
47
102
}
330
47
100
AcDbScale
 70
     0
300
1:2
140
1.0
141
2.0
290
     0
  0
SCALE
  5
4A
102
{ACAD_REACTORS
330
47
102
}
330
47
100
AcDbScale
 70
     0
300
1:4
140
1.0
141
4.0
290
     0
  0
SCALE
  5
4B
102
{ACAD_REACTORS
330
47
102
}
330
47
100
AcDbScale
 70
     0
300
1:5
140
1.0
141
5.0
290
     0
  0
SCALE
  5
4C
102
{ACAD_REACTORS
330
47
102
}
330
47
100
AcDbScale
 70
     0
300
1:8
140
1.0
141
8.0
290
     0
  0
SCALE
  5
4D
102
{ACAD_REACTORS
330
47
102
}
330
47
100
AcDbScale
 70
     0
300
1:10
140
1.0
141
10.0
290
     0
  0
SCALE
  5
4E
102
{ACAD_REACTORS
330
47
102
}
330
47
100
AcDbScale
 70
     0
300
1:16
140
1.0
141
16.0
290
     0
  0
SCALE
  5
4F
102
{ACAD_REACTORS
330
47
102
}
330
47
100
AcDbScale
 70
     0
300
1:20
140
1.0
141
20.0
290
     0
  0
SCALE
  5
50
102
{ACAD_REACTORS
330
47
102
}
330
47
100
AcDbScale
 70
     0
300
1:30
140
1.0
141
30.0
290
     0
  0
SCALE
  5
51
102
{ACAD_REACTORS
330
47
102
}
330
47
100
AcDbScale
 70
     0
300
1:40
140
1.0
141
40.0
290
     0
  0
SCALE
  5
52
102
{ACAD_REACTORS
330
47
102
}
330
47
100
AcDbScale
 70
     0
300
1:50
140
1.0
141
50.0
290
     0
  0
SCALE
  5
53
102
{ACAD_REACTORS
330
47
102
}
330
47
100
AcDbScale
 70
     0
300
1:100
140
1.0
141
100.0
290
     0
  0
SCALE
  5
54
102
{ACAD_REACTORS
330
47
102
}
330
47
100
AcDbScale
 70
     0
300
2:1
140
2.0
141
1.0
290
     0
  0
SCALE
  5
55
102
{ACAD_REACTORS
330
47
102
}
330
47
100
AcDbScale
 70
     0
300
4:1
140
4.0
141
1.0
290
     0
  0
SCALE
  5
56
102
{ACAD_REACTORS
330
47
102
}
330
47
100
AcDbScale
 70
     0
300
8:1
140
8.0
141
1.0
290
     0
  0
SCALE
  5
57
102
{ACAD_REACTORS
330
47
102
}
330
47
100
AcDbScale
 70
     0
300
10:1
140
10.0
141
1.0
290
     0
  0
SCALE
  5
58
102
{ACAD_REACTORS
330
47
102
}
330
47
100
AcDbScale
 70
     0
300
100:1
140
100.0
141
1.0
290
     0
  0
SCALE
  5
59
102
{ACAD_REACTORS
330
47
102
}
330
47
100
AcDbScale
 70
     0
300
1/128" = 1'-0"
140
0.0078125
141
12.0
290
     0
  0
SCALE
  5
5A
102
{ACAD_REACTORS
330
47
102
}
330
47
100
AcDbScale
 70
     0
300
1/64" = 1'-0"
140
0.015625
141
12.0
290
     0
  0
SCALE
  5
5B
102
{ACAD_REACTORS
330
47
102
}
330
47
100
AcDbScale
 70
     0
300
1/32" = 1'-0"
140
0.03125
141
12.0
290
     0
  0
SCALE
  5
5C
102
{ACAD_REACTORS
330
47
102
}
330
47
100
AcDbScale
 70
     0
300
1/16" = 1'-0"
140
0.0625
141
12.0
290
     0
  0
SCALE
  5
5D
102
{ACAD_REACTORS
330
47
102
}
330
47
100
AcDbScale
 70
     0
300
3/32" = 1'-0"
140
0.09375
141
12.0
290
     0
  0
SCALE
  5
5E
102
{ACAD_REACTORS
330
47
102
}
330
47
100
AcDbScale
 70
     0
300
1/8" = 1'-0"
140
0.125
141
12.0
290
     0
  0
SCALE
  5
5F
102
{ACAD_REACTORS
330
47
102
}
330
47
100
AcDbScale
 70
     0
300
3/16" = 1'-0"
140
0.1875
141
12.0
290
     0
  0
SCALE
  5
60
102
{ACAD_REACTORS
330
47
102
}
330
47
100
AcDbScale
 70
     0
300
1/4" = 1'-0"
140
0.25
141
12.0
290
     0
  0
SCALE
  5
61
102
{ACAD_REACTORS
330
47
102
}
330
47
100
AcDbScale
 70
     0
300
3/8" = 1'-0"
140
0.375
141
12.0
290
     0
  0
SCALE
  5
62
102
{ACAD_REACTORS
330
47
102
}
330
47
100
AcDbScale
 70
     0
300
1/2" = 1'-0"
140
0.5
141
12.0
290
     0
  0
SCALE
  5
63
102
{ACAD_REACTORS
330
47
102
}
330
47
100
AcDbScale
 70
     0
300
3/4" = 1'-0"
140
0.75
141
12.0
290
     0
  0
SCALE
  5
64
102
{ACAD_REACTORS
330
47
102
}
330
47
100
AcDbScale
 70
     0
300
1" = 1'-0"
140
1.0
141
12.0
290
     0
  0
SCALE
  5
65
102
{ACAD_REACTORS
330
47
102
}
330
47
100
AcDbScale
 70
     0
300
1-1/2" = 1'-0"
140
1.5
141
12.0
290
     0
  0
SCALE
  5
66
102
{ACAD_REACTORS
330
47
102
}
330
47
100
AcDbScale
 70
     0
300
3" = 1'-0"
140
3.0
141
12.0
290
     0
  0
SCALE
  5
67
102
{ACAD_REACTORS
330
47
102
}
330
47
100
AcDbScale
 70
     0
300
6" = 1'-0"
140
6.0
141
12.0
290
     0
  0
SCALE
  5
68
102
{ACAD_REACTORS
330
47
102
}
330
47
100
AcDbScale
 70
     0
300
1'-0" = 1'-0"
140
12.0
141
12.0
290
     0
  0
ENDSEC
  0
EOF
