  0
SECTION
  2
HEADER
  9
$ACADVER
  1
AC1015
  9
$ACADMAINTVER
 70
     6
  9
$DWGCODEPAGE
  3
ANSI_1250
  9
$INSBASE
 10
0.0
 20
0.0
 30
0.0
  9
$EXTMIN
 10
0.0
 20
0.0
 30
0.0
  9
$EXTMAX
 10
20000.0
 20
10000.0
 30
0.0
  9
$LIMMIN
 10
0.0
 20
0.0
  9
$LIMMAX
 10
20000.0
 20
10000.0
  9
$ORTHOMODE
 70
     0
  9
$REGENMODE
 70
     1
  9
$FILLMODE
 70
     1
  9
$QTEXTMODE
 70
     0
  9
$MIRRTEXT
 70
     1
  9
$LTSCALE
 40
1.0
  9
$ATTMODE
 70
     1
  9
$TEXTSIZE
 40
2.0
  9
$TRACEWID
 40
1.0
  9
$TEXTSTYLE
  7
Standard
  9
$CLAYER
  8
0
  9
$CELTYPE
  6
ByLayer
  9
$CECOLOR
 62
   256
  9
$CELTSCALE
 40
1.0
  9
$DISPSILH
 70
     0
  9
$DIMSCALE
 40
1.0
  9
$DIMASZ
 40
2.0
  9
$DIMEXO
 40
1.0
  9
$DIMDLI
 40
3.75
  9
$DIMRND
 40
0.0
  9
$DIMDLE
 40
0.0
  9
$DIMEXE
 40
1.0
  9
$DIMTP
 40
0.0
  9
$DIMTM
 40
0.0
  9
$DIMTXT
 40
2.0
  9
$DIMCEN
 40
2.5
  9
$DIMTSZ
 40
0.0
  9
$DIMTOL
 70
     0
  9
$DIMLIM
 70
     0
  9
$DIMTIH
 70
     1
  9
$DIMTOH
 70
     1
  9
$DIMSE1
 70
     0
  9
$DIMSE2
 70
     0
  9
$DIMTAD
 70
     1
  9
$DIMZIN
 70
     0
  9
$DIMBLK
  1

  9
$DIMASO
 70
     1
  9
$DIMSHO
 70
     1
  9
$DIMPOST
  1

  9
$DIMAPOST
  1

  9
$DIMALT
 70
     0
  9
$DIMALTD
 70
     3
  9
$DIMALTF
 40
0.0393700787
  9
$DIMLFAC
 40
1.0
  9
$DIMTOFL
 70
     1
  9
$DIMTVP
 40
0.0
  9
$DIMTIX
 70
     0
  9
$DIMSOXD
 70
     0
  9
$DIMSAH
 70
     0
  9
$DIMBLK1
  1

  9
$DIMBLK2
  1

  9
$DIMSTYLE
  2
ISO-25
  9
$DIMCLRD
 70
     0
  9
$DIMCLRE
 70
     0
  9
$DIMCLRT
 70
     0
  9
$DIMTFAC
 40
1.0
  9
$DIMGAP
 40
1.524
  9
$DIMJUST
 70
     0
  9
$DIMSD1
 70
     0
  9
$DIMSD2
 70
     0
  9
$DIMTOLJ
 70
     0
  9
$DIMTZIN
 70
     0
  9
$DIMALTZ
 70
     0
  9
$DIMALTTZ
 70
     0
  9
$DIMUPT
 70
     0
  9
$DIMDEC
 70
     2
  9
$DIMTDEC
 70
     0
  9
$DIMALTU
 70
     2
  9
$DIMALTTD
 70
     3
  9
$DIMTXSTY
  7
Standard
  9
$DIMAUNIT
 70
     0
  9
$DIMADEC
 70
     2
  9
$DIMALTRND
 40
0.0
  9
$DIMAZIN
 70
     0
  9
$DIMDSEP
 70
    44
  9
$DIMATFIT
 70
     3
  9
$DIMFRAC
 70
     0
  9
$DIMLDRBLK
  1

  9
$DIMLUNIT
 70
     2
  9
$DIMLWD
 70
    -2
  9
$DIMLWE
 70
    -2
  9
$DIMTMOVE
 70
     0
  9
$LUNITS
 70
     2
  9
$LUPREC
 70
     3
  9
$SKETCHINC
 40
1.0
  9
$FILLETRAD
 40
10.0
  9
$AUNITS
 70
     0
  9
$AUPREC
 70
     2
  9
$MENU
  1
.
  9
$ELEVATION
 40
0.0
  9
$PELEVATION
 40
0.0
  9
$THICKNESS
 40
0.0
  9
$LIMCHECK
 70
     0
  9
$CHAMFERA
 40
0.0
  9
$CHAMFERB
 40
0.0
  9
$CHAMFERC
 40
0.0
  9
$CHAMFERD
 40
0.0
  9
$SKPOLY
 70
     0
  9
$TDCREATE
 40
2459094.328363958
  9
$TDUCREATE
 40
2459094.245030625
  9
$TDUPDATE
 40
2459094.328364363
  9
$TDUUPDATE
 40
2459094.24503103
  9
$TDINDWG
 40
0.0000000116
  9
$TDUSRTIMER
 40
0.0000000116
  9
$USRTIMER
 70
     1
  9
$ANGBASE
 50
0.0
  9
$ANGDIR
 70
     0
  9
$PDMODE
 70
     0
  9
$PDSIZE
 40
-1.0
  9
$PLINEWID
 40
0.0
  9
$SPLFRAME
 70
     0
  9
$SPLINETYPE
 70
     6
  9
$SPLINESEGS
 70
     8
  9
$HANDSEED
  5
218
  9
$SURFTAB1
 70
     6
  9
$SURFTAB2
 70
     6
  9
$SURFTYPE
 70
     6
  9
$SURFU
 70
     6
  9
$SURFV
 70
     6
  9
$UCSBASE
  2

  9
$UCSNAME
  2

  9
$UCSORG
 10
0.0
 20
0.0
 30
0.0
  9
$UCSXDIR
 10
1.0
 20
0.0
 30
0.0
  9
$UCSYDIR
 10
0.0
 20
1.0
 30
0.0
  9
$UCSORTHOREF
  2

  9
$UCSORTHOVIEW
 70
     0
  9
$UCSORGTOP
 10
0.0
 20
0.0
 30
0.0
  9
$UCSORGBOTTOM
 10
0.0
 20
0.0
 30
0.0
  9
$UCSORGLEFT
 10
0.0
 20
0.0
 30
0.0
  9
$UCSORGRIGHT
 10
0.0
 20
0.0
 30
0.0
  9
$UCSORGFRONT
 10
0.0
 20
0.0
 30
0.0
  9
$UCSORGBACK
 10
0.0
 20
0.0
 30
0.0
  9
$PUCSBASE
  2

  9
$PUCSNAME
  2

  9
$PUCSORG
 10
0.0
 20
0.0
 30
0.0
  9
$PUCSXDIR
 10
1.0
 20
0.0
 30
0.0
  9
$PUCSYDIR
 10
0.0
 20
1.0
 30
0.0
  9
$PUCSORTHOREF
  2

  9
$PUCSORTHOVIEW
 70
     0
  9
$PUCSORGTOP
 10
0.0
 20
0.0
 30
0.0
  9
$PUCSORGBOTTOM
 10
0.0
 20
0.0
 30
0.0
  9
$PUCSORGLEFT
 10
0.0
 20
0.0
 30
0.0
  9
$PUCSORGRIGHT
 10
0.0
 20
0.0
 30
0.0
  9
$PUCSORGFRONT
 10
0.0
 20
0.0
 30
0.0
  9
$PUCSORGBACK
 10
0.0
 20
0.0
 30
0.0
  9
$USERI1
 70
     0
  9
$USERI2
 70
     0
  9
$USERI3
 70
     0
  9
$USERI4
 70
     0
  9
$USERI5
 70
     0
  9
$USERR1
 40
0.0
  9
$USERR2
 40
0.0
  9
$USERR3
 40
0.0
  9
$USERR4
 40
0.0
  9
$USERR5
 40
0.0
  9
$WORLDVIEW
 70
     1
  9
$SHADEDGE
 70
     3
  9
$SHADEDIF
 70
    70
  9
$TILEMODE
 70
     1
  9
$MAXACTVP
 70
    64
  9
$PINSBASE
 10
0.0
 20
0.0
 30
0.0
  9
$PLIMCHECK
 70
     0
  9
$PEXTMIN
 10
1.0000000000E+20
 20
1.0000000000E+20
 30
1.0000000000E+20
  9
$PEXTMAX
 10
-1.0000000000E+20
 20
-1.0000000000E+20
 30
-1.0000000000E+20
  9
$PLIMMIN
 10
0.0
 20
0.0
  9
$PLIMMAX
 10
420.0
 20
297.0
  9
$UNITMODE
 70
     0
  9
$VISRETAIN
 70
     1
  9
$PLINEGEN
 70
     0
  9
$PSLTSCALE
 70
     1
  9
$TREEDEPTH
 70
  3020
  9
$CMLSTYLE
  2
Standard
  9
$CMLJUST
 70
     0
  9
$CMLSCALE
 40
20.0
  9
$PROXYGRAPHICS
 70
     1
  9
$MEASUREMENT
 70
     1
  9
$CELWEIGHT
370
    -1
  9
$ENDCAPS
280
     0
  9
$JOINSTYLE
280
     0
  9
$LWDISPLAY
290
     1
  9
$INSUNITS
 70
     4
  9
$HYPERLINKBASE
  1

  9
$STYLESHEET
  1

  9
$XEDIT
290
     1
  9
$CEPSNTYPE
380
     0
  9
$PSTYLEMODE
290
     1
  9
$FINGERPRINTGUID
  2
{a11ac6e7-5d0c-4cd5-95b2-65f207bf93b1}
  9
$VERSIONGUID
  2
{FAEB1C32-E019-11D5-929B-00C0DF256EC4}
  9
$EXTNAMES
290
     1
  9
$PSVPSCALE
 40
0.0
  9
$OLESTARTUP
290
     0
  0
ENDSEC
  0
SECTION
  2
CLASSES
  0
CLASS
  1
ACDBDICTIONARYWDFLT
  2
AcDbDictionaryWithDefault
  3
ObjectDBX Classes
 90
        0
280
     0
281
     0
  0
CLASS
  1
VISUALSTYLE
  2
AcDbVisualStyle
  3
ObjectDBX Classes
 90
     4095
280
     0
281
     0
  0
CLASS
  1
MATERIAL
  2
AcDbMaterial
  3
ObjectDBX Classes
 90
     1153
280
     0
281
     0
  0
CLASS
  1
SCALE
  2
AcDbScale
  3
ObjectDBX Classes
 90
     1153
280
     0
281
     0
  0
CLASS
  1
TABLESTYLE
  2
AcDbTableStyle
  3
ObjectDBX Classes
 90
     4095
280
     0
281
     0
  0
CLASS
  1
MLEADERSTYLE
  2
AcDbMLeaderStyle
  3
ACDB_MLEADERSTYLE_CLASS
 90
     4095
280
     0
281
     0
  0
CLASS
  1
SUN
  2
AcDbSun
  3
SCENEOE
 90
     1153
280
     0
281
     0
  0
CLASS
  1
ACDBPLACEHOLDER
  2
AcDbPlaceHolder
  3
ObjectDBX Classes
 90
        0
280
     0
281
     0
  0
CLASS
  1
LAYOUT
  2
AcDbLayout
  3
ObjectDBX Classes
 90
        0
280
     0
281
     0
  0
ENDSEC
  0
SECTION
  2
TABLES
  0
TABLE
  2
VPORT
  5
8
330
0
100
AcDbSymbolTable
 70
     1
  0
VPORT
  5
29
330
8
100
AcDbSymbolTableRecord
100
AcDbViewportTableRecord
  2
*Active
 70
     0
 10
0.0
 20
0.0
 11
1.0
 21
1.0
 12
10000.0
 22
5000.0
 13
0.0
 23
0.0
 14
10.0
 24
10.0
 15
10.0
 25
10.0
 16
0.0
 26
0.0
 36
1.0
 17
0.0
 27
0.0
 37
0.0
 40
10000.0
 41
2.0
 42
50.0
 43
0.0
 44
0.0
 50
0.0
 51
0.0
 71
     0
 72
  2000
 73
     1
 74
     3
 75
     0
 76
     0
 77
     0
 78
     0
281
     0
 65
     1
110
0.0
120
0.0
130
0.0
111
1.0
121
0.0
131
0.0
112
0.0
122
1.0
132
0.0
 79
     0
146
0.0
  0
ENDTAB
  0
TABLE
  2
LTYPE
  5
5
330
0
100
AcDbSymbolTable
 70
     6
  0
LTYPE
  5
14
330
5
100
AcDbSymbolTableRecord
100
AcDbLinetypeTableRecord
  2
ByBlock
 70
     0
  3

 72
    65
 73
     0
 40
0.0
  0
LTYPE
  5
15
330
5
100
AcDbSymbolTableRecord
100
AcDbLinetypeTableRecord
  2
ByLayer
 70
     0
  3

 72
    65
 73
     0
 40
0.0
  0
LTYPE
  5
16
330
5
100
AcDbSymbolTableRecord
100
AcDbLinetypeTableRecord
  2
Continuous
 70
     0
  3
Solid line
 72
    65
 73
     0
 40
0.0
  0
LTYPE
  5
6E
330
5
100
AcDbSymbolTableRecord
100
AcDbLinetypeTableRecord
  2
HIDDEN
 70
     0
  3
Hidden __ __ __ __ __ __ __ __ __ __ __ __ __ __
 72
    65
 73
     2
 40
1.905
 49
1.27
 74
     0
 49
-0.635
 74
     0
  0
LTYPE
  5
6F
330
5
100
AcDbSymbolTableRecord
100
AcDbLinetypeTableRecord
  2
PHANTOM
 70
     0
  3
Phantom ______  __  __  ______  __  __  ______
 72
    65
 73
     6
 40
12.7
 49
6.35
 74
     0
 49
-1.27
 74
     0
 49
1.27
 74
     0
 49
-1.27
 74
     0
 49
1.27
 74
     0
 49
-1.27
 74
     0
  0
LTYPE
  5
70
330
5
100
AcDbSymbolTableRecord
100
AcDbLinetypeTableRecord
  2
CENTER
 70
     0
  3
Center ____ _ ____ _ ____ _ ____ _ ____ _ ____
 72
    65
 73
     4
 40
10.16
 49
6.35
 74
     0
 49
-1.27
 74
     0
 49
1.27
 74
     0
 49
-1.27
 74
     0
  0
LTYPE
  5
71
330
5
100
AcDbSymbolTableRecord
100
AcDbLinetypeTableRecord
  2
CENTERX2
 70
     0
  3
Center (2x) ________  __  ________  __  _____
 72
    65
 73
     4
 40
20.32
 49
12.7
 74
     0
 49
-2.54
 74
     0
 49
2.54
 74
     0
 49
-2.54
 74
     0
  0
LTYPE
  5
72
330
5
100
AcDbSymbolTableRecord
100
AcDbLinetypeTableRecord
  2
DOT2
 70
     0
  3
Dot (.5x) ........................................
 72
    65
 73
     2
 40
0.635
 49
0.0
 74
     0
 49
-0.635
 74
     0
  0
ENDTAB
  0
TABLE
  2
LAYER
  5
2
330
0
100
AcDbSymbolTable
 70
    13
  0
LAYER
  5
10
330
2
100
AcDbSymbolTableRecord
100
AcDbLayerTableRecord
  2
0
 70
     0
 62
     7
  6
Continuous
370
    -3
390
F
  0
LAYER
  5
73
330
2
100
AcDbSymbolTableRecord
100
AcDbLayerTableRecord
  2
FORMAT
 70
     0
 62
     7
  6
Continuous
370
    -3
390
F
  0
LAYER
  5
74
330
2
100
AcDbSymbolTableRecord
100
AcDbLayerTableRecord
  2
OSA
 70
     0
 62
     7
  6
CENTER
370
    -3
390
F
  0
LAYER
  5
75
330
2
100
AcDbSymbolTableRecord
100
AcDbLayerTableRecord
  2
0_35
 70
     0
 62
     7
  6
Continuous
370
    35
390
F
  0
LAYER
  5
76
330
2
100
AcDbSymbolTableRecord
100
AcDbLayerTableRecord
  2
0_5
 70
     0
 62
     7
  6
Continuous
370
    50
390
F
  0
LAYER
  5
77
330
2
100
AcDbSymbolTableRecord
100
AcDbLayerTableRecord
  2
0_25
 70
     0
 62
     7
  6
Continuous
370
    25
390
F
  0
LAYER
  5
78
330
2
100
AcDbSymbolTableRecord
100
AcDbLayerTableRecord
  2
0_18
 70
     0
 62
     7
  6
Continuous
370
    -3
390
F
  0
LAYER
  5
79
330
2
100
AcDbSymbolTableRecord
100
AcDbLayerTableRecord
  2
SLD-0
 70
     0
 62
   179
  6
Continuous
370
    -3
390
F
  0
LAYER
  5
7A
330
2
100
AcDbSymbolTableRecord
100
AcDbLayerTableRecord
  2
KOTY
 70
     0
 62
     7
  6
Continuous
370
    -3
390
F
  0
LAYER
  5
7B
330
2
100
AcDbSymbolTableRecord
100
AcDbLayerTableRecord
  2
SILNA
 70
     0
 62
   179
  6
Continuous
370
    -3
390
F
  0
LAYER
  5
7C
330
2
100
AcDbSymbolTableRecord
100
AcDbLayerTableRecord
  2
0_18_1
 70
     0
 62
   179
  6
Continuous
370
    -3
390
F
  0
LAYER
  5
7D
330
2
100
AcDbSymbolTableRecord
100
AcDbLayerTableRecord
  2
0_35_1
 70
     0
 62
   179
  6
Continuous
370
    35
390
F
  0
LAYER
  5
7E
330
2
100
AcDbSymbolTableRecord
100
AcDbLayerTableRecord
  2
0_5_1
 70
     0
 62
   179
  6
Continuous
370
    50
390
F
  0
ENDTAB
  0
TABLE
  2
STYLE
  5
3
330
0
100
AcDbSymbolTable
 70
     1
  0
STYLE
  5
11
330
3
100
AcDbSymbolTableRecord
100
AcDbTextStyleTableRecord
  2
Standard
 70
     0
 40
0.0
 41
1.0
 50
0.0
 71
     0
 42
2.0
  3
txt
  4

  0
ENDTAB
  0
TABLE
  2
VIEW
  5
6
330
0
100
AcDbSymbolTable
 70
     0
  0
ENDTAB
  0
TABLE
  2
UCS
  5
7
330
0
100
AcDbSymbolTable
 70
     0
  0
ENDTAB
  0
TABLE
  2
APPID
  5
9
330
0
100
AcDbSymbolTable
 70
     1
  0
APPID
  5
12
330
9
100
AcDbSymbolTableRecord
100
AcDbRegAppTableRecord
  2
ACAD
 70
     0
  0
ENDTAB
  0
TABLE
  2
DIMSTYLE
  5
A
330
0
100
AcDbSymbolTable
 70
     1
100
AcDbDimStyleTable
  0
DIMSTYLE
105
27
330
A
100
AcDbSymbolTableRecord
100
AcDbDimStyleTableRecord
  2
ISO-25
 70
     0
 41
2.5
 42
0.625
 43
3.75
 44
1.25
 73
     0
 74
     0
 77
     1
 78
     8
140
2.5
141
2.5
143
0.0393700787
147
0.625
171
     3
172
     1
178
     0
271
     2
272
     2
274
     3
278
    44
283
     0
284
     8
340
11
  0
ENDTAB
  0
TABLE
  2
BLOCK_RECORD
  5
1
330
0
100
AcDbSymbolTable
 70
     1
  0
BLOCK_RECORD
  5
1F
330
1
100
AcDbSymbolTableRecord
100
AcDbBlockTableRecord
  2
*Model_Space
340
22
  0
BLOCK_RECORD
  5
1B
330
1
100
AcDbSymbolTableRecord
100
AcDbBlockTableRecord
  2
*Paper_Space
340
1E
  0
BLOCK_RECORD
  5
23
330
1
100
AcDbSymbolTableRecord
100
AcDbBlockTableRecord
  2
*Paper_Space0
340
26
  0
ENDTAB
  0
ENDSEC
  0
SECTION
  2
BLOCKS
  0
BLOCK
  5
20
330
1F
100
AcDbEntity
  8
0
100
AcDbBlockBegin
  2
*Model_Space
 70
     0
 10
0.0
 20
0.0
 30
0.0
  3
*Model_Space
  1

  0
ENDBLK
  5
21
330
1F
100
AcDbEntity
  8
0
100
AcDbBlockEnd
  0
BLOCK
  5
1C
330
1B
100
AcDbEntity
 67
     1
  8
0
100
AcDbBlockBegin
  2
*Paper_Space
 70
     0
 10
0.0
 20
0.0
 30
0.0
  3
*Paper_Space
  1

  0
ENDBLK
  5
1D
330
1B
100
AcDbEntity
 67
     1
  8
0
100
AcDbBlockEnd
  0
BLOCK
  5
24
330
23
100
AcDbEntity
  8
0
100
AcDbBlockBegin
  2
*Paper_Space0
 70
     0
 10
0.0
 20
0.0
 30
0.0
  3
*Paper_Space0
  1

  0
ENDBLK
  5
25
330
23
100
AcDbEntity
  8
0
100
AcDbBlockEnd
  0
ENDSEC
  0
SECTION
  2
ENTITIES
  0
ARC
  5
7F
330
1F
100
AcDbEntity
  8
0
  6
Continuous
 62
     7
370
    25
100
AcDbCircle
 10
10474.8249594728
 20
7215.5470896254
 30
0.0
 40
1.0
100
AcDbArc
 50
90.0
 51
212.7790806681
  0
ARC
  5
80
330
1F
100
AcDbEntity
  8
0
  6
Continuous
 62
     7
370
    25
100
AcDbCircle
 10
10506.3249594728
 20
7215.5470896254
 30
0.0
 40
1.000000000000492
100
AcDbArc
 50
327.220919332
 51
89.9999999999
  0
ARC
  5
81
330
1F
100
AcDbEntity
  8
0
  6
Continuous
 62
     7
370
    25
100
AcDbCircle
 10
10483.0749594729
 20
7220.8595896254
 30
0.0
 40
10.8125
100
AcDbArc
 50
212.7790806681
 51
270.0
  0
ARC
  5
82
330
1F
100
AcDbEntity
  8
0
  6
Continuous
 62
     7
370
    25
100
AcDbCircle
 10
10498.0749594728
 20
7220.8595896254
 30
0.0
 40
10.81250000000049
100
AcDbArc
 50
270.0
 51
327.2209193319
  0
ARC
  5
83
330
1F
100
AcDbEntity
  8
0
  6
Continuous
 62
     7
370
    25
100
AcDbCircle
 10
10199.8249594728
 20
7215.5470896254
 30
0.0
 40
1.000000000000492
100
AcDbArc
 50
90.0
 51
212.779080668
  0
ARC
  5
84
330
1F
100
AcDbEntity
  8
0
  6
Continuous
 62
     7
370
    25
100
AcDbCircle
 10
10231.3249594728
 20
7215.5470896254
 30
0.0
 40
1.000000000002022
100
AcDbArc
 50
327.220919332
 51
89.9999999999
  0
ARC
  5
85
330
1F
100
AcDbEntity
  8
0
  6
Continuous
 62
     7
370
    25
100
AcDbCircle
 10
10208.0749594729
 20
7220.8595896254
 30
0.0
 40
10.81250000000049
100
AcDbArc
 50
212.7790806681
 51
270.0
  0
ARC
  5
86
330
1F
100
AcDbEntity
  8
0
  6
Continuous
 62
     7
370
    25
100
AcDbCircle
 10
10223.0749594728
 20
7220.8595896254
 30
0.0
 40
10.81250000000202
100
AcDbArc
 50
270.0
 51
327.2209193319
  0
LINE
  5
87
330
1F
100
AcDbEntity
  8
0
  6
Continuous
 62
     7
370
    25
100
AcDbLine
 10
11475.5749533743
 20
6700.5306097044
 30
0.0
 11
11475.5749533743
 21
6699.9056096907
 31
0.0
  0
LINE
  5
88
330
1F
100
AcDbEntity
  8
0
  6
Continuous
 62
     7
370
    25
100
AcDbLine
 10
11475.5749533743
 20
6705.5306097044
 30
0.0
 11
11475.5749533743
 21
6704.9056096907
 31
0.0
  0
LINE
  5
89
330
1F
100
AcDbEntity
  8
0
  6
Continuous
 62
     7
370
    25
100
AcDbLine
 10
11505.5749533743
 20
6707.4056096907
 30
0.0
 11
11505.5749533743
 21
6708.0306097044
 31
0.0
  0
LINE
  5
8A
330
1F
100
AcDbEntity
  8
0
  6
Continuous
 62
     7
370
    25
100
AcDbLine
 10
11505.5749533743
 20
6702.4056096907
 30
0.0
 11
11505.5749533743
 21
6703.0306097044
 31
0.0
  0
SPLINE
  5
8B
330
1F
100
AcDbEntity
  8
0
  6
Continuous
 62
     7
370
    25
100
AcDbSpline
210
0.0
220
0.0
230
1.0
 70
     8
 71
     3
 72
     9
 73
     5
 74
     0
 42
0.00000001
 43
0.00000001
 40
0.0
 40
0.0
 40
0.0
 40
0.0
 40
0.4998386739411621
 40
1.0
 40
1.0
 40
1.0
 40
1.0
 10
11502.80255635236
 20
6705.757102357148
 30
0.0
 10
11503.25529937735
 20
6706.020013722204
 30
0.0
 10
11504.16107767863
 20
6706.54600616489
 30
0.0
 10
11505.06718961939
 20
6707.071509657889
 30
0.0
 10
11505.52039176924
 20
6707.334346181796
 30
0.0
  0
SPLINE
  5
8C
330
1F
100
AcDbEntity
  8
0
  6
Continuous
 62
     7
370
    25
100
AcDbSpline
210
0.0
220
0.0
230
1.0
 70
     8
 71
     3
 72
     9
 73
     5
 74
     0
 42
0.00000001
 43
0.00000001
 40
0.0
 40
0.0
 40
0.0
 40
0.0
 40
0.5001613260588266
 40
1.0
 40
1.0
 40
1.0
 40
1.0
 10
11475.62951497945
 20
6704.834346181795
 30
0.0
 10
11476.08271712929
 20
6704.571509657889
 30
0.0
 10
11476.98882907006
 20
6704.04600616489
 30
0.0
 10
11477.89460737133
 20
6703.520013722203
 30
0.0
 10
11478.34735039633
 20
6703.257102357147
 30
0.0
  0
SPLINE
  5
8D
330
1F
100
AcDbEntity
  8
0
  6
Continuous
 62
     7
370
    25
100
AcDbSpline
210
0.0
220
0.0
230
1.0
 70
     8
 71
     3
 72
     9
 73
     5
 74
     0
 42
0.00000001
 43
0.00000001
 40
0.0
 40
0.0
 40
0.0
 40
0.0
 40
0.9639567421454222
 40
1.0
 40
1.0
 40
1.0
 40
1.0
 10
11475.62951497945
 20
6699.834346181795
 30
0.0
 10
11476.08274292769
 20
6699.571547465521
 30
0.0
 10
11476.55291749926
 20
6699.298922455721
 30
0.0
 10
11477.0229189577
 20
6699.0260437481
 30
0.0
 10
11477.03985934146
 20
6699.016208310478
 30
0.0
  0
SPLINE
  5
8E
330
1F
100
AcDbEntity
  8
0
  6
Continuous
 62
     7
370
    25
100
AcDbSpline
210
0.0
220
0.0
230
1.0
 70
     8
 71
     3
 72
     9
 73
     5
 74
     0
 42
0.00000001
 43
0.00000001
 40
0.0
 40
0.0
 40
0.0
 40
0.0
 40
0.4998386739411885
 40
1.0
 40
1.0
 40
1.0
 40
1.0
 10
11502.80255635236
 20
6700.757102357148
 30
0.0
 10
11503.25529937735
 20
6701.020013722204
 30
0.0
 10
11504.16107767863
 20
6701.54600616489
 30
0.0
 10
11505.06718961939
 20
6702.071509657889
 30
0.0
 10
11505.52039176924
 20
6702.334346181795
 30
0.0
  0
SPLINE
  5
8F
330
1F
100
AcDbEntity
  8
0
  6
Continuous
 62
     7
370
    25
100
AcDbSpline
210
0.0
220
0.0
230
1.0
 70
     8
 71
     3
 72
     9
 73
     5
 74
     0
 42
0.00000001
 43
0.00000001
 40
0.0
 40
0.0
 40
0.0
 40
0.0
 40
0.5183101709168197
 40
1.0
 40
1.0
 40
1.0
 40
1.0
 10
11505.49661093219
 20
6703.111653196476
 30
0.0
 10
11505.04245418262
 20
6703.375020128577
 30
0.0
 10
11504.1662283722
 20
6703.883146240853
 30
0.0
 10
11503.29046855995
 20
6704.391967468889
 30
0.0
 10
11502.86862396567
 20
6704.637061479256
 30
0.0
  0
SPLINE
  5
90
330
1F
100
AcDbEntity
  8
0
  6
Continuous
 62
     7
370
    25
100
AcDbSpline
210
0.0
220
0.0
230
1.0
 70
     8
 71
     3
 72
     9
 73
     5
 74
     0
 42
0.00000001
 43
0.00000001
 40
0.0
 40
0.0
 40
0.0
 40
0.0
 40
0.8449524033692528
 40
1.0
 40
1.0
 40
1.0
 40
1.0
 10
11505.49661093219
 20
6708.111653196476
 30
0.0
 10
11505.04242788448
 20
6708.374980900416
 30
0.0
 10
11504.5049028761
 20
6708.686628873592
 30
0.0
 10
11503.96766372003
 20
6708.998703244239
 30
0.0
 10
11503.88436608006
 20
6709.047089625379
 30
0.0
  0
SPLINE
  5
91
330
1F
100
AcDbEntity
  8
0
  6
Continuous
 62
     7
370
    25
100
AcDbSpline
210
0.0
220
0.0
230
1.0
 70
     8
 71
     3
 72
     9
 73
     5
 74
     0
 42
0.00000001
 43
0.00000001
 40
0.0
 40
0.0
 40
0.0
 40
0.0
 40
0.4997715128279782
 40
1.0
 40
1.0
 40
1.0
 40
1.0
 10
11478.37625877066
 20
6707.19222622896
 30
0.0
 10
11477.92275967286
 20
6706.928737764801
 30
0.0
 10
11477.01534681285
 20
6706.401519911447
 30
0.0
 10
11476.10745111029
 20
6705.875022300101
 30
0.0
 10
11475.6532958165
 20
6705.611653196475
 30
0.0
  0
SPLINE
  5
92
330
1F
100
AcDbEntity
  8
0
  6
Continuous
 62
     7
370
    25
100
AcDbSpline
210
0.0
220
0.0
230
1.0
 70
     8
 71
     3
 72
     9
 73
     5
 74
     0
 42
0.00000001
 43
0.00000001
 40
0.0
 40
0.0
 40
0.0
 40
0.0
 40
0.4997715128279779
 40
1.0
 40
1.0
 40
1.0
 40
1.0
 10
11478.37625877066
 20
6702.19222622896
 30
0.0
 10
11477.92275967286
 20
6701.928737764801
 30
0.0
 10
11477.01534681285
 20
6701.401519911447
 30
0.0
 10
11476.10745111029
 20
6700.875022300101
 30
0.0
 10
11475.6532958165
 20
6700.611653196476
 30
0.0
  0
LINE
  5
93
330
1F
100
AcDbEntity
  8
0
  6
Continuous
 62
     7
370
    25
100
AcDbLine
 10
11503.7483458532
 20
6699.1260940343
 30
0.0
 11
11502.8686239657
 21
6699.6370614793
 31
0.0
  0
LINE
  5
94
330
1F
100
AcDbEntity
  8
0
  6
Continuous
 62
     7
370
    25
100
AcDbLine
 10
11502.8686239657
 20
6704.5908518844
 30
0.0
 11
11502.8686239657
 21
6705.7954600334
 31
0.0
  0
LINE
  5
95
330
1F
100
AcDbEntity
  8
0
  6
Continuous
 62
     7
370
    25
100
AcDbLine
 10
11478.5169391998
 20
6703.500682602
 30
0.0
 11
11478.5169391998
 21
6702.250682602
 31
0.0
  0
LINE
  5
96
330
1F
100
AcDbEntity
  8
0
  6
Continuous
 62
     7
370
    25
100
AcDbLine
 10
11478.5169391998
 20
6708.500682602
 30
0.0
 11
11478.5169391998
 21
6707.250682602
 31
0.0
  0
LINE
  5
97
330
1F
100
AcDbEntity
  8
0
  6
Continuous
 62
     7
370
    25
100
AcDbLine
 10
11502.8686239657
 20
6699.5908518844
 30
0.0
 11
11502.8686239657
 21
6700.7954600334
 31
0.0
  0
SPLINE
  5
98
330
1F
100
AcDbEntity
  8
0
  6
Continuous
 62
     7
370
    25
100
AcDbSpline
210
0.0
220
0.0
230
1.0
 70
    24
 71
     3
 72
    60
 73
    56
 74
     0
 42
0.00000001
 43
0.00000001
 40
0.0
 40
0.0
 40
0.0
 40
0.0
 40
0.0217600187720989
 40
0.0425702003863367
 40
0.062446342197787
 40
0.0813985917362927
 40
0.0994317011098491
 40
0.1165460887480346
 40
0.132738952646138
 40
0.1480045357037377
 40
0.1623351165826252
 40
0.1757218202120984
 40
0.1895824369375007
 40
0.2022333976196242
 40
0.2136610715883812
 40
0.2245031777928189
 40
0.2354085500290072
 40
0.2570124369760836
 40
0.2788625017564053
 40
0.3039867711898875
 40
0.3294195528556242
 40
0.3550909160265467
 40
0.3808272162934365
 40
0.4065982519291083
 40
0.4323797961735193
 40
0.4581464908840466
 40
0.4838962290992448
 40
0.5096852445195429
 40
0.5354933980001952
 40
0.5612935962265639
 40
0.5870592559123039
 40
0.6126631095524724
 40
0.6375862672848938
 40
0.6617513012599598
 40
0.685152931379919
 40
0.6953902992667479
 40
0.7054742060854824
 40
0.7154050169820798
 40
0.7256092828356645
 40
0.7371321342817834
 40
0.7497660698763494
 40
0.7636890592690592
 40
0.778883801596411
 40
0.7953321398360446
 40
0.8113575044919583
 40
0.8283893136115549
 40
0.8464146366855201
 40
0.8654225457021887
 40
0.8854045879596556
 40
0.9027983225625343
 40
0.9208660840398998
 40
0.9396111441677986
 40
0.9590403870588154
 40
0.9791649276387573
 40
1.0
 40
1.0
 40
1.0
 40
1.0
 10
10504.32495337434
 20
8807.23257349635
 30
0.0
 10
10504.824357824
 20
8806.990926181996
 30
0.0
 10
10505.80136743593
 20
8806.51817959558
 30
0.0
 10
10513.39656090378
 20
8802.843085982107
 30
0.0
 10
10524.66694836499
 20
8797.38967269442
 30
0.0
 10
10539.38540972837
 20
8790.267836550851
 30
0.0
 10
10556.783263836
 20
8781.84952004716
 30
0.0
 10
10576.28236992363
 20
8772.414468714436
 30
0.0
 10
10597.31997741318
 20
8762.234981219493
 30
0.0
 10
10619.3649544786
 20
8751.568056832995
 30
0.0
 10
10641.93176580216
 20
8740.648631999016
 30
0.0
 10
10665.38928395712
 20
8729.298219988552
 30
0.0
 10
10689.37804047877
 20
8717.690757155495
 30
0.0
 10
10713.4920842483
 20
8706.022671460567
 30
0.0
 10
10736.72606734753
 20
8694.780421573838
 30
0.0
 10
10759.67308186739
 20
8683.677027451327
 30
0.0
 10
10790.72684259519
 20
8668.651014195939
 30
0.0
 10
10831.59890538856
 20
8648.874209618503
 30
0.0
 10
10886.09567516973
 20
8622.504804885673
 30
0.0
 10
10946.65470967247
 20
8593.202046255317
 30
0.0
 10
11013.40730501286
 20
8560.902403348678
 30
0.0
 10
11083.30731885073
 20
8527.079816007774
 30
0.0
 10
11155.73350913774
 20
8492.034885223737
 30
0.0
 10
11230.07323942794
 20
8456.06404798654
 30
0.0
 10
11305.84428482056
 20
8419.4006389256
 30
0.0
 10
11382.6066620457
 20
8382.2575531715
 30
0.0
 10
11459.99567452698
 20
8344.811256809588
 30
0.0
 10
11537.66545151562
 20
8307.229106653796
 30
0.0
 10
11615.2413889403
 20
8269.692362738628
 30
0.0
 10
11692.26788358337
 20
8232.421478233915
 30
0.0
 10
11768.17653866704
 20
8195.69148383859
 30
0.0
 10
11841.93812644366
 20
8160.000392978936
 30
0.0
 10
11912.53659539528
 20
8125.839843486218
 30
0.0
 10
11979.16521091665
 20
8093.600190814585
 30
0.0
 10
12030.57434989339
 20
8068.72480098713
 30
0.0
 10
12068.37751090931
 20
8050.432948882657
 30
0.0
 10
12094.05785640134
 20
8038.006975257479
 30
0.0
 10
12119.21493830262
 20
8025.83419369234
 30
0.0
 10
12145.02121293704
 20
8013.347286611173
 30
0.0
 10
12172.35487824488
 20
8000.121319526732
 30
0.0
 10
12201.76544031359
 20
7985.890402396713
 30
0.0
 10
12232.88278573978
 20
7970.83362235178
 30
0.0
 10
12265.40590159085
 20
7955.096630810941
 30
0.0
 10
12297.69655462121
 20
7939.472121280124
 30
0.0
 10
12329.26298114043
 20
7924.198043932114
 30
0.0
 10
12359.63869274136
 20
7909.500118963922
 30
0.0
 10
12389.17859716611
 20
7895.206616822913
 30
0.0
 10
12417.27112617508
 20
7881.613457625026
 30
0.0
 10
12441.69123984003
 20
7869.797273593595
 30
0.0
 10
12462.37019866522
 20
7859.791325774953
 30
0.0
 10
12479.39230536274
 20
7851.554822534222
 30
0.0
 10
12493.52657802946
 20
7844.715658340645
 30
0.0
 10
12504.16395163349
 20
7839.568542080635
 30
0.0
 10
12511.22140478204
 20
7836.153645395849
 30
0.0
 10
12512.12208901969
 20
7835.717830442148
 30
0.0
 10
12512.58024328236
 20
7835.496142895697
 30
0.0
  0
SPLINE
  5
99
330
1F
100
AcDbEntity
  8
0
  6
Continuous
 62
     7
370
    25
100
AcDbSpline
210
0.0
220
0.0
230
1.0
 70
    24
 71
     3
 72
    60
 73
    56
 74
     0
 42
0.00000001
 43
0.00000001
 40
0.0
 40
0.0
 40
0.0
 40
0.0
 40
0.0217600187769121
 40
0.0425702003881693
 40
0.0624463421978569
 40
0.0813985917364258
 40
0.0994317011099503
 40
0.1165460887480732
 40
0.1327389526461499
 40
0.1480045357038267
 40
0.1623351165827794
 40
0.175721820212209
 40
0.1895824369373861
 40
0.2022333976192582
 40
0.213661071587865
 40
0.224503177792314
 40
0.2354085500287411
 40
0.2570124369766249
 40
0.2788625017569547
 40
0.3039867711899727
 40
0.329419552855422
 40
0.3550909160264229
 40
0.3808272162936383
 40
0.4065982519293067
 40
0.4323797961735794
 40
0.4581464908840853
 40
0.4838962290992941
 40
0.5096852445195954
 40
0.5354933980002353
 40
0.5612935962266129
 40
0.5870592559124661
 40
0.6126631095527078
 40
0.6375862672848516
 40
0.6617513012597466
 40
0.68515293137983
 40
0.6953902992668223
 40
0.7054742060857591
 40
0.7154050169825447
 40
0.7256092828362631
 40
0.7371321342823965
 40
0.7497660698767213
 40
0.7636890592688245
 40
0.7788838015958803
 40
0.7953321398356351
 40
0.8113575044918612
 40
0.8283893136116941
 40
0.8464146366856397
 40
0.8654225457022057
 40
0.8854045879597027
 40
0.9027983225626411
 40
0.9208660840400322
 40
0.9396111441678499
 40
0.9590403870609392
 40
0.9791649276435993
 40
1.0
 40
1.0
 40
1.0
 40
1.0
 10
12547.4251175307
 20
7907.508883008938
 30
0.0
 10
12546.92571308129
 20
7907.750530323166
 30
0.0
 10
12545.94870347005
 20
7908.223276909252
 30
0.0
 10
12538.35351000075
 20
7911.898370523431
 30
0.0
 10
12527.0831225395
 20
7917.35178381113
 30
0.0
 10
12512.36466117659
 20
7924.473619954473
 30
0.0
 10
12494.9668070682
 20
7932.891936458534
 30
0.0
 10
12475.46770098102
 20
7942.326987791037
 30
0.0
 10
12454.43009349265
 20
7952.50647528541
 30
0.0
 10
12432.38511642699
 20
7963.173399672023
 30
0.0
 10
12409.81830510306
 20
7974.09282450618
 30
0.0
 10
12386.36078694792
 20
7985.443236516733
 30
0.0
 10
12362.37203042653
 20
7997.050699349664
 30
0.0
 10
12338.25798665729
 20
8008.718785044462
 30
0.0
 10
12315.02400355823
 20
8019.961034931099
 30
0.0
 10
12292.07698903831
 20
8031.064429053643
 30
0.0
 10
12261.02322830993
 20
8046.090442309309
 30
0.0
 10
12220.15116551644
 20
8065.867246886802
 30
0.0
 10
12165.6543957348
 20
8092.236651619856
 30
0.0
 10
12105.09536123225
 20
8121.53941025012
 30
0.0
 10
12038.34276589258
 20
8153.839053156416
 30
0.0
 10
11968.44275205485
 20
8187.661640497254
 30
0.0
 10
11896.01656176703
 20
8222.706571281678
 30
0.0
 10
11821.67683147676
 20
8258.677408518908
 30
0.0
 10
11745.90578608436
 20
8295.340817579743
 30
0.0
 10
11669.14340885936
 20
8332.483903333781
 30
0.0
 10
11591.75439637808
 20
8369.930199695687
 30
0.0
 10
11514.08461938945
 20
8407.512349851479
 30
0.0
 10
11436.50868196477
 20
8445.049093766647
 30
0.0
 10
11359.48218732159
 20
8482.319978271411
 30
0.0
 10
11283.57353223771
 20
8519.049972666835
 30
0.0
 10
11209.81194446102
 20
8554.74106352652
 30
0.0
 10
11139.21347551011
 20
8588.9016130189
 30
0.0
 10
11072.584859989
 20
8621.141265690405
 30
0.0
 10
11021.17572101195
 20
8646.016655518011
 30
0.0
 10
10983.37255999565
 20
8664.308507622673
 30
0.0
 10
10957.69221450327
 20
8676.734481248017
 30
0.0
 10
10932.53513260169
 20
8688.907262813296
 30
0.0
 10
10906.72885796714
 20
8701.394169894533
 30
0.0
 10
10879.39519265942
 20
8714.620136978912
 30
0.0
 10
10849.98463059125
 20
8728.851054108673
 30
0.0
 10
10818.86728516537
 20
8743.907834153448
 30
0.0
 10
10786.34416931473
 20
8759.644825694084
 30
0.0
 10
10754.05351628437
 20
8775.269335224904
 30
0.0
 10
10722.48708976488
 20
8790.543412573046
 30
0.0
 10
10692.11137816373
 20
8805.241337541343
 30
0.0
 10
10662.57147373935
 20
8819.534839682168
 30
0.0
 10
10634.47894473086
 20
8833.127998879827
 30
0.0
 10
10610.0588310645
 20
8844.944182911937
 30
0.0
 10
10589.37987223902
 20
8854.950130730718
 30
0.0
 10
10572.35776554234
 20
8863.186633971045
 30
0.0
 10
10558.22349287484
 20
8870.025798164997
 30
0.0
 10
10547.58611927123
 20
8875.172914424807
 30
0.0
 10
10540.52866612384
 20
8878.587811109028
 30
0.0
 10
10539.62798188558
 20
8879.023626063028
 30
0.0
 10
10539.16982762269
 20
8879.245313609588
 30
0.0
  0
SPLINE
  5
9A
330
1F
100
AcDbEntity
  8
0
  6
Continuous
 62
     7
370
    25
100
AcDbSpline
210
0.0
220
0.0
230
1.0
 70
     8
 71
     3
 72
    19
 73
    15
 74
     0
 42
0.00000001
 43
0.00000001
 40
0.0
 40
0.0
 40
0.0
 40
0.0
 40
0.1018816287448722
 40
0.1905873386305836
 40
0.2647766711120156
 40
0.3252064170194737
 40
0.41154690737036
 40
0.4655052354406515
 40
0.5247144523605005
 40
0.6187527472670967
 40
0.6866678570568873
 40
0.7723570754802669
 40
0.8774637616440253
 40
1.0
 40
1.0
 40
1.0
 40
1.0
 10
10539.16982762268
 20
8879.24531360959
 30
0.0
 10
10535.15230465584
 20
8880.750765111607
 30
0.0
 10
10527.63682792494
 20
8883.56697445908
 30
0.0
 10
10516.35638095779
 20
8883.289697109578
 30
0.0
 10
10507.29267046864
 20
8880.860480325742
 30
0.0
 10
10499.04566967001
 20
8876.606160081732
 30
0.0
 10
10492.5826720179
 20
8871.095118837276
 30
0.0
 10
10487.56051698962
 20
8864.406105426671
 30
0.0
 10
10483.64139216876
 20
8856.643091152153
 30
0.0
 10
10481.53673581157
 20
8847.501547694901
 30
0.0
 10
10481.82405912295
 20
8837.087896038398
 30
0.0
 10
10484.74800929633
 20
8826.594956213608
 30
0.0
 10
10491.79716043311
 20
8815.12054672441
 30
0.0
 10
10499.94117277096
 20
8809.992767905636
 30
0.0
 10
10504.32495337434
 20
8807.232573496349
 30
0.0
  0
ARC
  5
9B
330
1F
100
AcDbEntity
  8
0
  6
Continuous
 62
     7
370
    25
100
AcDbCircle
 10
12405.2178105172
 20
7579.0470896254
 30
0.0
 40
110.3571428571421
100
AcDbArc
 50
321.4199075616
 51
38.5800924384
  0
ARC
  5
9C
330
1F
100
AcDbEntity
  8
0
  6
Continuous
 62
     7
370
    25
100
AcDbCircle
 10
10739.2998967175
 20
6951.6583407465
 30
0.0
 40
258.7249433431574
100
AcDbArc
 50
153.6598068113
 51
206.3401931887
  0
ARC
  5
9D
330
1F
100
AcDbEntity
  8
0
  6
Continuous
 62
     7
370
    25
100
AcDbCircle
 10
12241.8500100312
 20
6951.6583407465
 30
0.0
 40
258.7249433431574
100
AcDbArc
 50
333.6598068113
 51
26.3401931887
  0
ARC
  5
9E
330
1F
100
AcDbEntity
  8
0
  6
Continuous
 62
     7
370
    25
100
AcDbCircle
 10
12530.5749533743
 20
7479.0470896254
 30
0.0
 40
49.99999999999955
100
AcDbArc
 50
141.4199075616
 51
180.0
  0
ARC
  5
9F
330
1F
100
AcDbEntity
  8
0
  6
Continuous
 62
     7
370
    25
100
AcDbCircle
 10
12530.5749533743
 20
7679.0470896254
 30
0.0
 40
49.99999999999955
100
AcDbArc
 50
180.0
 51
218.5800924384
  0
LINE
  5
A0
330
1F
100
AcDbEntity
  8
0
  6
Continuous
 62
     7
370
    25
100
AcDbLine
 10
12480.5749533743
 20
7679.0470896254
 30
0.0
 11
12480.5749533743
 21
7850.9825734963
 31
0.0
  0
LINE
  5
A1
330
1F
100
AcDbEntity
  8
0
  6
Continuous
 62
     7
370
    25
100
AcDbLine
 10
12480.5749533743
 20
7149.0470896254
 30
0.0
 11
12480.5749533743
 21
7479.0470896254
 31
0.0
  0
LINE
  5
A2
330
1F
100
AcDbEntity
  8
0
  6
Continuous
 62
     7
370
    25
100
AcDbLine
 10
10500.5749533743
 20
7210.3400750576
 30
0.0
 11
10500.5749533743
 21
7149.0470896254
 31
0.0
  0
ARC
  5
A3
330
1F
100
AcDbEntity
  8
0
  6
Continuous
 62
     7
370
    25
100
AcDbCircle
 10
12230.5749533743
 20
7149.0470896254
 30
0.0
 40
249.9999999999993
100
AcDbArc
 50
344.9299378551
 51
0.0
  0
ARC
  5
A4
330
1F
100
AcDbEntity
  8
0
  6
Continuous
 62
     7
370
    25
100
AcDbCircle
 10
10750.5749533743
 20
7149.0470896254
 30
0.0
 40
250.0000000000011
100
AcDbArc
 50
180.0
 51
195.0700621449
  0
ARC
  5
A5
330
1F
100
AcDbEntity
  8
0
  6
Continuous
 62
     7
370
    25
100
AcDbCircle
 10
10552.245738412
 20
6859.0470896254
 30
0.0
 40
49.99999999999909
100
AcDbArc
 50
206.3401931887
 51
270.0
  0
ARC
  5
A6
330
1F
100
AcDbEntity
  8
0
  6
Continuous
 62
     7
370
    25
100
AcDbCircle
 10
12428.9041683367
 20
6859.0470896254
 30
0.0
 40
49.99999999999909
100
AcDbArc
 50
270.0
 51
333.6598068113
  0
ARC
  5
A7
330
1F
100
AcDbEntity
  8
0
  6
Continuous
 62
     7
370
    25
100
AcDbCircle
 10
10565.5749533743
 20
6759.0470896254
 30
0.0
 40
50.00000000000182
100
AcDbArc
 50
360.0
 51
90.0
  0
ARC
  5
A8
330
1F
100
AcDbEntity
  8
0
  6
Continuous
 62
     7
370
    25
100
AcDbCircle
 10
12415.5749533743
 20
6759.0470896254
 30
0.0
 40
50.0
100
AcDbArc
 50
90.0
 51
180.0
  0
LINE
  5
A9
330
1F
100
AcDbEntity
  8
0
  6
Continuous
 62
     7
370
    25
100
AcDbLine
 10
10500.5749533743
 20
8809.0470896254
 30
0.0
 11
10500.5749533743
 21
8774.0470896254
 31
0.0
  0
ARC
  5
AA
330
1F
100
AcDbEntity
  8
0
  6
Continuous
 62
     7
370
    25
100
AcDbCircle
 10
10660.5749533743
 20
6754.0470896254
 30
0.0
 40
45.0
100
AcDbArc
 50
180.0
 51
270.0
  0
ARC
  5
AB
330
1F
100
AcDbEntity
  8
0
  6
Continuous
 62
     7
370
    25
100
AcDbCircle
 10
12320.5749533743
 20
6754.0470896254
 30
0.0
 40
45.0
100
AcDbArc
 50
270.0
 51
0.0
  0
LINE
  5
AC
330
1F
100
AcDbEntity
  8
0
  6
Continuous
 62
     7
370
    25
100
AcDbLine
 10
10660.5749533743
 20
6709.0470896254
 30
0.0
 11
12320.5749533743
 21
6709.0470896254
 31
0.0
  0
LINE
  5
AD
330
1F
100
AcDbEntity
  8
0
  6
Continuous
 62
     7
370
    25
100
AcDbLine
 10
10615.5749533743
 20
6759.0470896254
 30
0.0
 11
10615.5749533743
 21
6754.0470896254
 31
0.0
  0
LINE
  5
AE
330
1F
100
AcDbEntity
  8
0
  6
Continuous
 62
     7
370
    25
100
AcDbLine
 10
12365.5749533743
 20
6754.0470896254
 30
0.0
 11
12365.5749533743
 21
6759.0470896254
 31
0.0
  0
ARC
  5
AF
330
1F
100
AcDbEntity
  8
0
  6
Continuous
 62
     7
370
    25
100
AcDbCircle
 10
10485.0325838737
 20
7077.5470896254
 30
0.0
 40
25.00000000000169
100
AcDbArc
 50
333.6598068113
 51
15.0700621449
  0
ARC
  5
B0
330
1F
100
AcDbEntity
  8
0
  6
Continuous
 62
     7
370
    25
100
AcDbCircle
 10
12496.117322875
 20
7077.5470896254
 30
0.0
 40
25.00000000000105
100
AcDbArc
 50
164.9299378551
 51
206.3401931887
  0
CIRCLE
  5
B1
330
1F
100
AcDbEntity
  8
0
  6
Continuous
 62
     7
370
    25
100
AcDbCircle
 10
10263.0749594728
 20
8623.7262932985
 30
0.0
 40
15.0000000000005
  0
LINE
  5
B2
330
1F
100
AcDbEntity
  8
0
  6
Continuous
 62
     7
370
    25
100
AcDbLine
 10
10251.5901821041
 20
8622.5291207447
 30
0.0
 11
10258.3693526327
 21
8613.1815980635
 31
0.0
  0
LINE
  5
B3
330
1F
100
AcDbEntity
  8
0
  6
Continuous
 62
     7
370
    25
100
AcDbLine
 10
10258.3693526327
 20
8613.1815980635
 30
0.0
 11
10269.8541300015
 21
8614.3787706172
 31
0.0
  0
LINE
  5
B4
330
1F
100
AcDbEntity
  8
0
  6
Continuous
 62
     7
370
    25
100
AcDbLine
 10
10269.8541300015
 20
8614.3787706172
 30
0.0
 11
10274.5597368416
 21
8624.9234658522
 31
0.0
  0
LINE
  5
B5
330
1F
100
AcDbEntity
  8
0
  6
Continuous
 62
     7
370
    25
100
AcDbLine
 10
10274.5597368416
 20
8624.9234658522
 30
0.0
 11
10267.780566313
 21
8634.2709885335
 31
0.0
  0
LINE
  5
B6
330
1F
100
AcDbEntity
  8
0
  6
Continuous
 62
     7
370
    25
100
AcDbLine
 10
10267.780566313
 20
8634.2709885335
 30
0.0
 11
10256.2957889442
 21
8633.0738159798
 31
0.0
  0
LINE
  5
B7
330
1F
100
AcDbEntity
  8
0
  6
Continuous
 62
     7
370
    25
100
AcDbLine
 10
10256.2957889442
 20
8633.0738159798
 30
0.0
 11
10251.5901821041
 21
8622.5291207447
 31
0.0
  0
CIRCLE
  5
B8
330
1F
100
AcDbEntity
  8
0
  6
Continuous
 62
     7
370
    25
100
AcDbCircle
 10
10263.0749594728
 20
8623.7262932985
 30
0.0
 40
26.25000000000105
  0
CIRCLE
  5
B9
330
1F
100
AcDbEntity
  8
0
  6
Continuous
 62
     7
370
    25
100
AcDbCircle
 10
10263.0749594728
 20
7373.7262932985
 30
0.0
 40
15.00000000000003
  0
CIRCLE
  5
BA
330
1F
100
AcDbEntity
  8
0
  6
Continuous
 62
     7
370
    25
100
AcDbCircle
 10
10263.0749594728
 20
7373.7262932985
 30
0.0
 40
26.25000000000051
  0
LINE
  5
BB
330
1F
100
AcDbEntity
  8
0
  6
Continuous
 62
     7
370
    25
100
AcDbLine
 10
10251.5281330043
 20
7373.6620139209
 30
0.0
 11
10257.3572138125
 21
7363.6943085549
 31
0.0
  0
LINE
  5
BC
330
1F
100
AcDbEntity
  8
0
  6
Continuous
 62
     7
370
    25
100
AcDbLine
 10
10257.3572138125
 20
7363.6943085549
 30
0.0
 11
10268.904040281
 21
7363.7585879324
 31
0.0
  0
LINE
  5
BD
330
1F
100
AcDbEntity
  8
0
  6
Continuous
 62
     7
370
    25
100
AcDbLine
 10
10268.904040281
 20
7363.7585879324
 30
0.0
 11
10274.6217859414
 21
7373.7905726761
 31
0.0
  0
LINE
  5
BE
330
1F
100
AcDbEntity
  8
0
  6
Continuous
 62
     7
370
    25
100
AcDbLine
 10
10274.6217859414
 20
7373.7905726761
 30
0.0
 11
10268.7927051332
 21
7383.7582780421
 31
0.0
  0
LINE
  5
BF
330
1F
100
AcDbEntity
  8
0
  6
Continuous
 62
     7
370
    25
100
AcDbLine
 10
10268.7927051332
 20
7383.7582780421
 30
0.0
 11
10257.2458786647
 21
7383.6939986646
 31
0.0
  0
LINE
  5
C0
330
1F
100
AcDbEntity
  8
0
  6
Continuous
 62
     7
370
    25
100
AcDbLine
 10
10257.2458786647
 20
7383.6939986646
 30
0.0
 11
10251.5281330043
 21
7373.6620139209
 31
0.0
  0
LINE
  5
C1
330
1F
100
AcDbEntity
  8
0
  6
Continuous
 62
     7
370
    25
100
AcDbLine
 10
10483.0749594729
 20
7210.0470896254
 30
0.0
 11
10498.0749594728
 21
7210.0470896254
 31
0.0
  0
LINE
  5
C2
330
1F
100
AcDbEntity
  8
0
  6
Continuous
 62
     7
370
    25
100
AcDbLine
 10
10208.0749594729
 20
7210.0470896254
 30
0.0
 11
10223.0749594728
 21
7210.0470896254
 31
0.0
  0
SPLINE
  5
C3
330
1F
100
AcDbEntity
  8
0
  6
Continuous
 62
     7
370
    25
100
AcDbSpline
210
0.0
220
0.0
230
1.0
 70
     8
 71
     3
 72
    16
 73
    12
 74
     0
 42
0.00000001
 43
0.00000001
 40
0.0
 40
0.0
 40
0.0
 40
0.0
 40
0.093408031591767
 40
0.2184080315917734
 40
0.3434080315917844
 40
0.4684080315917876
 40
0.5934080315917892
 40
0.7184080315917877
 40
0.8434080315917941
 40
0.9684080315917994
 40
1.0
 40
1.0
 40
1.0
 40
1.0
 10
11505.35772351853
 20
6707.405609690702
 30
0.0
 10
11505.31999087969
 20
6707.327769664376
 30
0.0
 10
11505.23176386928
 20
6707.145762971382
 30
0.0
 10
11502.43894571427
 20
6706.859589611724
 30
0.0
 10
11497.86441666073
 20
6706.547089611723
 30
0.0
 10
11492.10153316664
 20
6706.234589611724
 30
0.0
 10
11486.13923978922
 20
6705.922089611723
 30
0.0
 10
11480.79885112335
 20
6705.609589611724
 30
0.0
 10
11477.12735724082
 20
6705.297089611722
 30
0.0
 10
11475.40543050374
 20
6705.062429638049
 30
0.0
 10
11475.72725590362
 20
6704.931936331043
 30
0.0
 10
11475.79218323016
 20
6704.905609690702
 30
0.0
  0
SPLINE
  5
C4
330
1F
100
AcDbEntity
  8
0
  6
Continuous
 62
     7
370
    25
100
AcDbSpline
210
0.0
220
0.0
230
1.0
 70
     8
 71
     3
 72
    16
 73
    12
 74
     0
 42
0.00000001
 43
0.00000001
 40
0.0
 40
0.0
 40
0.0
 40
0.0
 40
0.093408031591767
 40
0.2184080315917734
 40
0.3434080315917844
 40
0.4684080315917876
 40
0.5934080315917892
 40
0.7184080315917877
 40
0.8434080315917941
 40
0.9684080315917994
 40
1.0
 40
1.0
 40
1.0
 40
1.0
 10
11505.35772351853
 20
6702.405609690703
 30
0.0
 10
11505.31999087969
 20
6702.327769664377
 30
0.0
 10
11505.23176386928
 20
6702.145762971384
 30
0.0
 10
11502.43894571427
 20
6701.859589611724
 30
0.0
 10
11497.86441666073
 20
6701.547089611723
 30
0.0
 10
11492.10153316664
 20
6701.234589611724
 30
0.0
 10
11486.13923978922
 20
6700.922089611723
 30
0.0
 10
11480.79885112335
 20
6700.609589611724
 30
0.0
 10
11477.12735724082
 20
6700.297089611722
 30
0.0
 10
11475.40543050374
 20
6700.062429638049
 30
0.0
 10
11475.72725590362
 20
6699.931936331042
 30
0.0
 10
11475.79218323016
 20
6699.905609690702
 30
0.0
  0
SPLINE
  5
C5
330
1F
100
AcDbEntity
  8
0
  6
Continuous
 62
     7
370
    25
100
AcDbSpline
210
0.0
220
0.0
230
1.0
 70
     8
 71
     3
 72
    16
 73
    12
 74
     0
 42
0.00000001
 43
0.00000001
 40
0.0
 40
0.0
 40
0.0
 40
0.0
 40
0.0315919684082081
 40
0.1565919684082092
 40
0.2815919684082097
 40
0.4065919684082092
 40
0.5315919684082163
 40
0.6565919684082115
 40
0.7815919684082143
 40
0.9065919684082132
 40
1.0
 40
1.0
 40
1.0
 40
1.0
 10
11475.79218323016
 20
6700.530609704359
 30
0.0
 10
11475.72725590362
 20
6700.556936344698
 30
0.0
 10
11475.40543050374
 20
6700.687429651706
 30
0.0
 10
11477.12735724082
 20
6700.922089625378
 30
0.0
 10
11480.79885112335
 20
6701.234589625379
 30
0.0
 10
11486.13923978922
 20
6701.547089625379
 30
0.0
 10
11492.10153316664
 20
6701.859589625379
 30
0.0
 10
11497.86441666073
 20
6702.172089625378
 30
0.0
 10
11502.43894571427
 20
6702.48458962538
 30
0.0
 10
11505.23176386928
 20
6702.770762985038
 30
0.0
 10
11505.31999087969
 20
6702.952769678031
 30
0.0
 10
11505.35772351853
 20
6703.030609704359
 30
0.0
  0
SPLINE
  5
C6
330
1F
100
AcDbEntity
  8
0
  6
Continuous
 62
     7
370
    25
100
AcDbSpline
210
0.0
220
0.0
230
1.0
 70
     8
 71
     3
 72
    16
 73
    12
 74
     0
 42
0.00000001
 43
0.00000001
 40
0.0
 40
0.0
 40
0.0
 40
0.0
 40
0.0315919684082081
 40
0.1565919684082092
 40
0.2815919684082097
 40
0.4065919684082092
 40
0.5315919684082163
 40
0.6565919684082115
 40
0.7815919684082143
 40
0.9065919684082132
 40
1.0
 40
1.0
 40
1.0
 40
1.0
 10
11475.79218323016
 20
6705.530609704359
 30
0.0
 10
11475.72725590362
 20
6705.556936344699
 30
0.0
 10
11475.40543050374
 20
6705.687429651705
 30
0.0
 10
11477.12735724082
 20
6705.922089625378
 30
0.0
 10
11480.79885112335
 20
6706.23458962538
 30
0.0
 10
11486.13923978922
 20
6706.547089625378
 30
0.0
 10
11492.10153316664
 20
6706.859589625379
 30
0.0
 10
11497.86441666073
 20
6707.172089625379
 30
0.0
 10
11502.43894571427
 20
6707.484589625379
 30
0.0
 10
11505.23176386928
 20
6707.770762985038
 30
0.0
 10
11505.31999087969
 20
6707.952769678032
 30
0.0
 10
11505.35772351853
 20
6708.030609704359
 30
0.0
  0
SPLINE
  5
C7
330
1F
100
AcDbEntity
  8
0
  6
Continuous
 62
     7
370
    25
100
AcDbSpline
210
0.0
220
0.0
230
1.0
 70
     8
 71
     3
 72
    13
 73
     9
 74
     0
 42
0.00000001
 43
0.00000001
 40
0.0
 40
0.0
 40
0.0
 40
0.0
 40
0.1821748494970282
 40
0.3643497028236237
 40
0.5465245561502157
 40
0.7286994094768177
 40
0.9108742628034178
 40
1.0
 40
1.0
 40
1.0
 40
1.0
 10
11482.79063963562
 20
6699.047089625379
 30
0.0
 10
11484.15338285899
 20
6699.151256289746
 30
0.0
 10
11486.8788693344
 20
6699.359589620672
 30
0.0
 10
11491.84082221947
 20
6699.67208961857
 30
0.0
 10
11496.55103776657
 20
6699.984589618546
 30
0.0
 10
11500.27650202543
 20
6700.297089618552
 30
0.0
 10
11502.43989190789
 20
6700.556384601028
 30
0.0
 10
11502.53871149325
 20
6700.711512916838
 30
0.0
 10
11502.57117499943
 20
6700.762474565981
 30
0.0
  0
SPLINE
  5
C8
330
1F
100
AcDbEntity
  8
0
  6
Continuous
 62
     7
370
    25
100
AcDbSpline
210
0.0
220
0.0
230
1.0
 70
     8
 71
     3
 72
    16
 73
    12
 74
     0
 42
0.00000001
 43
0.00000001
 40
0.0
 40
0.0
 40
0.0
 40
0.0
 40
0.0638460210278486
 40
0.1888460210278647
 40
0.3138460236555484
 40
0.4388460210278865
 40
0.5638460210278974
 40
0.6888460210279058
 40
0.8138460210279211
 40
0.9388460210279351
 40
1.0
 40
1.0
 40
1.0
 40
1.0
 10
11478.57873174926
 20
6703.262474565981
 30
0.0
 10
11478.45272626526
 20
6703.315679583508
 30
0.0
 10
11478.08002278433
 20
6703.473051267709
 30
0.0
 10
11479.52007857787
 20
6703.734589620618
 30
0.0
 10
11482.57154579617
 20
6704.04708962119
 30
0.0
 10
11486.93757573928
 20
6704.35958962062
 30
0.0
 10
11491.82509038319
 20
6704.672089618583
 30
0.0
 10
11496.55525870629
 20
6704.984589618542
 30
0.0
 10
11500.27535010286
 20
6705.297089618554
 30
0.0
 10
11502.44001669006
 20
6705.556384601028
 30
0.0
 10
11502.53874234922
 20
6705.711512916838
 30
0.0
 10
11502.57117499943
 20
6705.762474565981
 30
0.0
  0
SPLINE
  5
C9
330
1F
100
AcDbEntity
  8
0
  6
Continuous
 62
     7
370
    25
100
AcDbSpline
210
0.0
220
0.0
230
1.0
 70
     8
 71
     3
 72
     9
 73
     5
 74
     0
 42
0.00000001
 43
0.00000001
 40
0.0
 40
0.0
 40
0.0
 40
0.0
 40
0.6765008944563133
 40
1.0
 40
1.0
 40
1.0
 40
1.0
 10
11478.57873174926
 20
6708.26247456598
 30
0.0
 10
11478.39269225441
 20
6708.315679583505
 30
0.0
 10
11478.11768966923
 20
6708.394326955532
 30
0.0
 10
11478.54571971831
 20
6708.472974327559
 30
0.0
 10
11478.68418705634
 20
6708.498416682063
 30
0.0
  0
SPLINE
  5
CA
330
1F
100
AcDbEntity
  8
0
  6
Continuous
 62
     7
370
    25
100
AcDbSpline
210
0.0
220
0.0
230
1.0
 70
    24
 71
     3
 72
    11
 73
     7
 74
     0
 42
0.00000001
 43
0.00000001
 40
0.0
 40
0.0
 40
0.0
 40
0.0
 40
0.0340603611514257
 40
0.3956419889923969
 40
0.7469090610220929
 40
1.0
 40
1.0
 40
1.0
 40
1.0
 10
11477.05775991872
 20
6699.047089625379
 30
0.0
 10
11477.03536451575
 20
6699.047089625379
 30
0.0
 10
11476.77522159665
 20
6699.047089625379
 30
0.0
 10
11477.82694628839
 20
6699.047089625379
 30
0.0
 10
11479.85962494435
 20
6699.047089625379
 30
0.0
 10
11481.92549978049
 20
6699.047089625379
 30
0.0
 10
11482.79063963562
 20
6699.047089625379
 30
0.0
  0
SPLINE
  5
CB
330
1F
100
AcDbEntity
  8
0
  6
Continuous
 62
     7
370
    25
100
AcDbSpline
210
0.0
220
0.0
230
1.0
 70
     8
 71
     3
 72
     9
 73
     5
 74
     0
 42
0.00000001
 43
0.00000001
 40
0.0
 40
0.0
 40
0.0
 40
0.0
 40
0.5722614306681189
 40
1.0
 40
1.0
 40
1.0
 40
1.0
 10
11500.0901410789
 20
6699.047089625379
 30
0.0
 10
11501.01258440125
 20
6699.151256289745
 30
0.0
 10
11502.62451082666
 20
6699.3332826483
 30
0.0
 10
11502.67085245585
 20
6699.515309007081
 30
0.0
 10
11502.69067455802
 20
6699.593168701368
 30
0.0
  0
SPLINE
  5
CC
330
1F
100
AcDbEntity
  8
0
  6
Continuous
 62
     7
370
    25
100
AcDbSpline
210
0.0
220
0.0
230
1.0
 70
     8
 71
     3
 72
    15
 73
    11
 74
     0
 42
0.00000001
 43
0.00000001
 40
0.0
 40
0.0
 40
0.0
 40
0.0
 40
0.1248429086381779
 40
0.2545447506413462
 40
0.3842465926445183
 40
0.5139484346476919
 40
0.6436502766508586
 40
0.7733521213805477
 40
0.9030539606572097
 40
1.0
 40
1.0
 40
1.0
 40
1.0
 10
11478.39478793595
 20
6702.183796597057
 30
0.0
 10
11478.72805960429
 20
6702.284060937555
 30
0.0
 10
11479.40757400073
 20
6702.488491944719
 30
0.0
 10
11482.61266179351
 20
6702.797089618553
 30
0.0
 10
11486.92614562443
 20
6703.109589618542
 30
0.0
 10
11491.82969467946
 20
6703.422089618584
 30
0.0
 10
11496.54827163487
 20
6703.73458962062
 30
0.0
 10
11500.29869424742
 20
6704.047089621192
 30
0.0
 10
11502.58741728999
 20
6704.333282648266
 30
0.0
 10
11502.65973954159
 20
6704.515309007072
 30
0.0
 10
11502.69067455802
 20
6704.593168701366
 30
0.0
  0
SPLINE
  5
CD
330
1F
100
AcDbEntity
  8
0
  6
Continuous
 62
     7
370
    25
100
AcDbSpline
210
0.0
220
0.0
230
1.0
 70
     8
 71
     3
 72
    13
 73
     9
 74
     0
 42
0.00000001
 43
0.00000001
 40
0.0
 40
0.0
 40
0.0
 40
0.0
 40
0.1614308737077112
 40
0.3291446982610495
 40
0.4968585228143927
 40
0.6645723473677378
 40
0.8322861719210741
 40
1.0
 40
1.0
 40
1.0
 40
1.0
 10
11478.39478793595
 20
6707.183796597057
 30
0.0
 10
11478.72814386868
 20
6707.284060937555
 30
0.0
 10
11479.40783007351
 20
6707.488491944719
 30
0.0
 10
11482.61159082211
 20
6707.797089618552
 30
0.0
 10
11486.93015665632
 20
6708.109589618546
 30
0.0
 10
11491.81472152334
 20
6708.42208961857
 30
0.0
 10
11496.60415322798
 20
6708.734589620671
 30
0.0
 10
11498.92814512045
 20
6708.942922956413
 30
0.0
 10
11500.0901410789
 20
6709.047089625379
 30
0.0
  0
SPLINE
  5
CE
330
1F
100
AcDbEntity
  8
0
  6
Continuous
 62
     7
370
    25
100
AcDbSpline
210
0.0
220
0.0
230
1.0
 70
    24
 71
     3
 72
    10
 73
     6
 74
     0
 42
0.00000001
 43
0.00000001
 40
0.0
 40
0.0
 40
0.0
 40
0.0
 40
0.398556937661968
 40
0.796628434418279
 40
1.0
 40
1.0
 40
1.0
 40
1.0
 10
11500.0901410789
 20
6699.047089625379
 30
0.0
 10
11500.96779697589
 20
6699.047089625379
 30
0.0
 10
11502.72203978817
 20
6699.047089625379
 30
0.0
 10
11503.87484355634
 20
6699.047089625379
 30
0.0
 10
11503.7460265307
 20
6699.047089625379
 30
0.0
 10
11503.7024684255
 20
6699.047089625379
 30
0.0
  0
SPLINE
  5
CF
330
1F
100
AcDbEntity
  8
0
  6
Continuous
 62
     7
370
    25
100
AcDbSpline
210
0.0
220
0.0
230
1.0
 70
    24
 71
     3
 72
    12
 73
     8
 74
     0
 42
0.00000001
 43
0.00000001
 40
0.0
 40
0.0
 40
0.0
 40
0.0
 40
0.1307246167850614
 40
0.3454394248705167
 40
0.5601542329559813
 40
0.774869041041428
 40
1.0
 40
1.0
 40
1.0
 40
1.0
 10
11482.79063963562
 20
6699.047089625379
 30
0.0
 10
11483.47211449746
 20
6699.047089625379
 30
0.0
 10
11485.27290986507
 20
6699.047089625379
 30
0.0
 10
11488.79550150178
 20
6699.047089625379
 30
0.0
 10
11492.97277748668
 20
6699.047089625379
 30
0.0
 10
11497.03690965737
 20
6699.047089625379
 30
0.0
 10
11499.05645540094
 20
6699.047089625379
 30
0.0
 10
11500.0901410789
 20
6699.047089625379
 30
0.0
  0
LINE
  5
D0
330
1F
100
AcDbEntity
  8
0
  6
Continuous
 62
     7
370
    25
100
AcDbLine
 10
10173.0749594728
 20
8763.7262932985
 30
0.0
 11
10173.0749594728
 21
7313.7262932985
 31
0.0
  0
LINE
  5
D1
330
1F
100
AcDbEntity
  8
0
  6
Continuous
 62
     7
370
    25
100
AcDbLine
 10
10175.7663762287
 20
8763.7262932985
 30
0.0
 11
10173.0749594728
 21
8763.7262932985
 31
0.0
  0
LINE
  5
D2
330
1F
100
AcDbEntity
  8
0
  6
Continuous
 62
     7
370
    25
100
AcDbLine
 10
10175.5749533743
 20
7313.7262932985
 30
0.0
 11
10173.0749594728
 21
7313.7262932985
 31
0.0
  0
SPLINE
  5
D3
330
1F
100
AcDbEntity
  8
0
  6
Continuous
 62
     7
370
    25
100
AcDbSpline
210
0.0
220
0.0
230
1.0
 70
     8
 71
     3
 72
    11
 73
     7
 74
     0
 42
0.00000001
 43
0.00000001
 40
0.0
 40
0.0
 40
0.0
 40
0.0
 40
0.2500000000000011
 40
0.4999999999999996
 40
0.750000000000001
 40
1.0
 40
1.0
 40
1.0
 40
1.0
 10
10559.94261065197
 20
7224.047089625383
 30
0.0
 10
10559.64819047308
 20
7224.234984285225
 30
0.0
 10
10559.05935011532
 20
7224.610773604908
 30
0.0
 10
10558.17608957867
 20
7227.501388768937
 30
0.0
 10
10557.29282904202
 20
7231.633200482649
 30
0.0
 10
10556.70398868426
 20
7234.909126577805
 30
0.0
 10
10556.40956850538
 20
7236.547089625384
 30
0.0
  0
LINE
  5
D4
330
1F
100
AcDbEntity
  8
0
  6
Continuous
 62
     7
370
    25
100
AcDbLine
 10
10559.942610652
 20
7224.0470896254
 30
0.0
 11
10175.5749533743
 21
7224.0470896254
 31
0.0
  0
LINE
  5
D5
330
1F
100
AcDbEntity
  8
0
  6
Continuous
 62
     7
370
    25
100
AcDbLine
 10
10175.5749533743
 20
7236.5470896254
 30
0.0
 11
10175.5749533743
 21
7224.0470896254
 31
0.0
  0
LINE
  5
D6
330
1F
100
AcDbEntity
  8
0
  6
Continuous
 62
     7
370
    25
100
AcDbLine
 10
10556.4095685054
 20
7236.5470896254
 30
0.0
 11
10175.5749533743
 21
7236.5470896254
 31
0.0
  0
SPLINE
  5
D7
330
1F
100
AcDbEntity
  8
0
  6
Continuous
 62
     7
370
    25
100
AcDbSpline
210
0.0
220
0.0
230
1.0
 70
     8
 71
     3
 72
    11
 73
     7
 74
     0
 42
0.00000001
 43
0.00000001
 40
0.0
 40
0.0
 40
0.0
 40
0.0
 40
0.2499999999999743
 40
0.4999999999999844
 40
0.749999999999976
 40
1.0
 40
1.0
 40
1.0
 40
1.0
 10
10559.94261065197
 20
7231.547089625384
 30
0.0
 10
10559.64819047308
 20
7231.622247489319
 30
0.0
 10
10559.05935011532
 20
7231.772563217193
 30
0.0
 10
10558.17608957867
 20
7232.928809282806
 30
0.0
 10
10557.29282904202
 20
7234.581533968289
 30
0.0
 10
10556.70398868426
 20
7235.891904406352
 30
0.0
 10
10556.40956850538
 20
7236.547089625384
 30
0.0
  0
LINE
  5
D8
330
1F
100
AcDbEntity
  8
0
  6
Continuous
 62
     7
370
    25
100
AcDbLine
 10
10559.942610652
 20
7224.0470896254
 30
0.0
 11
10559.942610652
 21
7231.5470896254
 31
0.0
  0
LINE
  5
D9
330
1F
100
AcDbEntity
  8
0
  6
Continuous
 62
     7
370
    25
100
AcDbLine
 10
10579.5624671811
 20
8562.3288988443
 30
0.0
 11
10569.0311316123
 21
8562.3288988443
 31
0.0
  0
ARC
  5
DA
330
1F
100
AcDbEntity
  8
0
  6
Continuous
 62
     7
370
    25
100
AcDbCircle
 10
10512.2798532433
 20
8562.328898844
 30
0.0
 40
75.0000000000819
100
AcDbArc
 50
323.0795648576
 51
333.7796522963
  0
LINE
  5
DB
330
1F
100
AcDbEntity
  8
0
  6
Continuous
 62
     7
370
    25
100
AcDbLine
 10
10572.2401378514
 20
8517.2759936133
 30
0.0
 11
10563.5057994468
 21
8504.445257966
 31
0.0
  0
LINE
  5
DC
330
1F
100
AcDbEntity
  8
0
  6
Continuous
 62
     7
370
    25
100
AcDbLine
 10
10563.5057994468
 20
8504.445257966
 30
0.0
 11
10556.0785129873
 21
8491.115618971
 31
0.0
  0
LINE
  5
DD
330
1F
100
AcDbEntity
  8
0
  6
Continuous
 62
     7
370
    25
100
AcDbLine
 10
10556.0785129873
 20
8491.115618971
 30
0.0
 11
10549.9457228164
 21
8477.2343653655
 31
0.0
  0
LINE
  5
DE
330
1F
100
AcDbEntity
  8
0
  6
Continuous
 62
     7
370
    25
100
AcDbLine
 10
10549.9457228164
 20
8477.2343653655
 30
0.0
 11
10545.1450959049
 21
8462.9596309405
 31
0.0
  0
LINE
  5
DF
330
1F
100
AcDbEntity
  8
0
  6
Continuous
 62
     7
370
    25
100
AcDbLine
 10
10545.1450959049
 20
8462.9596309405
 30
0.0
 11
10541.7104177438
 21
8448.4025560365
 31
0.0
  0
LINE
  5
E0
330
1F
100
AcDbEntity
  8
0
  6
Continuous
 62
     7
370
    25
100
AcDbLine
 10
10541.7104177438
 20
8448.4025560365
 30
0.0
 11
10539.6407771199
 21
8433.651409745
 31
0.0
  0
LINE
  5
E1
330
1F
100
AcDbEntity
  8
0
  6
Continuous
 62
     7
370
    25
100
AcDbLine
 10
10539.6407771199
 20
8433.651409745
 30
0.0
 11
10538.9472286993
 21
8418.7994387875
 31
0.0
  0
LINE
  5
E2
330
1F
100
AcDbEntity
  8
0
  6
Continuous
 62
     7
370
    25
100
AcDbLine
 10
10538.9472286993
 20
8418.7994387875
 30
0.0
 11
10539.6276603338
 21
8403.942850617
 31
0.0
  0
LINE
  5
E3
330
1F
100
AcDbEntity
  8
0
  6
Continuous
 62
     7
370
    25
100
AcDbLine
 10
10539.6276603338
 20
8403.942850617
 30
0.0
 11
10541.6867325154
 21
8389.1770684705
 31
0.0
  0
LINE
  5
E4
330
1F
100
AcDbEntity
  8
0
  6
Continuous
 62
     7
370
    25
100
AcDbLine
 10
10541.6867325154
 20
8389.1770684705
 30
0.0
 11
10545.1151819938
 21
8374.597691717
 31
0.0
  0
LINE
  5
E5
330
1F
100
AcDbEntity
  8
0
  6
Continuous
 62
     7
370
    25
100
AcDbLine
 10
10545.1151819938
 20
8374.597691717
 30
0.0
 11
10549.9176769548
 21
8360.2926810575
 31
0.0
  0
LINE
  5
E6
330
1F
100
AcDbEntity
  8
0
  6
Continuous
 62
     7
370
    25
100
AcDbLine
 10
10549.9176769548
 20
8360.2926810575
 30
0.0
 11
10556.0570835838
 21
8346.380375732
 31
0.0
  0
LINE
  5
E7
330
1F
100
AcDbEntity
  8
0
  6
Continuous
 62
     7
370
    25
100
AcDbLine
 10
10556.0570835838
 20
8346.380375732
 30
0.0
 11
10563.4933769098
 21
8333.026892648
 31
0.0
  0
LINE
  5
E8
330
1F
100
AcDbEntity
  8
0
  6
Continuous
 62
     7
370
    25
100
AcDbLine
 10
10563.4933769098
 20
8333.026892648
 30
0.0
 11
10572.2398985892
 21
8320.1768595034
 31
0.0
  0
ARC
  5
E9
330
1F
100
AcDbEntity
  8
0
  6
Continuous
 62
     7
370
    25
100
AcDbCircle
 10
10512.2798532433
 20
8275.123635844
 30
0.0
 40
74.99999999987052
100
AcDbArc
 50
26.2203477034
 51
36.9207394215
  0
LINE
  5
EA
330
1F
100
AcDbEntity
  8
0
  6
Continuous
 62
     7
370
    25
100
AcDbLine
 10
10569.0311316123
 20
8275.1236358444
 30
0.0
 11
10579.5624671811
 21
8275.1236358444
 31
0.0
  0
LINE
  5
EB
330
1F
100
AcDbEntity
  8
0
  6
Continuous
 62
     7
370
    25
100
AcDbLine
 10
10569.0311316123
 20
7727.3288988449
 30
0.0
 11
10569.0311316123
 21
8275.1236358444
 31
0.0
  0
LINE
  5
EC
330
1F
100
AcDbEntity
  8
0
  6
Continuous
 62
     7
370
    25
100
AcDbLine
 10
10579.5624671811
 20
7727.3288988449
 30
0.0
 11
10569.0311316123
 21
7727.3288988449
 31
0.0
  0
ARC
  5
ED
330
1F
100
AcDbEntity
  8
0
  6
Continuous
 62
     7
370
    25
100
AcDbCircle
 10
10512.2798532433
 20
7727.3288988447
 30
0.0
 40
75.0000000000839
100
AcDbArc
 50
323.0795648576
 51
333.7796522962
  0
LINE
  5
EE
330
1F
100
AcDbEntity
  8
0
  6
Continuous
 62
     7
370
    25
100
AcDbLine
 10
10572.2401378514
 20
7682.2759936139
 30
0.0
 11
10563.5057994468
 21
7669.4452579667
 31
0.0
  0
LINE
  5
EF
330
1F
100
AcDbEntity
  8
0
  6
Continuous
 62
     7
370
    25
100
AcDbLine
 10
10563.5057994468
 20
7669.4452579667
 30
0.0
 11
10556.0785129873
 21
7656.1156189717
 31
0.0
  0
LINE
  5
F0
330
1F
100
AcDbEntity
  8
0
  6
Continuous
 62
     7
370
    25
100
AcDbLine
 10
10556.0785129873
 20
7656.1156189717
 30
0.0
 11
10549.9457228163
 21
7642.2343653662
 31
0.0
  0
LINE
  5
F1
330
1F
100
AcDbEntity
  8
0
  6
Continuous
 62
     7
370
    25
100
AcDbLine
 10
10549.9457228163
 20
7642.2343653662
 30
0.0
 11
10545.1450959049
 21
7627.9596309412
 31
0.0
  0
LINE
  5
F2
330
1F
100
AcDbEntity
  8
0
  6
Continuous
 62
     7
370
    25
100
AcDbLine
 10
10545.1450959049
 20
7627.9596309412
 30
0.0
 11
10541.7104177438
 21
7613.4025560372
 31
0.0
  0
LINE
  5
F3
330
1F
100
AcDbEntity
  8
0
  6
Continuous
 62
     7
370
    25
100
AcDbLine
 10
10541.7104177438
 20
7613.4025560372
 30
0.0
 11
10539.6407771203
 21
7598.6514097457
 31
0.0
  0
LINE
  5
F4
330
1F
100
AcDbEntity
  8
0
  6
Continuous
 62
     7
370
    25
100
AcDbLine
 10
10539.6407771203
 20
7598.6514097457
 30
0.0
 11
10538.9472286993
 21
7583.7994387882
 31
0.0
  0
LINE
  5
F5
330
1F
100
AcDbEntity
  8
0
  6
Continuous
 62
     7
370
    25
100
AcDbLine
 10
10538.9472286993
 20
7583.7994387882
 30
0.0
 11
10539.6276603338
 21
7568.9428506182
 31
0.0
  0
LINE
  5
F6
330
1F
100
AcDbEntity
  8
0
  6
Continuous
 62
     7
370
    25
100
AcDbLine
 10
10539.6276603338
 20
7568.9428506182
 30
0.0
 11
10541.6867325154
 21
7554.1770684712
 31
0.0
  0
LINE
  5
F7
330
1F
100
AcDbEntity
  8
0
  6
Continuous
 62
     7
370
    25
100
AcDbLine
 10
10541.6867325154
 20
7554.1770684712
 30
0.0
 11
10545.1151819938
 21
7539.5976917177
 31
0.0
  0
LINE
  5
F8
330
1F
100
AcDbEntity
  8
0
  6
Continuous
 62
     7
370
    25
100
AcDbLine
 10
10545.1151819938
 20
7539.5976917177
 30
0.0
 11
10549.9176769548
 21
7525.2926810582
 31
0.0
  0
LINE
  5
F9
330
1F
100
AcDbEntity
  8
0
  6
Continuous
 62
     7
370
    25
100
AcDbLine
 10
10549.9176769548
 20
7525.2926810582
 30
0.0
 11
10556.0570835838
 21
7511.3803757327
 31
0.0
  0
LINE
  5
FA
330
1F
100
AcDbEntity
  8
0
  6
Continuous
 62
     7
370
    25
100
AcDbLine
 10
10556.0570835838
 20
7511.3803757327
 30
0.0
 11
10563.4933769098
 21
7498.0268926487
 31
0.0
  0
LINE
  5
FB
330
1F
100
AcDbEntity
  8
0
  6
Continuous
 62
     7
370
    25
100
AcDbLine
 10
10563.4933769098
 20
7498.0268926487
 30
0.0
 11
10572.2398985892
 21
7485.176859504
 31
0.0
  0
ARC
  5
FC
330
1F
100
AcDbEntity
  8
0
  6
Continuous
 62
     7
370
    25
100
AcDbCircle
 10
10512.2798532433
 20
7440.1236358447
 30
0.0
 40
74.99999999987041
100
AcDbArc
 50
26.2203477034
 51
36.9207394215
  0
LINE
  5
FD
330
1F
100
AcDbEntity
  8
0
  6
Continuous
 62
     7
370
    25
100
AcDbLine
 10
10569.0311316123
 20
7440.1236358451
 30
0.0
 11
10579.5624671811
 21
7440.1236358451
 31
0.0
  0
LINE
  5
FE
330
1F
100
AcDbEntity
  8
0
  6
Continuous
 62
     7
370
    25
100
AcDbLine
 10
10569.0311316123
 20
7238.7262932995
 30
0.0
 11
10569.0311316123
 21
7440.1236358451
 31
0.0
  0
LINE
  5
FF
330
1F
100
AcDbEntity
  8
0
  6
Continuous
 62
     7
370
    25
100
AcDbLine
 10
10555.6554954773
 20
7238.7262932995
 30
0.0
 11
10569.0311316123
 21
7238.7262932995
 31
0.0
  0
LINE
  5
100
330
1F
100
AcDbEntity
  8
0
  6
Continuous
 62
     7
370
    25
100
AcDbLine
 10
10175.5749533743
 20
8761.5470896254
 30
0.0
 11
10175.5749533743
 21
7236.5470896254
 31
0.0
  0
LINE
  5
101
330
1F
100
AcDbEntity
  8
0
  6
Continuous
 62
     7
370
    25
100
AcDbLine
 10
10576.1446202937
 20
8761.5470896254
 30
0.0
 11
10175.5749533743
 21
8761.5470896254
 31
0.0
  0
LINE
  5
102
330
1F
100
AcDbEntity
  8
0
  6
Continuous
 62
     7
370
    25
100
AcDbLine
 10
10576.1446202937
 20
8761.5470896254
 30
0.0
 11
10577.2798532433
 21
8758.7262932993
 31
0.0
  0
LINE
  5
103
330
1F
100
AcDbEntity
  8
0
  6
Continuous
 62
     7
370
    25
100
AcDbLine
 10
10577.2798532433
 20
8758.7262932993
 30
0.0
 11
10577.2798532433
 21
8733.7262932993
 31
0.0
  0
LINE
  5
104
330
1F
100
AcDbEntity
  8
0
  6
Continuous
 62
     7
370
    25
100
AcDbLine
 10
10569.0311316123
 20
8733.7262932993
 30
0.0
 11
10577.2798532433
 21
8733.7262932993
 31
0.0
  0
LINE
  5
105
330
1F
100
AcDbEntity
  8
0
  6
Continuous
 62
     7
370
    25
100
AcDbLine
 10
10569.0311316123
 20
8562.3288988443
 30
0.0
 11
10569.0311316123
 21
8733.7262932993
 31
0.0
  0
LINE
  5
106
330
1F
100
AcDbEntity
  8
0
  6
Continuous
 62
     7
370
    25
100
AcDbLine
 10
10556.4095685054
 20
7236.5470896254
 30
0.0
 11
10555.6554954773
 21
7238.7262932995
 31
0.0
  0
LINE
  5
107
330
1F
100
AcDbEntity
  8
0
  6
Continuous
 62
     7
370
    25
100
AcDbLine
 10
10572.0355223588
 20
8774.0470896254
 30
0.0
 11
10175.5749533743
 21
8774.0470896254
 31
0.0
  0
LINE
  5
108
330
1F
100
AcDbEntity
  8
0
  6
Continuous
 62
     7
370
    25
100
AcDbLine
 10
10175.5749533743
 20
8774.0470896254
 30
0.0
 11
10175.5749533743
 21
8761.5470896254
 31
0.0
  0
SPLINE
  5
109
330
1F
100
AcDbEntity
  8
0
  6
Continuous
 62
     7
370
    25
100
AcDbSpline
210
0.0
220
0.0
230
1.0
 70
     8
 71
     3
 72
    11
 73
     7
 74
     0
 42
0.00000001
 43
0.00000001
 40
0.0
 40
0.0
 40
0.0
 40
0.0
 40
0.2500000000000072
 40
0.500000000000001
 40
0.7499999999999967
 40
1.0
 40
1.0
 40
1.0
 40
1.0
 10
10576.14462029366
 20
8761.547089625383
 30
0.0
 10
10575.80219546575
 20
8763.185052672961
 30
0.0
 10
10575.11734580994
 20
8766.460978768118
 30
0.0
 10
10574.09007132622
 20
8770.592790481827
 30
0.0
 10
10573.06279684249
 20
8773.483405645859
 30
0.0
 10
10572.37794718668
 20
8773.859194965542
 30
0.0
 10
10572.03552235877
 20
8774.047089625385
 30
0.0
  0
LINE
  5
10A
330
1F
100
AcDbEntity
  8
0
  6
Continuous
 62
     7
370
    25
100
AcDbLine
 10
10569.0311316123
 20
7238.7262932995
 30
0.0
 11
10577.9709153774
 21
7238.7262932995
 31
0.0
  0
LINE
  5
10B
330
1F
100
AcDbEntity
  8
0
  6
Continuous
 62
     7
370
    25
100
AcDbLine
 10
10577.9709153774
 20
8733.7262932993
 30
0.0
 11
10577.2798532433
 21
8733.7262932993
 31
0.0
  0
LINE
  5
10C
330
1F
100
AcDbEntity
  8
0
  6
Continuous
 62
     7
370
    25
100
AcDbLine
 10
10561.029700543
 20
7231.5470896254
 30
0.0
 11
10559.942610652
 21
7231.5470896254
 31
0.0
  0
LINE
  5
10D
330
1F
100
AcDbEntity
  8
0
  6
Continuous
 62
     7
370
    25
100
AcDbLine
 10
10561.029700543
 20
7231.5470896254
 30
0.0
 11
10561.029700543
 21
7224.0470896254
 31
0.0
  0
LINE
  5
10E
330
1F
100
AcDbEntity
  8
0
  6
Continuous
 62
     7
370
    25
100
AcDbLine
 10
10561.029700543
 20
7224.0470896254
 30
0.0
 11
10559.942610652
 21
7224.0470896254
 31
0.0
  0
LINE
  5
10F
330
1F
100
AcDbEntity
  8
0
  6
Continuous
 62
     7
370
    25
100
AcDbLine
 10
10557.0198324113
 20
7216.5470896254
 30
0.0
 11
10557.0198324113
 21
7224.0470896254
 31
0.0
  0
LINE
  5
110
330
1F
100
AcDbEntity
  8
0
  6
Continuous
 62
     7
370
    25
100
AcDbLine
 10
10175.5749594728
 20
7216.5470896254
 30
0.0
 11
10175.5749594728
 21
7224.0470896254
 31
0.0
  0
LINE
  5
111
330
1F
100
AcDbEntity
  8
0
  6
Continuous
 62
     7
370
    25
100
AcDbLine
 10
10175.5749594728
 20
7216.5470896254
 30
0.0
 11
10557.0198324113
 21
7216.5470896254
 31
0.0
  0
ARC
  5
112
330
1F
100
AcDbEntity
  8
0
  6
Continuous
 62
     7
370
    25
100
AcDbCircle
 10
12530.0026804065
 20
7871.5025129523
 30
0.0
 40
39.99999999999996
100
AcDbArc
 50
244.1495957884
 51
64.2067451224
  0
SPLINE
  5
113
330
1F
100
AcDbEntity
  8
0
  6
Continuous
 62
     7
370
    25
100
AcDbSpline
210
0.0
220
0.0
230
1.0
 70
    24
 71
     3
 72
    28
 73
    24
 74
     0
 42
0.00000001
 43
0.00000001
 40
0.0
 40
0.0
 40
0.0
 40
0.0
 40
0.1250000000000009
 40
0.1250000000000009
 40
0.2500000000000018
 40
0.2500000000000018
 40
0.3125000000000022
 40
0.3125000000000022
 40
0.3750000000000025
 40
0.3750000000000025
 40
0.5000000000000032
 40
0.5000000000000032
 40
0.625000000000004
 40
0.625000000000004
 40
0.687500000000005
 40
0.687500000000005
 40
0.7187500000000049
 40
0.7187500000000049
 40
0.7500000000000048
 40
0.7500000000000048
 40
0.8750000000000024
 40
0.8750000000000024
 40
1.0
 40
1.0
 40
1.0
 40
1.0
 10
11164.34778188214
 20
8487.86668873451
 30
0.0
 10
11174.69488324348
 20
8482.860026785476
 30
0.0
 10
11185.3636432915
 20
8477.69772353643
 30
0.0
 10
11207.26993997305
 20
8467.097902561485
 30
0.0
 10
11218.50837142141
 20
8461.65995186067
 30
0.0
 10
11235.7760139687
 20
8453.304640950688
 30
0.0
 10
11241.60053759013
 20
8450.486323069352
 30
0.0
 10
11253.38727164695
 20
8444.783064654763
 30
0.0
 10
11259.35638146292
 20
8441.894785711553
 30
0.0
 10
11277.28983884169
 20
8433.217306334727
 30
0.0
 10
11289.33693274589
 20
8427.38806734882
 30
0.0
 10
11313.61181959274
 20
8415.642154358411
 30
0.0
 10
11325.83956565823
 20
8409.725503036398
 30
0.0
 10
11344.32320378425
 20
8400.781807168974
 30
0.0
 10
11350.50817384907
 20
8397.789079718255
 30
0.0
 10
11359.82305242224
 20
8393.281880408655
 30
0.0
 10
11362.93425688436
 20
8391.776458894723
 30
0.0
 10
11369.16956008133
 20
8388.759376702645
 30
0.0
 10
11372.29718859649
 20
8387.246008066275
 30
0.0
 10
11387.88463369313
 20
8379.70369592274
 30
0.0
 10
11400.24450409377
 20
8373.723113470816
 30
0.0
 10
11424.72028815851
 20
8361.879992149166
 30
0.0
 10
11436.83729389818
 20
8356.01692485578
 30
0.0
 10
11448.80212486655
 20
8350.227490516247
 30
0.0
  0
SPLINE
  5
114
330
1F
100
AcDbEntity
  8
0
  6
Continuous
 62
     7
370
    25
100
AcDbSpline
210
0.0
220
0.0
230
1.0
 70
     8
 71
     3
 72
    56
 73
    52
 74
     0
 42
0.00000001
 43
0.00000001
 40
0.0
 40
0.0
 40
0.0
 40
0.0
 40
0.0625000000000004
 40
0.0625000000000004
 40
0.0937500000000006
 40
0.0937500000000006
 40
0.1250000000000009
 40
0.1250000000000009
 40
0.1875000000000013
 40
0.1875000000000013
 40
0.2187500000000007
 40
0.2187500000000007
 40
0.2500000000000002
 40
0.2500000000000002
 40
0.3124999999999982
 40
0.3124999999999982
 40
0.343749999999997
 40
0.343749999999997
 40
0.3749999999999958
 40
0.3749999999999958
 40
0.4374999999999938
 40
0.4374999999999938
 40
0.4687499999999936
 40
0.4687499999999936
 40
0.4999999999999933
 40
0.4999999999999933
 40
0.5312499999999931
 40
0.5312499999999931
 40
0.5624999999999929
 40
0.5624999999999929
 40
0.6249999999999941
 40
0.6249999999999941
 40
0.656249999999995
 40
0.656249999999995
 40
0.6874999999999959
 40
0.6874999999999959
 40
0.7187499999999968
 40
0.7187499999999968
 40
0.7499999999999976
 40
0.7499999999999976
 40
0.812499999999999
 40
0.812499999999999
 40
0.8437499999999989
 40
0.8437499999999989
 40
0.8749999999999988
 40
0.8749999999999988
 40
0.9374999999999991
 40
0.9374999999999991
 40
0.9687499999999996
 40
0.9687499999999996
 40
1.0
 40
1.0
 40
1.0
 40
1.0
 10
10752.60342085701
 20
7066.4545903728
 30
0.0
 10
10751.25872428448
 20
7062.62137204279
 30
0.0
 10
10750.23455527219
 20
7058.802919951069
 30
0.0
 10
10749.17969176808
 20
7053.104678417386
 30
0.0
 10
10748.90868643184
 20
7051.210234987789
 30
0.0
 10
10748.53301128159
 20
7047.433407715745
 30
0.0
 10
10748.42841702156
 20
7045.541198235864
 30
0.0
 10
10748.37736675222
 20
7039.964955728028
 30
0.0
 10
10748.6875930551
 20
7036.399252627704
 30
0.0
 10
10749.65700477544
 20
7031.294417841954
 30
0.0
 10
10750.0646107248
 20
7029.633667523927
 30
0.0
 10
10751.05270071995
 20
7026.399988053618
 30
0.0
 10
10751.6370176111
 20
7024.820590965332
 30
0.0
 10
10753.61101423809
 20
7020.33078038893
 30
0.0
 10
10755.22599616424
 20
7017.633907342325
 30
0.0
 10
10758.07646989979
 20
7014.048935171627
 30
0.0
 10
10759.09939936979
 20
7012.930270943202
 30
0.0
 10
10761.28835908187
 20
7010.860392999029
 30
0.0
 10
10762.43572153269
 20
7009.926573775548
 30
0.0
 10
10766.02651129232
 20
7007.421131375043
 30
0.0
 10
10768.61682886676
 20
7006.142513454643
 30
0.0
 10
10772.79136550208
 20
7004.836547353023
 30
0.0
 10
10774.22807928728
 20
7004.506743036808
 30
0.0
 10
10777.12921667837
 20
7004.069073495123
 30
0.0
 10
10778.6017554074
 20
7003.958399104151
 30
0.0
 10
10781.5898086006
 20
7003.95097440304
 30
0.0
 10
10783.10532164151
 20
7004.054219122881
 30
0.0
 10
10786.18064046092
 20
7004.478926221544
 30
0.0
 10
10787.74697542452
 20
7004.803205534881
 30
0.0
 10
10792.40869903713
 20
7006.084331741898
 30
0.0
 10
10795.49697601481
 20
7007.347192103376
 30
0.0
 10
10800.11485827995
 20
7009.842386552658
 30
0.0
 10
10801.66078186775
 20
7010.781482426577
 30
0.0
 10
10804.69780881845
 20
7012.83107909317
 30
0.0
 10
10806.18885060941
 20
7013.939912702104
 30
0.0
 10
10809.1215083806
 20
7016.318584351782
 30
0.0
 10
10810.56311185797
 20
7017.588444153032
 30
0.0
 10
10813.40112384789
 20
7020.286831656808
 30
0.0
 10
10814.80207771101
 20
7021.720402854408
 30
0.0
 10
10818.91174073708
 20
7026.228556339894
 30
0.0
 10
10821.47725062684
 20
7029.449627354157
 30
0.0
 10
10825.10597386541
 20
7034.570628158505
 30
0.0
 10
10826.27863500699
 20
7036.326237883742
 30
0.0
 10
10828.55379523721
 20
7039.933021283628
 30
0.0
 10
10829.64718862418
 20
7041.770445843697
 30
0.0
 10
10832.77096831667
 20
7047.317115448709
 30
0.0
 10
10834.662065139
 20
7051.085117326977
 30
0.0
 10
10837.24309814174
 20
7056.827099060054
 30
0.0
 10
10838.0624129739
 20
7058.761518137369
 30
0.0
 10
10839.5993368231
 20
7062.614361846175
 30
0.0
 10
10840.31897403694
 20
7064.5367093123
 30
0.0
 10
10840.99176850534
 20
7066.4545903728
 30
0.0
  0
LINE
  5
115
330
1F
100
AcDbEntity
  8
0
  6
Continuous
 62
     7
370
    25
100
AcDbLine
 10
10840.9917685053
 20
7066.4545903728
 30
0.0
 11
12140.1581382434
 21
7066.4545903728
 31
0.0
  0
SPLINE
  5
116
330
1F
100
AcDbEntity
  8
0
  6
Continuous
 62
     7
370
    25
100
AcDbSpline
210
0.0
220
0.0
230
1.0
 70
     8
 71
     3
 72
    56
 73
    52
 74
     0
 42
0.00000001
 43
0.00000001
 40
0.0
 40
0.0
 40
0.0
 40
0.0
 40
0.0624999999999978
 40
0.0624999999999978
 40
0.093749999999997
 40
0.093749999999997
 40
0.1249999999999961
 40
0.1249999999999961
 40
0.1874999999999939
 40
0.1874999999999939
 40
0.2187499999999935
 40
0.2187499999999935
 40
0.2499999999999931
 40
0.2499999999999931
 40
0.312499999999994
 40
0.312499999999994
 40
0.3437499999999943
 40
0.3437499999999943
 40
0.3749999999999946
 40
0.3749999999999946
 40
0.4374999999999967
 40
0.4374999999999967
 40
0.4687499999999964
 40
0.4687499999999964
 40
0.4999999999999961
 40
0.4999999999999961
 40
0.5312499999999958
 40
0.5312499999999958
 40
0.5624999999999956
 40
0.5624999999999956
 40
0.6249999999999976
 40
0.6249999999999976
 40
0.656249999999998
 40
0.656249999999998
 40
0.6874999999999983
 40
0.6874999999999983
 40
0.7187499999999987
 40
0.7187499999999987
 40
0.749999999999999
 40
0.749999999999999
 40
0.8125000000000006
 40
0.8125000000000006
 40
0.8437500000000007
 40
0.8437500000000007
 40
0.8750000000000009
 40
0.8750000000000009
 40
0.9375000000000006
 40
0.9375000000000006
 40
0.9687500000000003
 40
0.9687500000000003
 40
1.0
 40
1.0
 40
1.0
 40
1.0
 10
12140.15813824336
 20
7066.4545903728
 30
0.0
 10
12141.50283481589
 20
7062.62137204279
 30
0.0
 10
12143.02184504399
 20
7058.802919951069
 30
0.0
 10
12145.57851485881
 20
7053.104678417386
 30
0.0
 10
12146.47741117206
 20
7051.210234987789
 30
0.0
 10
12148.37556996776
 20
7047.433407715745
 30
0.0
 10
12149.38045735771
 20
7045.541198235864
 30
0.0
 10
12152.5168923213
 20
7039.964955728028
 30
0.0
 10
12154.75567076535
 20
7036.399252627704
 30
0.0
 10
12158.36191136406
 20
7031.294417841953
 30
0.0
 10
12159.60559200653
 20
7029.633667523927
 30
0.0
 10
12162.1842730086
 20
7026.399988053618
 30
0.0
 10
12163.52597545352
 20
7024.820590965332
 30
0.0
 10
12167.60644162935
 20
7020.33078038893
 30
0.0
 10
12170.42306196398
 20
7017.633907342325
 30
0.0
 10
12174.81905672595
 20
7014.048935171627
 30
0.0
 10
12176.31434288523
 20
7012.930270943202
 30
0.0
 10
12179.36373636636
 20
7010.860392999029
 30
0.0
 10
12180.89201566857
 20
7009.926573775548
 30
0.0
 10
12185.49231788612
 20
7007.421131375043
 30
0.0
 10
12188.57989249466
 20
7006.142513454643
 30
0.0
 10
12193.25818918232
 20
7004.836547353023
 30
0.0
 10
12194.82091971315
 20
7004.506743036808
 30
0.0
 10
12197.88895986843
 20
7004.069073495123
 30
0.0
 10
12199.40346175404
 20
7003.958399104151
 30
0.0
 10
12202.39433529147
 20
7003.95097440304
 30
0.0
 10
12203.87070825055
 20
7004.054219122881
 30
0.0
 10
12206.78410785076
 20
7004.478926221544
 30
0.0
 10
12208.22657693942
 20
7004.803205534881
 30
0.0
 10
12212.39436061867
 20
7006.084331741898
 30
0.0
 10
12214.99195145252
 20
7007.347192103376
 30
0.0
 10
12218.60536330008
 20
7009.842386552658
 30
0.0
 10
12219.76852607833
 20
7010.781482426577
 30
0.0
 10
12221.95438505618
 20
7012.83107909317
 30
0.0
 10
12222.97777592016
 20
7013.939912702104
 30
0.0
 10
12224.88622579933
 20
7016.318584351782
 30
0.0
 10
12225.77127537949
 20
7017.588444153032
 30
0.0
 10
12227.39946177241
 20
7020.286831656808
 30
0.0
 10
12228.14479028038
 20
7021.720402854408
 30
0.0
 10
12230.14155554949
 20
7026.228556339894
 30
0.0
 10
12231.13274866173
 20
7029.449627354157
 30
0.0
 10
12232.11968958339
 20
7034.570628158505
 30
0.0
 10
12232.36482279243
 20
7036.326237883742
 30
0.0
 10
12232.68292970249
 20
7039.933021283628
 30
0.0
 10
12232.75403228753
 20
7041.770445843697
 30
0.0
 10
12232.70908872831
 20
7047.317115448709
 30
0.0
 10
12232.33887683878
 20
7051.085117326977
 30
0.0
 10
12231.28362610094
 20
7056.827099060054
 30
0.0
 10
12230.84636346831
 20
7058.761518137369
 30
0.0
 10
12229.81432930875
 20
7062.614361846175
 30
0.0
 10
12229.21928036008
 20
7064.5367093123
 30
0.0
 10
12228.54648589168
 20
7066.4545903728
 30
0.0
  0
SPLINE
  5
117
330
1F
100
AcDbEntity
  8
0
  6
Continuous
 62
     7
370
    25
100
AcDbSpline
210
0.0
220
0.0
230
1.0
 70
     8
 71
     3
 72
    17
 73
    13
 74
     0
 42
0.00000001
 43
0.00000001
 40
0.0
 40
0.0
 40
0.0
 40
0.0
 40
0.0821828500613656
 40
0.1901286699699662
 40
0.2980799713973806
 40
0.4065538483633473
 40
0.5150433626742826
 40
0.6256640713588169
 40
0.7363156880256387
 40
0.8522703913123756
 40
0.9682702030652018
 40
1.0
 40
1.0
 40
1.0
 40
1.0
 10
12198.50377365783
 20
7004.256912119712
 30
0.0
 10
12200.28322861434
 20
7004.461790759835
 30
0.0
 10
12204.39996834654
 20
7004.935774119169
 30
0.0
 10
12210.22872255232
 20
7007.625460437139
 30
0.0
 10
12215.86341739048
 20
7011.843599642911
 30
0.0
 10
12220.50466813613
 20
7017.535865777532
 30
0.0
 10
12224.06686544632
 20
7024.430144429139
 30
0.0
 10
12226.33593124955
 20
7032.370165978817
 30
0.0
 10
12227.28764204614
 20
7041.204684132537
 30
0.0
 10
12226.74188535184
 20
7050.660687023988
 30
0.0
 10
12225.25270260613
 20
7058.094544893739
 30
0.0
 10
12223.99546242422
 20
7062.2370921872
 30
0.0
 10
12223.72542870502
 20
7063.126840597027
 30
0.0
  0
SPLINE
  5
118
330
1F
100
AcDbEntity
  8
0
  6
Continuous
 62
     7
370
    25
100
AcDbSpline
210
0.0
220
0.0
230
1.0
 70
     8
 71
     3
 72
    16
 73
    12
 74
     0
 42
0.00000001
 43
0.00000001
 40
0.0
 40
0.0
 40
0.0
 40
0.0
 40
0.1247158232052715
 40
0.2493710483296972
 40
0.3745543058910645
 40
0.4996866814498152
 40
0.6157811435326219
 40
0.7318567357595618
 40
0.8419564683001074
 40
0.9520513913624487
 40
1.0
 40
1.0
 40
1.0
 40
1.0
 10
10757.42447804368
 20
7063.126840597027
 30
0.0
 10
10756.47232999086
 20
7059.602806390772
 30
0.0
 10
10754.56849652375
 20
7052.556450268686
 30
0.0
 10
10753.81301940764
 20
7042.107111914625
 30
0.0
 10
10754.77413566234
 20
7032.202193665294
 30
0.0
 10
10757.43631231118
 20
7023.40612924627
 30
0.0
 10
10761.59624437959
 20
7016.09106423778
 30
0.0
 10
10766.79919146231
 20
7010.424815008663
 30
0.0
 10
10772.95147229496
 20
7006.561445725737
 30
0.0
 10
10778.37588161188
 20
7004.479371111251
 30
0.0
 10
10781.86697676062
 20
7004.32851641112
 30
0.0
 10
10782.92613529247
 20
7004.282748812156
 30
0.0
  0
LINE
  5
119
330
1F
100
AcDbEntity
  8
0
  6
Continuous
 62
     7
370
    25
100
AcDbLine
 10
10840.3230648278
 20
7084.0470896254
 30
0.0
 11
12140.8268419209
 21
7084.0470896254
 31
0.0
  0
SPLINE
  5
11A
330
1F
100
AcDbEntity
  8
0
  6
Continuous
 62
     7
370
    25
100
AcDbSpline
210
0.0
220
0.0
230
1.0
 70
     8
 71
     3
 72
    10
 73
     6
 74
     0
 42
0.00000001
 43
0.00000001
 40
0.0
 40
0.0
 40
0.0
 40
0.0
 40
0.5
 40
0.5
 40
1.0
 40
1.0
 40
1.0
 40
1.0
 10
10758.02364881438
 20
7065.146766714236
 30
0.0
 10
10757.17444109186
 20
7068.335871006106
 30
0.0
 10
10756.54215566969
 20
7071.50858005987
 30
0.0
 10
10755.70324579806
 20
7077.810056261545
 30
0.0
 10
10755.49617584234
 20
7080.940389812194
 30
0.0
 10
10755.50851454248
 20
7084.047089625378
 30
0.0
  0
SPLINE
  5
11B
330
1F
100
AcDbEntity
  8
0
  6
Continuous
 62
     7
370
    25
100
AcDbSpline
210
0.0
220
0.0
230
1.0
 70
     8
 71
     3
 72
    12
 73
     8
 74
     0
 42
0.00000001
 43
0.00000001
 40
0.0
 40
0.0
 40
0.0
 40
0.0
 40
0.25
 40
0.25
 40
0.5
 40
0.5
 40
1.0
 40
1.0
 40
1.0
 40
1.0
 10
12225.64139220622
 20
7084.047089625378
 30
0.0
 10
12225.64757179615
 20
7082.491161475692
 30
0.0
 10
12225.59794522153
 20
7080.913018631479
 30
0.0
 10
12225.39017653851
 20
7077.766816072309
 30
0.0
 10
12225.23221888276
 20
7076.192152946236
 30
0.0
 10
12224.59992556165
 20
7071.464335879034
 30
0.0
 10
12223.96789243829
 20
7068.307430633833
 30
0.0
 10
12223.12625793431
 20
7065.146766714236
 30
0.0
  0
LINE
  5
11C
330
1F
100
AcDbEntity
  8
0
  6
Continuous
 62
     7
370
    25
100
AcDbLine
 10
11490.5749533743
 20
6809.0470896254
 30
0.0
 11
12428.9041683367
 21
6809.0470896254
 31
0.0
  0
LINE
  5
11D
330
1F
100
AcDbEntity
  8
0
  6
Continuous
 62
     7
370
    25
100
AcDbLine
 10
10552.245738412
 20
6809.0470896254
 30
0.0
 11
11490.5749533743
 21
6809.0470896254
 31
0.0
  0
SPLINE
  5
11E
330
1F
100
AcDbEntity
  8
0
  6
Continuous
 62
     7
370
    25
100
AcDbSpline
210
0.0
220
0.0
230
1.0
 70
     8
 71
     3
 72
    14
 73
    10
 74
     0
 42
0.00000001
 43
0.00000001
 40
0.0
 40
0.0
 40
0.0
 40
0.0
 40
0.25
 40
0.25
 40
0.5
 40
0.5
 40
0.75
 40
0.75
 40
1.0
 40
1.0
 40
1.0
 40
1.0
 10
12140.82684192093
 20
7084.047089625378
 30
0.0
 10
12140.24230820447
 20
7082.624432446984
 30
0.0
 10
12139.78263989712
 20
7081.175241245479
 30
0.0
 10
12139.12082357682
 20
7078.221837825196
 30
0.0
 10
12138.91848341275
 20
7076.700905207003
 30
0.0
 10
12138.80039910561
 20
7073.686621614144
 30
0.0
 10
12138.88142885106
 20
7072.201943756703
 30
0.0
 10
12139.31630578354
 20
7069.279077073976
 30
0.0
 10
12139.67435144094
 20
7067.833682486759
 30
0.0
 10
12140.15813824336
 20
7066.4545903728
 30
0.0
  0
SPLINE
  5
11F
330
1F
100
AcDbEntity
  8
0
  6
Continuous
 62
     7
370
    25
100
AcDbSpline
210
0.0
220
0.0
230
1.0
 70
     8
 71
     3
 72
    14
 73
    10
 74
     0
 42
0.00000001
 43
0.00000001
 40
0.0
 40
0.0
 40
0.0
 40
0.0
 40
0.25
 40
0.25
 40
0.5
 40
0.5
 40
0.75
 40
0.75
 40
1.0
 40
1.0
 40
1.0
 40
1.0
 10
10840.99176850534
 20
7066.4545903728
 30
0.0
 10
10841.4752842097
 20
7067.832909689352
 30
0.0
 10
10841.82760946565
 20
7069.252084758271
 30
0.0
 10
10842.26534857933
 20
7072.167908801014
 30
0.0
 10
10842.34931802213
 20
7073.681943711434
 30
0.0
 10
10842.23208258743
 20
7076.69355713578
 30
0.0
 10
10842.0349974344
 20
7078.18733697779
 30
0.0
 10
10841.37443024991
 20
7081.15122355455
 30
0.0
 10
10840.90756001827
 20
7082.624526212697
 30
0.0
 10
10840.32306482777
 20
7084.047089625378
 30
0.0
  0
SPLINE
  5
120
330
1F
100
AcDbEntity
  8
0
  6
Continuous
 62
     7
370
    25
100
AcDbSpline
210
0.0
220
0.0
230
1.0
 70
    24
 71
     3
 72
    12
 73
     8
 74
     0
 42
0.00000001
 43
0.00000001
 40
0.0
 40
0.0
 40
0.0
 40
0.0
 40
0.5000000000000031
 40
0.5000000000000031
 40
0.7500000000000016
 40
0.7500000000000016
 40
1.0
 40
1.0
 40
1.0
 40
1.0
 10
11099.90828670768
 20
8519.047089625377
 30
0.0
 10
11111.21970843192
 20
8513.573821049133
 30
0.0
 10
11122.2613948826
 20
8508.231069540738
 30
0.0
 10
11138.40858689295
 20
8500.417912116378
 30
0.0
 10
11143.7201251251
 20
8497.847812971788
 30
0.0
 10
11154.17422874844
 20
8492.789375734688
 30
0.0
 10
11159.31752187559
 20
8490.300685511871
 30
0.0
 10
11164.34778188214
 20
8487.86668873451
 30
0.0
  0
LINE
  5
121
330
1F
100
AcDbEntity
  8
0
  6
Continuous
 62
     7
370
    25
100
AcDbLine
 10
10500.5749533743
 20
8809.0470896254
 30
0.0
 11
11099.9082867077
 21
8519.0470896254
 31
0.0
  0
SPLINE
  5
122
330
1F
100
AcDbEntity
  8
0
  6
Continuous
 62
     7
370
    25
100
AcDbSpline
210
0.0
220
0.0
230
1.0
 70
     8
 71
     3
 72
     8
 73
     4
 74
     0
 42
0.00000001
 43
0.00000001
 40
0.0
 40
0.0
 40
0.0
 40
0.0
 40
1.0
 40
1.0
 40
1.0
 40
1.0
 10
12223.72542870502
 20
7063.126840597027
 30
0.0
 10
12223.51647433974
 20
7063.789092661189
 30
0.0
 10
12223.31695192225
 20
7064.46236133519
 30
0.0
 10
12223.12625793426
 20
7065.146766714199
 30
0.0
  0
SPLINE
  5
123
330
1F
100
AcDbEntity
  8
0
  6
Continuous
 62
     7
370
    25
100
AcDbSpline
210
0.0
220
0.0
230
1.0
 70
     8
 71
     3
 72
    14
 73
    10
 74
     0
 42
0.00000001
 43
0.00000001
 40
0.0
 40
0.0
 40
0.0
 40
0.0
 40
0.25
 40
0.25
 40
0.5
 40
0.5
 40
0.75
 40
0.75
 40
1.0
 40
1.0
 40
1.0
 40
1.0
 10
12228.54648589168
 20
7066.4545903728
 30
0.0
 10
12228.06297018731
 20
7067.832909689352
 30
0.0
 10
12227.64624003792
 20
7069.252084758271
 30
0.0
 10
12226.92708652082
 20
7072.167908801014
 30
0.0
 10
12226.62231690771
 20
7073.681943711434
 30
0.0
 10
12226.13853461778
 20
7076.69355713578
 30
0.0
 10
12225.95834989698
 20
7078.18733697779
 30
0.0
 10
12225.71217299262
 20
7081.15122355455
 30
0.0
 10
12225.64704211912
 20
7082.624526212697
 30
0.0
 10
12225.64139220622
 20
7084.047089625379
 30
0.0
  0
SPLINE
  5
124
330
1F
100
AcDbEntity
  8
0
  6
Continuous
 62
     7
370
    25
100
AcDbSpline
210
0.0
220
0.0
230
1.0
 70
     8
 71
     3
 72
     8
 73
     4
 74
     0
 42
0.00000001
 43
0.00000001
 40
0.0
 40
0.0
 40
0.0
 40
0.0
 40
1.0
 40
1.0
 40
1.0
 40
1.0
 10
10758.02364881444
 20
7065.146766714206
 30
0.0
 10
10757.83295482645
 20
7064.462361335194
 30
0.0
 10
10757.63343240895
 20
7063.789092661191
 30
0.0
 10
10757.42447804368
 20
7063.126840597027
 30
0.0
  0
SPLINE
  5
125
330
1F
100
AcDbEntity
  8
0
  6
Continuous
 62
     7
370
    25
100
AcDbSpline
210
0.0
220
0.0
230
1.0
 70
     8
 71
     3
 72
    14
 73
    10
 74
     0
 42
0.00000001
 43
0.00000001
 40
0.0
 40
0.0
 40
0.0
 40
0.0
 40
0.25
 40
0.25
 40
0.5
 40
0.5
 40
0.75
 40
0.75
 40
1.0
 40
1.0
 40
1.0
 40
1.0
 10
10755.50851454248
 20
7084.047089625378
 30
0.0
 10
10755.50286425717
 20
7082.624432446984
 30
0.0
 10
10755.43897573774
 20
7081.175241245479
 30
0.0
 10
10755.19516057959
 20
7078.221837825197
 30
0.0
 10
10755.01239095017
 20
7076.700905207004
 30
0.0
 10
10754.52850221772
 20
7073.686621614145
 30
0.0
 10
10754.23026111119
 20
7072.201943756703
 30
0.0
 10
10753.51125777542
 20
7069.279077073976
 30
0.0
 10
10753.08720765943
 20
7067.833682486759
 30
0.0
 10
10752.60342085701
 20
7066.4545903728
 30
0.0
  0
LINE
  5
126
330
1F
100
AcDbEntity
  8
0
  6
Continuous
 62
     8
370
    25
100
AcDbLine
 10
10473.9841951416
 20
7215.0056883515
 30
0.0
 11
10507.1657238041
 21
7215.0056883515
 31
0.0
  0
LINE
  5
127
330
1F
100
AcDbEntity
  8
0
  6
Continuous
 62
     8
370
    25
100
AcDbLine
 10
10198.9841951416
 20
7215.0056883515
 30
0.0
 11
10232.1657238041
 21
7215.0056883515
 31
0.0
  0
LINE
  5
128
330
1F
100
AcDbEntity
  8
0
  6
Continuous
 62
     8
370
    25
100
AcDbLine
 10
11448.8021248665
 20
8350.2274905162
 30
0.0
 11
10554.3593777432
 21
8350.2274905162
 31
0.0
  0
LINE
  5
129
330
1F
100
AcDbEntity
  8
0
  6
Continuous
 62
     8
370
    25
100
AcDbLine
 10
11164.3477818821
 20
8487.8666887345
 30
0.0
 11
10554.6431233614
 21
8487.8666887345
 31
0.0
  0
LINE
  5
12A
330
1F
100
AcDbEntity
  8
0
  6
Continuous
 62
     8
370
    25
100
AcDbLine
 10
12491.4880936861
 20
7510.2274905162
 30
0.0
 11
10556.6991027924
 21
7510.2274905162
 31
0.0
  0
LINE
  5
12B
330
1F
100
AcDbEntity
  8
0
  6
Continuous
 62
     8
370
    25
100
AcDbLine
 10
12491.4880936861
 20
7647.8666887345
 30
0.0
 11
10552.4341045126
 21
7647.8666887345
 31
0.0
  0
LINE
  5
12C
330
1F
100
AcDbEntity
  8
0
  6
Continuous
 62
     8
370
    25
100
AcDbLine
 10
11513.241620041
 20
8319.0470896254
 30
0.0
 11
10573.07237094
 21
8319.0470896254
 31
0.0
  0
LINE
  5
12D
330
1F
100
AcDbEntity
  8
0
  6
Continuous
 62
     8
370
    25
100
AcDbLine
 10
11490.5749533743
 20
6836.8620911202
 30
0.0
 11
12473.7129380289
 21
6836.8620911202
 31
0.0
  0
LINE
  5
12E
330
1F
100
AcDbEntity
  8
0
  6
Continuous
 62
     8
370
    25
100
AcDbLine
 10
10507.4369687198
 20
6836.8620911202
 30
0.0
 11
11490.5749533743
 21
6836.8620911202
 31
0.0
  0
LINE
  5
12F
330
1F
100
AcDbEntity
  8
0
  6
Continuous
 62
     8
370
    25
100
AcDbLine
 10
10507.4369687198
 20
7066.4545903728
 30
0.0
 11
10752.603420857
 21
7066.4545903728
 31
0.0
  0
LINE
  5
130
330
1F
100
AcDbEntity
  8
0
  6
Continuous
 62
     8
370
    25
100
AcDbLine
 10
12228.5464858917
 20
7066.4545903728
 30
0.0
 11
12473.7129380289
 21
7066.4545903728
 31
0.0
  0
LINE
  5
131
330
1F
100
AcDbEntity
  8
0
  6
Continuous
 62
     8
370
    25
100
AcDbLine
 10
12480.5749533743
 20
7479.0470896254
 30
0.0
 11
10576.3888599878
 21
7479.0470896254
 31
0.0
  0
LINE
  5
132
330
1F
100
AcDbEntity
  8
0
  6
Continuous
 62
     8
370
    25
100
AcDbLine
 10
12480.5749533743
 20
7679.0470896254
 30
0.0
 11
10570.0421079888
 21
7679.0470896254
 31
0.0
  0
LINE
  5
133
330
1F
100
AcDbEntity
  8
0
  6
Continuous
 62
     8
370
    25
100
AcDbLine
 10
12211.4635996626
 20
7981.1977446472
 30
0.0
 11
10575.8581858724
 21
7981.1977446472
 31
0.0
  0
LINE
  5
134
330
1F
100
AcDbEntity
  8
0
  6
Continuous
 62
     8
370
    25
100
AcDbLine
 10
12137.6863070861
 20
8016.8964346035
 30
0.0
 11
10575.8581858724
 21
8016.8964346035
 31
0.0
  0
LINE
  5
135
330
1F
100
AcDbEntity
  8
0
  6
Continuous
 62
     8
370
    25
100
AcDbLine
 10
12252.0749533743
 20
7961.5470896254
 30
0.0
 11
10577.9709153774
 21
7961.5470896254
 31
0.0
  0
LINE
  5
136
330
1F
100
AcDbEntity
  8
0
  6
Continuous
 62
     8
370
    25
100
AcDbLine
 10
12097.0749533743
 20
8036.5470896254
 30
0.0
 11
10577.9709153774
 21
8036.5470896254
 31
0.0
  0
LINE
  5
137
330
1F
100
AcDbEntity
  8
0
  6
Continuous
 62
     8
370
    25
100
AcDbLine
 10
12480.5749533743
 20
7149.0470896254
 30
0.0
 11
10500.5749533743
 21
7149.0470896254
 31
0.0
  0
LINE
  5
138
330
1F
100
AcDbEntity
  8
0
  6
Continuous
 62
     8
370
    25
100
AcDbLine
 10
10509.1727992829
 20
7084.0470896254
 30
0.0
 11
10755.5085145425
 21
7084.0470896254
 31
0.0
  0
LINE
  5
139
330
1F
100
AcDbEntity
  8
0
  6
Continuous
 62
     8
370
    25
100
AcDbLine
 10
12225.6413922062
 20
7084.0470896254
 30
0.0
 11
12471.9771074658
 21
7084.0470896254
 31
0.0
  0
LINE
  5
13A
330
1F
100
AcDbEntity
  8
0
  6
Continuous
 62
     8
370
    25
100
AcDbLine
 10
11099.9082867077
 20
8519.0470896254
 30
0.0
 11
10573.5308531599
 21
8519.0470896254
 31
0.0
  0
LINE
  5
13B
330
1F
100
AcDbEntity
  8
0
  6
Continuous
 62
     8
370
    25
100
AcDbLine
 10
11490.5749533743
 20
6759.0470896254
 30
0.0
 11
12365.5749533743
 21
6759.0470896254
 31
0.0
  0
LINE
  5
13C
330
1F
100
AcDbEntity
  8
0
  6
Continuous
 62
     8
370
    25
100
AcDbLine
 10
10615.5749533743
 20
6759.0470896254
 30
0.0
 11
11490.5749533743
 21
6759.0470896254
 31
0.0
  0
LINE
  5
13D
330
1F
100
AcDbEntity
  8
0
  6
Continuous
 62
     8
370
    25
100
AcDbLine
 10
11490.5749533743
 20
6754.0470896254
 30
0.0
 11
12365.5749533743
 21
6754.0470896254
 31
0.0
  0
LINE
  5
13E
330
1F
100
AcDbEntity
  8
0
  6
Continuous
 62
     8
370
    25
100
AcDbLine
 10
10615.5749533743
 20
6754.0470896254
 30
0.0
 11
11490.5749533743
 21
6754.0470896254
 31
0.0
  0
LINE
  5
13F
330
1F
100
AcDbEntity
  8
0
  6
Continuous
 62
     7
370
    25
100
AcDbLine
 10
7289.7968911088
 20
8611.5470896254
 30
0.0
 11
7290.0756394571
 21
8612.6966117035
 31
0.0
  0
LINE
  5
140
330
1F
100
AcDbEntity
  8
0
  6
Continuous
 62
     7
370
    25
100
AcDbLine
 10
7357.4189118649
 20
8612.6966117035
 30
0.0
 11
7358.5869337123
 21
8611.5470896254
 31
0.0
  0
SPLINE
  5
141
330
1F
100
AcDbEntity
  8
0
  6
Continuous
 62
     7
370
    25
100
AcDbSpline
210
0.0
220
0.0
230
1.0
 70
     8
 71
     3
 72
     9
 73
     5
 74
     0
 42
0.00000001
 43
0.00000001
 40
0.0
 40
0.0
 40
0.0
 40
0.0
 40
0.502066378078289
 40
1.0
 40
1.0
 40
1.0
 40
1.0
 10
7336.401074858591
 20
6702.178417811843
 30
0.0
 10
7336.847482933706
 20
6702.440043644821
 30
0.0
 10
7337.736624478738
 20
6702.96114173942
 30
0.0
 10
7338.623983128165
 20
6703.482125270309
 30
0.0
 10
7339.065828834418
 20
6703.741540486806
 30
0.0
  0
SPLINE
  5
142
330
1F
100
AcDbEntity
  8
0
  6
Continuous
 62
     7
370
    25
100
AcDbSpline
210
0.0
220
0.0
230
1.0
 70
     8
 71
     3
 72
     9
 73
     5
 74
     0
 42
0.00000001
 43
0.00000001
 40
0.0
 40
0.0
 40
0.0
 40
0.0
 40
0.5020663780782576
 40
1.0
 40
1.0
 40
1.0
 40
1.0
 10
7336.401074858591
 20
6707.178417811842
 30
0.0
 10
7336.847482933706
 20
6707.440043644821
 30
0.0
 10
7337.736624478738
 20
6707.961141739419
 30
0.0
 10
7338.623983128165
 20
6708.482125270309
 30
0.0
 10
7339.065828834418
 20
6708.741540486806
 30
0.0
  0
SPLINE
  5
143
330
1F
100
AcDbEntity
  8
0
  6
Continuous
 62
     7
370
    25
100
AcDbSpline
210
0.0
220
0.0
230
1.0
 70
     8
 71
     3
 72
     9
 73
     5
 74
     0
 42
0.00000001
 43
0.00000001
 40
0.0
 40
0.0
 40
0.0
 40
0.0
 40
0.5126241912018877
 40
1.0
 40
1.0
 40
1.0
 40
1.0
 10
7309.232893599447
 20
6706.084346181795
 30
0.0
 10
7309.686096442539
 20
6705.821510673836
 30
0.0
 10
7310.570180437928
 20
6705.308785148059
 30
0.0
 10
7311.453938905234
 20
6704.795582559886
 30
0.0
 10
7311.884661403021
 20
6704.545460033399
 30
0.0
  0
SPLINE
  5
144
330
1F
100
AcDbEntity
  8
0
  6
Continuous
 62
     7
370
    25
100
AcDbSpline
210
0.0
220
0.0
230
1.0
 70
     8
 71
     3
 72
     9
 73
     5
 74
     0
 42
0.00000001
 43
0.00000001
 40
0.0
 40
0.0
 40
0.0
 40
0.0
 40
0.5001613260588073
 40
1.0
 40
1.0
 40
1.0
 40
1.0
 10
7309.232893599447
 20
6701.084346181795
 30
0.0
 10
7309.686095749297
 20
6700.821509657889
 30
0.0
 10
7310.592207690062
 20
6700.296006164891
 30
0.0
 10
7311.497985991334
 20
6699.770013722203
 30
0.0
 10
7311.950729016327
 20
6699.507102357147
 30
0.0
  0
LINE
  5
145
330
1F
100
AcDbEntity
  8
0
  6
Continuous
 62
     7
370
    25
100
AcDbLine
 10
7309.1783319943
 20
6701.7806097044
 30
0.0
 11
7309.1783319943
 21
6701.1556096907
 31
0.0
  0
LINE
  5
146
330
1F
100
AcDbEntity
  8
0
  6
Continuous
 62
     7
370
    25
100
AcDbLine
 10
7309.1783319943
 20
6706.7806097044
 30
0.0
 11
7309.1783319943
 21
6706.1556096907
 31
0.0
  0
LINE
  5
147
330
1F
100
AcDbEntity
  8
0
  6
Continuous
 62
     7
370
    25
100
AcDbLine
 10
7339.1783319943
 20
6708.6556096907
 30
0.0
 11
7339.1783319943
 21
6709.0470896254
 31
0.0
  0
LINE
  5
148
330
1F
100
AcDbEntity
  8
0
  6
Continuous
 62
     7
370
    25
100
AcDbLine
 10
7339.1783319943
 20
6703.6556096907
 30
0.0
 11
7339.1783319943
 21
6704.2806097044
 31
0.0
  0
SPLINE
  5
149
330
1F
100
AcDbEntity
  8
0
  6
Continuous
 62
     7
370
    25
100
AcDbSpline
210
0.0
220
0.0
230
1.0
 70
     8
 71
     3
 72
     9
 73
     5
 74
     0
 42
0.00000001
 43
0.00000001
 40
0.0
 40
0.0
 40
0.0
 40
0.0
 40
0.518310170916884
 40
1.0
 40
1.0
 40
1.0
 40
1.0
 10
7339.099989552192
 20
6704.361653196475
 30
0.0
 10
7338.645832802627
 20
6704.625020128577
 30
0.0
 10
7337.769606992199
 20
6705.133146240853
 30
0.0
 10
7336.89384717995
 20
6705.641967468889
 30
0.0
 10
7336.47200258567
 20
6705.887061479256
 30
0.0
  0
SPLINE
  5
14A
330
1F
100
AcDbEntity
  8
0
  6
Continuous
 62
     7
370
    25
100
AcDbSpline
210
0.0
220
0.0
230
1.0
 70
     8
 71
     3
 72
     9
 73
     5
 74
     0
 42
0.00000001
 43
0.00000001
 40
0.0
 40
0.0
 40
0.0
 40
0.0
 40
0.4999678627515424
 40
1.0
 40
1.0
 40
1.0
 40
1.0
 10
7313.076106848353
 20
6703.697628410619
 30
0.0
 10
7312.661194791923
 20
6703.436158033636
 30
0.0
 10
7311.831317339104
 20
6702.913183665756
 30
0.0
 10
7310.997087836233
 20
6702.390303395299
 30
0.0
 10
7310.579946274956
 20
6702.128846456138
 30
0.0
  0
SPLINE
  5
14B
330
1F
100
AcDbEntity
  8
0
  6
Continuous
 62
     7
370
    25
100
AcDbSpline
210
0.0
220
0.0
230
1.0
 70
     8
 71
     3
 72
     9
 73
     5
 74
     0
 42
0.00000001
 43
0.00000001
 40
0.0
 40
0.0
 40
0.0
 40
0.0
 40
0.4999678627514408
 40
1.0
 40
1.0
 40
1.0
 40
1.0
 10
7313.076106848353
 20
6708.697628410619
 30
0.0
 10
7312.661194791923
 20
6708.436158033636
 30
0.0
 10
7311.831317339105
 20
6707.913183665756
 30
0.0
 10
7310.997087836234
 20
6707.390303395299
 30
0.0
 10
7310.579946274956
 20
6707.128846456138
 30
0.0
  0
SPLINE
  5
14C
330
1F
100
AcDbEntity
  8
0
  6
Continuous
 62
     7
370
    25
100
AcDbSpline
210
0.0
220
0.0
230
1.0
 70
     8
 71
     3
 72
     9
 73
     5
 74
     0
 42
0.00000001
 43
0.00000001
 40
0.0
 40
0.0
 40
0.0
 40
0.0
 40
0.5183101709168687
 40
1.0
 40
1.0
 40
1.0
 40
1.0
 10
7339.099989552192
 20
6699.361653196475
 30
0.0
 10
7338.645832802627
 20
6699.625020128577
 30
0.0
 10
7337.769606992199
 20
6700.133146240853
 30
0.0
 10
7336.89384717995
 20
6700.641967468889
 30
0.0
 10
7336.47200258567
 20
6700.887061479256
 30
0.0
  0
LINE
  5
14D
330
1F
100
AcDbEntity
  8
0
  6
Continuous
 62
     7
370
    25
100
AcDbLine
 10
7336.4720025857
 20
6705.8408518844
 30
0.0
 11
7336.4720025857
 21
6707.0908518844
 31
0.0
  0
LINE
  5
14E
330
1F
100
AcDbEntity
  8
0
  6
Continuous
 62
     7
370
    25
100
AcDbLine
 10
7311.884661403
 20
6704.5908518844
 30
0.0
 11
7311.884661403
 21
6703.3408518844
 31
0.0
  0
LINE
  5
14F
330
1F
100
AcDbEntity
  8
0
  6
Continuous
 62
     7
370
    25
100
AcDbLine
 10
7336.4720025857
 20
6700.8408518844
 30
0.0
 11
7336.4720025857
 21
6702.0908518844
 31
0.0
  0
SPLINE
  5
150
330
1F
100
AcDbEntity
  8
0
  6
Continuous
 62
     7
370
    25
100
AcDbSpline
210
0.0
220
0.0
230
1.0
 70
     8
 71
     3
 72
   104
 73
   100
 74
     0
 42
0.00000001
 43
0.00000001
 40
0.0
 40
0.0
 40
0.0
 40
0.0
 40
0.016786861670586
 40
0.0350451517201694
 40
0.053050273643216
 40
0.070813921150382
 40
0.0808611497916692
 40
0.0908343711918713
 40
0.1001692676570612
 40
0.1082231722307317
 40
0.1149894981256701
 40
0.1204626710033789
 40
0.1246378039138831
 40
0.1272231399668131
 40
0.1295597562582903
 40
0.1330290835963728
 40
0.1376644948630359
 40
0.1432331315029949
 40
0.1493418643723983
 40
0.1559876893614249
 40
0.16317416614718
 40
0.1736038119678161
 40
0.185012087618054
 40
0.1974105411531767
 40
0.2108117996716217
 40
0.224856719965483
 40
0.238235787679639
 40
0.2549691434782506
 40
0.270248939741518
 40
0.2840515164665877
 40
0.2963557732120088
 40
0.3072298806334003
 40
0.3177865348927911
 40
0.3286561312316981
 40
0.3398413300609572
 40
0.3516645386245228
 40
0.3646353026541858
 40
0.3785541638335888
 40
0.3929270863061972
 40
0.4071362568627941
 40
0.4211734639853811
 40
0.43446963504853
 40
0.4466708245247045
 40
0.4579716101107758
 40
0.4693176174451394
 40
0.4781243045805878
 40
0.4879211718546758
 40
0.4974559391131305
 40
0.5059992036856379
 40
0.5108675637369229
 40
0.515352220447596
 40
0.519453021857241
 40
0.5239723547270686
 40
0.5298279989075874
 40
0.5379406011679847
 40
0.5473779893719123
 40
0.556459347244793
 40
0.5649542502105951
 40
0.5730384487197641
 40
0.5809090681097696
 40
0.5885660711109145
 40
0.5960093819281543
 40
0.6089949229268863
 40
0.6210604090345716
 40
0.6315635016096823
 40
0.640470228901395
 40
0.64779038053178
 40
0.6528373813717826
 40
0.6594195769975958
 40
0.6675711609250892
 40
0.6772457845975868
 40
0.6872760554725612
 40
0.6971022138618512
 40
0.7067250723845865
 40
0.7283906268532236
 40
0.7489706301724554
 40
0.7691454576362132
 40
0.7897221568032011
 40
0.8106941480359457
 40
0.8320553185885871
 40
0.8409584505493063
 40
0.8487309675113001
 40
0.8552271466722196
 40
0.8604545544612078
 40
0.863675630984181
 40
0.8661192894629904
 40
0.8687413727225528
 40
0.8732340187237998
 40
0.8789647407777496
 40
0.8862572061934616
 40
0.8951040940683905
 40
0.9054974931821717
 40
0.9174294234875677
 40
0.9285429612686952
 40
0.9407165314871764
 40
0.9539480574432841
 40
0.9682372736138308
 40
0.9835862707046586
 40
1.0
 40
1.0
 40
1.0
 40
1.0
 10
7324.187318217228
 20
7831.584661902973
 30
0.0
 10
7343.332397325669
 20
7831.70040566206
 30
0.0
 10
7383.300690102254
 20
7831.942038534091
 30
0.0
 10
7443.564854297396
 20
7834.560376212778
 30
0.0
 10
7504.433800195427
 20
7838.817766517363
 30
0.0
 10
7555.419625012772
 20
7843.916283456653
 30
0.0
 10
7596.924566630929
 20
7849.021324407159
 30
0.0
 10
7628.835753886883
 20
7853.488829602412
 30
0.0
 10
7658.242113464587
 20
7858.094543550612
 30
0.0
 10
7683.907000278588
 20
7862.505750639704
 30
0.0
 10
7705.24386738333
 20
7866.455515390546
 30
0.0
 10
7722.344939889019
 20
7869.811375539527
 30
0.0
 10
7734.995516052982
 20
7872.40638591487
 30
0.0
 10
7744.35385954126
 20
7874.384882780675
 30
0.0
 10
7752.959380590145
 20
7876.243916048365
 30
0.0
 10
7763.617753125799
 20
7878.604854542752
 30
0.0
 10
7777.478694514641
 20
7881.782214948033
 30
0.0
 10
7793.868564775163
 20
7885.70056478791
 30
0.0
 10
7812.091728582596
 20
7890.26581088209
 30
0.0
 10
7831.688535723913
 20
7895.425033875799
 30
0.0
 10
7855.208490774824
 20
7901.949663262324
 30
0.0
 10
7882.833297640986
 20
7910.124837488203
 30
0.0
 10
7914.627344016604
 20
7920.293130245112
 30
0.0
 10
7948.197604527722
 20
7931.944072890249
 30
0.0
 10
7982.956628030953
 20
7945.086360561718
 30
0.0
 10
8017.218744331675
 20
7959.242990567191
 30
0.0
 10
8052.763948269384
 20
7975.266163308244
 30
0.0
 10
8087.544492709906
 20
7992.507016113377
 30
0.0
 10
8120.708575897014
 20
8010.682189917976
 30
0.0
 10
8149.047481948287
 20
8027.702878336795
 30
0.0
 10
8173.05563471449
 20
8043.37749833718
 30
0.0
 10
8193.888125157142
 20
8058.04855000644
 30
0.0
 10
8212.89932947615
 20
8072.43428148335
 30
0.0
 10
8231.132085480174
 20
8087.28685996293
 30
0.0
 10
8249.007770521477
 20
8103.035078464456
 30
0.0
 10
8266.853170012213
 20
8120.154407960133
 30
0.0
 10
8284.712178034659
 20
8139.033538924812
 30
0.0
 10
8302.106088699
 20
8159.621805252593
 30
0.0
 10
8318.18041922846
 20
8181.267202206918
 30
0.0
 10
8332.39793723831
 20
8203.368121187772
 30
0.0
 10
8344.394847680753
 20
8225.25000891847
 30
0.0
 10
8354.079079892206
 20
8246.360259330648
 30
0.0
 10
8361.5933966426
 20
8266.3153067834
 30
0.0
 10
8367.380771149194
 20
8285.471213313234
 30
0.0
 10
8371.444436354894
 20
8303.100372229303
 30
0.0
 10
8374.249834155538
 20
8319.900995777323
 30
0.0
 10
8375.968635377403
 20
8335.610427226264
 30
0.0
 10
8376.745365967628
 20
8351.122390322342
 30
0.0
 10
8376.679742792541
 20
8363.84442105278
 30
0.0
 10
8376.219532106581
 20
8373.80843098274
 30
0.0
 10
8375.657926529671
 20
8381.30643881546
 30
0.0
 10
8374.917243224556
 20
8388.619014356205
 30
0.0
 10
8373.884941290686
 20
8396.69255391015
 30
0.0
 10
8372.236686815624
 20
8406.99957304335
 30
0.0
 10
8369.584346307061
 20
8420.050951221636
 30
0.0
 10
8365.743971079051
 20
8434.911631301626
 30
0.0
 10
8361.01983945691
 20
8449.795281068773
 30
0.0
 10
8355.831619227722
 20
8463.69209377751
 30
0.0
 10
8350.261254211404
 20
8476.75875159014
 30
0.0
 10
8344.25373945189
 20
8489.331991794359
 30
0.0
 10
8337.831803673713
 20
8501.477442282288
 30
0.0
 10
8329.295381681739
 20
8516.222342277175
 30
0.0
 10
8318.358835837733
 20
8533.094648704051
 30
0.0
 10
8304.999162027749
 20
8551.261819205076
 30
0.0
 10
8292.056092460654
 20
8567.11324261709
 30
0.0
 10
8280.28169199101
 20
8580.362873156404
 30
0.0
 10
8270.416197915038
 20
8590.74332415884
 30
0.0
 10
8261.352454893933
 20
8599.824602752862
 30
0.0
 10
8251.597944517267
 20
8609.172610543563
 30
0.0
 10
8239.055166812532
 20
8620.552517366012
 30
0.0
 10
8224.031030605263
 20
8633.336138322633
 30
0.0
 10
8207.259387482682
 20
8646.657245488936
 30
0.0
 10
8189.676768734462
 20
8659.709210587127
 30
0.0
 10
8164.02075945318
 20
8677.55797287782
 30
0.0
 10
8129.379296609781
 20
8699.330266677765
 30
0.0
 10
8084.163210030883
 20
8724.185957126268
 30
0.0
 10
8036.493504777013
 20
8747.23817535696
 30
0.0
 10
7985.348513458352
 20
8768.977412864604
 30
0.0
 10
7930.107417723764
 20
8789.510547792423
 30
0.0
 10
7882.668432365596
 20
8804.794268152857
 30
0.0
 10
7846.261852836395
 20
8815.32304984838
 30
0.0
 10
7823.689278965872
 20
8821.460262185514
 30
0.0
 10
7804.427129032264
 20
8826.419262829511
 30
0.0
 10
7789.497740670498
 20
8830.0893323362
 30
0.0
 10
7778.536303238929
 20
8832.693571383079
 30
0.0
 10
7770.155173258349
 20
8834.638904132786
 30
0.0
 10
7760.466068309207
 20
8836.840798026691
 30
0.0
 10
7747.381412194078
 20
8839.726006750703
 30
0.0
 10
7729.387849943057
 20
8843.52099188161
 30
0.0
 10
7706.686900059621
 20
8848.034875329085
 30
0.0
 10
7678.805348299193
 20
8853.169357175599
 30
0.0
 10
7645.601739641489
 20
8858.71552580742
 30
0.0
 10
7609.473321332453
 20
8864.04859521995
 30
0.0
 10
7570.929894370112
 20
8868.981566329277
 30
0.0
 10
7530.508671633518
 20
8873.36538360194
 30
0.0
 10
7486.115763833081
 20
8877.252953279452
 30
0.0
 10
7437.749419677399
 20
8880.383566789678
 30
0.0
 10
7385.449568658007
 20
8882.621193695639
 30
0.0
 10
7349.233529772367
 20
8883.000414407996
 30
0.0
 10
7330.518503511986
 20
8883.196380775622
 30
0.0
  0
SPLINE
  5
151
330
1F
100
AcDbEntity
  8
0
  6
Continuous
 62
     7
370
    25
100
AcDbSpline
210
0.0
220
0.0
230
1.0
 70
     8
 71
     3
 72
   102
 73
    98
 74
     0
 42
0.00000001
 43
0.00000001
 40
0.0
 40
0.0
 40
0.0
 40
0.0
 40
0.0177003796377139
 40
0.0341072450110808
 40
0.0492268208797875
 40
0.0630613550316924
 40
0.075609979030147
 40
0.0868695351580956
 40
0.0968353565653395
 40
0.1055019620615323
 40
0.1128636440015396
 40
0.1189149014856303
 40
0.1236507628730096
 40
0.1270670451827769
 40
0.129322832709435
 40
0.1307842148286755
 40
0.1329273875674414
 40
0.1357781807932986
 40
0.1393382809408895
 40
0.143450169924643
 40
0.1543239796541742
 40
0.1668612509064983
 40
0.1774799030356314
 40
0.189076173979932
 40
0.2016618187563388
 40
0.2152496410547145
 40
0.229161598139548
 40
0.2423075676667772
 40
0.2570383084999756
 40
0.2706131328483666
 40
0.2830152932420949
 40
0.2942296545995015
 40
0.3042428423194496
 40
0.31781659587193
 40
0.3319130443057278
 40
0.3466366761131342
 40
0.3627291984798708
 40
0.3803555333303088
 40
0.398574968637489
 40
0.4165224946488739
 40
0.4280521776018327
 40
0.4389256734053449
 40
0.4490014245265244
 40
0.4585105988322876
 40
0.4680823233644931
 40
0.4784306001654846
 40
0.4862051292110885
 40
0.4940441013304583
 40
0.5012494242830562
 40
0.5078210067038395
 40
0.513768736061606
 40
0.5190943603269983
 40
0.5249207559755
 40
0.530385886947988
 40
0.5369508238401278
 40
0.5445410857592605
 40
0.5520942290010629
 40
0.5592595724101209
 40
0.5660401024477968
 40
0.5725904549497841
 40
0.589874582373943
 40
0.6060909495789013
 40
0.6169615743626948
 40
0.626710888218773
 40
0.6352250634732727
 40
0.642510897506367
 40
0.6485834148910824
 40
0.6532553472128587
 40
0.6591384621953239
 40
0.6662269754161517
 40
0.6745136241349026
 40
0.6833376192379158
 40
0.7002128993567467
 40
0.7164868859858475
 40
0.7350838358900627
 40
0.752873413749615
 40
0.7706240549767636
 40
0.7843893981082325
 40
0.7983333652367368
 40
0.812453778180196
 40
0.8267490688360715
 40
0.8409907658792598
 40
0.8507908028615929
 40
0.8590607144120871
 40
0.8658121115434262
 40
0.8712170476674066
 40
0.8769879706033519
 40
0.8865935523904036
 40
0.8979125283120131
 40
0.9109710826302698
 40
0.9257592236779126
 40
0.93883041702885
 40
0.9530016080750463
 40
0.9681473986974698
 40
0.9833017538636953
 40
0.9982686473742959
 40
1.0
 40
1.0
 40
1.0
 40
1.0
 10
7330.518503511986
 20
8883.196380775622
 30
0.0
 10
7310.25615959421
 20
8883.091541290627
 30
0.0
 10
7271.212210105699
 20
8882.889523815595
 30
0.0
 10
7215.060128287572
 20
8880.64202213508
 30
0.0
 10
7163.671167625896
 20
8877.383232504297
 30
0.0
 10
7117.083573642919
 20
8873.305133675633
 30
0.0
 10
7075.285430003847
 20
8868.736326050821
 30
0.0
 10
7038.221401471708
 20
8863.941405223424
 30
0.0
 10
7005.81056997613
 20
8859.160104506294
 30
0.0
 10
6977.956778514458
 20
8854.598751298423
 30
0.0
 10
6954.558086352452
 20
8850.434029797681
 30
0.0
 10
6935.51416045006
 20
8846.813592983219
 30
0.0
 10
6920.73435519181
 20
8843.857407118283
 30
0.0
 10
6909.971994846046
 20
8841.623275017262
 30
0.0
 10
6902.62871572728
 20
8840.059947865966
 30
0.0
 10
6896.597080444415
 20
8838.754741625773
 30
0.0
 10
6889.97395934114
 20
8837.298930237932
 30
0.0
 10
6881.233055452386
 20
8835.336065849826
 30
0.0
 10
6870.540990723276
 20
8832.869298563115
 30
0.0
 10
6851.823195447329
 20
8828.411881120624
 30
0.0
 10
6824.404086727533
 20
8821.477290553714
 30
0.0
 10
6791.262968363728
 20
8812.3065912856
 30
0.0
 10
6758.243017471098
 20
8802.35941971001
 30
0.0
 10
6726.010990679042
 20
8791.855241044124
 30
0.0
 10
6692.06082474094
 20
8779.837875854884
 30
0.0
 10
6657.265029922562
 20
8766.406760861288
 30
0.0
 10
6623.354053270044
 20
8752.101724068298
 30
0.0
 10
6589.923490002939
 20
8736.732436511273
 30
0.0
 10
6558.270380118621
 20
8720.83925124859
 30
0.0
 10
6528.72231590808
 20
8704.621320006572
 30
0.0
 10
6503.035318738524
 20
8689.316168810921
 30
0.0
 10
6480.895116813334
 20
8675.08846758566
 30
0.0
 10
6459.002003222991
 20
8660.011945187642
 30
0.0
 10
6436.505078139628
 20
8643.248736610054
 30
0.0
 10
6412.819591533485
 20
8623.832186204407
 30
0.0
 10
6389.584386366212
 20
8602.70568755269
 30
0.0
 10
6366.574104906255
 20
8579.169426766366
 30
0.0
 10
6344.494073422014
 20
8553.176419231819
 30
0.0
 10
6324.610167073989
 20
8525.556641904539
 30
0.0
 10
6309.705820629804
 20
8500.519191299689
 30
0.0
 10
6299.020768157656
 20
8479.029344415896
 30
0.0
 10
6291.587492359332
 20
8461.507357857019
 30
0.0
 10
6285.651941196424
 20
8444.871612681685
 30
0.0
 10
6280.902997266223
 20
8428.75345602457
 30
0.0
 10
6277.032493067235
 20
8412.221860785294
 30
0.0
 10
6274.362421417289
 20
8396.613169579532
 30
0.0
 10
6272.692636037558
 20
8382.061879602681
 30
0.0
 10
6271.842797144551
 20
8369.301721549578
 30
0.0
 10
6271.597182764688
 20
8357.262089864666
 30
0.0
 10
6271.837573563799
 20
8346.264946318312
 30
0.0
 10
6272.439731633355
 20
8336.28674514001
 30
0.0
 10
6273.350562974712
 20
8326.711326224238
 30
0.0
 10
6274.556250507749
 20
8317.408824678761
 30
0.0
 10
6276.201525906745
 20
8307.416237428613
 30
0.0
 10
6278.420564184632
 20
8296.437066519682
 30
0.0
 10
6281.422166614173
 20
8284.27050098163
 30
0.0
 10
6285.078319979439
 20
8271.874424197313
 30
0.0
 10
6289.118461708204
 20
8260.059954096785
 30
0.0
 10
6293.403756736158
 20
8248.974996022873
 30
0.0
 10
6300.459658119001
 20
8232.541397236548
 30
0.0
 10
6311.276840357449
 20
8211.205115274926
 30
0.0
 10
6325.66999255776
 20
8187.961977751728
 30
0.0
 10
6339.193580390762
 20
8168.994831743696
 30
0.0
 10
6350.842861205351
 20
8154.185319647194
 30
0.0
 10
6361.782548633079
 20
8141.372729902315
 30
0.0
 10
6371.661739249619
 20
8130.557013690558
 30
0.0
 10
6380.140318122221
 20
8121.768302536182
 30
0.0
 10
6388.163845280198
 20
8113.795864169505
 30
0.0
 10
6396.925780661391
 20
8105.434129571
 30
0.0
 10
6407.871870824156
 20
8095.481100869607
 30
0.0
 10
6420.867654966703
 20
8084.305140140973
 30
0.0
 10
6439.966924042425
 20
8068.842719326355
 30
0.0
 10
6465.126102723339
 20
8050.190937365582
 30
0.0
 10
6498.57880145557
 20
8027.977690017578
 30
0.0
 10
6535.161001285886
 20
8006.265685645029
 30
0.0
 10
6575.383490776258
 20
7984.989438514825
 30
0.0
 10
6614.30091724237
 20
7966.589624049409
 30
0.0
 10
6651.984920932235
 20
7950.47208841774
 30
0.0
 10
6688.068236643454
 20
7936.356555247736
 30
0.0
 10
6725.999787026664
 20
7922.829031186495
 30
0.0
 10
6765.559770312119
 20
7910.02487213098
 30
0.0
 10
6802.280587620548
 20
7899.288314128058
 30
0.0
 10
6834.015091871805
 20
7890.80439300584
 30
0.0
 10
6858.822608590524
 20
7884.622920336164
 30
0.0
 10
6879.515680294484
 20
7879.771232798356
 30
0.0
 10
6897.858670210922
 20
7875.684782231378
 30
0.0
 10
6919.310097029833
 20
7871.132389190028
 30
0.0
 10
6947.202433892356
 20
7865.612014139577
 30
0.0
 10
6983.254341925355
 20
7859.162911225329
 30
0.0
 10
7025.480860407055
 20
7852.519623092189
 30
0.0
 10
7070.319239935103
 20
7846.542380066867
 30
0.0
 10
7117.005420587924
 20
7841.413405580796
 30
0.0
 10
7164.611903591663
 20
7837.271043154929
 30
0.0
 10
7215.016544744535
 20
7834.04936584166
 30
0.0
 10
7266.64263558583
 20
7832.167823559367
 30
0.0
 10
7303.104510127089
 20
7831.304778349303
 30
0.0
 10
7322.206712148943
 20
7831.558368485966
 30
0.0
 10
7324.187318217228
 20
7831.584661902973
 30
0.0
  0
SPLINE
  5
152
330
1F
100
AcDbEntity
  8
0
  6
Continuous
 62
     7
370
    25
100
AcDbSpline
210
0.0
220
0.0
230
1.0
 70
     8
 71
     3
 72
    49
 73
    45
 74
     0
 42
0.00000001
 43
0.00000001
 40
0.0
 40
0.0
 40
0.0
 40
0.0
 40
0.0354369069658049
 40
0.0737477593833648
 40
0.1115049575800203
 40
0.148734019277344
 40
0.1732729400389516
 40
0.1969849683703595
 40
0.2171942988906566
 40
0.2335655793879508
 40
0.2460791460385914
 40
0.2547184278017314
 40
0.2593463282588957
 40
0.2660120355022694
 40
0.275210681924783
 40
0.2866204874730225
 40
0.3085137863507129
 40
0.3337078613254104
 40
0.3622369900974207
 40
0.3941419966538131
 40
0.4216097218434621
 40
0.4506086713165935
 40
0.4782995189760295
 40
0.5043004074555527
 40
0.536856583183525
 40
0.5662143674409321
 40
0.5923319139745379
 40
0.615265874094544
 40
0.6377068447955051
 40
0.6682467434097666
 40
0.7005126765606552
 40
0.7361707836164294
 40
0.765765291382067
 40
0.7957913811163286
 40
0.8254321568534154
 40
0.8546096747305619
 40
0.8818322046091468
 40
0.9001641418664639
 40
0.9171798172434895
 40
0.9330075290012416
 40
0.944276372896365
 40
0.9591987785359206
 40
0.9777739264173335
 40
1.0
 40
1.0
 40
1.0
 40
1.0
 10
7324.188827587549
 20
7911.579039603965
 30
0.0
 10
7304.878079690801
 20
7911.703196692516
 30
0.0
 10
7264.69047554193
 20
7911.961580052581
 30
0.0
 10
7204.20098765538
 20
7914.707816130131
 30
0.0
 10
7143.316231148047
 20
7919.156320042696
 30
0.0
 10
7090.581734867715
 20
7924.663343468055
 30
0.0
 10
7045.994228729902
 20
7930.455895084725
 30
0.0
 10
7010.783834098597
 20
7935.75283549931
 30
0.0
 10
6980.22000468595
 20
7940.932834964702
 30
0.0
 10
6955.663009354049
 20
7945.493374789592
 30
0.0
 10
6937.108275553951
 20
7949.181978073674
 30
0.0
 10
6924.473854692508
 20
7951.816621968777
 30
0.0
 10
6914.771637543759
 20
7953.899563427963
 30
0.0
 10
6904.852463982997
 20
7956.081480830047
 30
0.0
 10
6891.745744329096
 20
7959.062637678679
 30
0.0
 10
6871.520631923829
 20
7963.86195781647
 30
0.0
 10
6844.16087833276
 20
7970.798099678329
 30
0.0
 10
6809.690208564011
 20
7980.351088586202
 30
0.0
 10
6771.866309593763
 20
7991.898730442191
 30
0.0
 10
6734.50470924851
 20
8004.559584382249
 30
0.0
 10
6698.458720707654
 20
8018.035692363826
 30
0.0
 10
6665.546305373216
 20
8031.512490940832
 30
0.0
 10
6634.658505067842
 20
8045.348990903689
 30
0.0
 10
6603.925888406671
 20
8060.331397978755
 30
0.0
 10
6574.287088791763
 20
8076.174563467081
 30
0.0
 10
6546.450108375458
 20
8092.581488599601
 30
0.0
 10
6523.165909169089
 20
8107.581108792428
 30
0.0
 10
6503.187831094567
 20
8121.529648351783
 30
0.0
 10
6483.257448969784
 20
8136.551265963066
 30
0.0
 10
6462.543911206369
 20
8153.668512151025
 30
0.0
 10
6440.896649360141
 20
8173.72700849586
 30
0.0
 10
6422.022007761019
 20
8193.684871231975
 30
0.0
 10
6405.858157124642
 20
8213.299335560976
 30
0.0
 10
6392.613323640067
 20
8231.772543639874
 30
0.0
 10
6381.300142256957
 20
8250.221681771554
 30
0.0
 10
6372.101981853792
 20
8268.146993957174
 30
0.0
 10
6365.603635063376
 20
8283.666709318868
 30
0.0
 10
6361.165245065617
 20
8296.567011675399
 30
0.0
 10
6358.16046209657
 20
8307.040173402178
 30
0.0
 10
6356.073160644264
 20
8315.929744113053
 30
0.0
 10
6354.441700741118
 20
8324.389330265443
 30
0.0
 10
6353.073633759408
 20
8333.480353281606
 30
0.0
 10
6351.909757303493
 20
8344.870159666565
 30
0.0
 10
6351.760401810264
 20
8353.301511522339
 30
0.0
 10
6351.679041839572
 20
8357.894409480377
 30
0.0
  0
SPLINE
  5
153
330
1F
100
AcDbEntity
  8
0
  6
Continuous
 62
     7
370
    25
100
AcDbSpline
210
0.0
220
0.0
230
1.0
 70
     8
 71
     3
 72
   137
 73
   133
 74
     0
 42
0.00000001
 43
0.00000001
 40
0.0
 40
0.0
 40
0.0
 40
0.0
 40
0.0096160894605183
 40
0.0181150052272125
 40
0.0254956406030955
 40
0.0319852336173063
 40
0.0381406930160548
 40
0.0494635976399749
 40
0.060136493606971
 40
0.0692997595241747
 40
0.077846784180795
 40
0.0852787386388902
 40
0.0915319416525011
 40
0.096609853229942
 40
0.099754913119503
 40
0.1037827675752501
 40
0.1086958713718571
 40
0.1144900936379163
 40
0.12065537165328
 40
0.1324344773276105
 40
0.143777226445569
 40
0.1567144783125712
 40
0.1691085094350936
 40
0.1815851082634291
 40
0.1884890951191461
 40
0.1954612425652926
 40
0.2025008832374303
 40
0.2096074285655168
 40
0.2167803973958531
 40
0.2239833060592007
 40
0.2305225566756696
 40
0.2366492352587521
 40
0.2416664586976023
 40
0.2456035059395202
 40
0.2495505255184572
 40
0.2541012317333093
 40
0.2600156359487963
 40
0.2667490228682618
 40
0.2742985707650031
 40
0.282660376257646
 40
0.2918313601440462
 40
0.3018098263743179
 40
0.3124786206091362
 40
0.3231255791343368
 40
0.3336358375387911
 40
0.3440155047536492
 40
0.3568140504946252
 40
0.3694271612899883
 40
0.3818634443762406
 40
0.3941299669885072
 40
0.3998919241067399
 40
0.4049373646641489
 40
0.4092627590865929
 40
0.4128652678764257
 40
0.4157423161903403
 40
0.4178917201133079
 40
0.4194347142332926
 40
0.4215333243178354
 40
0.4249664381758044
 40
0.4293489472366888
 40
0.4342604039715169
 40
0.4396804834524241
 40
0.445612513544541
 40
0.452060302834392
 40
0.4590281555797853
 40
0.4678206500800866
 40
0.4773353394984737
 40
0.4870227677234987
 40
0.4961426099889577
 40
0.5046844285447075
 40
0.5126413751334649
 40
0.5224027398731647
 40
0.5310824052279903
 40
0.5387096011650783
 40
0.5462065755877806
 40
0.5539581968580312
 40
0.5618276884001427
 40
0.5702290559847782
 40
0.5793002661592467
 40
0.5890224715202192
 40
0.5990380594794249
 40
0.6089249583914021
 40
0.6186508139195575
 40
0.6277068719406549
 40
0.6359298503937895
 40
0.6422350138784049
 40
0.6487534487582859
 40
0.6561482393245291
 40
0.6637717208884814
 40
0.6704768693791215
 40
0.6740225398122126
 40
0.6772447207430207
 40
0.6803041630693415
 40
0.6842835120977285
 40
0.6893842579993681
 40
0.6955358045249075
 40
0.704971097892779
 40
0.713521296053495
 40
0.7216667370832602
 40
0.7300094861337993
 40
0.7379542414807134
 40
0.7453656502691915
 40
0.7518817762331389
 40
0.7574849618071787
 40
0.763881377917717
 40
0.7712798957594303
 40
0.7821805943052377
 40
0.7943241170920625
 40
0.8060176748955961
 40
0.8172634785554876
 40
0.8280644109244502
 40
0.8385799063913982
 40
0.850531523702419
 40
0.8626933054788825
 40
0.8750616151900111
 40
0.8876335694606934
 40
0.8940275944538766
 40
0.8996580308837251
 40
0.9045145517917312
 40
0.9086015209647049
 40
0.9119226869029425
 40
0.9150952529009884
 40
0.921469652072185
 40
0.9290852358526056
 40
0.9379797749600048
 40
0.9481457311774906
 40
0.9571899294749212
 40
0.9670417593739795
 40
0.9776462525174382
 40
0.9883152322658556
 40
0.9988465194399405
 40
1.0
 40
1.0
 40
1.0
 40
1.0
 10
6351.679041839572
 20
8357.894409480377
 30
0.0
 10
6351.853289686937
 20
8363.843756383894
 30
0.0
 10
6352.181541694035
 20
8375.05126965612
 30
0.0
 10
6354.379042365048
 20
8390.645428205853
 30
0.0
 10
6357.229818967752
 20
8404.229536099177
 30
0.0
 10
6360.585786006065
 20
8416.350167846827
 30
0.0
 10
6365.545387649511
 20
8431.085358781478
 30
0.0
 10
6373.024780007639
 20
8448.776548727776
 30
0.0
 10
6383.375034454391
 20
8468.152799034153
 30
0.0
 10
6394.555760166803
 20
8485.758045629647
 30
0.0
 10
6405.866830931914
 20
8501.299895497743
 30
0.0
 10
6416.978672170005
 20
8514.959735064484
 30
0.0
 10
6427.192313324127
 20
8526.450069132665
 30
0.0
 10
6435.632176147603
 20
8535.307464671288
 30
0.0
 10
6443.177819156101
 20
8542.847661440352
 30
0.0
 10
6450.941791558369
 20
8550.288784015376
 30
0.0
 10
6460.853521280292
 20
8559.318699039564
 30
0.0
 10
6472.798077304092
 20
8569.577608904545
 30
0.0
 10
6490.51022525881
 20
8583.849003377874
 30
0.0
 10
6514.034854264239
 20
8601.130545575423
 30
0.0
 10
6545.629042541162
 20
8621.820223273948
 30
0.0
 10
6580.530770791604
 20
8642.167195114735
 30
0.0
 10
6619.445580160515
 20
8662.303607959422
 30
0.0
 10
6654.485193687845
 20
8678.430294273312
 30
0.0
 10
6684.986294029293
 20
8691.235383764848
 30
0.0
 10
6709.996318497403
 20
8701.060514012193
 30
0.0
 10
6736.043113934925
 20
8710.618590742222
 30
0.0
 10
6763.124122233367
 20
8719.880978166017
 30
0.0
 10
6791.18698644061
 20
8728.802128598765
 30
0.0
 10
6819.240281502284
 20
8737.067584634577
 30
0.0
 10
6846.515640429477
 20
8744.52151401756
 30
0.0
 10
6871.284390491999
 20
8750.819683476535
 30
0.0
 10
6892.765843022364
 20
8755.932619567116
 30
0.0
 10
6911.387050800321
 20
8760.126511834938
 30
0.0
 10
6929.540284363632
 20
8764.013748356094
 30
0.0
 10
6950.81640387586
 20
8768.319089036237
 30
0.0
 10
6976.535920087617
 20
8773.156713295295
 30
0.0
 10
7007.175191751927
 20
8778.403143615033
 30
0.0
 10
7042.027381806152
 20
8783.722289008796
 30
0.0
 10
7081.182663296478
 20
8788.903716068082
 30
0.0
 10
7124.707610367028
 20
8793.709042583268
 30
0.0
 10
7172.450152876382
 20
8797.853592665044
 30
0.0
 10
7223.046828328121
 20
8800.982469470893
 30
0.0
 10
7274.846933696974
 20
8802.868733923897
 30
0.0
 10
7326.342403007138
 20
8803.451897188705
 30
0.0
 10
7381.341313493096
 20
8802.710840949154
 30
0.0
 10
7439.558145256632
 20
8800.32539008977
 30
0.0
 10
7500.560984148476
 20
8795.97109205837
 30
0.0
 10
7559.880936797201
 20
8789.92209090116
 30
0.0
 10
7607.435237249772
 20
8783.606811395824
 30
0.0
 10
7642.852084790601
 20
8778.088974727045
 30
0.0
 10
7665.830854433928
 20
8774.18496404952
 30
0.0
 10
7685.331241051696
 20
8770.629432874628
 30
0.0
 10
7701.42423022285
 20
8767.523157936963
 30
0.0
 10
7714.174138489322
 20
8764.949158512858
 30
0.0
 10
7723.818318564554
 20
8762.935187864092
 30
0.0
 10
7732.27234564734
 20
8761.12632068513
 30
0.0
 10
7742.543430020286
 20
8758.876292573323
 30
0.0
 10
7756.828935603848
 20
8755.635244187808
 30
0.0
 10
7774.9640674218
 20
8751.317899271122
 30
0.0
 10
7795.627027413167
 20
8746.119082793854
 30
0.0
 10
7818.090047502617
 20
8740.121971619437
 30
0.0
 10
7842.208956817161
 20
8733.264166454614
 30
0.0
 10
7867.856066587034
 20
8725.47055747672
 30
0.0
 10
7896.562393506096
 20
8716.114763347912
 30
0.0
 10
7928.225203024846
 20
8704.939042716658
 30
0.0
 10
7961.953030121606
 20
8691.91598107139
 30
0.0
 10
7994.600981845699
 20
8678.09419695188
 30
0.0
 10
8024.67824102026
 20
8664.175324585585
 30
0.0
 10
8051.536753619709
 20
8650.66604334818
 30
0.0
 10
8077.779630707461
 20
8636.400958824712
 30
0.0
 10
8102.742612724595
 20
8621.642798783088
 30
0.0
 10
8125.893222525599
 20
8606.687667408856
 30
0.0
 10
8145.786285064343
 20
8592.76308938252
 30
0.0
 10
8163.747083637802
 20
8579.191642694866
 30
0.0
 10
8180.723676348198
 20
8565.30782532948
 30
0.0
 10
8197.143011670116
 20
8550.700425924506
 30
0.0
 10
8213.032515992103
 20
8535.207213460491
 30
0.0
 10
8228.468707215145
 20
8518.509224906928
 30
0.0
 10
8243.037117038803
 20
8500.73369395022
 30
0.0
 10
8256.148274966019
 20
8482.357811249514
 30
0.0
 10
8267.39321941515
 20
8463.919319642788
 30
0.0
 10
8276.520856552701
 20
8446.01878463246
 30
0.0
 10
8283.505234431665
 20
8429.220676441628
 30
0.0
 10
8288.322696706813
 20
8414.657053755904
 30
0.0
 10
8291.665859240968
 20
8401.846444732866
 30
0.0
 10
8294.109926404522
 20
8389.683966543524
 30
0.0
 10
8295.891541216522
 20
8376.538491731184
 30
0.0
 10
8296.744709127664
 20
8363.15941633322
 30
0.0
 10
8296.68591409132
 20
8352.070036660007
 30
0.0
 10
8296.23292667578
 20
8343.774829791822
 30
0.0
 10
8295.708571172123
 20
8337.740233896016
 30
0.0
 10
8294.97428817217
 20
8331.45605220287
 30
0.0
 10
8293.857168621822
 20
8324.025202136963
 30
0.0
 10
8292.05750403145
 20
8314.732636737514
 30
0.0
 10
8288.96531173607
 20
8302.215948829355
 30
0.0
 10
8284.244137098183
 20
8287.470953451924
 30
0.0
 10
8277.540500526089
 20
8271.070717431287
 30
0.0
 10
8269.845573579798
 20
8255.465739485377
 30
0.0
 10
8261.092145914487
 20
8240.277805849611
 30
0.0
 10
8251.39877179174
 20
8225.594877666012
 30
0.0
 10
8241.38952491663
 20
8212.08434483905
 30
0.0
 10
8231.601946711142
 20
8200.0859082739
 30
0.0
 10
8221.592991468464
 20
8188.744352386864
 30
0.0
 10
8210.32076478661
 20
8176.87733795937
 30
0.0
 10
8194.6185232323
 20
8161.639527827301
 30
0.0
 10
8173.399351739885
 20
8143.067145862758
 30
0.0
 10
8146.631390476948
 20
8122.336936249555
 30
0.0
 10
8116.948346148327
 20
8101.962937092907
 30
0.0
 10
8085.980337259814
 20
8082.948520082802
 30
0.0
 10
8053.880351035183
 20
8065.194352076754
 30
0.0
 10
8018.93210306626
 20
8047.706667784168
 30
0.0
 10
7980.279453130649
 20
8030.308517370999
 30
0.0
 10
7937.08500660745
 20
8012.970344791414
 30
0.0
 10
7890.71613590578
 20
7996.454040300129
 30
0.0
 10
7849.561904988855
 20
7983.544803306045
 30
0.0
 10
7816.161304044472
 20
7974.080760770986
 30
0.0
 10
7792.782601193088
 20
7967.885655363054
 30
0.0
 10
7772.266257159793
 20
7962.768496730449
 30
0.0
 10
7754.768098940553
 20
7958.631375630303
 30
0.0
 10
7739.506904268657
 20
7955.184569267152
 30
0.0
 10
7720.769505690835
 20
7951.124094721428
 30
0.0
 10
7695.455620878477
 20
7945.973858357284
 30
0.0
 10
7661.119354499188
 20
7939.641680082209
 30
0.0
 10
7620.366557654872
 20
7933.015452605348
 30
0.0
 10
7576.652886238258
 20
7926.980004337134
 30
0.0
 10
7530.768012387296
 20
7921.749196172149
 30
0.0
 10
7483.617038677146
 20
7917.485001498171
 30
0.0
 10
7433.359616389967
 20
7914.143190191439
 30
0.0
 10
7381.641355924073
 20
7912.186012255626
 30
0.0
 10
7345.137988627707
 20
7911.287497404955
 30
0.0
 10
7326.071050882785
 20
7911.55284535602
 30
0.0
 10
7324.188827587549
 20
7911.579039603965
 30
0.0
  0
ARC
  5
154
330
1F
100
AcDbEntity
  8
0
  6
Continuous
 62
     7
370
    25
100
AcDbCircle
 10
8238.8211891372
 20
7579.0470896254
 30
0.0
 40
110.3571428571435
100
AcDbArc
 50
321.4199075616
 51
38.5800924384
  0
ARC
  5
155
330
1F
100
AcDbEntity
  8
0
  6
Continuous
 62
     7
370
    25
100
AcDbCircle
 10
6409.5354748515
 20
7579.0470896254
 30
0.0
 40
110.3571428571435
100
AcDbArc
 50
141.4199075616
 51
218.5800924384
  0
ARC
  5
156
330
1F
100
AcDbEntity
  8
0
  6
Continuous
 62
     7
370
    25
100
AcDbCircle
 10
6572.9032753375
 20
6951.6583407465
 30
0.0
 40
258.7249433431583
100
AcDbArc
 50
153.6598068113
 51
206.3401931887
  0
ARC
  5
157
330
1F
100
AcDbEntity
  8
0
  6
Continuous
 62
     7
370
    25
100
AcDbCircle
 10
8075.4533886512
 20
6951.6583407465
 30
0.0
 40
258.7249433431574
100
AcDbArc
 50
333.6598068113
 51
26.3401931887
  0
ARC
  5
158
330
1F
100
AcDbEntity
  8
0
  6
Continuous
 62
     7
370
    25
100
AcDbCircle
 10
8364.1783319943
 20
7479.0470896254
 30
0.0
 40
50.00000000000182
100
AcDbArc
 50
141.4199075616
 51
180.0
  0
ARC
  5
159
330
1F
100
AcDbEntity
  8
0
  6
Continuous
 62
     7
370
    25
100
AcDbCircle
 10
6284.1783319943
 20
7479.0470896254
 30
0.0
 40
50.0
100
AcDbArc
 50
0.0
 51
38.5800924384
  0
ARC
  5
15A
330
1F
100
AcDbEntity
  8
0
  6
Continuous
 62
     7
370
    25
100
AcDbCircle
 10
8364.1783319943
 20
7679.0470896254
 30
0.0
 40
50.00000000000182
100
AcDbArc
 50
180.0
 51
218.5800924384
  0
ARC
  5
15B
330
1F
100
AcDbEntity
  8
0
  6
Continuous
 62
     7
370
    25
100
AcDbCircle
 10
6284.1783319943
 20
7679.0470896254
 30
0.0
 40
50.0
100
AcDbArc
 50
321.4199075616
 51
0.0
  0
LINE
  5
15C
330
1F
100
AcDbEntity
  8
0
  6
Continuous
 62
     7
370
    25
100
AcDbLine
 10
8314.1783319943
 20
7679.0470896254
 30
0.0
 11
8314.1783319943
 21
7961.5470896254
 31
0.0
  0
LINE
  5
15D
330
1F
100
AcDbEntity
  8
0
  6
Continuous
 62
     7
370
    25
100
AcDbLine
 10
6334.1783319943
 20
7961.5470896254
 30
0.0
 11
6334.1783319943
 21
7679.0470896254
 31
0.0
  0
LINE
  5
15E
330
1F
100
AcDbEntity
  8
0
  6
Continuous
 62
     7
370
    25
100
AcDbLine
 10
8314.1783319943
 20
7149.0470896254
 30
0.0
 11
8314.1783319943
 21
7479.0470896254
 31
0.0
  0
LINE
  5
15F
330
1F
100
AcDbEntity
  8
0
  6
Continuous
 62
     7
370
    25
100
AcDbLine
 10
6334.1783319943
 20
7479.0470896254
 30
0.0
 11
6334.1783319943
 21
7149.0470896254
 31
0.0
  0
ARC
  5
160
330
1F
100
AcDbEntity
  8
0
  6
Continuous
 62
     7
370
    25
100
AcDbCircle
 10
8064.1783319943
 20
7149.0470896254
 30
0.0
 40
250.0000000000002
100
AcDbArc
 50
344.9299378551
 51
0.0
  0
ARC
  5
161
330
1F
100
AcDbEntity
  8
0
  6
Continuous
 62
     7
370
    25
100
AcDbCircle
 10
6584.1783319943
 20
7149.0470896254
 30
0.0
 40
249.9999999999993
100
AcDbArc
 50
180.0
 51
195.0700621449
  0
ARC
  5
162
330
1F
100
AcDbEntity
  8
0
  6
Continuous
 62
     7
370
    25
100
AcDbCircle
 10
6385.849117032
 20
6859.0470896254
 30
0.0
 40
49.99999999999925
100
AcDbArc
 50
206.3401931887
 51
270.0
  0
ARC
  5
163
330
1F
100
AcDbEntity
  8
0
  6
Continuous
 62
     7
370
    25
100
AcDbCircle
 10
8262.5075469567
 20
6859.0470896254
 30
0.0
 40
49.99999999999909
100
AcDbArc
 50
270.0
 51
333.6598068113
  0
ARC
  5
164
330
1F
100
AcDbEntity
  8
0
  6
Continuous
 62
     7
370
    25
100
AcDbCircle
 10
6399.1783319943
 20
6759.0470896254
 30
0.0
 40
50.00000000000091
100
AcDbArc
 50
360.0
 51
90.0
  0
ARC
  5
165
330
1F
100
AcDbEntity
  8
0
  6
Continuous
 62
     7
370
    25
100
AcDbCircle
 10
8249.1783319943
 20
6759.0470896254
 30
0.0
 40
50.00000000000182
100
AcDbArc
 50
90.0
 51
180.0
  0
ARC
  5
166
330
1F
100
AcDbEntity
  8
0
  6
Continuous
 62
     7
370
    25
100
AcDbCircle
 10
6494.1783319943
 20
6754.0470896254
 30
0.0
 40
45.0
100
AcDbArc
 50
180.0
 51
270.0
  0
ARC
  5
167
330
1F
100
AcDbEntity
  8
0
  6
Continuous
 62
     7
370
    25
100
AcDbCircle
 10
8154.1783319943
 20
6754.0470896254
 30
0.0
 40
45.0
100
AcDbArc
 50
270.0
 51
0.0
  0
LINE
  5
168
330
1F
100
AcDbEntity
  8
0
  6
Continuous
 62
     7
370
    25
100
AcDbLine
 10
6494.1783319943
 20
6709.0470896254
 30
0.0
 11
8154.1783319943
 21
6709.0470896254
 31
0.0
  0
LINE
  5
169
330
1F
100
AcDbEntity
  8
0
  6
Continuous
 62
     7
370
    25
100
AcDbLine
 10
6449.1783319943
 20
6759.0470896254
 30
0.0
 11
6449.1783319943
 21
6754.0470896254
 31
0.0
  0
LINE
  5
16A
330
1F
100
AcDbEntity
  8
0
  6
Continuous
 62
     7
370
    25
100
AcDbLine
 10
8199.1783319943
 20
6754.0470896254
 30
0.0
 11
8199.1783319943
 21
6759.0470896254
 31
0.0
  0
ARC
  5
16B
330
1F
100
AcDbEntity
  8
0
  6
Continuous
 62
     7
370
    25
100
AcDbCircle
 10
8389.1783319943
 20
7961.5470896254
 30
0.0
 40
75.0
100
AcDbArc
 50
164.8107132628
 51
180.0
  0
ARC
  5
16C
330
1F
100
AcDbEntity
  8
0
  6
Continuous
 62
     7
370
    25
100
AcDbCircle
 10
6259.1783319943
 20
7961.5470896254
 30
0.0
 40
75.0
100
AcDbArc
 50
0.0
 51
15.1892867372
  0
ARC
  5
16D
330
1F
100
AcDbEntity
  8
0
  6
Continuous
 62
     7
370
    25
100
AcDbCircle
 10
8251.0533319944
 20
7999.0470896254
 30
0.0
 40
68.12499999999501
100
AcDbArc
 50
344.8107132628
 51
15.1892867372
  0
ARC
  5
16E
330
1F
100
AcDbEntity
  8
0
  6
Continuous
 62
     7
370
    25
100
AcDbCircle
 10
6397.3033319943
 20
7999.0470896254
 30
0.0
 40
68.12499999999501
100
AcDbArc
 50
164.8107132628
 51
195.1892867372
  0
ARC
  5
16F
330
1F
100
AcDbEntity
  8
0
  6
Continuous
 62
     7
370
    25
100
AcDbCircle
 10
6318.6359624937
 20
7077.5470896254
 30
0.0
 40
25.00000000000023
100
AcDbArc
 50
333.6598068113
 51
15.0700621449
  0
ARC
  5
170
330
1F
100
AcDbEntity
  8
0
  6
Continuous
 62
     7
370
    25
100
AcDbCircle
 10
8329.720701495
 20
7077.5470896254
 30
0.0
 40
25.00000000000105
100
AcDbArc
 50
164.9299378551
 51
206.3401931887
  0
ARC
  5
171
330
1F
100
AcDbEntity
  8
0
  6
Continuous
 62
     7
370
    25
100
AcDbCircle
 10
8389.1783319943
 20
8036.5470896254
 30
0.0
 40
75.0
100
AcDbArc
 50
180.0
 51
195.1892867372
  0
ARC
  5
172
330
1F
100
AcDbEntity
  8
0
  6
Continuous
 62
     7
370
    25
100
AcDbCircle
 10
6259.1783319943
 20
8036.5470896254
 30
0.0
 40
75.0
100
AcDbArc
 50
344.8107132628
 51
0.0
  0
LINE
  5
173
330
1F
100
AcDbEntity
  8
0
  6
Continuous
 62
     7
370
    25
100
AcDbLine
 10
8314.1783319943
 20
8036.5470896254
 30
0.0
 11
8314.1783319943
 21
8176.3793942779
 31
0.0
  0
LINE
  5
174
330
1F
100
AcDbEntity
  8
0
  6
Continuous
 62
     7
370
    25
100
AcDbLine
 10
6334.1783319943
 20
8176.3294664984
 30
0.0
 11
6334.1783319943
 21
8036.5470896254
 31
0.0
  0
SPLINE
  5
175
330
1F
100
AcDbEntity
  8
0
  6
Continuous
 62
     7
370
    25
100
AcDbSpline
210
0.0
220
0.0
230
1.0
 70
     8
 71
     3
 72
    17
 73
    13
 74
     0
 42
0.00000001
 43
0.00000001
 40
0.0
 40
0.0
 40
0.0
 40
0.0
 40
0.1142586022315223
 40
0.2283809705062742
 40
0.3451750489305393
 40
0.4549582701051855
 40
0.5510731736677971
 40
0.6410574904873408
 40
0.7361898798205481
 40
0.8425349369226632
 40
0.9580514690868417
 40
1.0
 40
1.0
 40
1.0
 40
1.0
 10
7286.428331994349
 20
8612.7970896254
 30
0.0
 10
7283.290119287197
 20
8613.126118815624
 30
0.0
 10
7277.017435657986
 20
8613.783784884705
 30
0.0
 10
7268.859474536873
 20
8618.760268596314
 30
0.0
 10
7262.798842767163
 20
8626.060067063434
 30
0.0
 10
7259.771211310878
 20
8634.944946460017
 30
0.0
 10
7259.870125220763
 20
8643.650302736767
 30
0.0
 10
7262.397646356888
 20
8651.35376680173
 30
0.0
 10
7267.080989891029
 20
8658.036807068995
 30
0.0
 10
7274.010140255331
 20
8663.26758861856
 30
0.0
 10
7280.949971705659
 20
8665.576262890765
 30
0.0
 10
7285.275907220667
 20
8665.750636638324
 30
0.0
 10
7286.428331994349
 20
8665.797089625397
 30
0.0
  0
LINE
  5
176
330
1F
100
AcDbEntity
  8
0
  6
Continuous
 62
     7
370
    25
100
AcDbLine
 10
7361.9283319943
 20
8665.7970896254
 30
0.0
 11
7286.4283319943
 21
8665.7970896254
 31
0.0
  0
SPLINE
  5
177
330
1F
100
AcDbEntity
  8
0
  6
Continuous
 62
     7
370
    25
100
AcDbSpline
210
0.0
220
0.0
230
1.0
 70
     8
 71
     3
 72
    18
 73
    14
 74
     0
 42
0.00000001
 43
0.00000001
 40
0.0
 40
0.0
 40
0.0
 40
0.0
 40
0.027718197654363
 40
0.1359351264770178
 40
0.2504581734021359
 40
0.3668615381484424
 40
0.4741466440808714
 40
0.56820572764102
 40
0.6583880045114312
 40
0.7553671964110624
 40
0.8638599305820721
 40
0.9801613742944829
 40
1.0
 40
1.0
 40
1.0
 40
1.0
 10
7361.928331994347
 20
8665.797089625392
 30
0.0
 10
7362.690386067813
 20
8665.776448246837
 30
0.0
 10
7366.427639050511
 20
8665.67521913955
 30
0.0
 10
7373.12528725866
 20
8663.870968560856
 30
0.0
 10
7380.833266283272
 20
8658.66930746192
 30
0.0
 10
7386.378462492224
 20
8650.92197148162
 30
0.0
 10
7388.787191294133
 20
8641.958219049238
 30
0.0
 10
7388.178394669214
 20
8633.41540500671
 30
0.0
 10
7385.246176524218
 20
8625.904951434242
 30
0.0
 10
7380.144455786225
 20
8619.43919615779
 30
0.0
 10
7372.806991369364
 20
8614.564517912428
 30
0.0
 10
7366.21824915528
 20
8612.881409271804
 30
0.0
 10
7362.473958182564
 20
8612.807814076597
 30
0.0
 10
7361.928331994345
 20
8612.797089625394
 30
0.0
  0
LINE
  5
178
330
1F
100
AcDbEntity
  8
0
  6
Continuous
 62
     7
370
    25
100
AcDbLine
 10
7361.9283319943
 20
8612.7970896254
 30
0.0
 11
7286.4283319943
 21
8612.7970896254
 31
0.0
  0
LINE
  5
179
330
1F
100
AcDbEntity
  8
0
  6
Continuous
 62
     7
370
    25
100
AcDbLine
 10
7284.6597109263
 20
8612.6966117035
 30
0.0
 11
7362.7478882731
 21
8612.6966117035
 31
0.0
  0
LINE
  5
17A
330
1F
100
AcDbEntity
  8
0
  6
Continuous
 62
     7
370
    25
100
AcDbLine
 10
7328.7815219597
 20
8612.6966117035
 30
0.0
 11
7326.790491316
 21
8611.5470896254
 31
0.0
  0
LINE
  5
17B
330
1F
100
AcDbEntity
  8
0
  6
Continuous
 62
     7
370
    25
100
AcDbLine
 10
7336.0661726726
 20
8611.5470896254
 30
0.0
 11
7334.0751420289
 21
8612.6966117035
 31
0.0
  0
LINE
  5
17C
330
1F
100
AcDbEntity
  8
0
  6
Continuous
 62
     7
370
    25
100
AcDbLine
 10
7286.6783319943
 20
8666.5470896254
 30
0.0
 11
7361.6783319943
 21
8666.5470896254
 31
0.0
  0
SPLINE
  5
17D
330
1F
100
AcDbEntity
  8
0
  6
Continuous
 62
     7
370
    25
100
AcDbSpline
210
0.0
220
0.0
230
1.0
 70
     8
 71
     3
 72
    17
 73
    13
 74
     0
 42
0.00000001
 43
0.00000001
 40
0.0
 40
0.0
 40
0.0
 40
0.0
 40
0.1136055194659154
 40
0.2270778027755113
 40
0.3431989140815184
 40
0.4529990533831579
 40
0.549962797230629
 40
0.6409333224843211
 40
0.7367055902257695
 40
0.8431288903459376
 40
0.9581266174719515
 40
1.0
 40
1.0
 40
1.0
 40
1.0
 10
7286.678331994345
 20
8611.5470896254
 30
0.0
 10
7283.435922404215
 20
8611.885387590795
 30
0.0
 10
7276.954905910595
 20
8612.561586766918
 30
0.0
 10
7268.512430487414
 20
8617.685519802091
 30
0.0
 10
7262.221191296502
 20
8625.208043101999
 30
0.0
 10
7259.037742313566
 20
8634.390929648951
 30
0.0
 10
7259.093670979001
 20
8643.453922339446
 30
0.0
 10
7261.71120797975
 20
8651.513697473412
 30
0.0
 10
7266.595186375465
 20
8658.493582579726
 30
0.0
 10
7273.804274606934
 20
8663.928547634761
 30
0.0
 10
7281.006193208918
 20
8666.31873312805
 30
0.0
 10
7285.483271771511
 20
8666.498977303585
 30
0.0
 10
7286.678331994345
 20
8666.547089625397
 30
0.0
  0
LINE
  5
17E
330
1F
100
AcDbEntity
  8
0
  6
Continuous
 62
     7
370
    25
100
AcDbLine
 10
7361.6783319943
 20
8611.5470896254
 30
0.0
 11
7286.6783319943
 21
8611.5470896254
 31
0.0
  0
SPLINE
  5
17F
330
1F
100
AcDbEntity
  8
0
  6
Continuous
 62
     7
370
    25
100
AcDbSpline
210
0.0
220
0.0
230
1.0
 70
     8
 71
     3
 72
    17
 73
    13
 74
     0
 42
0.00000001
 43
0.00000001
 40
0.0
 40
0.0
 40
0.0
 40
0.0
 40
0.1136055194659153
 40
0.2270778027755124
 40
0.3431989140815173
 40
0.4529990533831566
 40
0.5499627972306275
 40
0.6409333224843197
 40
0.7367055902257705
 40
0.8431288903459385
 40
0.9581266174719505
 40
1.0
 40
1.0
 40
1.0
 40
1.0
 10
7361.678331994345
 20
8666.547089625397
 30
0.0
 10
7364.920741584475
 20
8666.20879166
 30
0.0
 10
7371.401758078096
 20
8665.532592483876
 30
0.0
 10
7379.844233501276
 20
8660.408659448703
 30
0.0
 10
7386.135472692188
 20
8652.886136148796
 30
0.0
 10
7389.318921675124
 20
8643.703249601844
 30
0.0
 10
7389.262993009689
 20
8634.64025691135
 30
0.0
 10
7386.645456008941
 20
8626.580481777384
 30
0.0
 10
7381.761477613225
 20
8619.60059667107
 30
0.0
 10
7374.552389381756
 20
8614.165631616033
 30
0.0
 10
7367.350470779772
 20
8611.775446122749
 30
0.0
 10
7362.87339221718
 20
8611.59520194721
 30
0.0
 10
7361.678331994345
 20
8611.5470896254
 30
0.0
  0
SPLINE
  5
180
330
1F
100
AcDbEntity
  8
0
  6
Continuous
 62
     7
370
    25
100
AcDbSpline
210
0.0
220
0.0
230
1.0
 70
     8
 71
     3
 72
    13
 73
     9
 74
     0
 42
0.00000001
 43
0.00000001
 40
0.0
 40
0.0
 40
0.0
 40
0.0
 40
0.1402043522264278
 40
0.2801592047750584
 40
0.495792782762735
 40
0.7121031047555693
 40
0.8559094574458881
 40
1.0
 40
1.0
 40
1.0
 40
1.0
 10
7443.551695857479
 20
8671.128082060877
 30
0.0
 10
7444.455790090401
 20
8667.970952400532
 30
0.0
 10
7446.262369681656
 20
8661.662311327927
 30
0.0
 10
7448.445879721495
 20
8649.587017399199
 30
0.0
 10
7449.598659201679
 20
8634.375668762183
 30
0.0
 10
7448.51595566771
 20
8619.014253120245
 30
0.0
 10
7446.332129347297
 20
8606.698051925538
 30
0.0
 10
7444.479116738338
 20
8600.21221620929
 30
0.0
 10
7443.551695857479
 20
8596.966097189921
 30
0.0
  0
LINE
  5
181
330
1F
100
AcDbEntity
  8
0
  6
Continuous
 62
     7
370
    25
100
AcDbLine
 10
7204.8049681312
 20
8596.9660971899
 30
0.0
 11
7443.5516958575
 21
8596.9660971899
 31
0.0
  0
SPLINE
  5
182
330
1F
100
AcDbEntity
  8
0
  6
Continuous
 62
     7
370
    25
100
AcDbSpline
210
0.0
220
0.0
230
1.0
 70
     8
 71
     3
 72
    13
 73
     9
 74
     0
 42
0.00000001
 43
0.00000001
 40
0.0
 40
0.0
 40
0.0
 40
0.0
 40
0.1402043522264273
 40
0.2801592047750581
 40
0.4957927827627337
 40
0.7121031047555673
 40
0.8559094574458855
 40
1.0
 40
1.0
 40
1.0
 40
1.0
 10
7204.804968131212
 20
8596.966097189921
 30
0.0
 10
7203.900873898288
 20
8600.123226850263
 30
0.0
 10
7202.094294307035
 20
8606.43186792287
 30
0.0
 10
7199.910784267195
 20
8618.507161851596
 30
0.0
 10
7198.758004787011
 20
8633.718510488614
 30
0.0
 10
7199.84070832098
 20
8649.079926130551
 30
0.0
 10
7202.024534641393
 20
8661.396127325257
 30
0.0
 10
7203.877547250352
 20
8667.881963041506
 30
0.0
 10
7204.804968131212
 20
8671.128082060877
 30
0.0
  0
LINE
  5
183
330
1F
100
AcDbEntity
  8
0
  6
Continuous
 62
     7
370
    25
100
AcDbLine
 10
7443.5516958575
 20
8671.1280820609
 30
0.0
 11
7204.8049681312
 21
8671.1280820609
 31
0.0
  0
ARC
  5
184
330
1F
100
AcDbEntity
  8
0
  6
Continuous
 62
     7
370
    25
100
AcDbCircle
 10
7324.1783319943
 20
8634.0470896254
 30
0.0
 40
125.000000000001
100
AcDbArc
 50
17.2563813775
 51
162.7436186225
  0
ARC
  5
185
330
1F
100
AcDbEntity
  8
0
  6
Continuous
 62
     7
370
    25
100
AcDbCircle
 10
7324.1783319943
 20
8634.0470896254
 30
0.0
 40
125.0
100
AcDbArc
 50
197.2563813775
 51
342.7436186225
  0
SPLINE
  5
186
330
1F
100
AcDbEntity
  8
0
  6
Continuous
 62
     7
370
    25
100
AcDbSpline
210
0.0
220
0.0
230
1.0
 70
     8
 71
     3
 72
    16
 73
    12
 74
     0
 42
0.00000001
 43
0.00000001
 40
0.0
 40
0.0
 40
0.0
 40
0.0
 40
0.0934080315917928
 40
0.2184080315917899
 40
0.3434080315917957
 40
0.4684080315917863
 40
0.5934080315917769
 40
0.7184080315917794
 40
0.8434080315917863
 40
0.9684080315917856
 40
1.0
 40
1.0
 40
1.0
 40
1.0
 10
7338.96110213853
 20
6708.655609690702
 30
0.0
 10
7338.923369499693
 20
6708.577769664375
 30
0.0
 10
7338.835142489285
 20
6708.395762971383
 30
0.0
 10
7336.042324334273
 20
6708.109589611723
 30
0.0
 10
7331.46779528073
 20
6707.797089611722
 30
0.0
 10
7325.704911786638
 20
6707.484589611724
 30
0.0
 10
7319.742618409223
 20
6707.172089611723
 30
0.0
 10
7314.402229743353
 20
6706.859589611724
 30
0.0
 10
7310.730735860821
 20
6706.547089611723
 30
0.0
 10
7309.008809123748
 20
6706.31242963805
 30
0.0
 10
7309.330634523624
 20
6706.181936331043
 30
0.0
 10
7309.39556185016
 20
6706.155609690703
 30
0.0
  0
SPLINE
  5
187
330
1F
100
AcDbEntity
  8
0
  6
Continuous
 62
     7
370
    25
100
AcDbSpline
210
0.0
220
0.0
230
1.0
 70
     8
 71
     3
 72
    16
 73
    12
 74
     0
 42
0.00000001
 43
0.00000001
 40
0.0
 40
0.0
 40
0.0
 40
0.0
 40
0.0934080315917928
 40
0.21840803159179
 40
0.3434080315917958
 40
0.4684080315917865
 40
0.5934080315917771
 40
0.7184080315917796
 40
0.8434080315917867
 40
0.9684080315917859
 40
1.0
 40
1.0
 40
1.0
 40
1.0
 10
7338.96110213853
 20
6703.655609690702
 30
0.0
 10
7338.923369499693
 20
6703.577769664376
 30
0.0
 10
7338.835142489285
 20
6703.395762971382
 30
0.0
 10
7336.042324334273
 20
6703.109589611724
 30
0.0
 10
7331.46779528073
 20
6702.797089611723
 30
0.0
 10
7325.704911786638
 20
6702.484589611724
 30
0.0
 10
7319.742618409223
 20
6702.172089611723
 30
0.0
 10
7314.402229743353
 20
6701.859589611724
 30
0.0
 10
7310.730735860821
 20
6701.547089611723
 30
0.0
 10
7309.008809123748
 20
6701.31242963805
 30
0.0
 10
7309.330634523624
 20
6701.181936331043
 30
0.0
 10
7309.39556185016
 20
6701.155609690703
 30
0.0
  0
SPLINE
  5
188
330
1F
100
AcDbEntity
  8
0
  6
Continuous
 62
     7
370
    25
100
AcDbSpline
210
0.0
220
0.0
230
1.0
 70
     8
 71
     3
 72
    16
 73
    12
 74
     0
 42
0.00000001
 43
0.00000001
 40
0.0
 40
0.0
 40
0.0
 40
0.0
 40
0.0618815633864817
 40
0.183035478677954
 40
0.3041893939694331
 40
0.4253433092609109
 40
0.5464972245523845
 40
0.6676511398438605
 40
0.7888050551353372
 40
0.9099589704268144
 40
1.0
 40
1.0
 40
1.0
 40
1.0
 10
7312.182110369261
 20
6699.512474565981
 30
0.0
 10
7312.056105808795
 20
6699.565679583505
 30
0.0
 10
7311.683405059517
 20
6699.723051267694
 30
0.0
 10
7313.123425097039
 20
6699.98458961855
 30
0.0
 10
7316.175042125217
 20
6700.297089618552
 30
0.0
 10
7320.540515458429
 20
6700.609589618552
 30
0.0
 10
7325.430106731797
 20
6700.922089618551
 30
0.0
 10
7330.152525278483
 20
6701.234589618551
 30
0.0
 10
7333.901539185487
 20
6701.547089618552
 30
0.0
 10
7336.188355178679
 20
6701.832839136837
 30
0.0
 10
7336.261078068025
 20
6702.014421988455
 30
0.0
 10
7336.292082805541
 20
6702.091838173407
 30
0.0
  0
SPLINE
  5
189
330
1F
100
AcDbEntity
  8
0
  6
Continuous
 62
     7
370
    25
100
AcDbSpline
210
0.0
220
0.0
230
1.0
 70
     8
 71
     3
 72
    16
 73
    12
 74
     0
 42
0.00000001
 43
0.00000001
 40
0.0
 40
0.0
 40
0.0
 40
0.0
 40
0.032100578057507
 40
0.1571005780575022
 40
0.2821005780575042
 40
0.407100578057505
 40
0.5321005780575015
 40
0.6571005780575006
 40
0.7821005780575002
 40
0.9071005780575003
 40
1.0
 40
1.0
 40
1.0
 40
1.0
 10
7312.06458118315
 20
6704.591838173407
 30
0.0
 10
7312.010331982594
 20
6704.618588655122
 30
0.0
 10
7311.744835805196
 20
6704.749505803504
 30
0.0
 10
7313.156329170469
 20
6704.984589618551
 30
0.0
 10
7316.166225504123
 20
6705.297089618552
 30
0.0
 10
7320.542877869379
 20
6705.609589618552
 30
0.0
 10
7325.429473709093
 20
6705.922089618552
 30
0.0
 10
7330.152694958349
 20
6706.234589618552
 30
0.0
 10
7333.901493488725
 20
6706.547089618552
 30
0.0
 10
7336.188363252154
 20
6706.832839136837
 30
0.0
 10
7336.261080481229
 20
6707.014421988456
 30
0.0
 10
7336.292082805541
 20
6707.091838173408
 30
0.0
  0
SPLINE
  5
18A
330
1F
100
AcDbEntity
  8
0
  6
Continuous
 62
     7
370
    25
100
AcDbSpline
210
0.0
220
0.0
230
1.0
 70
     8
 71
     3
 72
     9
 73
     5
 74
     0
 42
0.00000001
 43
0.00000001
 40
0.0
 40
0.0
 40
0.0
 40
0.0
 40
0.9933695787542864
 40
1.0
 40
1.0
 40
1.0
 40
1.0
 10
7338.539154808448
 20
6699.047089625379
 30
0.0
 10
7339.103573974799
 20
6699.151256292046
 30
0.0
 10
7339.671760456875
 20
6699.256118237583
 30
0.0
 10
7339.096229174784
 20
6699.360980183123
 30
0.0
 10
7339.092413159943
 20
6699.361675461993
 30
0.0
  0
LINE
  5
18B
330
1F
100
AcDbEntity
  8
0
  6
Continuous
 62
     7
370
    25
100
AcDbLine
 10
7309.3955618502
 20
6701.7806097044
 30
0.0
 11
7309.2528530649
 21
6701.8595896254
 31
0.0
  0
SPLINE
  5
18C
330
1F
100
AcDbEntity
  8
0
  6
Continuous
 62
     7
370
    25
100
AcDbSpline
210
0.0
220
0.0
230
1.0
 70
     8
 71
     3
 72
    15
 73
    11
 74
     0
 42
0.00000001
 43
0.00000001
 40
0.0
 40
0.0
 40
0.0
 40
0.0
 40
0.0209542402444849
 40
0.1660568660025852
 40
0.311159491760681
 40
0.4562621175187828
 40
0.6013647432768872
 40
0.7464673690350367
 40
0.8915699947930876
 40
1.0
 40
1.0
 40
1.0
 40
1.0
 10
7310.713869811626
 20
6702.126961564862
 30
0.0
 10
7310.790315081783
 20
6702.1420042517
 30
0.0
 10
7311.39612382669
 20
6702.261213605207
 30
0.0
 10
7314.562444855237
 20
6702.48458962538
 30
0.0
 10
7319.699688821434
 20
6702.797089625378
 30
0.0
 10
7325.716415025907
 20
6703.109589625379
 30
0.0
 10
7331.464711911443
 20
6703.422089625379
 30
0.0
 10
7336.043154572153
 20
6703.734589625379
 30
0.0
 10
7338.834994865825
 20
6704.020762985039
 30
0.0
 10
7338.923325277413
 20
6704.202769678032
 30
0.0
 10
7338.96110213853
 20
6704.280609704359
 30
0.0
  0
LINE
  5
18D
330
1F
100
AcDbEntity
  8
0
  6
Continuous
 62
     7
370
    25
100
AcDbLine
 10
7309.3955618502
 20
6706.7806097044
 30
0.0
 11
7309.2528530649
 21
6706.8595896254
 31
0.0
  0
SPLINE
  5
18E
330
1F
100
AcDbEntity
  8
0
  6
Continuous
 62
     7
370
    25
100
AcDbSpline
210
0.0
220
0.0
230
1.0
 70
     8
 71
     3
 72
    14
 73
    10
 74
     0
 42
0.00000001
 43
0.00000001
 40
0.0
 40
0.0
 40
0.0
 40
0.0
 40
0.0235026306031593
 40
0.1862521921692992
 40
0.3490017537354342
 40
0.5117513153015758
 40
0.6745008768677203
 40
0.8372504384339156
 40
1.0
 40
1.0
 40
1.0
 40
1.0
 10
7310.713869811626
 20
6707.126961564863
 30
0.0
 10
7310.790312644477
 20
6707.1420042517
 30
0.0
 10
7311.396102074378
 20
6707.261213605207
 30
0.0
 10
7314.56324736342
 20
6707.484589625379
 30
0.0
 10
7319.696829409689
 20
6707.797089625378
 30
0.0
 10
7325.727050164706
 20
6708.109589625379
 30
0.0
 10
7331.425030767994
 20
6708.422089625379
 30
0.0
 10
7336.191244007154
 20
6708.734589625379
 30
0.0
 10
7337.756517874684
 20
6708.942922958712
 30
0.0
 10
7338.539154808448
 20
6709.047089625379
 30
0.0
  0
SPLINE
  5
18F
330
1F
100
AcDbEntity
  8
0
  6
Continuous
 62
     7
370
    25
100
AcDbSpline
210
0.0
220
0.0
230
1.0
 70
     8
 71
     3
 72
    13
 73
     9
 74
     0
 42
0.00000001
 43
0.00000001
 40
0.0
 40
0.0
 40
0.0
 40
0.0
 40
0.1739901085445877
 40
0.347980220746694
 40
0.5219703329487839
 40
0.6959604451508876
 40
0.8699505573529869
 40
0.9999999999999999
 40
0.9999999999999999
 40
0.9999999999999999
 40
0.9999999999999999
 10
7316.394018255617
 20
6699.047089625379
 30
0.0
 10
7317.756623892844
 20
6699.151256289746
 30
0.0
 10
7320.481835195943
 20
6699.359589620672
 30
0.0
 10
7325.445851873337
 20
6699.67208961857
 30
0.0
 10
7330.148225009591
 20
6699.984589618546
 30
0.0
 10
7333.902995119513
 20
6700.297089618553
 30
0.0
 10
7336.190631871392
 20
6700.583282646156
 30
0.0
 10
7336.263069017257
 20
6700.765309007095
 30
0.0
 10
7336.294053178023
 20
6700.843168701367
 30
0.0
  0
SPLINE
  5
190
330
1F
100
AcDbEntity
  8
0
  6
Continuous
 62
     7
370
    25
100
AcDbSpline
210
0.0
220
0.0
230
1.0
 70
     8
 71
     3
 72
    15
 73
    11
 74
     0
 42
0.00000001
 43
0.00000001
 40
0.0
 40
0.0
 40
0.0
 40
0.0
 40
0.0171319974559453
 40
0.162797037840152
 40
0.3084620721001943
 40
0.454127109422322
 40
0.5997921467444359
 40
0.7454571840665616
 40
0.8911222213886834
 40
1.0
 40
1.0
 40
1.0
 40
1.0
 10
7313.180658151283
 20
6703.697835780406
 30
0.0
 10
7313.232312218394
 20
6703.710087059788
 30
0.0
 10
7313.72315569066
 20
6703.826505008015
 30
0.0
 10
7316.302313851254
 20
6704.047089621214
 30
0.0
 10
7320.50640734636
 20
6704.359589620613
 30
0.0
 10
7325.439267619202
 20
6704.672089618586
 30
0.0
 10
7330.149989875496
 20
6704.984589618542
 30
0.0
 10
7333.902519910028
 20
6705.297089618554
 30
0.0
 10
7336.19071639275
 20
6705.583282646156
 30
0.0
 10
7336.263094339151
 20
6705.765309007095
 30
0.0
 10
7336.294053178023
 20
6705.843168701367
 30
0.0
  0
SPLINE
  5
191
330
1F
100
AcDbEntity
  8
0
  6
Continuous
 62
     7
370
    25
100
AcDbSpline
210
0.0
220
0.0
230
1.0
 70
     8
 71
     3
 72
     9
 73
     5
 74
     0
 42
0.00000001
 43
0.00000001
 40
0.0
 40
0.0
 40
0.0
 40
0.0
 40
0.1052353143720091
 40
1.0
 40
1.0
 40
1.0
 40
1.0
 10
7313.180658151283
 20
6708.697835780407
 30
0.0
 10
7313.232123048129
 20
6708.710087059788
 30
0.0
 10
7313.721168927392
 20
6708.826505008021
 30
0.0
 10
7315.131818676407
 20
6708.942922956398
 30
0.0
 10
7316.394018255617
 20
6709.047089625379
 30
0.0
  0
SPLINE
  5
192
330
1F
100
AcDbEntity
  8
0
  6
Continuous
 62
     7
370
    25
100
AcDbSpline
210
0.0
220
0.0
230
1.0
 70
    24
 71
     3
 72
    14
 73
    10
 74
     0
 42
0.00000001
 43
0.00000001
 40
0.0
 40
0.0
 40
0.0
 40
0.0
 40
0.1530174162942216
 40
0.3058484579299492
 40
0.4694091757850415
 40
0.6358773547555173
 40
0.8069629790804307
 40
0.9019096572873425
 40
1.0
 40
1.0
 40
1.0
 40
1.0
 10
7316.394018255617
 20
6699.047089625379
 30
0.0
 10
7317.449826647075
 20
6699.047089625379
 30
0.0
 10
7319.560157459193
 20
6699.047089625379
 30
0.0
 10
7323.696151302852
 20
6699.047089625379
 30
0.0
 10
7328.077097566332
 20
6699.047089625379
 30
0.0
 10
7332.363772036259
 20
6699.047089625377
 30
0.0
 10
7335.433091911204
 20
6699.047089625379
 30
0.0
 10
7337.443908259987
 20
6699.047089625378
 30
0.0
 10
7338.170130378889
 20
6699.047089625379
 30
0.0
 10
7338.539154808448
 20
6699.047089625379
 30
0.0
  0
SPLINE
  5
193
330
1F
100
AcDbEntity
  8
0
  6
Continuous
 62
     7
370
    25
100
AcDbSpline
210
0.0
220
0.0
230
1.0
 70
    24
 71
     3
 72
    10
 73
     6
 74
     0
 42
0.00000001
 43
0.00000001
 40
0.0
 40
0.0
 40
0.0
 40
0.0
 40
0.1599734647964668
 40
0.5700402423059083
 40
1.0
 40
1.0
 40
1.0
 40
1.0
 10
7312.074400155086
 20
6699.047089625379
 30
0.0
 10
7312.066661622363
 20
6699.047089625379
 30
0.0
 10
7312.039086579999
 20
6699.047089625379
 30
0.0
 10
7313.410287574226
 20
6699.047089625379
 30
0.0
 10
7315.383862376007
 20
6699.047089625379
 30
0.0
 10
7316.394018255617
 20
6699.047089625379
 30
0.0
  0
SPLINE
  5
194
330
1F
100
AcDbEntity
  8
0
  6
Continuous
 62
     7
370
    25
100
AcDbSpline
210
0.0
220
0.0
230
1.0
 70
     8
 71
     3
 72
    56
 73
    52
 74
     0
 42
0.00000001
 43
0.00000001
 40
0.0
 40
0.0
 40
0.0
 40
0.0
 40
0.0624999999999978
 40
0.0624999999999978
 40
0.093749999999997
 40
0.093749999999997
 40
0.1249999999999961
 40
0.1249999999999961
 40
0.1874999999999939
 40
0.1874999999999939
 40
0.2187499999999935
 40
0.2187499999999935
 40
0.2499999999999931
 40
0.2499999999999931
 40
0.312499999999994
 40
0.312499999999994
 40
0.3437499999999943
 40
0.3437499999999943
 40
0.3749999999999946
 40
0.3749999999999946
 40
0.4374999999999967
 40
0.4374999999999967
 40
0.4687499999999964
 40
0.4687499999999964
 40
0.4999999999999961
 40
0.4999999999999961
 40
0.5312499999999958
 40
0.5312499999999958
 40
0.5624999999999956
 40
0.5624999999999956
 40
0.6249999999999976
 40
0.6249999999999976
 40
0.656249999999998
 40
0.656249999999998
 40
0.6874999999999983
 40
0.6874999999999983
 40
0.7187499999999987
 40
0.7187499999999987
 40
0.749999999999999
 40
0.749999999999999
 40
0.8125000000000006
 40
0.8125000000000006
 40
0.8437500000000007
 40
0.8437500000000007
 40
0.8750000000000009
 40
0.8750000000000009
 40
0.9375000000000006
 40
0.9375000000000006
 40
0.9687500000000003
 40
0.9687500000000003
 40
1.0
 40
1.0
 40
1.0
 40
1.0
 10
6586.20679947701
 20
7066.4545903728
 30
0.0
 10
6584.862102904478
 20
7062.62137204279
 30
0.0
 10
6583.837933892188
 20
7058.802919951069
 30
0.0
 10
6582.783070388074
 20
7053.104678417386
 30
0.0
 10
6582.512065051839
 20
7051.210234987789
 30
0.0
 10
6582.136389901581
 20
7047.433407715745
 30
0.0
 10
6582.031795641558
 20
7045.541198235864
 30
0.0
 10
6581.980745372217
 20
7039.964955728028
 30
0.0
 10
6582.290971675092
 20
7036.399252627704
 30
0.0
 10
6583.260383395438
 20
7031.294417841953
 30
0.0
 10
6583.667989344795
 20
7029.633667523927
 30
0.0
 10
6584.656079339941
 20
7026.399988053618
 30
0.0
 10
6585.240396231091
 20
7024.820590965332
 30
0.0
 10
6587.214392858085
 20
7020.33078038893
 30
0.0
 10
6588.829374784235
 20
7017.633907342325
 30
0.0
 10
6591.679848519781
 20
7014.048935171627
 30
0.0
 10
6592.702777989782
 20
7012.930270943202
 30
0.0
 10
6594.89173770186
 20
7010.860392999029
 30
0.0
 10
6596.03910015269
 20
7009.926573775548
 30
0.0
 10
6599.629889912312
 20
7007.421131375043
 30
0.0
 10
6602.220207486753
 20
7006.142513454643
 30
0.0
 10
6606.394744122077
 20
7004.836547353023
 30
0.0
 10
6607.831457907278
 20
7004.506743036808
 30
0.0
 10
6610.732595298363
 20
7004.069073495123
 30
0.0
 10
6612.20513402739
 20
7003.958399104151
 30
0.0
 10
6615.193187220592
 20
7003.95097440304
 30
0.0
 10
6616.708700261504
 20
7004.054219122881
 30
0.0
 10
6619.784019080915
 20
7004.478926221544
 30
0.0
 10
6621.350354044514
 20
7004.803205534881
 30
0.0
 10
6626.01207765712
 20
7006.084331741898
 30
0.0
 10
6629.100354634799
 20
7007.347192103376
 30
0.0
 10
6633.71823689994
 20
7009.842386552658
 30
0.0
 10
6635.264160487744
 20
7010.781482426577
 30
0.0
 10
6638.301187438441
 20
7012.83107909317
 30
0.0
 10
6639.792229229404
 20
7013.939912702104
 30
0.0
 10
6642.72488700059
 20
7016.318584351782
 30
0.0
 10
6644.16649047797
 20
7017.588444153032
 30
0.0
 10
6647.004502467879
 20
7020.286831656808
 30
0.0
 10
6648.405456331002
 20
7021.720402854408
 30
0.0
 10
6652.515119357079
 20
7026.228556339894
 30
0.0
 10
6655.080629246832
 20
7029.449627354157
 30
0.0
 10
6658.709352485401
 20
7034.570628158505
 30
0.0
 10
6659.882013626987
 20
7036.326237883742
 30
0.0
 10
6662.157173857208
 20
7039.933021283628
 30
0.0
 10
6663.250567244172
 20
7041.770445843697
 30
0.0
 10
6666.374346936661
 20
7047.317115448709
 30
0.0
 10
6668.265443758993
 20
7051.085117326977
 30
0.0
 10
6670.846476761731
 20
7056.827099060054
 30
0.0
 10
6671.665791593894
 20
7058.761518137369
 30
0.0
 10
6673.202715443098
 20
7062.614361846175
 30
0.0
 10
6673.922352656934
 20
7064.5367093123
 30
0.0
 10
6674.595147125329
 20
7066.4545903728
 30
0.0
  0
LINE
  5
195
330
1F
100
AcDbEntity
  8
0
  6
Continuous
 62
     7
370
    25
100
AcDbLine
 10
6674.5951471253
 20
7066.4545903728
 30
0.0
 11
7973.7615168634
 21
7066.4545903728
 31
0.0
  0
SPLINE
  5
196
330
1F
100
AcDbEntity
  8
0
  6
Continuous
 62
     7
370
    25
100
AcDbSpline
210
0.0
220
0.0
230
1.0
 70
     8
 71
     3
 72
    56
 73
    52
 74
     0
 42
0.00000001
 43
0.00000001
 40
0.0
 40
0.0
 40
0.0
 40
0.0
 40
0.0625000000000003
 40
0.0625000000000003
 40
0.0937500000000006
 40
0.0937500000000006
 40
0.125000000000001
 40
0.125000000000001
 40
0.1875000000000012
 40
0.1875000000000012
 40
0.2187500000000005
 40
0.2187500000000005
 40
0.2499999999999998
 40
0.2499999999999998
 40
0.3124999999999996
 40
0.3124999999999996
 40
0.3437499999999992
 40
0.3437499999999992
 40
0.3749999999999989
 40
0.3749999999999989
 40
0.4374999999999987
 40
0.4374999999999987
 40
0.4687499999999986
 40
0.4687499999999986
 40
0.4999999999999986
 40
0.4999999999999986
 40
0.5312499999999984
 40
0.5312499999999984
 40
0.5624999999999983
 40
0.5624999999999983
 40
0.6249999999999983
 40
0.6249999999999983
 40
0.6562499999999977
 40
0.6562499999999977
 40
0.687499999999997
 40
0.687499999999997
 40
0.7187499999999964
 40
0.7187499999999964
 40
0.7499999999999958
 40
0.7499999999999958
 40
0.812499999999996
 40
0.812499999999996
 40
0.8437499999999964
 40
0.8437499999999964
 40
0.8749999999999968
 40
0.8749999999999968
 40
0.9374999999999981
 40
0.9374999999999981
 40
0.9687499999999991
 40
0.9687499999999991
 40
1.0
 40
1.0
 40
1.0
 40
1.0
 10
7973.761516863367
 20
7066.4545903728
 30
0.0
 10
7975.106213435899
 20
7062.62137204279
 30
0.0
 10
7976.625223663996
 20
7058.802919951069
 30
0.0
 10
7979.18189347881
 20
7053.104678417386
 30
0.0
 10
7980.08078979206
 20
7051.210234987789
 30
0.0
 10
7981.978948587761
 20
7047.433407715745
 30
0.0
 10
7982.983835977718
 20
7045.541198235864
 30
0.0
 10
7986.120270941306
 20
7039.964955728028
 30
0.0
 10
7988.359049385355
 20
7036.399252627704
 30
0.0
 10
7991.965289984059
 20
7031.294417841953
 30
0.0
 10
7993.208970626539
 20
7029.633667523927
 30
0.0
 10
7995.787651628606
 20
7026.399988053618
 30
0.0
 10
7997.129354073521
 20
7024.820590965332
 30
0.0
 10
8001.209820249353
 20
7020.33078038893
 30
0.0
 10
8004.026440583982
 20
7017.633907342325
 30
0.0
 10
8008.422435345956
 20
7014.048935171627
 30
0.0
 10
8009.917721505238
 20
7012.930270943202
 30
0.0
 10
8012.967114986367
 20
7010.860392999029
 30
0.0
 10
8014.49539428857
 20
7009.926573775548
 30
0.0
 10
8019.095696506122
 20
7007.421131375043
 30
0.0
 10
8022.183271114669
 20
7006.142513454643
 30
0.0
 10
8026.861567802321
 20
7004.836547353023
 30
0.0
 10
8028.424298333159
 20
7004.506743036808
 30
0.0
 10
8031.492338488431
 20
7004.069073495123
 30
0.0
 10
8033.006840374041
 20
7003.958399104151
 30
0.0
 10
8035.997713911474
 20
7003.95097440304
 30
0.0
 10
8037.474086870557
 20
7004.054219122881
 30
0.0
 10
8040.38748647076
 20
7004.478926221544
 30
0.0
 10
8041.829955559422
 20
7004.803205534881
 30
0.0
 10
8045.99773923867
 20
7006.084331741898
 30
0.0
 10
8048.595330072521
 20
7007.347192103376
 30
0.0
 10
8052.208741920086
 20
7009.842386552658
 30
0.0
 10
8053.371904698334
 20
7010.781482426577
 30
0.0
 10
8055.557763676182
 20
7012.83107909317
 30
0.0
 10
8056.581154540165
 20
7013.939912702104
 30
0.0
 10
8058.489604419337
 20
7016.318584351782
 30
0.0
 10
8059.374653999495
 20
7017.588444153032
 30
0.0
 10
8061.002840392415
 20
7020.286831656808
 30
0.0
 10
8061.74816890038
 20
7021.720402854408
 30
0.0
 10
8063.744934169488
 20
7026.228556339894
 30
0.0
 10
8064.736127281735
 20
7029.449627354157
 30
0.0
 10
8065.72306820339
 20
7034.570628158505
 30
0.0
 10
8065.968201412438
 20
7036.326237883742
 30
0.0
 10
8066.286308322489
 20
7039.933021283628
 30
0.0
 10
8066.357410907532
 20
7041.770445843697
 30
0.0
 10
8066.312467348311
 20
7047.317115448709
 30
0.0
 10
8065.942255458786
 20
7051.085117326977
 30
0.0
 10
8064.88700472094
 20
7056.827099060054
 30
0.0
 10
8064.449742088313
 20
7058.761518137369
 30
0.0
 10
8063.417707928756
 20
7062.614361846175
 30
0.0
 10
8062.82265898008
 20
7064.5367093123
 30
0.0
 10
8062.149864511685
 20
7066.4545903728
 30
0.0
  0
SPLINE
  5
197
330
1F
100
AcDbEntity
  8
0
  6
Continuous
 62
     7
370
    25
100
AcDbSpline
210
0.0
220
0.0
230
1.0
 70
     8
 71
     3
 72
    16
 73
    12
 74
     0
 42
0.00000001
 43
0.00000001
 40
0.0
 40
0.0
 40
0.0
 40
0.0
 40
0.1247158232052727
 40
0.2493710483296999
 40
0.3745543058910671
 40
0.4996866814498181
 40
0.6157811435326245
 40
0.7318567357595634
 40
0.8419564683001096
 40
0.9520513913624528
 40
1.0
 40
1.0
 40
1.0
 40
1.0
 10
6591.027856663672
 20
7063.126840597027
 30
0.0
 10
6590.075708610854
 20
7059.602806390772
 30
0.0
 10
6588.171875143746
 20
7052.556450268686
 30
0.0
 10
6587.416398027637
 20
7042.107111914624
 30
0.0
 10
6588.377514282335
 20
7032.202193665293
 30
0.0
 10
6591.039690931175
 20
7023.40612924627
 30
0.0
 10
6595.199622999584
 20
7016.09106423778
 30
0.0
 10
6600.402570082308
 20
7010.424815008662
 30
0.0
 10
6606.554850914954
 20
7006.561445725737
 30
0.0
 10
6611.979260231873
 20
7004.479371111251
 30
0.0
 10
6615.470355380614
 20
7004.32851641112
 30
0.0
 10
6616.529513912463
 20
7004.282748812156
 30
0.0
  0
SPLINE
  5
198
330
1F
100
AcDbEntity
  8
0
  6
Continuous
 62
     7
370
    25
100
AcDbSpline
210
0.0
220
0.0
230
1.0
 70
     8
 71
     3
 72
    17
 73
    13
 74
     0
 42
0.00000001
 43
0.00000001
 40
0.0
 40
0.0
 40
0.0
 40
0.0
 40
0.0821828500613387
 40
0.1901286699699397
 40
0.2980799713973563
 40
0.4065538483633294
 40
0.5150433626742694
 40
0.6256640713588063
 40
0.7363156880256305
 40
0.8522703913123717
 40
0.9682702030652016
 40
1.0
 40
1.0
 40
1.0
 40
1.0
 10
8032.107152277837
 20
7004.256912119712
 30
0.0
 10
8033.886607234349
 20
7004.461790759835
 30
0.0
 10
8038.003346966551
 20
7004.935774119169
 30
0.0
 10
8043.832101172324
 20
7007.625460437139
 30
0.0
 10
8049.466796010482
 20
7011.843599642911
 30
0.0
 10
8054.10804675614
 20
7017.535865777532
 30
0.0
 10
8057.670244066321
 20
7024.430144429139
 30
0.0
 10
8059.939309869552
 20
7032.370165978817
 30
0.0
 10
8060.891020666148
 20
7041.204684132537
 30
0.0
 10
8060.34526397184
 20
7050.660687023988
 30
0.0
 10
8058.856081226134
 20
7058.094544893739
 30
0.0
 10
8057.598841044225
 20
7062.2370921872
 30
0.0
 10
8057.328807325023
 20
7063.126840597027
 30
0.0
  0
LINE
  5
199
330
1F
100
AcDbEntity
  8
0
  6
Continuous
 62
     7
370
    25
100
AcDbLine
 10
8235.9843578908
 20
8508.9498348183
 30
0.0
 11
8225.6692113467
 21
8519.0470896254
 31
0.0
  0
LINE
  5
19A
330
1F
100
AcDbEntity
  8
0
  6
Continuous
 62
     7
370
    25
100
AcDbLine
 10
6422.6874526419
 20
8519.0470896254
 30
0.0
 11
6411.8305888851
 21
8508.4041784527
 31
0.0
  0
SPLINE
  5
19B
330
1F
100
AcDbEntity
  8
0
  6
Continuous
 62
     7
370
    25
100
AcDbSpline
210
0.0
220
0.0
230
1.0
 70
     8
 71
     3
 72
    12
 73
     8
 74
     0
 42
0.00000001
 43
0.00000001
 40
0.0
 40
0.0
 40
0.0
 40
0.0
 40
0.4999999999999982
 40
0.4999999999999982
 40
0.7499999999999991
 40
0.7499999999999991
 40
1.0
 40
1.0
 40
1.0
 40
1.0
 10
6591.627027434376
 20
7065.146766714236
 30
0.0
 10
6590.792313072747
 20
7068.28144281592
 30
0.0
 10
6590.158376187344
 20
7071.432457217031
 30
0.0
 10
6589.521923896895
 20
7076.182949116771
 30
0.0
 10
6589.362005141085
 20
7077.777158990466
 30
0.0
 10
6589.154021115302
 20
7080.939437009021
 30
0.0
 10
6589.105758109575
 20
7082.502375232399
 30
0.0
 10
6589.111893162472
 20
7084.047089625378
 30
0.0
  0
SPLINE
  5
19C
330
1F
100
AcDbEntity
  8
0
  6
Continuous
 62
     7
370
    25
100
AcDbSpline
210
0.0
220
0.0
230
1.0
 70
     8
 71
     3
 72
    12
 73
     8
 74
     0
 42
0.00000001
 43
0.00000001
 40
0.0
 40
0.0
 40
0.0
 40
0.0
 40
0.25
 40
0.25
 40
0.5
 40
0.5
 40
1.0
 40
1.0
 40
1.0
 40
1.0
 10
8059.244770826222
 20
7084.047089625378
 30
0.0
 10
8059.250958771788
 20
7082.489057651277
 30
0.0
 10
8059.201310729243
 20
7080.913441405736
 30
0.0
 10
8058.993804928176
 20
7077.769977664696
 30
0.0
 10
8058.836035961022
 20
7076.196151676305
 30
0.0
 10
8058.204158340644
 20
7071.469285063284
 30
0.0
 10
8057.572205512807
 20
7068.310939872863
 30
0.0
 10
8056.729636554302
 20
7065.146766714175
 30
0.0
  0
LINE
  5
19D
330
1F
100
AcDbEntity
  8
0
  6
Continuous
 62
     7
370
    25
100
AcDbLine
 10
6673.9264434478
 20
7084.0470896254
 30
0.0
 11
7974.4302205409
 21
7084.0470896254
 31
0.0
  0
LINE
  5
19E
330
1F
100
AcDbEntity
  8
0
  6
Continuous
 62
     7
370
    25
100
AcDbLine
 10
6385.849117032
 20
6809.0470896254
 30
0.0
 11
8262.5075469517
 21
6809.0470896254
 31
0.0
  0
SPLINE
  5
19F
330
1F
100
AcDbEntity
  8
0
  6
Continuous
 62
     7
370
    25
100
AcDbSpline
210
0.0
220
0.0
230
1.0
 70
     8
 71
     3
 72
    14
 73
    10
 74
     0
 42
0.00000001
 43
0.00000001
 40
0.0
 40
0.0
 40
0.0
 40
0.0
 40
0.25
 40
0.25
 40
0.5
 40
0.5
 40
0.75
 40
0.75
 40
1.0
 40
1.0
 40
1.0
 40
1.0
 10
6674.595147125329
 20
7066.4545903728
 30
0.0
 10
6675.078662829695
 20
7067.832909689352
 30
0.0
 10
6675.430988085647
 20
7069.252084758271
 30
0.0
 10
6675.868727199324
 20
7072.167908801014
 30
0.0
 10
6675.952696642126
 20
7073.681943711434
 30
0.0
 10
6675.835461207422
 20
7076.69355713578
 30
0.0
 10
6675.638376054391
 20
7078.18733697779
 30
0.0
 10
6674.977808869905
 20
7081.15122355455
 30
0.0
 10
6674.510938638266
 20
7082.624526212697
 30
0.0
 10
6673.926443447765
 20
7084.047089625379
 30
0.0
  0
SPLINE
  5
1A0
330
1F
100
AcDbEntity
  8
0
  6
Continuous
 62
     7
370
    25
100
AcDbSpline
210
0.0
220
0.0
230
1.0
 70
     8
 71
     3
 72
    14
 73
    10
 74
     0
 42
0.00000001
 43
0.00000001
 40
0.0
 40
0.0
 40
0.0
 40
0.0
 40
0.25
 40
0.25
 40
0.5
 40
0.5
 40
0.75
 40
0.75
 40
1.0
 40
1.0
 40
1.0
 40
1.0
 10
7974.430220540931
 20
7084.047089625378
 30
0.0
 10
7973.845686824479
 20
7082.624432446984
 30
0.0
 10
7973.386018517121
 20
7081.175241245479
 30
0.0
 10
7972.724202196826
 20
7078.221837825196
 30
0.0
 10
7972.521862032756
 20
7076.700905207003
 30
0.0
 10
7972.403777725613
 20
7073.686621614145
 30
0.0
 10
7972.484807471066
 20
7072.201943756703
 30
0.0
 10
7972.919684403543
 20
7069.279077073976
 30
0.0
 10
7973.277730060949
 20
7067.833682486759
 30
0.0
 10
7973.761516863367
 20
7066.4545903728
 30
0.0
  0
SPLINE
  5
1A1
330
1F
100
AcDbEntity
  8
0
  6
Continuous
 62
     7
370
    25
100
AcDbSpline
210
0.0
220
0.0
230
1.0
 70
     8
 71
     3
 72
     8
 73
     4
 74
     0
 42
0.00000001
 43
0.00000001
 40
0.0
 40
0.0
 40
0.0
 40
0.0
 40
1.0
 40
1.0
 40
1.0
 40
1.0
 10
8057.328807325023
 20
7063.126840597027
 30
0.0
 10
8057.11985295975
 20
7063.789092661174
 30
0.0
 10
8056.92033054226
 20
7064.462361335161
 30
0.0
 10
8056.729636554273
 20
7065.146766714157
 30
0.0
  0
SPLINE
  5
1A2
330
1F
100
AcDbEntity
  8
0
  6
Continuous
 62
     7
370
    25
100
AcDbSpline
210
0.0
220
0.0
230
1.0
 70
     8
 71
     3
 72
    14
 73
    10
 74
     0
 42
0.00000001
 43
0.00000001
 40
0.0
 40
0.0
 40
0.0
 40
0.0
 40
0.25
 40
0.25
 40
0.5
 40
0.5
 40
0.75
 40
0.75
 40
1.0
 40
1.0
 40
1.0
 40
1.0
 10
8062.149864511685
 20
7066.4545903728
 30
0.0
 10
8061.66634880732
 20
7067.832909689352
 30
0.0
 10
8061.249618657926
 20
7069.252084758271
 30
0.0
 10
8060.530465140823
 20
7072.167908801014
 30
0.0
 10
8060.225695527711
 20
7073.681943711434
 30
0.0
 10
8059.741913237785
 20
7076.69355713578
 30
0.0
 10
8059.56172851698
 20
7078.18733697779
 30
0.0
 10
8059.315551612622
 20
7081.15122355455
 30
0.0
 10
8059.250420739129
 20
7082.624526212697
 30
0.0
 10
8059.244770826222
 20
7084.047089625378
 30
0.0
  0
SPLINE
  5
1A3
330
1F
100
AcDbEntity
  8
0
  6
Continuous
 62
     7
370
    25
100
AcDbSpline
210
0.0
220
0.0
230
1.0
 70
     8
 71
     3
 72
     8
 73
     4
 74
     0
 42
0.00000001
 43
0.00000001
 40
0.0
 40
0.0
 40
0.0
 40
0.0
 40
1.0
 40
1.0
 40
1.0
 40
1.0
 10
6591.627027434437
 20
7065.146766714206
 30
0.0
 10
6591.436333446444
 20
7064.462361335194
 30
0.0
 10
6591.236811028951
 20
7063.789092661191
 30
0.0
 10
6591.027856663672
 20
7063.126840597027
 30
0.0
  0
SPLINE
  5
1A4
330
1F
100
AcDbEntity
  8
0
  6
Continuous
 62
     7
370
    25
100
AcDbSpline
210
0.0
220
0.0
230
1.0
 70
     8
 71
     3
 72
    14
 73
    10
 74
     0
 42
0.00000001
 43
0.00000001
 40
0.0
 40
0.0
 40
0.0
 40
0.0
 40
0.25
 40
0.25
 40
0.5
 40
0.5
 40
0.75
 40
0.75
 40
1.0
 40
1.0
 40
1.0
 40
1.0
 10
6589.111893162472
 20
7084.047089625378
 30
0.0
 10
6589.106242877161
 20
7082.624432446984
 30
0.0
 10
6589.042354357735
 20
7081.175241245479
 30
0.0
 10
6588.798539199583
 20
7078.221837825196
 30
0.0
 10
6588.615769570165
 20
7076.700905207003
 30
0.0
 10
6588.131880837715
 20
7073.686621614144
 30
0.0
 10
6587.833639731185
 20
7072.201943756703
 30
0.0
 10
6587.114636395417
 20
7069.279077073976
 30
0.0
 10
6586.690586279427
 20
7067.833682486759
 30
0.0
 10
6586.20679947701
 20
7066.4545903728
 30
0.0
  0
LINE
  5
1A5
330
1F
100
AcDbEntity
  8
0
  6
Continuous
 62
     8
370
    25
100
AcDbLine
 10
7324.1783319943
 20
7911.4980823828
 30
0.0
 11
7324.1783319943
 21
7831.5035629311
 31
0.0
  0
LINE
  5
1A6
330
1F
100
AcDbEntity
  8
0
  6
Continuous
 62
     8
370
    25
100
AcDbLine
 10
8325.0914723061
 20
7510.2274905162
 30
0.0
 11
6323.2651916825
 21
7510.2274905162
 31
0.0
  0
LINE
  5
1A7
330
1F
100
AcDbEntity
  8
0
  6
Continuous
 62
     8
370
    25
100
AcDbLine
 10
8325.0914723061
 20
7647.8666887345
 30
0.0
 11
6323.2651916825
 21
7647.8666887345
 31
0.0
  0
LINE
  5
1A8
330
1F
100
AcDbEntity
  8
0
  6
Continuous
 62
     8
370
    25
100
AcDbLine
 10
6341.0403473398
 20
6836.8620911202
 30
0.0
 11
8307.3163166489
 21
6836.8620911202
 31
0.0
  0
LINE
  5
1A9
330
1F
100
AcDbEntity
  8
0
  6
Continuous
 62
     8
370
    25
100
AcDbLine
 10
8062.1498645117
 20
7066.4545903728
 30
0.0
 11
8307.3163166489
 21
7066.4545903728
 31
0.0
  0
LINE
  5
1AA
330
1F
100
AcDbEntity
  8
0
  6
Continuous
 62
     8
370
    25
100
AcDbLine
 10
6341.0403473398
 20
7066.4545903728
 30
0.0
 11
6586.206799477
 21
7066.4545903728
 31
0.0
  0
LINE
  5
1AB
330
1F
100
AcDbEntity
  8
0
  6
Continuous
 62
     8
370
    25
100
AcDbLine
 10
8314.1783319943
 20
7479.0470896254
 30
0.0
 11
6334.1783319943
 21
7479.0470896254
 31
0.0
  0
LINE
  5
1AC
330
1F
100
AcDbEntity
  8
0
  6
Continuous
 62
     8
370
    25
100
AcDbLine
 10
8314.1783319943
 20
7679.0470896254
 30
0.0
 11
6334.1783319943
 21
7679.0470896254
 31
0.0
  0
LINE
  5
1AD
330
1F
100
AcDbEntity
  8
0
  6
Continuous
 62
     8
370
    25
100
AcDbLine
 10
6626.4562455753
 20
7961.5470896254
 30
0.0
 11
6334.1783319943
 21
7961.5470896254
 31
0.0
  0
LINE
  5
1AE
330
1F
100
AcDbEntity
  8
0
  6
Continuous
 62
     8
370
    25
100
AcDbLine
 10
8314.1783319943
 20
7961.5470896254
 30
0.0
 11
8022.2111545104
 21
7961.5470896254
 31
0.0
  0
LINE
  5
1AF
330
1F
100
AcDbEntity
  8
0
  6
Continuous
 62
     8
370
    25
100
AcDbLine
 10
8314.1783319943
 20
7149.0470896254
 30
0.0
 11
6334.1783319943
 21
7149.0470896254
 31
0.0
  0
LINE
  5
1B0
330
1F
100
AcDbEntity
  8
0
  6
Continuous
 62
     8
370
    25
100
AcDbLine
 10
6342.7761779029
 20
7084.0470896254
 30
0.0
 11
6589.1118931625
 21
7084.0470896254
 31
0.0
  0
LINE
  5
1B1
330
1F
100
AcDbEntity
  8
0
  6
Continuous
 62
     8
370
    25
100
AcDbLine
 10
8059.2447708262
 20
7084.0470896254
 30
0.0
 11
8305.5804860858
 21
7084.0470896254
 31
0.0
  0
LINE
  5
1B2
330
1F
100
AcDbEntity
  8
0
  6
Continuous
 62
     8
370
    25
100
AcDbLine
 10
6881.0112044683
 20
7961.5470896254
 30
0.0
 11
7767.3052018147
 21
7961.5470896254
 31
0.0
  0
LINE
  5
1B3
330
1F
100
AcDbEntity
  8
0
  6
Continuous
 62
     8
370
    25
100
AcDbLine
 10
6449.1783319943
 20
6759.0470896254
 30
0.0
 11
8199.1783319943
 21
6759.0470896254
 31
0.0
  0
LINE
  5
1B4
330
1F
100
AcDbEntity
  8
0
  6
Continuous
 62
     8
370
    25
100
AcDbLine
 10
6449.1783319943
 20
6754.0470896254
 30
0.0
 11
8199.1783319943
 21
6754.0470896254
 31
0.0
  0
LINE
  5
1B5
330
1F
100
AcDbEntity
  8
0
  6
Continuous
 62
     8
370
    25
100
AcDbLine
 10
6800.6897233844
 20
7983.1628101494
 30
0.0
 11
7847.35305778
 21
7983.1628101494
 31
0.0
  0
LINE
  5
1B6
330
1F
100
AcDbEntity
  8
0
  6
Continuous
 62
     8
370
    25
100
AcDbLine
 10
6584.1685509809
 20
7981.1977446472
 30
0.0
 11
6331.5582446581
 21
7981.1977446472
 31
0.0
  0
LINE
  5
1B7
330
1F
100
AcDbEntity
  8
0
  6
Continuous
 62
     8
370
    25
100
AcDbLine
 10
8316.7984193306
 20
7981.1977446472
 30
0.0
 11
8064.5285929218
 21
7981.1977446472
 31
0.0
  0
LINE
  5
1B8
330
1F
100
AcDbEntity
  8
0
  6
Continuous
 62
     8
370
    25
100
AcDbLine
 10
6517.9029522493
 20
8016.8964346035
 30
0.0
 11
6331.5582446581
 21
8016.8964346035
 31
0.0
  0
LINE
  5
1B9
330
1F
100
AcDbEntity
  8
0
  6
Continuous
 62
     8
370
    25
100
AcDbLine
 10
8316.7984193306
 20
8016.8964346035
 30
0.0
 11
8131.1877776062
 21
8016.8964346035
 31
0.0
  0
LINE
  5
1BA
330
1F
100
AcDbEntity
  8
0
  6
Continuous
 62
     8
370
    25
100
AcDbLine
 10
6706.9599908682
 20
8014.9313691014
 30
0.0
 11
7941.5223089478
 21
8014.9313691014
 31
0.0
  0
LINE
  5
1BB
330
1F
100
AcDbEntity
  8
0
  6
Continuous
 62
     8
370
    25
100
AcDbLine
 10
6654.1839037762
 20
8036.5470896254
 30
0.0
 11
7993.948334101
 21
8036.5470896254
 31
0.0
  0
LINE
  5
1BC
330
1F
100
AcDbEntity
  8
0
  6
Continuous
 62
     8
370
    25
100
AcDbLine
 10
6485.8048649473
 20
8036.5470896254
 30
0.0
 11
6334.1783319943
 21
8036.5470896254
 31
0.0
  0
LINE
  5
1BD
330
1F
100
AcDbEntity
  8
0
  6
Continuous
 62
     8
370
    25
100
AcDbLine
 10
8314.1783319943
 20
8036.5470896254
 30
0.0
 11
8162.6243234795
 21
8036.5470896254
 31
0.0
  0
LINE
  5
1BE
330
1F
100
AcDbEntity
  8
0
  6
Continuous
 62
     8
370
    25
100
AcDbLine
 10
6354.9204558457
 20
8319.0470896254
 30
0.0
 11
8293.6684636073
 21
8319.0470896254
 31
0.0
  0
LINE
  5
1BF
330
1F
100
AcDbEntity
  8
0
  6
Continuous
 62
     8
370
    25
100
AcDbLine
 10
6351.5162925645
 20
8354.9045506499
 30
0.0
 11
8297.3270443482
 21
8354.9045506499
 31
0.0
  0
LINE
  5
1C0
330
1F
100
AcDbEntity
  8
0
  6
Continuous
 62
     8
370
    25
100
AcDbLine
 10
6392.4012603083
 20
8483.1896286009
 30
0.0
 11
8255.6599641189
 21
8483.1896286009
 31
0.0
  0
LINE
  5
1C1
330
1F
100
AcDbEntity
  8
0
  6
Continuous
 62
     8
370
    25
100
AcDbLine
 10
6422.6874526419
 20
8519.0470896254
 30
0.0
 11
7275.1885371387
 21
8519.0470896254
 31
0.0
  0
LINE
  5
1C2
330
1F
100
AcDbEntity
  8
0
  6
Continuous
 62
     8
370
    25
100
AcDbLine
 10
7373.16812685
 20
8519.0470896254
 30
0.0
 11
8225.6692113467
 21
8519.0470896254
 31
0.0
  0
ARC
  5
1C3
330
1F
100
AcDbEntity
  8
0
  6
Continuous
 62
     7
370
    25
100
AcDbCircle
 10
7711.6783319944
 20
4896.3137411688
 30
0.0
 40
17.72500000000036
100
AcDbArc
 50
270.0
 51
338.5737539544
  0
ARC
  5
1C4
330
1F
100
AcDbEntity
  8
0
  6
Continuous
 62
     7
370
    25
100
AcDbCircle
 10
7711.6783319944
 20
4913.3637411688
 30
0.0
 40
17.72500000000036
100
AcDbArc
 50
21.4262460456
 51
90.0
  0
ARC
  5
1C5
330
1F
100
AcDbEntity
  8
0
  6
Continuous
 62
     7
370
    25
100
AcDbCircle
 10
6936.6783319944
 20
4913.3637411688
 30
0.0
 40
17.72500000000047
100
AcDbArc
 50
90.0
 51
158.5737539544
  0
ARC
  5
1C6
330
1F
100
AcDbEntity
  8
0
  6
Continuous
 62
     7
370
    25
100
AcDbCircle
 10
6936.6783319944
 20
4896.3137411688
 30
0.0
 40
17.72500000000047
100
AcDbArc
 50
201.4262460456
 51
270.0
  0
SPLINE
  5
1C7
330
1F
100
AcDbEntity
  8
0
  6
Continuous
 62
     7
370
    25
100
AcDbSpline
210
0.0
220
0.0
230
1.0
 70
     8
 71
     3
 72
   124
 73
   120
 74
     0
 42
0.00000001
 43
0.00000001
 40
0.0
 40
0.0
 40
0.0
 40
0.0
 40
0.0029449132528511
 40
0.016950472488218
 40
0.031003353434781
 40
0.0454502339614341
 40
0.0603213307682418
 40
0.0756329025868163
 40
0.0874171113009989
 40
0.0994658582240989
 40
0.1117812167145604
 40
0.1238681787263428
 40
0.1353915393103957
 40
0.1463444888886948
 40
0.1567196424943962
 40
0.1665094317003862
 40
0.1711989237166963
 40
0.1754747507053945
 40
0.1789783788356857
 40
0.1817045316966778
 40
0.183650628234397
 40
0.1855953919476254
 40
0.1885374666548522
 40
0.1924822980839096
 40
0.1974344330171371
 40
0.2046449273439457
 40
0.2123143785489119
 40
0.2197301439394554
 40
0.2268894050303299
 40
0.2337895005649648
 40
0.2404279335852833
 40
0.2500560940930366
 40
0.2592466519669477
 40
0.2689011607961858
 40
0.2791417168411913
 40
0.2899690194780187
 40
0.2988879679327276
 40
0.3081618594932187
 40
0.3169197486930571
 40
0.3245474502564126
 40
0.3310415906859181
 40
0.3366883257821586
 40
0.3418209732900543
 40
0.3472105932091608
 40
0.3524917971316719
 40
0.3587674792641356
 40
0.3656913268421569
 40
0.3765085306461056
 40
0.3872151005747869
 40
0.3978543691172433
 40
0.4057682282679545
 40
0.4145512637448776
 40
0.4241969009705729
 40
0.4346969566760718
 40
0.4460414690069808
 40
0.4546557222582608
 40
0.4636717078930282
 40
0.4722125066476356
 40
0.4798031115519806
 40
0.486450330521024
 40
0.4921605755984237
 40
0.4969396131501389
 40
0.501236593948106
 40
0.5048725973775311
 40
0.5080513637159898
 40
0.5117730526379295
 40
0.5163290668516552
 40
0.5217147187489609
 40
0.5279244234421309
 40
0.5356991277792297
 40
0.5443452047283411
 40
0.5530462134630669
 40
0.5616371103841385
 40
0.5701194425324967
 40
0.5858902263952287
 40
0.6012902773670342
 40
0.6163330974222702
 40
0.6310467106041275
 40
0.6455724553549164
 40
0.6599542651118596
 40
0.674205254626282
 40
0.6883384219680277
 40
0.7023666054913107
 40
0.7163675495250579
 40
0.7307180241318971
 40
0.7454890560767408
 40
0.7568542088295577
 40
0.7684720362047537
 40
0.7803497634998364
 40
0.7924945930007904
 40
0.8048224894747723
 40
0.8167091813207505
 40
0.8280299263661961
 40
0.8387776795001413
 40
0.845621172045515
 40
0.8522043769889652
 40
0.8585250860176309
 40
0.8642946009380471
 40
0.8687394000905314
 40
0.8718099746544267
 40
0.8731719190291741
 40
0.8750800872326743
 40
0.8776472550880784
 40
0.8808754028280495
 40
0.884766985452547
 40
0.88932490580446
 40
0.8945033957921085
 40
0.8997156572875276
 40
0.9047887895105284
 40
0.9097217725717568
 40
0.9202574934019324
 40
0.9300753199971691
 40
0.9391664042407261
 40
0.9478803033254586
 40
0.957184161417268
 40
0.9669510555110076
 40
0.9773426512014448
 40
0.9883592455460333
 40
1.0
 40
1.0
 40
1.0
 40
1.0
 10
7324.174572213766
 20
2598.311130186483
 30
0.0
 10
7329.111079431498
 20
2598.189294627375
 30
0.0
 10
7357.52486367491
 20
2597.488027691671
 30
0.0
 10
7409.495740452932
 20
2600.828717193978
 30
0.0
 10
7480.262524259556
 20
2608.582106821121
 30
0.0
 10
7551.609243016522
 20
2621.736473839194
 30
0.0
 10
7623.690771973291
 20
2640.158019197209
 30
0.0
 10
7689.805551735823
 20
2662.182334785251
 30
0.0
 10
7749.748450873319
 20
2686.477955049836
 30
0.0
 10
7803.532329652125
 20
2711.861925065597
 30
0.0
 10
7855.976537793317
 20
2740.352717894956
 30
0.0
 10
7905.735395966415
 20
2771.152231458702
 30
0.0
 10
7951.670978495126
 20
2803.190288876407
 30
0.0
 10
7993.48483879894
 20
2835.693230305687
 30
0.0
 10
8031.357254498252
 20
2868.220447502504
 30
0.0
 10
8060.247042360469
 20
2895.443614862261
 30
0.0
 10
8081.28332265937
 20
2916.622229203741
 30
0.0
 10
8094.951401170732
 20
2930.95710267934
 30
0.0
 10
8106.231944567809
 20
2943.214733136935
 30
0.0
 10
8114.863788370368
 20
2952.864404098804
 30
0.0
 10
8121.760290224246
 20
2960.740286068238
 30
0.0
 10
8128.807627870138
 20
2968.932945962662
 30
0.0
 10
8137.790894163501
 20
2979.612928441691
 30
0.0
 10
8149.592085820643
 20
2994.09512160887
 30
0.0
 10
8165.219618590782
 20
3014.080135906768
 30
0.0
 10
8183.731731191127
 20
3039.14255763248
 30
0.0
 10
8203.525694696064
 20
3067.912966787034
 30
0.0
 10
8222.231103462238
 20
3097.184730817747
 30
0.0
 10
8239.309221768735
 20
3125.939823176985
 30
0.0
 10
8254.850751423692
 20
3154.086644151135
 30
0.0
 10
8271.248611450634
 20
3186.027825339528
 30
0.0
 10
8287.942867741283
 20
3221.670990864771
 30
0.0
 10
8304.878963554116
 20
3262.173999915153
 30
0.0
 10
8320.385501349312
 20
3304.119974985687
 30
0.0
 10
8334.75962110756
 20
3348.987214300021
 30
0.0
 10
8346.707607541124
 20
3393.278198058886
 30
0.0
 10
8356.370694225592
 20
3436.513068129844
 30
0.0
 10
8363.710438019012
 20
3476.932047465775
 30
0.0
 10
8369.157030541013
 20
3515.612456103032
 30
0.0
 10
8372.764670434904
 20
3550.223268234863
 30
0.0
 10
8374.951017117972
 20
3580.192221245647
 30
0.0
 10
8376.16139460008
 20
3606.411377970192
 30
0.0
 10
8376.711773493216
 20
3630.969903150682
 30
0.0
 10
8376.692655763234
 20
3654.977136739725
 30
0.0
 10
8376.066491717567
 20
3680.715570813181
 30
0.0
 10
8374.669749660736
 20
3708.764682459526
 30
0.0
 10
8371.796645934446
 20
3745.162690311538
 30
0.0
 10
8366.710731347512
 20
3788.152224482802
 30
0.0
 10
8358.655327088672
 20
3836.489951639211
 30
0.0
 10
8349.244155751938
 20
3880.14424417533
 30
0.0
 10
8338.771236022143
 20
3920.595779338232
 30
0.0
 10
8327.228009965744
 20
3959.249440588303
 30
0.0
 10
8312.800193829147
 20
4001.242402465116
 30
0.0
 10
8295.018799699872
 20
4046.333311747061
 30
0.0
 10
8275.650226168604
 20
4089.205697489694
 30
0.0
 10
8255.366018758057
 20
4129.255610476655
 30
0.0
 10
8235.572485537949
 20
4164.796148779537
 30
0.0
 10
8215.159619465887
 20
4198.282168784111
 30
0.0
 10
8195.521002333717
 20
4228.014931905696
 30
0.0
 10
8177.444159604001
 20
4253.558029883682
 30
0.0
 10
8161.270313682689
 20
4275.111675965366
 30
0.0
 10
8146.84876341719
 20
4293.41088045983
 30
0.0
 10
8134.110553119072
 20
4308.909619680331
 30
0.0
 10
8122.716874766269
 20
4322.276233115465
 30
0.0
 10
8111.704153562487
 20
4334.799208829928
 30
0.0
 10
8099.504012172711
 20
4348.242456528597
 30
0.0
 10
8084.629487380146
 20
4364.026075214097
 30
0.0
 10
8066.589355867999
 20
4382.320833007276
 30
0.0
 10
8044.321761132303
 20
4403.736827654102
 30
0.0
 10
8017.432230798106
 20
4427.993247410319
 30
0.0
 10
7986.473683387604
 20
4453.879934315921
 30
0.0
 10
7953.342100032559
 20
4479.415325612178
 30
0.0
 10
7919.303915861069
 20
4503.552894189203
 30
0.0
 10
7874.581521010022
 20
4532.680146802093
 30
0.0
 10
7818.362328438887
 20
4564.95229843955
 30
0.0
 10
7749.874001183181
 20
4597.923869677596
 30
0.0
 10
7680.44077984951
 20
4625.438413214953
 30
0.0
 10
7610.306789714199
 20
4647.701046631243
 30
0.0
 10
7539.604581977175
 20
4664.898730960138
 30
0.0
 10
7468.441864846213
 20
4677.120825959952
 30
0.0
 10
7397.128339703328
 20
4684.445564062287
 30
0.0
 10
7326.005278989284
 20
4686.948749816075
 30
0.0
 10
7255.292869265058
 20
4684.698292988327
 30
0.0
 10
7184.58985216001
 20
4677.73525114267
 30
0.0
 10
7113.415988763039
 20
4665.867648154288
 30
0.0
 10
7047.704917869843
 20
4650.185426552916
 30
0.0
 10
6987.673450835741
 20
4631.894924817509
 30
0.0
 10
6933.41914415532
 20
4612.109288694352
 30
0.0
 10
6879.370627225308
 20
4588.943094234237
 30
0.0
 10
6825.899633755434
 20
4562.379461729866
 30
0.0
 10
6774.26741456236
 20
4532.958727233676
 30
0.0
 10
6725.75521648763
 20
4501.58258889713
 30
0.0
 10
6681.309715129375
 20
4469.324780635564
 30
0.0
 10
6645.086425556223
 20
4440.121804270803
 30
0.0
 10
6615.928730298174
 20
4414.613752858098
 30
0.0
 10
6592.830206147287
 20
4393.120233331522
 30
0.0
 10
6571.65752421813
 20
4372.220023243161
 30
0.0
 10
6553.475558342989
 20
4353.253446108415
 30
0.0
 10
6539.258154269128
 20
4337.716347215463
 30
0.0
 10
6529.951203123765
 20
4327.19099513549
 30
0.0
 10
6523.383434485569
 20
4319.611503785347
 30
0.0
 10
6517.39105420412
 20
4312.591675285413
 30
0.0
 10
6509.584087419187
 20
4303.256280751078
 30
0.0
 10
6499.933138930517
 20
4291.403667124932
 30
0.0
 10
6488.547252638084
 20
4276.951645749496
 30
0.0
 10
6475.606875528597
 20
4259.865997281436
 30
0.0
 10
6461.855641058188
 20
4240.856335114448
 30
0.0
 10
6448.124302939519
 20
4220.905931257011
 30
0.0
 10
6435.096683796693
 20
4201.004769136764
 30
0.0
 10
6418.153562764296
 20
4173.806602967247
 30
0.0
 10
6398.521473855898
 20
4139.709795235014
 30
0.0
 10
6377.563480489782
 20
4099.15526055647
 30
0.0
 10
6359.576151608329
 20
4060.431847872284
 30
0.0
 10
6343.487281540602
 20
4021.857513564343
 30
0.0
 10
6328.638508330991
 20
3981.799423458138
 30
0.0
 10
6314.725065237846
 20
3938.804742289964
 30
0.0
 10
6302.117039719504
 20
3892.803845588802
 30
0.0
 10
6290.915560302849
 20
3843.585323892086
 30
0.0
 10
6285.41873424764
 20
3809.513225366622
 30
0.0
 10
6282.594608488101
 20
3792.00787042891
 30
0.0
  0
SPLINE
  5
1C8
330
1F
100
AcDbEntity
  8
0
  6
Continuous
 62
     7
370
    25
100
AcDbSpline
210
0.0
220
0.0
230
1.0
 70
     8
 71
     3
 72
    58
 73
    54
 74
     0
 42
0.00000001
 43
0.00000001
 40
0.0
 40
0.0
 40
0.0
 40
0.0
 40
0.0212331625360332
 40
0.0398619034472739
 40
0.0558795138161364
 40
0.0692818418869438
 40
0.0800665683155369
 40
0.0882325812838694
 40
0.0926383018701066
 40
0.0955707228624316
 40
0.0991677584632953
 40
0.102486856373178
 40
0.1059812013435265
 40
0.1096507611650007
 40
0.1134954968958377
 40
0.1175153620846292
 40
0.1217103019571886
 40
0.1340335259780915
 40
0.1465443702881349
 40
0.1907761027438545
 40
0.210295848378784
 40
0.2298147301797542
 40
0.2511606538819486
 40
0.2748746661467174
 40
0.3017791218808903
 40
0.3311552052405122
 40
0.3629720753059946
 40
0.3896609799226999
 40
0.4168475276872638
 40
0.4410162370662342
 40
0.4597958666147883
 40
0.47595364684221
 40
0.4895066167134515
 40
0.5004798266311868
 40
0.5097167011481453
 40
0.5177506164605105
 40
0.5266686066348414
 40
0.5377886657115973
 40
0.5511130988935579
 40
0.5666281452927255
 40
0.5843177037031392
 40
0.6041636154040506
 40
0.6252697886846943
 40
0.6633727314366864
 40
0.7006767041163353
 40
0.7372028908713916
 40
0.777792938264076
 40
0.8174449020351856
 40
0.8562880457685464
 40
0.8946926533835499
 40
0.9327238366792335
 40
0.9704163866193443
 40
1.0
 40
1.0
 40
1.0
 40
1.0
 10
6282.594608488101
 20
3792.00787042891
 30
0.0
 10
6280.951763762299
 20
3779.925086232186
 30
0.0
 10
6277.867582697531
 20
3757.241570472029
 30
0.0
 10
6274.902569295218
 20
3725.315765631338
 30
0.0
 10
6273.078506280617
 20
3697.822578148216
 30
0.0
 10
6272.128016100371
 20
3674.793517765137
 30
0.0
 10
6271.732996087332
 20
3656.253825753047
 30
0.0
 10
6271.659260697167
 20
3642.868035321371
 30
0.0
 10
6271.703245140403
 20
3633.982487794269
 30
0.0
 10
6271.772534213589
 20
3627.715624420484
 30
0.0
 10
6271.865594391166
 20
3622.071220606493
 30
0.0
 10
6271.998270231858
 20
3616.105309518106
 30
0.0
 10
6272.165887484705
 20
3610.098477246946
 30
0.0
 10
6272.379454703077
 20
3603.791341488032
 30
0.0
 10
6272.64446164003
 20
3597.184298842401
 30
0.0
 10
6272.966656306456
 20
3590.277813769365
 30
0.0
 10
6273.595591011487
 20
3578.518892450114
 30
0.0
 10
6274.712515329398
 20
3561.908077443671
 30
0.0
 10
6278.184129955222
 20
3522.440262510274
 30
0.0
 10
6284.073065787265
 20
3479.003873762884
 30
0.0
 10
6293.018646663105
 20
3431.947445053895
 30
0.0
 10
6300.624091748139
 20
3398.008809471121
 30
0.0
 10
6310.002394539772
 20
3361.958995845127
 30
0.0
 10
6321.976110861804
 20
3322.132475181437
 30
0.0
 10
6337.17932547832
 20
3278.357661769777
 30
0.0
 10
6356.232465479646
 20
3230.84842192104
 30
0.0
 10
6377.731963555045
 20
3184.32489049387
 30
0.0
 10
6400.985630236882
 20
3139.885733951868
 30
0.0
 10
6424.066269077804
 20
3100.266130704364
 30
0.0
 10
6446.416903789591
 20
3065.470921130146
 30
0.0
 10
6466.374702328822
 20
3036.766834686397
 30
0.0
 10
6483.485475028834
 20
3013.655766781931
 30
0.0
 10
6498.360238975903
 20
2994.593086684949
 30
0.0
 10
6511.053254383577
 20
2979.009413491536
 30
0.0
 10
6521.909835714011
 20
2966.14000275075
 30
0.0
 10
6532.165072792392
 20
2954.341028497028
 30
0.0
 10
6543.352220006536
 20
2941.840455606607
 30
0.0
 10
6556.920288040354
 20
2927.192974857674
 30
0.0
 10
6573.568618621302
 20
2909.959541017153
 30
0.0
 10
6593.494997196645
 20
2890.332641497223
 30
0.0
 10
6616.912921998321
 20
2868.551873564616
 30
0.0
 10
6643.652989524652
 20
2845.248740486094
 30
0.0
 10
6680.921160865808
 20
2815.021518753761
 30
0.0
 10
6728.515942793876
 20
2780.300313329343
 30
0.0
 10
6786.607489945952
 20
2743.528465223709
 30
0.0
 10
6848.654569980986
 20
2709.656812911194
 30
0.0
 10
6914.55768172273
 20
2679.273306750325
 30
0.0
 10
6984.169582041232
 20
2652.999629427876
 30
0.0
 10
7054.445173945604
 20
2631.93627799884
 30
0.0
 10
7125.266514820158
 20
2615.869625994045
 30
0.0
 10
7196.496847182592
 20
2604.912373303709
 30
0.0
 10
7262.873470743048
 20
2598.737558572596
 30
0.0
 10
7305.451546542249
 20
2598.441373027618
 30
0.0
 10
7324.174572213766
 20
2598.311130186483
 30
0.0
  0
SPLINE
  5
1C9
330
1F
100
AcDbEntity
  8
0
  6
Continuous
 62
     7
370
    25
100
AcDbSpline
210
0.0
220
0.0
230
1.0
 70
     8
 71
     3
 72
    86
 73
    82
 74
     0
 42
0.00000001
 43
0.00000001
 40
0.0
 40
0.0
 40
0.0
 40
0.0
 40
0.006962325667203
 40
0.0276727196453053
 40
0.0484773048200391
 40
0.0698382139912039
 40
0.0917927913284034
 40
0.11436575829004
 40
0.1317188018389485
 40
0.1494458803671627
 40
0.167557741133782
 40
0.1857610449981267
 40
0.20527632376546
 40
0.2238023530650942
 40
0.241322887482206
 40
0.2578213577698295
 40
0.2648925513672874
 40
0.2716794651747571
 40
0.2775355295600912
 40
0.2823051869781367
 40
0.2859837821486829
 40
0.2886146943801331
 40
0.2918520175265878
 40
0.2965098962892567
 40
0.3025994163865571
 40
0.3101277596072157
 40
0.3191036247841266
 40
0.3288510877878685
 40
0.347278664184998
 40
0.3647142283566505
 40
0.3841519163215614
 40
0.4021667385941163
 40
0.4205490252821624
 40
0.4311612242149229
 40
0.4421870267850086
 40
0.4536266595154102
 40
0.4654800161918511
 40
0.4777466180661502
 40
0.4901809878073572
 40
0.5015135205586165
 40
0.5124919471103978
 40
0.5219079051923138
 40
0.5297585539540685
 40
0.5368262965162116
 40
0.5444628517000288
 40
0.5561754538957426
 40
0.5706656742753625
 40
0.5859770312872083
 40
0.6011524342023388
 40
0.6129779428547266
 40
0.6247240089744361
 40
0.6373146740245478
 40
0.6513567455805452
 40
0.6653715859525734
 40
0.680564258182881
 40
0.6969207978555323
 40
0.714424956690464
 40
0.7329713910333364
 40
0.7473994718235083
 40
0.7600445164988995
 40
0.7709220891350482
 40
0.7800466083502141
 40
0.787430605924784
 40
0.793132340515415
 40
0.7963579603582152
 40
0.7988928485906025
 40
0.8026548115222404
 40
0.8081063864111231
 40
0.8152391966116513
 40
0.8240421469322382
 40
0.8345013963317736
 40
0.8466006764119111
 40
0.8603213829865386
 40
0.8756427729552394
 40
0.8925424942651746
 40
0.9109976925138009
 40
0.9268683100785745
 40
0.9437109112208499
 40
0.9615169499260916
 40
0.9802806114908558
 40
1.0
 40
1.0
 40
1.0
 40
1.0
 10
7324.165916511521
 20
2678.340352935649
 30
0.0
 10
7317.265285808874
 20
2678.219836512637
 30
0.0
 10
7289.837781274049
 20
2677.740827436347
 30
0.0
 10
7241.82910298086
 20
2680.891496042221
 30
0.0
 10
7179.978977417014
 20
2687.844305913819
 30
0.0
 10
7117.639871240492
 20
2699.195920282438
 30
0.0
 10
7054.690603297481
 20
2714.899982359205
 30
0.0
 10
6996.937328691199
 20
2733.507794808342
 30
0.0
 10
6944.527940254578
 20
2753.921228151472
 30
0.0
 10
6897.441456241046
 20
2775.174631051894
 30
0.0
 10
6851.052400937286
 20
2799.164717718188
 30
0.0
 10
6804.777885116194
 20
2826.340381326245
 30
0.0
 10
6760.016162540071
 20
2856.102494680149
 30
0.0
 10
6717.772650743869
 20
2887.733912526256
 30
0.0
 10
6679.677873388036
 20
2919.516396179449
 30
0.0
 10
6651.313365064078
 20
2945.664534929629
 30
0.0
 10
6631.117506501746
 20
2965.601049044467
 30
0.0
 10
6618.294618763606
 20
2978.778586299562
 30
0.0
 10
6607.205747805241
 20
2990.598682853528
 30
0.0
 10
6598.261570505627
 20
3000.430205908614
 30
0.0
 10
6591.436769712541
 20
3008.117769499022
 30
0.0
 10
6585.623183832435
 20
3014.787105646563
 30
0.0
 10
6579.284926148197
 20
3022.183211341558
 30
0.0
 10
6570.986809523444
 20
3032.091064121344
 30
0.0
 10
6560.361117080404
 20
3045.182109680351
 30
0.0
 10
6547.568611806635
 20
3061.585442646146
 30
0.0
 10
6533.192678262562
 20
3080.943549637446
 30
0.0
 10
6513.640104439422
 20
3108.797581395583
 30
0.0
 10
6491.114407016517
 20
3143.805655043364
 30
0.0
 10
6466.119094954754
 20
3187.368076625927
 30
0.0
 10
6443.693851791088
 20
3231.636333985963
 30
0.0
 10
6423.379969319294
 20
3277.594532670075
 30
0.0
 10
6408.335693192608
 20
3316.972332224988
 30
0.0
 10
6396.928486469635
 20
3350.894200472592
 30
0.0
 10
6388.365627391011
 20
3379.157051359459
 30
0.0
 10
6380.41703253527
 20
3408.698431716255
 30
0.0
 10
6373.189967684591
 20
3439.515455031345
 30
0.0
 10
6366.840751619378
 20
3471.386308448606
 30
0.0
 10
6361.674399375635
 20
3502.96578869902
 30
0.0
 10
6357.70530278051
 20
3533.537061789206
 30
0.0
 10
6354.949371280284
 20
3561.533977418644
 30
0.0
 10
6353.203273771893
 20
3586.506570629999
 30
0.0
 10
6352.215658758277
 20
3608.045563361543
 30
0.0
 10
6351.714665656529
 20
3628.021023194115
 30
0.0
 10
6351.607215334931
 20
3651.42400844783
 30
0.0
 10
6352.278313792213
 20
3681.398263361248
 30
0.0
 10
6354.440839672642
 20
3718.127132029714
 30
0.0
 10
6358.429871742294
 20
3757.812035952822
 30
0.0
 10
6363.764760912744
 20
3794.988265778719
 30
0.0
 10
6369.9331301002
 20
3828.858337637314
 30
0.0
 10
6376.736563195812
 20
3860.299473593989
 30
0.0
 10
6385.098724323939
 20
3893.453671703039
 30
0.0
 10
6395.272653777769
 20
3928.281556980174
 30
0.0
 10
6407.567980136377
 20
3964.966858333019
 30
0.0
 10
6422.128013751385
 20
4003.15288491195
 30
0.0
 10
6439.667907914746
 20
4043.652382153675
 30
0.0
 10
6460.52428545291
 20
4086.133724753709
 30
0.0
 10
6482.759067746606
 20
4126.148825109282
 30
0.0
 10
6504.606729493916
 20
4161.477228573573
 30
0.0
 10
6523.971882343414
 20
4190.250453187638
 30
0.0
 10
6541.511725959253
 20
4214.511120056705
 30
0.0
 10
6556.846461099039
 20
4234.494538049027
 30
0.0
 10
6569.697136259452
 20
4250.446868306611
 30
0.0
 10
6579.375364341534
 20
4262.010584827813
 30
0.0
 10
6586.289429060187
 20
4270.059858716296
 30
0.0
 10
6592.094763273978
 20
4276.706388837545
 30
0.0
 10
6599.351808992082
 20
4284.864780477542
 30
0.0
 10
6609.616861788359
 20
4296.100925570482
 30
0.0
 10
6623.343939307384
 20
4310.589416617456
 30
0.0
 10
6640.73926867927
 20
4328.121194225278
 30
0.0
 10
6662.04983706114
 20
4348.429287576907
 30
0.0
 10
6687.551526032864
 20
4371.184183497238
 30
0.0
 10
6717.543916572786
 20
4395.986561023905
 30
0.0
 10
6752.340042223664
 20
4422.360227031431
 30
0.0
 10
6792.256540804866
 20
4449.7418336254
 30
0.0
 10
6834.225153785558
 20
4475.414888435595
 30
0.0
 10
6877.60410937027
 20
4499.00626508524
 30
0.0
 10
6921.7103550185
 20
4520.302781046274
 30
0.0
 10
6969.679119229616
 20
4540.412773365194
 30
0.0
 10
7021.47672047472
 20
4559.101105231216
 30
0.0
 10
7057.895090869856
 20
4569.278948790161
 30
0.0
 10
7076.556501369085
 20
4574.494253994366
 30
0.0
  0
SPLINE
  5
1CA
330
1F
100
AcDbEntity
  8
0
  6
Continuous
 62
     7
370
    25
100
AcDbSpline
210
0.0
220
0.0
230
1.0
 70
     8
 71
     3
 72
    92
 73
    88
 74
     0
 42
0.00000001
 43
0.00000001
 40
0.0
 40
0.0
 40
0.0
 40
0.0
 40
0.0163298647557865
 40
0.0321175863402182
 40
0.0473776898668748
 40
0.0621227443293262
 40
0.0809979210279682
 40
0.0989969335936379
 40
0.1161344057365293
 40
0.1355739297148497
 40
0.1537948991838125
 40
0.1707974268141174
 40
0.1865762395716027
 40
0.2011219598581267
 40
0.2135746599187112
 40
0.2249436733503833
 40
0.2357533693636977
 40
0.2462843258289329
 40
0.2565339478614121
 40
0.2664993615756548
 40
0.2741281252832136
 40
0.2815780743931491
 40
0.28884772105358
 40
0.2959355930067362
 40
0.3028361572601554
 40
0.3089261894214382
 40
0.3131321954133328
 40
0.3164093959053859
 40
0.3187565911474144
 40
0.3213353896829221
 40
0.3251335669928589
 40
0.3300552368941921
 40
0.3361631344603266
 40
0.3434640964392087
 40
0.3516365378545782
 40
0.3704216545140276
 40
0.3880025244618922
 40
0.4043535970434326
 40
0.4189314535908812
 40
0.4341191402499622
 40
0.4503891247514413
 40
0.4677429576168342
 40
0.4792062718183893
 40
0.4909284723023978
 40
0.5015996569424664
 40
0.5109378729518235
 40
0.5189392886413173
 40
0.5259622077034298
 40
0.532443086981147
 40
0.5393047353009963
 40
0.5458503235359791
 40
0.5535253487833678
 40
0.5621907134538079
 40
0.5826952591264063
 40
0.6029059523467059
 40
0.6134616736974785
 40
0.6252634703555028
 40
0.6383454643906031
 40
0.6526945739259534
 40
0.6682945489859395
 40
0.6814172191653296
 40
0.6952895754730117
 40
0.7087526946829115
 40
0.7205124866182677
 40
0.7305835077248802
 40
0.7382860031027613
 40
0.7446147159401965
 40
0.749738649643281
 40
0.7541897759483466
 40
0.7582107258653364
 40
0.7630251332698711
 40
0.7688374032649666
 40
0.7763759711641932
 40
0.785104598994223
 40
0.7950120671165388
 40
0.8059751063709764
 40
0.8170247684798825
 40
0.8375807094273389
 40
0.85766641321586
 40
0.8772981742047488
 40
0.8964928847224357
 40
0.9152687136763643
 40
0.9337438876029799
 40
0.9520328252023199
 40
0.9701528273424731
 40
0.9881215423593158
 40
1.0
 40
1.0
 40
1.0
 40
1.0
 10
7076.556501369085
 20
4574.494253994366
 30
0.0
 10
7094.816193940433
 20
4578.940736485205
 30
0.0
 10
7130.729366613724
 20
4587.686080518699
 30
0.0
 10
7184.720582551567
 20
4596.766870940333
 30
0.0
 10
7237.35111423416
 20
4602.883256371024
 30
0.0
 10
7293.876542670402
 20
4606.369666894987
 30
0.0
 10
7353.737136676007
 20
4606.501206764298
 30
0.0
 10
7416.215043587863
 20
4602.537381425715
 30
0.0
 10
7478.885431231786
 20
4594.635191957408
 30
0.0
 10
7541.035454802844
 20
4582.670349341822
 30
0.0
 10
7601.883082192282
 20
4566.697569910941
 30
0.0
 10
7657.397058358336
 20
4548.393241543096
 30
0.0
 10
7707.621752984954
 20
4528.568939026197
 30
0.0
 10
7751.792783412991
 20
4508.364846739597
 30
0.0
 10
7790.33611356631
 20
4488.500768262888
 30
0.0
 10
7824.204243721068
 20
4469.240530277251
 30
0.0
 10
7855.345353540843
 20
4449.917069963741
 30
0.0
 10
7884.598578457236
 20
4430.235889883762
 30
0.0
 10
7912.258842505064
 20
4410.154424212304
 30
0.0
 10
7936.571051326428
 20
4391.186373139147
 30
0.0
 10
7957.843577673057
 20
4373.539160665156
 30
0.0
 10
7976.362291523671
 20
4357.357009878588
 30
0.0
 10
7993.981818310258
 20
4341.166097137075
 30
0.0
 10
8010.720913154482
 20
4325.014404217223
 30
0.0
 10
8026.121958531395
 20
4309.430880809897
 30
0.0
 10
8038.984290062308
 20
4295.831263286183
 30
0.0
 10
8048.929295811586
 20
4284.943878568874
 30
0.0
 10
8056.021691932912
 20
4276.980374814837
 30
0.0
 10
8061.870119331395
 20
4270.287355213686
 30
0.0
 10
8068.021736247458
 20
4263.128782478603
 30
0.0
 10
8075.878848813648
 20
4253.785340414506
 30
0.0
 10
8085.993629705325
 20
4241.394373716316
 30
0.0
 10
8098.189543835801
 20
4225.878490670285
 30
0.0
 10
8112.103922506424
 20
4207.336224482176
 30
0.0
 10
8133.369352099413
 20
4177.419498878467
 30
0.0
 10
8159.132853926105
 20
4137.475709939397
 30
0.0
 10
8186.564348159645
 20
4088.734612576742
 30
0.0
 10
8209.14944827057
 20
4042.773038884201
 30
0.0
 10
8228.285536302441
 20
3998.239775394147
 30
0.0
 10
8245.134720949147
 20
3953.05126118481
 30
0.0
 10
8260.468171001055
 20
3904.428318036093
 30
0.0
 10
8272.118878612697
 20
3858.926810014726
 30
0.0
 10
8280.641061107783
 20
3817.658892767593
 30
0.0
 10
8286.441837704613
 20
3782.990732033813
 30
0.0
 10
8290.688004094916
 20
3750.35495721855
 30
0.0
 10
8293.496733044869
 20
3721.459191569928
 30
0.0
 10
8295.23079558743
 20
3696.279246288481
 30
0.0
 10
8296.218514996695
 20
3674.027727716066
 30
0.0
 10
8296.691048339742
 20
3652.943363108177
 30
0.0
 10
8296.704894677243
 20
3632.347563857726
 30
0.0
 10
8296.24270204779
 20
3610.520385401748
 30
0.0
 10
8295.193204224248
 20
3586.84019166929
 30
0.0
 10
8292.492067800602
 20
3548.766093481342
 30
0.0
 10
8286.455290854805
 20
3497.897309976146
 30
0.0
 10
8276.686890219598
 20
3445.517566081387
 30
0.0
 10
8266.384608110831
 20
3402.428079437065
 30
0.0
 10
8256.48814673683
 20
3366.824966547701
 30
0.0
 10
8243.91372773512
 20
3327.800777514202
 30
0.0
 10
8228.173420799638
 20
3285.542024972597
 30
0.0
 10
8210.292802123678
 20
3243.927368152651
 30
0.0
 10
8190.616121007261
 20
3203.517210928394
 30
0.0
 10
8170.164492913095
 20
3165.864392857719
 30
0.0
 10
8148.694704834218
 20
3130.268158149727
 30
0.0
 10
8127.901495023213
 20
3098.849877810311
 30
0.0
 10
8109.489249974969
 20
3073.11791718796
 30
0.0
 10
8093.798240910804
 20
3052.508768420598
 30
0.0
 10
8080.91330999992
 20
3036.383785474929
 30
0.0
 10
8069.933915606519
 20
3023.170886798383
 30
0.0
 10
8060.350516672996
 20
3012.007427082365
 30
0.0
 10
8050.814341723983
 20
3001.213430033959
 30
0.0
 10
8040.104046122773
 20
2989.447450092347
 30
0.0
 10
8026.533478070384
 20
2975.065356923006
 30
0.0
 10
8009.60378821485
 20
2957.915690659528
 30
0.0
 10
7988.915586011299
 20
2938.085035422324
 30
0.0
 10
7964.737297737992
 20
2916.333840546029
 30
0.0
 10
7937.740778178449
 20
2893.72726441302
 30
0.0
 10
7900.479348536919
 20
2864.831275083529
 30
0.0
 10
7853.087324058426
 20
2832.018098589831
 30
0.0
 10
7794.851289261176
 20
2797.476141182421
 30
0.0
 10
7735.339157520704
 20
2767.494751006969
 30
0.0
 10
7674.927768990331
 20
2742.026009187176
 30
0.0
 10
7613.87049372363
 20
2720.946156457564
 30
0.0
 10
7552.289449397824
 20
2704.105506398743
 30
0.0
 10
7490.259352167819
 20
2691.354064955522
 30
0.0
 10
7427.950420503076
 20
2682.839509803297
 30
0.0
 10
7372.523230181829
 20
2678.32495970382
 30
0.0
 10
7337.932282602213
 20
2678.335970788491
 30
0.0
 10
7324.165916511521
 20
2678.340352935649
 30
0.0
  0
ARC
  5
1CB
330
1F
100
AcDbEntity
  8
0
  6
Continuous
 62
     7
370
    25
100
AcDbCircle
 10
7324.1783319943
 20
3677.3387472673
 30
0.0
 40
1025.0
100
AcDbArc
 50
41.9100157465
 51
67.7871281084
  0
ARC
  5
1CC
330
1F
100
AcDbEntity
  8
0
  6
Continuous
 62
     7
370
    25
100
AcDbCircle
 10
7324.1783319943
 20
3677.3387472673
 30
0.0
 40
1025.000000000001
100
AcDbArc
 50
112.2128718916
 51
138.097963605
  0
ARC
  5
1CD
330
1F
100
AcDbEntity
  8
0
  6
Continuous
 62
     7
370
    25
100
AcDbCircle
 10
7324.1783319943
 20
4697.3387472673
 30
0.0
 40
135.0
100
AcDbArc
 50
225.4221010055
 51
314.523386045
  0
LINE
  5
1CE
330
1F
100
AcDbEntity
  8
0
  6
Continuous
 62
     7
370
    25
100
AcDbLine
 10
7728.1783319944
 20
4889.8387411688
 30
0.0
 11
7728.1783319944
 21
4919.8387411688
 31
0.0
  0
LINE
  5
1CF
330
1F
100
AcDbEntity
  8
0
  6
Continuous
 62
     7
370
    25
100
AcDbLine
 10
6920.1783319944
 20
4906.3939139352
 30
0.0
 11
6920.1783319944
 21
4889.8387411688
 31
0.0
  0
LINE
  5
1D0
330
1F
100
AcDbEntity
  8
0
  6
Continuous
 62
     7
370
    25
100
AcDbLine
 10
6920.1783319944
 20
4919.8387411688
 30
0.0
 11
6920.1783319944
 21
4906.3939139352
 31
0.0
  0
LINE
  5
1D1
330
1F
100
AcDbEntity
  8
0
  6
Continuous
 62
     7
370
    25
100
AcDbLine
 10
7589.1783319943
 20
4994.5348962291
 30
0.0
 11
7059.1783319943
 21
4994.5348962291
 31
0.0
  0
LINE
  5
1D2
330
1F
100
AcDbEntity
  8
0
  6
Continuous
 62
     7
370
    25
100
AcDbLine
 10
7589.1783319943
 20
4994.5348962291
 30
0.0
 11
7589.1783319943
 21
4992.3387472673
 31
0.0
  0
LINE
  5
1D3
330
1F
100
AcDbEntity
  8
0
  6
Continuous
 62
     7
370
    25
100
AcDbLine
 10
7059.1783319943
 20
4992.3387472673
 30
0.0
 11
7059.1783319943
 21
4994.5348962291
 31
0.0
  0
LINE
  5
1D4
330
1F
100
AcDbEntity
  8
0
  6
Continuous
 62
     7
370
    25
100
AcDbLine
 10
7639.1783319943
 20
4994.8387411688
 30
0.0
 11
7679.1783319943
 21
4994.8387411688
 31
0.0
  0
LINE
  5
1D5
330
1F
100
AcDbEntity
  8
0
  6
Continuous
 62
     7
370
    25
100
AcDbLine
 10
7639.1783319943
 20
4994.8387411688
 30
0.0
 11
7639.1783319943
 21
4992.3387472673
 31
0.0
  0
LINE
  5
1D6
330
1F
100
AcDbEntity
  8
0
  6
Continuous
 62
     7
370
    25
100
AcDbLine
 10
6969.1783319943
 20
4994.8387411688
 30
0.0
 11
7009.1783319943
 21
4994.8387411688
 31
0.0
  0
LINE
  5
1D7
330
1F
100
AcDbEntity
  8
0
  6
Continuous
 62
     7
370
    25
100
AcDbLine
 10
7009.1783319943
 20
4994.8387411688
 30
0.0
 11
7009.1783319943
 21
4992.3387472673
 31
0.0
  0
ARC
  5
1D8
330
1F
100
AcDbEntity
  8
0
  6
Continuous
 62
     7
370
    25
100
AcDbCircle
 10
7679.1783319943
 20
4974.8387411688
 30
0.0
 40
20.00000000000044
100
AcDbArc
 50
61.0450117159
 51
90.0
  0
ARC
  5
1D9
330
1F
100
AcDbEntity
  8
0
  6
Continuous
 62
     7
370
    25
100
AcDbCircle
 10
6969.1783319943
 20
4974.8387411688
 30
0.0
 40
20.0
100
AcDbArc
 50
90.0
 51
118.9549882841
  0
LINE
  5
1DA
330
1F
100
AcDbEntity
  8
0
  6
Continuous
 62
     7
370
    25
100
AcDbLine
 10
7589.1783319943
 20
4994.8387411688
 30
0.0
 11
7589.1783319943
 21
4994.5348962291
 31
0.0
  0
LINE
  5
1DB
330
1F
100
AcDbEntity
  8
0
  6
Continuous
 62
     7
370
    25
100
AcDbLine
 10
7059.1783319943
 20
4994.5348962291
 30
0.0
 11
7059.1783319943
 21
4994.8387411688
 31
0.0
  0
LINE
  5
1DC
330
1F
100
AcDbEntity
  8
0
  6
Continuous
 62
     7
370
    25
100
AcDbLine
 10
7059.1783319943
 20
4994.8387411688
 30
0.0
 11
7589.1783319943
 21
4994.8387411688
 31
0.0
  0
LINE
  5
1DD
330
1F
100
AcDbEntity
  8
0
  6
Continuous
 62
     7
370
    25
100
AcDbLine
 10
7599.1783319943
 20
4994.8387411688
 30
0.0
 11
7599.1783319943
 21
4992.3387472673
 31
0.0
  0
LINE
  5
1DE
330
1F
100
AcDbEntity
  8
0
  6
Continuous
 62
     7
370
    25
100
AcDbLine
 10
7621.6783319938
 20
4979.8387411688
 30
0.0
 11
7625.4283319938
 21
4979.8387411688
 31
0.0
  0
LINE
  5
1DF
330
1F
100
AcDbEntity
  8
0
  6
Continuous
 62
     7
370
    25
100
AcDbLine
 10
7599.1783319943
 20
4994.8387411688
 30
0.0
 11
7639.1783319943
 21
4994.8387411688
 31
0.0
  0
LINE
  5
1E0
330
1F
100
AcDbEntity
  8
0
  6
Continuous
 62
     7
370
    25
100
AcDbLine
 10
7049.1783319943
 20
4994.8387411688
 30
0.0
 11
7049.1783319943
 21
4992.3387472673
 31
0.0
  0
LINE
  5
1E1
330
1F
100
AcDbEntity
  8
0
  6
Continuous
 62
     7
370
    25
100
AcDbLine
 10
7022.9283319938
 20
4979.8387411688
 30
0.0
 11
7026.6783319938
 21
4979.8387411688
 31
0.0
  0
LINE
  5
1E2
330
1F
100
AcDbEntity
  8
0
  6
Continuous
 62
     7
370
    25
100
AcDbLine
 10
7009.1783319943
 20
4994.8387411688
 30
0.0
 11
7049.1783319943
 21
4994.8387411688
 31
0.0
  0
LINE
  5
1E3
330
1F
100
AcDbEntity
  8
0
  6
Continuous
 62
     7
370
    25
100
AcDbLine
 10
7589.1783319943
 20
4994.8387411688
 30
0.0
 11
7599.1783319943
 21
4994.8387411688
 31
0.0
  0
LINE
  5
1E4
330
1F
100
AcDbEntity
  8
0
  6
Continuous
 62
     7
370
    25
100
AcDbLine
 10
7049.1783319943
 20
4994.8387411688
 30
0.0
 11
7059.1783319943
 21
4994.8387411688
 31
0.0
  0
LINE
  5
1E5
330
1F
100
AcDbEntity
  8
0
  6
Continuous
 62
     7
370
    25
100
AcDbLine
 10
6936.6783319944
 20
4612.740711226
 30
0.0
 11
6936.6783319944
 21
4992.3387472673
 31
0.0
  0
LINE
  5
1E6
330
1F
100
AcDbEntity
  8
0
  6
Continuous
 62
     7
370
    25
100
AcDbLine
 10
6949.1783319944
 20
4992.3387472673
 30
0.0
 11
6936.6783319944
 21
4992.3387472673
 31
0.0
  0
LINE
  5
1E7
330
1F
100
AcDbEntity
  8
0
  6
Continuous
 62
     7
370
    25
100
AcDbLine
 10
7699.1783319944
 20
4992.3387472673
 30
0.0
 11
7625.4283319938
 21
4992.3387472673
 31
0.0
  0
LINE
  5
1E8
330
1F
100
AcDbEntity
  8
0
  6
Continuous
 62
     7
370
    25
100
AcDbLine
 10
7022.9283319938
 20
4992.3387472673
 30
0.0
 11
6949.1783319944
 21
4992.3387472673
 31
0.0
  0
LINE
  5
1E9
330
1F
100
AcDbEntity
  8
0
  6
Continuous
 62
     7
370
    25
100
AcDbLine
 10
7022.9283319938
 20
4992.3387472673
 30
0.0
 11
7022.9283319938
 21
4976.0887472673
 31
0.0
  0
LINE
  5
1EA
330
1F
100
AcDbEntity
  8
0
  6
Continuous
 62
     7
370
    25
100
AcDbLine
 10
7022.9283319938
 20
4976.0887472673
 30
0.0
 11
7026.6783319938
 21
4976.0887472673
 31
0.0
  0
LINE
  5
1EB
330
1F
100
AcDbEntity
  8
0
  6
Continuous
 62
     7
370
    25
100
AcDbLine
 10
7026.6783319938
 20
4976.0887472673
 30
0.0
 11
7026.6783319938
 21
4979.8387472673
 31
0.0
  0
LINE
  5
1EC
330
1F
100
AcDbEntity
  8
0
  6
Continuous
 62
     7
370
    25
100
AcDbLine
 10
7621.6783319938
 20
4979.8387472673
 30
0.0
 11
7026.6783319938
 21
4979.8387472673
 31
0.0
  0
LINE
  5
1ED
330
1F
100
AcDbEntity
  8
0
  6
Continuous
 62
     7
370
    25
100
AcDbLine
 10
7621.6783319938
 20
4979.8387472673
 30
0.0
 11
7621.6783319938
 21
4976.0887472673
 31
0.0
  0
LINE
  5
1EE
330
1F
100
AcDbEntity
  8
0
  6
Continuous
 62
     7
370
    25
100
AcDbLine
 10
7621.6783319938
 20
4976.0887472673
 30
0.0
 11
7625.4283319938
 21
4976.0887472673
 31
0.0
  0
LINE
  5
1EF
330
1F
100
AcDbEntity
  8
0
  6
Continuous
 62
     7
370
    25
100
AcDbLine
 10
7625.4283319938
 20
4976.0887472673
 30
0.0
 11
7625.4283319938
 21
4992.3387472673
 31
0.0
  0
LINE
  5
1F0
330
1F
100
AcDbEntity
  8
0
  6
Continuous
 62
     7
370
    25
100
AcDbLine
 10
7711.6783319944
 20
4992.3387472673
 30
0.0
 11
7699.1783319944
 21
4992.3387472673
 31
0.0
  0
LINE
  5
1F1
330
1F
100
AcDbEntity
  8
0
  6
Continuous
 62
     7
370
    25
100
AcDbLine
 10
7711.6783319944
 20
4612.1155902687
 30
0.0
 11
7711.6783319944
 21
4992.3387472673
 31
0.0
  0
LINE
  5
1F2
330
1F
100
AcDbEntity
  8
0
  6
Continuous
 62
     7
370
    25
100
AcDbLine
 10
7026.6783319938
 20
4992.3387472673
 30
0.0
 11
7621.6783319938
 21
4992.3387472673
 31
0.0
  0
LINE
  5
1F3
330
1F
100
AcDbEntity
  8
0
  6
Continuous
 62
     7
370
    25
100
AcDbLine
 10
7621.6783319938
 20
4992.3387472673
 30
0.0
 11
7621.6783319938
 21
4979.8387472673
 31
0.0
  0
LINE
  5
1F4
330
1F
100
AcDbEntity
  8
0
  6
Continuous
 62
     7
370
    25
100
AcDbLine
 10
7026.6783319938
 20
4979.8387472673
 30
0.0
 11
7026.6783319938
 21
4992.3387472673
 31
0.0
  0
SPLINE
  5
1F5
330
1F
100
AcDbEntity
  8
0
  6
Continuous
 62
     7
370
    25
100
AcDbSpline
210
0.0
220
0.0
230
1.0
 70
     8
 71
     3
 72
     8
 73
     4
 74
     0
 42
0.00000001
 43
0.00000001
 40
0.0
 40
0.0
 40
0.0
 40
0.0
 40
1.0
 40
1.0
 40
1.0
 40
1.0
 10
6648.059855063309
 20
2960.511236350283
 30
0.0
 10
6666.582828893092
 20
2945.712587312586
 30
0.0
 10
6684.996467487435
 20
2930.804269843397
 30
0.0
 10
6703.353074776181
 20
2915.838747267312
 30
0.0
  0
ARC
  5
1F6
330
1F
100
AcDbEntity
  8
0
  6
Continuous
 62
     7
370
    25
100
AcDbCircle
 10
7324.1783319943
 20
3677.3387472673
 30
0.0
 40
982.5000000000001
100
AcDbArc
 50
230.8108003245
 51
309.1891996755
  0
SPLINE
  5
1F7
330
1F
100
AcDbEntity
  8
0
  6
Continuous
 62
     7
370
    25
100
AcDbSpline
210
0.0
220
0.0
230
1.0
 70
     8
 71
     3
 72
     8
 73
     4
 74
     0
 42
0.00000001
 43
0.00000001
 40
0.0
 40
0.0
 40
0.0
 40
0.0
 40
1.0
 40
1.0
 40
1.0
 40
1.0
 10
7945.003589212509
 20
2915.838747267312
 30
0.0
 10
7963.360196501255
 20
2930.804269843397
 30
0.0
 10
7981.773835095599
 20
2945.712587312586
 30
0.0
 10
8000.296808925383
 20
2960.511236350283
 30
0.0
  0
SPLINE
  5
1F8
330
1F
100
AcDbEntity
  8
0
  6
Continuous
 62
     7
370
    25
100
AcDbSpline
210
0.0
220
0.0
230
1.0
 70
     8
 71
     3
 72
    12
 73
     8
 74
     0
 42
0.00000001
 43
0.00000001
 40
0.0
 40
0.0
 40
0.0
 40
0.0
 40
0.4999999999999971
 40
0.4999999999999971
 40
0.7499999999999986
 40
0.7499999999999986
 40
1.0
 40
1.0
 40
1.0
 40
1.0
 10
8000.296808925383
 20
2960.511236350283
 30
0.0
 10
8012.447699126577
 20
2970.219005806499
 30
0.0
 10
8023.891534942626
 20
2980.480396389129
 30
0.0
 10
8039.844545233478
 20
2996.822056156763
 30
0.0
 10
8044.958632650321
 20
3002.428680610342
 30
0.0
 10
8054.722283051623
 20
3014.005650533742
 30
0.0
 10
8059.37298556313
 20
3019.975103757845
 30
0.0
 10
8063.740543519877
 20
3026.166258184341
 30
0.0
  0
SPLINE
  5
1F9
330
1F
100
AcDbEntity
  8
0
  6
Continuous
 62
     7
370
    25
100
AcDbSpline
210
0.0
220
0.0
230
1.0
 70
     8
 71
     3
 72
    10
 73
     6
 74
     0
 42
0.00000001
 43
0.00000001
 40
0.0
 40
0.0
 40
0.0
 40
0.0
 40
0.4999999999999987
 40
0.4999999999999987
 40
1.0
 40
1.0
 40
1.0
 40
1.0
 10
8063.740543519877
 20
3026.166258184341
 30
0.0
 10
8069.086779725133
 20
3033.744720628353
 30
0.0
 10
8074.563975015154
 20
3041.243883460611
 30
0.0
 10
8085.711848409467
 20
3056.125049539906
 30
0.0
 10
8091.383177386452
 20
3063.506658664212
 30
0.0
 10
8097.136286866407
 20
3070.838747267312
 30
0.0
  0
ARC
  5
1FA
330
1F
100
AcDbEntity
  8
0
  6
Continuous
 62
     7
370
    25
100
AcDbCircle
 10
7324.1783319943
 20
3677.3387472673
 30
0.0
 40
982.5000000000005
100
AcDbArc
 50
321.8805630151
 51
342.5715036671
  0
ARC
  5
1FB
330
1F
100
AcDbEntity
  8
0
  6
Continuous
 62
     7
370
    25
100
AcDbCircle
 10
7324.1783319943
 20
3677.3387472673
 30
0.0
 40
982.5000000000005
100
AcDbArc
 50
197.2682324913
 51
218.1194369849
  0
SPLINE
  5
1FC
330
1F
100
AcDbEntity
  8
0
  6
Continuous
 62
     7
370
    25
100
AcDbSpline
210
0.0
220
0.0
230
1.0
 70
     8
 71
     3
 72
    10
 73
     6
 74
     0
 42
0.00000001
 43
0.00000001
 40
0.0
 40
0.0
 40
0.0
 40
0.0
 40
0.5000000000000013
 40
0.5000000000000013
 40
1.0
 40
1.0
 40
1.0
 40
1.0
 10
6551.220377122283
 20
3070.838747267312
 30
0.0
 10
6556.973486602238
 20
3063.506658664212
 30
0.0
 10
6562.644815579223
 20
3056.125049539906
 30
0.0
 10
6573.792688973536
 20
3041.243883460611
 30
0.0
 10
6579.269884263557
 20
3033.744720628352
 30
0.0
 10
6584.616120468812
 20
3026.166258184341
 30
0.0
  0
SPLINE
  5
1FD
330
1F
100
AcDbEntity
  8
0
  6
Continuous
 62
     7
370
    25
100
AcDbSpline
210
0.0
220
0.0
230
1.0
 70
     8
 71
     3
 72
    12
 73
     8
 74
     0
 42
0.00000001
 43
0.00000001
 40
0.0
 40
0.0
 40
0.0
 40
0.0
 40
0.2500000000000007
 40
0.2500000000000007
 40
0.5000000000000014
 40
0.5000000000000014
 40
1.0
 40
1.0
 40
1.0
 40
1.0
 10
6584.616120468813
 20
3026.166258184341
 30
0.0
 10
6588.983678425561
 20
3019.975103757845
 30
0.0
 10
6593.634380937066
 20
3014.005650533742
 30
0.0
 10
6603.39803133837
 20
3002.428680610342
 30
0.0
 10
6608.512118755211
 20
2996.822056156763
 30
0.0
 10
6624.465129046063
 20
2980.480396389129
 30
0.0
 10
6635.908964862114
 20
2970.219005806499
 30
0.0
 10
6648.059855063309
 20
2960.511236350283
 30
0.0
  0
ARC
  5
1FE
330
1F
100
AcDbEntity
  8
0
  6
Continuous
 62
     7
370
    25
100
AcDbCircle
 10
7324.1783319943
 20
3677.3387472673
 30
0.0
 40
990.0000000000005
100
AcDbArc
 50
322.220357935
 51
325.5758662019
  0
LINE
  5
1FF
330
1F
100
AcDbEntity
  8
0
  6
Continuous
 62
     7
370
    25
100
AcDbLine
 10
8006.5376196399
 20
2956.4501009791
 30
0.0
 11
8015.78290353
 21
2964.3249701613
 31
0.0
  0
SPLINE
  5
200
330
1F
100
AcDbEntity
  8
0
  6
Continuous
 62
     7
370
    25
100
AcDbSpline
210
0.0
220
0.0
230
1.0
 70
     8
 71
     3
 72
     8
 73
     4
 74
     0
 42
0.00000001
 43
0.00000001
 40
0.0
 40
0.0
 40
0.0
 40
0.0
 40
1.0
 40
1.0
 40
1.0
 40
1.0
 10
7956.805987096459
 20
2915.838747267312
 30
0.0
 10
7973.254488914353
 20
2929.503589204274
 30
0.0
 10
7989.821352877228
 20
2943.050974809507
 30
0.0
 10
8006.537619639914
 20
2956.450100979103
 30
0.0
  0
ARC
  5
201
330
1F
100
AcDbEntity
  8
0
  6
Continuous
 62
     7
370
    25
100
AcDbCircle
 10
7324.1783319943
 20
3677.3387472673
 30
0.0
 40
990.0000000000001
100
AcDbArc
 50
230.2813792586
 51
309.7186207414
  0
SPLINE
  5
202
330
1F
100
AcDbEntity
  8
0
  6
Continuous
 62
     7
370
    25
100
AcDbSpline
210
0.0
220
0.0
230
1.0
 70
     8
 71
     3
 72
     8
 73
     4
 74
     0
 42
0.00000001
 43
0.00000001
 40
0.0
 40
0.0
 40
0.0
 40
0.0
 40
1.0
 40
1.0
 40
1.0
 40
1.0
 10
6641.819044348777
 20
2956.450100979104
 30
0.0
 10
6658.535311111462
 20
2943.050974809507
 30
0.0
 10
6675.102175074338
 20
2929.503589204274
 30
0.0
 10
6691.550676892231
 20
2915.838747267312
 30
0.0
  0
LINE
  5
203
330
1F
100
AcDbEntity
  8
0
  6
Continuous
 62
     7
370
    25
100
AcDbLine
 10
6632.0032619487
 20
2964.8217556601
 30
0.0
 11
6641.8190443488
 21
2956.4501009791
 31
0.0
  0
ARC
  5
204
330
1F
100
AcDbEntity
  8
0
  6
Continuous
 62
     7
370
    25
100
AcDbCircle
 10
7324.1783319943
 20
3677.3387472673
 30
0.0
 40
990.0000000000003
100
AcDbArc
 50
214.6565232725
 51
217.779642065
  0
ARC
  5
205
330
1F
100
AcDbEntity
  8
0
  6
Continuous
 62
     7
370
    25
100
AcDbCircle
 10
7324.1783319943
 20
3677.3387472673
 30
0.0
 40
982.5000000000003
100
AcDbArc
 50
218.8698810148
 51
230.8108003245
  0
ARC
  5
206
330
1F
100
AcDbEntity
  8
0
  6
Continuous
 62
     7
370
    25
100
AcDbCircle
 10
7324.1783319943
 20
3677.3387472673
 30
0.0
 40
982.4999999999995
100
AcDbArc
 50
309.1891996755
 51
320.9724741274
  0
CIRCLE
  5
207
330
1F
100
AcDbEntity
  8
0
  6
Continuous
 62
     7
370
    25
100
AcDbCircle
 10
7324.1783319943
 20
3677.3387472673
 30
0.0
 40
801.9422789849059
  0
CIRCLE
  5
208
330
1F
100
AcDbEntity
  8
0
  6
Continuous
 62
     7
370
    25
100
AcDbCircle
 10
7324.1783319943
 20
3677.3387472673
 30
0.0
 40
162.5
  0
CIRCLE
  5
209
330
1F
100
AcDbEntity
  8
0
  6
Continuous
 62
     7
370
    25
100
AcDbCircle
 10
7324.1783319943
 20
3742.3387472673
 30
0.0
 40
25.0
  0
CIRCLE
  5
20A
330
1F
100
AcDbEntity
  8
0
  6
Continuous
 62
     7
370
    25
100
AcDbCircle
 10
7380.4699832403
 20
3709.8387472673
 30
0.0
 40
24.99999999999963
  0
CIRCLE
  5
20B
330
1F
100
AcDbEntity
  8
0
  6
Continuous
 62
     7
370
    25
100
AcDbCircle
 10
7380.4699832403
 20
3644.8387472673
 30
0.0
 40
25.00000000000014
  0
CIRCLE
  5
20C
330
1F
100
AcDbEntity
  8
0
  6
Continuous
 62
     7
370
    25
100
AcDbCircle
 10
7324.1783319943
 20
3612.3387472673
 30
0.0
 40
25.0
  0
CIRCLE
  5
20D
330
1F
100
AcDbEntity
  8
0
  6
Continuous
 62
     7
370
    25
100
AcDbCircle
 10
7267.8866807484
 20
3644.8387472673
 30
0.0
 40
25.00000000000048
  0
CIRCLE
  5
20E
330
1F
100
AcDbEntity
  8
0
  6
Continuous
 62
     7
370
    25
100
AcDbCircle
 10
7267.8866807484
 20
3709.8387472673
 30
0.0
 40
25.00000000000008
  0
LINE
  5
20F
330
1F
100
AcDbEntity
  8
0
  6
Continuous
 62
     8
370
    25
100
AcDbLine
 10
7679.1783319943
 20
4992.3387472673
 30
0.0
 11
7679.1783319943
 21
4994.8387411688
 31
0.0
  0
LINE
  5
210
330
1F
100
AcDbEntity
  8
0
  6
Continuous
 62
     8
370
    25
100
AcDbLine
 10
6969.1783319943
 20
4994.8387411688
 30
0.0
 11
6969.1783319943
 21
4992.3387472673
 31
0.0
  0
LINE
  5
211
330
1F
100
AcDbEntity
  8
0
  6
Continuous
 62
     8
370
    25
100
AcDbLine
 10
6949.1783319944
 20
4617.2984881882
 30
0.0
 11
6949.1783319944
 21
4992.3387472673
 31
0.0
  0
LINE
  5
212
330
1F
100
AcDbEntity
  8
0
  6
Continuous
 62
     8
370
    25
100
AcDbLine
 10
7699.1783319944
 20
4617.0669074619
 30
0.0
 11
7699.1783319944
 21
4992.3387472673
 31
0.0
  0
LINE
  5
213
330
1F
100
AcDbEntity
  8
0
  6
Continuous
 62
     8
370
    25
100
AcDbLine
 10
7324.1783319943
 20
2673.9173902917
 30
0.0
 11
7324.1783319943
 21
2597.9150264044
 31
0.0
  0
LINE
  5
214
330
1F
100
AcDbEntity
  8
0
  6
Continuous
 62
     8
370
    25
100
AcDbLine
 10
7324.1783319943
 20
2677.898395504
 30
0.0
 11
7324.1783319943
 21
2673.9173902917
 31
0.0
  0
ARC
  5
215
330
1F
100
AcDbEntity
  8
0
  6
Continuous
 62
     8
370
    25
100
AcDbCircle
 10
7324.1783319943
 20
3677.3387472673
 30
0.0
 40
985.3820960698692
100
AcDbArc
 50
221.5278490097
 51
226.6740003842
  0
ARC
  5
216
330
1F
100
AcDbEntity
  8
0
  6
Continuous
 62
     8
370
    25
100
AcDbCircle
 10
7324.1783319943
 20
3677.3387472673
 30
0.0
 40
985.3820960698694
100
AcDbArc
 50
313.3259996158
 51
318.2301856975
  0
ENDSEC
  0
SECTION
  2
OBJECTS
  0
DICTIONARY
  5
C
330
0
100
AcDbDictionary
281
     1
  3
ACAD_GROUP
350
D
  3
ACAD_LAYOUT
350
1A
  3
ACAD_MLINESTYLE
350
17
  3
ACAD_PLOTSETTINGS
350
19
  3
ACAD_PLOTSTYLENAME
350
E
  3
ACAD_SCALELIST
350
47
  3
DWGPROPS
350
217
  0
DICTIONARY
  5
D
102
{ACAD_REACTORS
330
C
102
}
330
C
100
AcDbDictionary
281
     1
  0
DICTIONARY
  5
1A
102
{ACAD_REACTORS
330
C
102
}
330
C
100
AcDbDictionary
281
     1
  3
Layout1
350
1E
  3
Layout2
350
26
  3
Model
350
22
  0
DICTIONARY
  5
17
102
{ACAD_REACTORS
330
C
102
}
330
C
100
AcDbDictionary
281
     1
  3
Standard
350
18
  0
DICTIONARY
  5
19
102
{ACAD_REACTORS
330
C
102
}
330
C
100
AcDbDictionary
281
     1
  0
ACDBDICTIONARYWDFLT
  5
E
102
{ACAD_REACTORS
330
C
102
}
330
C
100
AcDbDictionary
281
     1
  3
Normal
350
F
100
AcDbDictionaryWithDefault
340
F
  0
DICTIONARY
  5
47
102
{ACAD_REACTORS
330
C
102
}
330
C
100
AcDbDictionary
281
     1
  3
A0
350
48
  3
A1
350
49
  3
A2
350
4A
  3
A3
350
4B
  3
A4
350
4C
  3
A5
350
4D
  3
A6
350
4E
  3
A7
350
4F
  3
A8
350
50
  3
A9
350
51
  3
B0
350
52
  3
B1
350
53
  3
B2
350
54
  3
B3
350
55
  3
B4
350
56
  3
B5
350
57
  3
B6
350
58
  3
B7
350
59
  3
B8
350
5A
  3
B9
350
5B
  3
C0
350
5C
  3
C1
350
5D
  3
C2
350
5E
  3
C3
350
5F
  3
C4
350
60
  3
C5
350
61
  3
C6
350
62
  3
C7
350
63
  3
C8
350
64
  3
C9
350
65
  3
D0
350
66
  3
D1
350
67
  3
D2
350
68
  0
XRECORD
  5
217
102
{ACAD_REACTORS
330
C
102
}
330
C
100
AcDbXrecord
280
     1
  1
DWGPROPS COOKIE
  2

  3

  4

  6

  7

  8
radek.stransky
  9

300
=
301
=
302
=
303
=
304
=
305
=
306
=
307
=
308
=
309
=
 40
0.0
 41
2459094.245030625
 42
2459094.24503103
  1

 90
        0
  0
LAYOUT
  5
1E
102
{ACAD_REACTORS
330
1A
102
}
330
1A
100
AcDbPlotSettings
  1

  2
none_device
  4

  6

 40
0.0
 41
0.0
 42
0.0
 43
0.0
 44
0.0
 45
0.0
 46
0.0
 47
0.0
 48
0.0
 49
0.0
140
0.0
141
0.0
142
1.0
143
1.0
 70
   688
 72
     1
 73
     0
 74
     5
  7

 75
    16
147
1.0
148
0.0
149
0.0
100
AcDbLayout
  1
Layout1
 70
     1
 71
     1
 10
0.0
 20
0.0
 11
420.0
 21
297.0
 12
0.0
 22
0.0
 32
0.0
 14
1.0000000000E+20
 24
1.0000000000E+20
 34
1.0000000000E+20
 15
-1.0000000000E+20
 25
-1.0000000000E+20
 35
-1.0000000000E+20
146
0.0
 13
0.0
 23
0.0
 33
0.0
 16
1.0
 26
0.0
 36
0.0
 17
0.0
 27
1.0
 37
0.0
 76
     0
330
1B
  0
LAYOUT
  5
26
102
{ACAD_REACTORS
330
1A
102
}
330
1A
100
AcDbPlotSettings
  1

  2
none_device
  4

  6

 40
0.0
 41
0.0
 42
0.0
 43
0.0
 44
0.0
 45
0.0
 46
0.0
 47
0.0
 48
0.0
 49
0.0
140
0.0
141
0.0
142
1.0
143
1.0
 70
   688
 72
     1
 73
     0
 74
     5
  7

 75
    16
147
1.0
148
0.0
149
0.0
100
AcDbLayout
  1
Layout2
 70
     1
 71
     2
 10
0.0
 20
0.0
 11
0.0
 21
0.0
 12
0.0
 22
0.0
 32
0.0
 14
0.0
 24
0.0
 34
0.0
 15
0.0
 25
0.0
 35
0.0
146
0.0
 13
0.0
 23
0.0
 33
0.0
 16
1.0
 26
0.0
 36
0.0
 17
0.0
 27
1.0
 37
0.0
 76
     0
330
23
  0
LAYOUT
  5
22
102
{ACAD_REACTORS
330
1A
102
}
330
1A
100
AcDbPlotSettings
  1

  2
none_device
  4
Letter_(8.50_x_11.00_Inches)
  6

 40
6.35
 41
6.35
 42
6.35000508
 43
6.35000508
 44
215.9
 45
279.4
 46
0.0
 47
0.0
 48
0.0
 49
0.0
140
0.0
141
0.0
142
1.0
143
1.0
 70
  1712
 72
     1
 73
     0
 74
     0
  7

 75
     0
147
1.0
148
0.0
149
0.0
100
AcDbLayout
  1
Model
 70
     1
 71
     0
 10
0.0
 20
0.0
 11
20000.0
 21
10000.0
 12
0.0
 22
0.0
 32
0.0
 14
0.0
 24
0.0
 34
0.0
 15
20000.0
 25
10000.0
 35
0.0
146
0.0
 13
0.0
 23
0.0
 33
0.0
 16
1.0
 26
0.0
 36
0.0
 17
0.0
 27
1.0
 37
0.0
 76
     0
330
1F
331
29
  0
MLINESTYLE
  5
18
102
{ACAD_REACTORS
330
17
102
}
330
17
100
AcDbMlineStyle
  2
Standard
 70
     0
  3

 62
   256
 51
90.0
 52
90.0
 71
     2
 49
0.5
 62
   256
  6
BYLAYER
 49
-0.5
 62
   256
  6
BYLAYER
  0
ACDBPLACEHOLDER
  5
F
102
{ACAD_REACTORS
330
E
102
}
330
E
  0
SCALE
  5
48
102
{ACAD_REACTORS
330
47
102
}
330
47
100
AcDbScale
 70
     0
300
1:1
140
1.0
141
1.0
290
     1
  0
SCALE
  5
49
102
{ACAD_REACTORS
330
47
102
}
330
47
100
AcDbScale
 70
     0
300
1:2
140
1.0
141
2.0
290
     0
  0
SCALE
  5
4A
102
{ACAD_REACTORS
330
47
102
}
330
47
100
AcDbScale
 70
     0
300
1:4
140
1.0
141
4.0
290
     0
  0
SCALE
  5
4B
102
{ACAD_REACTORS
330
47
102
}
330
47
100
AcDbScale
 70
     0
300
1:5
140
1.0
141
5.0
290
     0
  0
SCALE
  5
4C
102
{ACAD_REACTORS
330
47
102
}
330
47
100
AcDbScale
 70
     0
300
1:8
140
1.0
141
8.0
290
     0
  0
SCALE
  5
4D
102
{ACAD_REACTORS
330
47
102
}
330
47
100
AcDbScale
 70
     0
300
1:10
140
1.0
141
10.0
290
     0
  0
SCALE
  5
4E
102
{ACAD_REACTORS
330
47
102
}
330
47
100
AcDbScale
 70
     0
300
1:16
140
1.0
141
16.0
290
     0
  0
SCALE
  5
4F
102
{ACAD_REACTORS
330
47
102
}
330
47
100
AcDbScale
 70
     0
300
1:20
140
1.0
141
20.0
290
     0
  0
SCALE
  5
50
102
{ACAD_REACTORS
330
47
102
}
330
47
100
AcDbScale
 70
     0
300
1:30
140
1.0
141
30.0
290
     0
  0
SCALE
  5
51
102
{ACAD_REACTORS
330
47
102
}
330
47
100
AcDbScale
 70
     0
300
1:40
140
1.0
141
40.0
290
     0
  0
SCALE
  5
52
102
{ACAD_REACTORS
330
47
102
}
330
47
100
AcDbScale
 70
     0
300
1:50
140
1.0
141
50.0
290
     0
  0
SCALE
  5
53
102
{ACAD_REACTORS
330
47
102
}
330
47
100
AcDbScale
 70
     0
300
1:100
140
1.0
141
100.0
290
     0
  0
SCALE
  5
54
102
{ACAD_REACTORS
330
47
102
}
330
47
100
AcDbScale
 70
     0
300
2:1
140
2.0
141
1.0
290
     0
  0
SCALE
  5
55
102
{ACAD_REACTORS
330
47
102
}
330
47
100
AcDbScale
 70
     0
300
4:1
140
4.0
141
1.0
290
     0
  0
SCALE
  5
56
102
{ACAD_REACTORS
330
47
102
}
330
47
100
AcDbScale
 70
     0
300
8:1
140
8.0
141
1.0
290
     0
  0
SCALE
  5
57
102
{ACAD_REACTORS
330
47
102
}
330
47
100
AcDbScale
 70
     0
300
10:1
140
10.0
141
1.0
290
     0
  0
SCALE
  5
58
102
{ACAD_REACTORS
330
47
102
}
330
47
100
AcDbScale
 70
     0
300
100:1
140
100.0
141
1.0
290
     0
  0
SCALE
  5
59
102
{ACAD_REACTORS
330
47
102
}
330
47
100
AcDbScale
 70
     0
300
1/128" = 1'-0"
140
0.0078125
141
12.0
290
     0
  0
SCALE
  5
5A
102
{ACAD_REACTORS
330
47
102
}
330
47
100
AcDbScale
 70
     0
300
1/64" = 1'-0"
140
0.015625
141
12.0
290
     0
  0
SCALE
  5
5B
102
{ACAD_REACTORS
330
47
102
}
330
47
100
AcDbScale
 70
     0
300
1/32" = 1'-0"
140
0.03125
141
12.0
290
     0
  0
SCALE
  5
5C
102
{ACAD_REACTORS
330
47
102
}
330
47
100
AcDbScale
 70
     0
300
1/16" = 1'-0"
140
0.0625
141
12.0
290
     0
  0
SCALE
  5
5D
102
{ACAD_REACTORS
330
47
102
}
330
47
100
AcDbScale
 70
     0
300
3/32" = 1'-0"
140
0.09375
141
12.0
290
     0
  0
SCALE
  5
5E
102
{ACAD_REACTORS
330
47
102
}
330
47
100
AcDbScale
 70
     0
300
1/8" = 1'-0"
140
0.125
141
12.0
290
     0
  0
SCALE
  5
5F
102
{ACAD_REACTORS
330
47
102
}
330
47
100
AcDbScale
 70
     0
300
3/16" = 1'-0"
140
0.1875
141
12.0
290
     0
  0
SCALE
  5
60
102
{ACAD_REACTORS
330
47
102
}
330
47
100
AcDbScale
 70
     0
300
1/4" = 1'-0"
140
0.25
141
12.0
290
     0
  0
SCALE
  5
61
102
{ACAD_REACTORS
330
47
102
}
330
47
100
AcDbScale
 70
     0
300
3/8" = 1'-0"
140
0.375
141
12.0
290
     0
  0
SCALE
  5
62
102
{ACAD_REACTORS
330
47
102
}
330
47
100
AcDbScale
 70
     0
300
1/2" = 1'-0"
140
0.5
141
12.0
290
     0
  0
SCALE
  5
63
102
{ACAD_REACTORS
330
47
102
}
330
47
100
AcDbScale
 70
     0
300
3/4" = 1'-0"
140
0.75
141
12.0
290
     0
  0
SCALE
  5
64
102
{ACAD_REACTORS
330
47
102
}
330
47
100
AcDbScale
 70
     0
300
1" = 1'-0"
140
1.0
141
12.0
290
     0
  0
SCALE
  5
65
102
{ACAD_REACTORS
330
47
102
}
330
47
100
AcDbScale
 70
     0
300
1-1/2" = 1'-0"
140
1.5
141
12.0
290
     0
  0
SCALE
  5
66
102
{ACAD_REACTORS
330
47
102
}
330
47
100
AcDbScale
 70
     0
300
3" = 1'-0"
140
3.0
141
12.0
290
     0
  0
SCALE
  5
67
102
{ACAD_REACTORS
330
47
102
}
330
47
100
AcDbScale
 70
     0
300
6" = 1'-0"
140
6.0
141
12.0
290
     0
  0
SCALE
  5
68
102
{ACAD_REACTORS
330
47
102
}
330
47
100
AcDbScale
 70
     0
300
1'-0" = 1'-0"
140
12.0
141
12.0
290
     0
  0
ENDSEC
  0
EOF
