  0
SECTION
  2
HEADER
  9
$ACADVER
  1
AC1015
  9
$ACADMAINTVER
 70
     6
  9
$DWGCODEPAGE
  3
ANSI_1250
  9
$INSBASE
 10
0.0
 20
0.0
 30
0.0
  9
$EXTMIN
 10
0.0
 20
0.0
 30
0.0
  9
$EXTMAX
 10
20000.0
 20
10000.0
 30
0.0
  9
$LIMMIN
 10
0.0
 20
0.0
  9
$LIMMAX
 10
20000.0
 20
10000.0
  9
$ORTHOMODE
 70
     0
  9
$REGENMODE
 70
     1
  9
$FILLMODE
 70
     1
  9
$QTEXTMODE
 70
     0
  9
$MIRRTEXT
 70
     1
  9
$LTSCALE
 40
1.0
  9
$ATTMODE
 70
     1
  9
$TEXTSIZE
 40
2.0
  9
$TRACEWID
 40
1.0
  9
$TEXTSTYLE
  7
Standard
  9
$CLAYER
  8
0
  9
$CELTYPE
  6
ByLayer
  9
$CECOLOR
 62
   256
  9
$CELTSCALE
 40
1.0
  9
$DISPSILH
 70
     0
  9
$DIMSCALE
 40
1.0
  9
$DIMASZ
 40
2.0
  9
$DIMEXO
 40
1.0
  9
$DIMDLI
 40
3.75
  9
$DIMRND
 40
0.0
  9
$DIMDLE
 40
0.0
  9
$DIMEXE
 40
1.0
  9
$DIMTP
 40
0.0
  9
$DIMTM
 40
0.0
  9
$DIMTXT
 40
2.0
  9
$DIMCEN
 40
2.5
  9
$DIMTSZ
 40
0.0
  9
$DIMTOL
 70
     0
  9
$DIMLIM
 70
     0
  9
$DIMTIH
 70
     1
  9
$DIMTOH
 70
     1
  9
$DIMSE1
 70
     0
  9
$DIMSE2
 70
     0
  9
$DIMTAD
 70
     1
  9
$DIMZIN
 70
     0
  9
$DIMBLK
  1

  9
$DIMASO
 70
     1
  9
$DIMSHO
 70
     1
  9
$DIMPOST
  1

  9
$DIMAPOST
  1

  9
$DIMALT
 70
     0
  9
$DIMALTD
 70
     3
  9
$DIMALTF
 40
0.0393700787
  9
$DIMLFAC
 40
1.0
  9
$DIMTOFL
 70
     1
  9
$DIMTVP
 40
0.0
  9
$DIMTIX
 70
     0
  9
$DIMSOXD
 70
     0
  9
$DIMSAH
 70
     0
  9
$DIMBLK1
  1

  9
$DIMBLK2
  1

  9
$DIMSTYLE
  2
ISO-25
  9
$DIMCLRD
 70
     0
  9
$DIMCLRE
 70
     0
  9
$DIMCLRT
 70
     0
  9
$DIMTFAC
 40
1.0
  9
$DIMGAP
 40
1.524
  9
$DIMJUST
 70
     0
  9
$DIMSD1
 70
     0
  9
$DIMSD2
 70
     0
  9
$DIMTOLJ
 70
     0
  9
$DIMTZIN
 70
     0
  9
$DIMALTZ
 70
     0
  9
$DIMALTTZ
 70
     0
  9
$DIMUPT
 70
     0
  9
$DIMDEC
 70
     2
  9
$DIMTDEC
 70
     0
  9
$DIMALTU
 70
     2
  9
$DIMALTTD
 70
     3
  9
$DIMTXSTY
  7
Standard
  9
$DIMAUNIT
 70
     0
  9
$DIMADEC
 70
     2
  9
$DIMALTRND
 40
0.0
  9
$DIMAZIN
 70
     0
  9
$DIMDSEP
 70
    44
  9
$DIMATFIT
 70
     3
  9
$DIMFRAC
 70
     0
  9
$DIMLDRBLK
  1

  9
$DIMLUNIT
 70
     2
  9
$DIMLWD
 70
    -2
  9
$DIMLWE
 70
    -2
  9
$DIMTMOVE
 70
     0
  9
$LUNITS
 70
     2
  9
$LUPREC
 70
     3
  9
$SKETCHINC
 40
1.0
  9
$FILLETRAD
 40
10.0
  9
$AUNITS
 70
     0
  9
$AUPREC
 70
     2
  9
$MENU
  1
.
  9
$ELEVATION
 40
0.0
  9
$PELEVATION
 40
0.0
  9
$THICKNESS
 40
0.0
  9
$LIMCHECK
 70
     0
  9
$CHAMFERA
 40
0.0
  9
$CHAMFERB
 40
0.0
  9
$CHAMFERC
 40
0.0
  9
$CHAMFERD
 40
0.0
  9
$SKPOLY
 70
     0
  9
$TDCREATE
 40
2459095.463695856
  9
$TDUCREATE
 40
2459095.380362523
  9
$TDUPDATE
 40
2459095.463696215
  9
$TDUUPDATE
 40
2459095.380362882
  9
$TDINDWG
 40
0.0000000116
  9
$TDUSRTIMER
 40
0.0000000116
  9
$USRTIMER
 70
     1
  9
$ANGBASE
 50
0.0
  9
$ANGDIR
 70
     0
  9
$PDMODE
 70
     0
  9
$PDSIZE
 40
-1.0
  9
$PLINEWID
 40
0.0
  9
$SPLFRAME
 70
     0
  9
$SPLINETYPE
 70
     6
  9
$SPLINESEGS
 70
     8
  9
$HANDSEED
  5
30C
  9
$SURFTAB1
 70
     6
  9
$SURFTAB2
 70
     6
  9
$SURFTYPE
 70
     6
  9
$SURFU
 70
     6
  9
$SURFV
 70
     6
  9
$UCSBASE
  2

  9
$UCSNAME
  2

  9
$UCSORG
 10
0.0
 20
0.0
 30
0.0
  9
$UCSXDIR
 10
1.0
 20
0.0
 30
0.0
  9
$UCSYDIR
 10
0.0
 20
1.0
 30
0.0
  9
$UCSORTHOREF
  2

  9
$UCSORTHOVIEW
 70
     0
  9
$UCSORGTOP
 10
0.0
 20
0.0
 30
0.0
  9
$UCSORGBOTTOM
 10
0.0
 20
0.0
 30
0.0
  9
$UCSORGLEFT
 10
0.0
 20
0.0
 30
0.0
  9
$UCSORGRIGHT
 10
0.0
 20
0.0
 30
0.0
  9
$UCSORGFRONT
 10
0.0
 20
0.0
 30
0.0
  9
$UCSORGBACK
 10
0.0
 20
0.0
 30
0.0
  9
$PUCSBASE
  2

  9
$PUCSNAME
  2

  9
$PUCSORG
 10
0.0
 20
0.0
 30
0.0
  9
$PUCSXDIR
 10
1.0
 20
0.0
 30
0.0
  9
$PUCSYDIR
 10
0.0
 20
1.0
 30
0.0
  9
$PUCSORTHOREF
  2

  9
$PUCSORTHOVIEW
 70
     0
  9
$PUCSORGTOP
 10
0.0
 20
0.0
 30
0.0
  9
$PUCSORGBOTTOM
 10
0.0
 20
0.0
 30
0.0
  9
$PUCSORGLEFT
 10
0.0
 20
0.0
 30
0.0
  9
$PUCSORGRIGHT
 10
0.0
 20
0.0
 30
0.0
  9
$PUCSORGFRONT
 10
0.0
 20
0.0
 30
0.0
  9
$PUCSORGBACK
 10
0.0
 20
0.0
 30
0.0
  9
$USERI1
 70
     0
  9
$USERI2
 70
     0
  9
$USERI3
 70
     0
  9
$USERI4
 70
     0
  9
$USERI5
 70
     0
  9
$USERR1
 40
0.0
  9
$USERR2
 40
0.0
  9
$USERR3
 40
0.0
  9
$USERR4
 40
0.0
  9
$USERR5
 40
0.0
  9
$WORLDVIEW
 70
     1
  9
$SHADEDGE
 70
     3
  9
$SHADEDIF
 70
    70
  9
$TILEMODE
 70
     1
  9
$MAXACTVP
 70
    64
  9
$PINSBASE
 10
0.0
 20
0.0
 30
0.0
  9
$PLIMCHECK
 70
     0
  9
$PEXTMIN
 10
1.0000000000E+20
 20
1.0000000000E+20
 30
1.0000000000E+20
  9
$PEXTMAX
 10
-1.0000000000E+20
 20
-1.0000000000E+20
 30
-1.0000000000E+20
  9
$PLIMMIN
 10
0.0
 20
0.0
  9
$PLIMMAX
 10
420.0
 20
297.0
  9
$UNITMODE
 70
     0
  9
$VISRETAIN
 70
     1
  9
$PLINEGEN
 70
     0
  9
$PSLTSCALE
 70
     1
  9
$TREEDEPTH
 70
  3020
  9
$CMLSTYLE
  2
Standard
  9
$CMLJUST
 70
     0
  9
$CMLSCALE
 40
20.0
  9
$PROXYGRAPHICS
 70
     1
  9
$MEASUREMENT
 70
     1
  9
$CELWEIGHT
370
    -1
  9
$ENDCAPS
280
     0
  9
$JOINSTYLE
280
     0
  9
$LWDISPLAY
290
     1
  9
$INSUNITS
 70
     4
  9
$HYPERLINKBASE
  1

  9
$STYLESHEET
  1

  9
$XEDIT
290
     1
  9
$CEPSNTYPE
380
     0
  9
$PSTYLEMODE
290
     1
  9
$FINGERPRINTGUID
  2
{2a9730e3-c464-4ad1-b1aa-8f9fdfd26955}
  9
$VERSIONGUID
  2
{FAEB1C32-E019-11D5-929B-00C0DF256EC4}
  9
$EXTNAMES
290
     1
  9
$PSVPSCALE
 40
0.0
  9
$OLESTARTUP
290
     0
  0
ENDSEC
  0
SECTION
  2
CLASSES
  0
CLASS
  1
ACDBDICTIONARYWDFLT
  2
AcDbDictionaryWithDefault
  3
ObjectDBX Classes
 90
        0
280
     0
281
     0
  0
CLASS
  1
VISUALSTYLE
  2
AcDbVisualStyle
  3
ObjectDBX Classes
 90
     4095
280
     0
281
     0
  0
CLASS
  1
MATERIAL
  2
AcDbMaterial
  3
ObjectDBX Classes
 90
     1153
280
     0
281
     0
  0
CLASS
  1
SCALE
  2
AcDbScale
  3
ObjectDBX Classes
 90
     1153
280
     0
281
     0
  0
CLASS
  1
TABLESTYLE
  2
AcDbTableStyle
  3
ObjectDBX Classes
 90
     4095
280
     0
281
     0
  0
CLASS
  1
MLEADERSTYLE
  2
AcDbMLeaderStyle
  3
ACDB_MLEADERSTYLE_CLASS
 90
     4095
280
     0
281
     0
  0
CLASS
  1
SUN
  2
AcDbSun
  3
SCENEOE
 90
     1153
280
     0
281
     0
  0
CLASS
  1
ACDBPLACEHOLDER
  2
AcDbPlaceHolder
  3
ObjectDBX Classes
 90
        0
280
     0
281
     0
  0
CLASS
  1
LAYOUT
  2
AcDbLayout
  3
ObjectDBX Classes
 90
        0
280
     0
281
     0
  0
ENDSEC
  0
SECTION
  2
TABLES
  0
TABLE
  2
VPORT
  5
8
330
0
100
AcDbSymbolTable
 70
     1
  0
VPORT
  5
29
330
8
100
AcDbSymbolTableRecord
100
AcDbViewportTableRecord
  2
*Active
 70
     0
 10
0.0
 20
0.0
 11
1.0
 21
1.0
 12
10000.0
 22
5000.0
 13
0.0
 23
0.0
 14
10.0
 24
10.0
 15
10.0
 25
10.0
 16
0.0
 26
0.0
 36
1.0
 17
0.0
 27
0.0
 37
0.0
 40
10000.0
 41
2.0
 42
50.0
 43
0.0
 44
0.0
 50
0.0
 51
0.0
 71
     0
 72
  2000
 73
     1
 74
     3
 75
     0
 76
     0
 77
     0
 78
     0
281
     0
 65
     1
110
0.0
120
0.0
130
0.0
111
1.0
121
0.0
131
0.0
112
0.0
122
1.0
132
0.0
 79
     0
146
0.0
  0
ENDTAB
  0
TABLE
  2
LTYPE
  5
5
330
0
100
AcDbSymbolTable
 70
     6
  0
LTYPE
  5
14
330
5
100
AcDbSymbolTableRecord
100
AcDbLinetypeTableRecord
  2
ByBlock
 70
     0
  3

 72
    65
 73
     0
 40
0.0
  0
LTYPE
  5
15
330
5
100
AcDbSymbolTableRecord
100
AcDbLinetypeTableRecord
  2
ByLayer
 70
     0
  3

 72
    65
 73
     0
 40
0.0
  0
LTYPE
  5
16
330
5
100
AcDbSymbolTableRecord
100
AcDbLinetypeTableRecord
  2
Continuous
 70
     0
  3
Solid line
 72
    65
 73
     0
 40
0.0
  0
LTYPE
  5
6E
330
5
100
AcDbSymbolTableRecord
100
AcDbLinetypeTableRecord
  2
HIDDEN
 70
     0
  3
Hidden __ __ __ __ __ __ __ __ __ __ __ __ __ __
 72
    65
 73
     2
 40
1.905
 49
1.27
 74
     0
 49
-0.635
 74
     0
  0
LTYPE
  5
6F
330
5
100
AcDbSymbolTableRecord
100
AcDbLinetypeTableRecord
  2
PHANTOM
 70
     0
  3
Phantom ______  __  __  ______  __  __  ______
 72
    65
 73
     6
 40
12.7
 49
6.35
 74
     0
 49
-1.27
 74
     0
 49
1.27
 74
     0
 49
-1.27
 74
     0
 49
1.27
 74
     0
 49
-1.27
 74
     0
  0
LTYPE
  5
70
330
5
100
AcDbSymbolTableRecord
100
AcDbLinetypeTableRecord
  2
CENTER
 70
     0
  3
Center ____ _ ____ _ ____ _ ____ _ ____ _ ____
 72
    65
 73
     4
 40
10.16
 49
6.35
 74
     0
 49
-1.27
 74
     0
 49
1.27
 74
     0
 49
-1.27
 74
     0
  0
LTYPE
  5
71
330
5
100
AcDbSymbolTableRecord
100
AcDbLinetypeTableRecord
  2
CENTERX2
 70
     0
  3
Center (2x) ________  __  ________  __  _____
 72
    65
 73
     4
 40
20.32
 49
12.7
 74
     0
 49
-2.54
 74
     0
 49
2.54
 74
     0
 49
-2.54
 74
     0
  0
LTYPE
  5
72
330
5
100
AcDbSymbolTableRecord
100
AcDbLinetypeTableRecord
  2
DOT2
 70
     0
  3
Dot (.5x) ........................................
 72
    65
 73
     2
 40
0.635
 49
0.0
 74
     0
 49
-0.635
 74
     0
  0
ENDTAB
  0
TABLE
  2
LAYER
  5
2
330
0
100
AcDbSymbolTable
 70
    13
  0
LAYER
  5
10
330
2
100
AcDbSymbolTableRecord
100
AcDbLayerTableRecord
  2
0
 70
     0
 62
     7
  6
Continuous
370
    -3
390
F
  0
LAYER
  5
73
330
2
100
AcDbSymbolTableRecord
100
AcDbLayerTableRecord
  2
FORMAT
 70
     0
 62
     7
  6
Continuous
370
    -3
390
F
  0
LAYER
  5
74
330
2
100
AcDbSymbolTableRecord
100
AcDbLayerTableRecord
  2
OSA
 70
     0
 62
     7
  6
CENTER
370
    -3
390
F
  0
LAYER
  5
75
330
2
100
AcDbSymbolTableRecord
100
AcDbLayerTableRecord
  2
0_35
 70
     0
 62
     7
  6
Continuous
370
    35
390
F
  0
LAYER
  5
76
330
2
100
AcDbSymbolTableRecord
100
AcDbLayerTableRecord
  2
0_5
 70
     0
 62
     7
  6
Continuous
370
    50
390
F
  0
LAYER
  5
77
330
2
100
AcDbSymbolTableRecord
100
AcDbLayerTableRecord
  2
0_25
 70
     0
 62
     7
  6
Continuous
370
    25
390
F
  0
LAYER
  5
78
330
2
100
AcDbSymbolTableRecord
100
AcDbLayerTableRecord
  2
0_18
 70
     0
 62
     7
  6
Continuous
370
    -3
390
F
  0
LAYER
  5
79
330
2
100
AcDbSymbolTableRecord
100
AcDbLayerTableRecord
  2
SLD-0
 70
     0
 62
   179
  6
Continuous
370
    -3
390
F
  0
LAYER
  5
7A
330
2
100
AcDbSymbolTableRecord
100
AcDbLayerTableRecord
  2
KOTY
 70
     0
 62
     7
  6
Continuous
370
    -3
390
F
  0
LAYER
  5
7B
330
2
100
AcDbSymbolTableRecord
100
AcDbLayerTableRecord
  2
SILNA
 70
     0
 62
   179
  6
Continuous
370
    -3
390
F
  0
LAYER
  5
7C
330
2
100
AcDbSymbolTableRecord
100
AcDbLayerTableRecord
  2
0_18_1
 70
     0
 62
   179
  6
Continuous
370
    -3
390
F
  0
LAYER
  5
7D
330
2
100
AcDbSymbolTableRecord
100
AcDbLayerTableRecord
  2
0_35_1
 70
     0
 62
   179
  6
Continuous
370
    35
390
F
  0
LAYER
  5
7E
330
2
100
AcDbSymbolTableRecord
100
AcDbLayerTableRecord
  2
0_5_1
 70
     0
 62
   179
  6
Continuous
370
    50
390
F
  0
ENDTAB
  0
TABLE
  2
STYLE
  5
3
330
0
100
AcDbSymbolTable
 70
     1
  0
STYLE
  5
11
330
3
100
AcDbSymbolTableRecord
100
AcDbTextStyleTableRecord
  2
Standard
 70
     0
 40
0.0
 41
1.0
 50
0.0
 71
     0
 42
2.0
  3
txt
  4

  0
ENDTAB
  0
TABLE
  2
VIEW
  5
6
330
0
100
AcDbSymbolTable
 70
     0
  0
ENDTAB
  0
TABLE
  2
UCS
  5
7
330
0
100
AcDbSymbolTable
 70
     0
  0
ENDTAB
  0
TABLE
  2
APPID
  5
9
330
0
100
AcDbSymbolTable
 70
     1
  0
APPID
  5
12
330
9
100
AcDbSymbolTableRecord
100
AcDbRegAppTableRecord
  2
ACAD
 70
     0
  0
ENDTAB
  0
TABLE
  2
DIMSTYLE
  5
A
330
0
100
AcDbSymbolTable
 70
     1
100
AcDbDimStyleTable
  0
DIMSTYLE
105
27
330
A
100
AcDbSymbolTableRecord
100
AcDbDimStyleTableRecord
  2
ISO-25
 70
     0
 41
2.5
 42
0.625
 43
3.75
 44
1.25
 73
     0
 74
     0
 77
     1
 78
     8
140
2.5
141
2.5
143
0.0393700787
147
0.625
171
     3
172
     1
178
     0
271
     2
272
     2
274
     3
278
    44
283
     0
284
     8
340
11
  0
ENDTAB
  0
TABLE
  2
BLOCK_RECORD
  5
1
330
0
100
AcDbSymbolTable
 70
     1
  0
BLOCK_RECORD
  5
1F
330
1
100
AcDbSymbolTableRecord
100
AcDbBlockTableRecord
  2
*Model_Space
340
22
  0
BLOCK_RECORD
  5
1B
330
1
100
AcDbSymbolTableRecord
100
AcDbBlockTableRecord
  2
*Paper_Space
340
1E
  0
BLOCK_RECORD
  5
23
330
1
100
AcDbSymbolTableRecord
100
AcDbBlockTableRecord
  2
*Paper_Space0
340
26
  0
ENDTAB
  0
ENDSEC
  0
SECTION
  2
BLOCKS
  0
BLOCK
  5
20
330
1F
100
AcDbEntity
  8
0
100
AcDbBlockBegin
  2
*Model_Space
 70
     0
 10
0.0
 20
0.0
 30
0.0
  3
*Model_Space
  1

  0
ENDBLK
  5
21
330
1F
100
AcDbEntity
  8
0
100
AcDbBlockEnd
  0
BLOCK
  5
1C
330
1B
100
AcDbEntity
 67
     1
  8
0
100
AcDbBlockBegin
  2
*Paper_Space
 70
     0
 10
0.0
 20
0.0
 30
0.0
  3
*Paper_Space
  1

  0
ENDBLK
  5
1D
330
1B
100
AcDbEntity
 67
     1
  8
0
100
AcDbBlockEnd
  0
BLOCK
  5
24
330
23
100
AcDbEntity
  8
0
100
AcDbBlockBegin
  2
*Paper_Space0
 70
     0
 10
0.0
 20
0.0
 30
0.0
  3
*Paper_Space0
  1

  0
ENDBLK
  5
25
330
23
100
AcDbEntity
  8
0
100
AcDbBlockEnd
  0
ENDSEC
  0
SECTION
  2
ENTITIES
  0
ARC
  5
7F
330
1F
100
AcDbEntity
  8
0
  6
Continuous
 62
     7
370
    25
100
AcDbCircle
 10
1586.7086085303
 20
6784.9217109968
 30
0.0
 40
29.93750000000014
100
AcDbArc
 50
90.0
 51
172.3107820781
  0
ARC
  5
80
330
1F
100
AcDbEntity
  8
0
  6
Continuous
 62
     7
370
    25
100
AcDbCircle
 10
1586.7086085303
 20
6784.9217109968
 30
0.0
 40
29.93750000000004
100
AcDbArc
 50
7.6596595286
 51
90.0
  0
ARC
  5
81
330
1F
100
AcDbEntity
  8
0
  6
Continuous
 62
     7
370
    25
100
AcDbCircle
 10
1586.7086085303
 20
6784.9217109968
 30
0.0
 40
29.93750000000015
100
AcDbArc
 50
187.63220957
 51
352.3281420381
  0
ARC
  5
82
330
1F
100
AcDbEntity
  8
0
  6
Continuous
 62
     7
370
    25
100
AcDbCircle
 10
1586.7086085303
 20
6784.9217109968
 30
0.0
 40
27.00000000000006
100
AcDbArc
 50
188.5308248942
 51
351.488409461
  0
ARC
  5
83
330
1F
100
AcDbEntity
  8
0
  6
Continuous
 62
     7
370
    25
100
AcDbCircle
 10
1586.7086085303
 20
6784.9217109968
 30
0.0
 40
27.00000000000091
100
AcDbArc
 50
90.0
 51
171.5025801124
  0
ARC
  5
84
330
1F
100
AcDbEntity
  8
0
  6
Continuous
 62
     7
370
    25
100
AcDbCircle
 10
1586.7086085303
 20
6784.9217109968
 30
0.0
 40
27.00000000000091
100
AcDbArc
 50
8.516295149
 51
90.0
  0
LINE
  5
85
330
1F
100
AcDbEntity
  8
0
  6
Continuous
 62
     7
370
    25
100
AcDbLine
 10
1640.7086085303
 20
6780.9217109968
 30
0.0
 11
1640.7086085303
 21
6777.9217109968
 31
0.0
  0
LINE
  5
86
330
1F
100
AcDbEntity
  8
0
  6
Continuous
 62
     7
370
    25
100
AcDbLine
 10
1660.7086085303
 20
6777.9217109968
 30
0.0
 11
1660.7086085303
 21
6780.9217109968
 31
0.0
  0
ARC
  5
87
330
1F
100
AcDbEntity
  8
0
  6
Continuous
 62
     7
370
    25
100
AcDbCircle
 10
1656.7086085303
 20
6777.9217109968
 30
0.0
 40
4.0
100
AcDbArc
 50
270.0
 51
0.0
  0
ARC
  5
88
330
1F
100
AcDbEntity
  8
0
  6
Continuous
 62
     7
370
    25
100
AcDbCircle
 10
1644.7086085303
 20
6777.9217109968
 30
0.0
 40
4.0
100
AcDbArc
 50
180.0
 51
270.0
  0
LINE
  5
89
330
1F
100
AcDbEntity
  8
0
  6
Continuous
 62
     7
370
    25
100
AcDbLine
 10
1512.7086085303
 20
6780.9217109968
 30
0.0
 11
1512.7086085303
 21
6777.9217109968
 31
0.0
  0
LINE
  5
8A
330
1F
100
AcDbEntity
  8
0
  6
Continuous
 62
     7
370
    25
100
AcDbLine
 10
1532.7086085303
 20
6777.9217109968
 30
0.0
 11
1532.7086085303
 21
6780.9217109968
 31
0.0
  0
ARC
  5
8B
330
1F
100
AcDbEntity
  8
0
  6
Continuous
 62
     7
370
    25
100
AcDbCircle
 10
1528.7086085303
 20
6777.9217109968
 30
0.0
 40
4.0
100
AcDbArc
 50
270.0
 51
0.0
  0
ARC
  5
8C
330
1F
100
AcDbEntity
  8
0
  6
Continuous
 62
     7
370
    25
100
AcDbCircle
 10
1516.7086085303
 20
6777.9217109968
 30
0.0
 40
4.0
100
AcDbArc
 50
180.0
 51
270.0
  0
LINE
  5
8D
330
1F
100
AcDbEntity
  8
0
  6
Continuous
 62
     7
370
    25
100
AcDbLine
 10
1655.7086085303
 20
6788.9217109968
 30
0.0
 11
1655.7086085303
 21
6810.9217109968
 31
0.0
  0
LINE
  5
8E
330
1F
100
AcDbEntity
  8
0
  6
Continuous
 62
     7
370
    25
100
AcDbLine
 10
1645.7086085303
 20
6810.9217109968
 30
0.0
 11
1645.7086085303
 21
6788.9217109968
 31
0.0
  0
LINE
  5
8F
330
1F
100
AcDbEntity
  8
0
  6
Continuous
 62
     7
370
    25
100
AcDbLine
 10
1527.7086085303
 20
6788.9217109968
 30
0.0
 11
1527.7086085303
 21
6810.9217109968
 31
0.0
  0
LINE
  5
90
330
1F
100
AcDbEntity
  8
0
  6
Continuous
 62
     7
370
    25
100
AcDbLine
 10
1517.7086085303
 20
6810.9217109968
 30
0.0
 11
1517.7086085303
 21
6788.9217109968
 31
0.0
  0
ARC
  5
91
330
1F
100
AcDbEntity
  8
0
  6
Continuous
 62
     7
370
    25
100
AcDbCircle
 10
1408.7086085303
 20
6784.9217109968
 30
0.0
 40
49.93750000000006
100
AcDbArc
 50
184.5787221185
 51
355.4105290268
  0
ARC
  5
92
330
1F
100
AcDbEntity
  8
0
  6
Continuous
 62
     7
370
    25
100
AcDbCircle
 10
1408.7086085303
 20
6784.9217109968
 30
0.0
 40
49.93750000000028
100
AcDbArc
 50
4.5882297786
 51
175.4051539956
  0
ARC
  5
93
330
1F
100
AcDbEntity
  8
0
  6
Continuous
 62
     7
370
    25
100
AcDbCircle
 10
1408.7086085303
 20
6784.9217109968
 30
0.0
 40
47.00000000000007
100
AcDbArc
 50
4.8804078444
 51
175.1275907075
  0
ARC
  5
94
330
1F
100
AcDbEntity
  8
0
  6
Continuous
 62
     7
370
    25
100
AcDbCircle
 10
1408.7086085303
 20
6784.9217109968
 30
0.0
 40
47.0
100
AcDbArc
 50
184.8770419663
 51
355.1289737622
  0
LINE
  5
95
330
1F
100
AcDbEntity
  8
0
  6
Continuous
 62
     7
370
    25
100
AcDbLine
 10
1482.7086085303
 20
6780.9217109968
 30
0.0
 11
1482.7086085303
 21
6777.9217109968
 31
0.0
  0
LINE
  5
96
330
1F
100
AcDbEntity
  8
0
  6
Continuous
 62
     7
370
    25
100
AcDbLine
 10
1502.7086085303
 20
6777.9217109968
 30
0.0
 11
1502.7086085303
 21
6780.9217109968
 31
0.0
  0
ARC
  5
97
330
1F
100
AcDbEntity
  8
0
  6
Continuous
 62
     7
370
    25
100
AcDbCircle
 10
1498.7086085303
 20
6777.9217109968
 30
0.0
 40
4.000000000000909
100
AcDbArc
 50
270.0
 51
0.0
  0
ARC
  5
98
330
1F
100
AcDbEntity
  8
0
  6
Continuous
 62
     7
370
    25
100
AcDbCircle
 10
1486.7086085303
 20
6777.9217109968
 30
0.0
 40
4.000000000000909
100
AcDbArc
 50
180.0
 51
270.0
  0
ARC
  5
99
330
1F
100
AcDbEntity
  8
0
  6
Continuous
 62
     7
370
    25
100
AcDbCircle
 10
1330.7086085303
 20
6777.9217109968
 30
0.0
 40
4.000000000000909
100
AcDbArc
 50
270.0
 51
0.0
  0
ARC
  5
9A
330
1F
100
AcDbEntity
  8
0
  6
Continuous
 62
     7
370
    25
100
AcDbCircle
 10
1318.7086085303
 20
6777.9217109968
 30
0.0
 40
4.000000000000909
100
AcDbArc
 50
180.0
 51
270.0
  0
LINE
  5
9B
330
1F
100
AcDbEntity
  8
0
  6
Continuous
 62
     7
370
    25
100
AcDbLine
 10
1314.7086085303
 20
6780.9217109968
 30
0.0
 11
1314.7086085303
 21
6777.9217109968
 31
0.0
  0
LINE
  5
9C
330
1F
100
AcDbEntity
  8
0
  6
Continuous
 62
     7
370
    25
100
AcDbLine
 10
1334.7086085303
 20
6777.9217109968
 30
0.0
 11
1334.7086085303
 21
6780.9217109968
 31
0.0
  0
LINE
  5
9D
330
1F
100
AcDbEntity
  8
0
  6
Continuous
 62
     7
370
    25
100
AcDbLine
 10
1497.7086085303
 20
6788.9217109968
 30
0.0
 11
1497.7086085303
 21
6810.9217109968
 31
0.0
  0
LINE
  5
9E
330
1F
100
AcDbEntity
  8
0
  6
Continuous
 62
     7
370
    25
100
AcDbLine
 10
1487.7086085303
 20
6810.9217109968
 30
0.0
 11
1487.7086085303
 21
6788.9217109968
 31
0.0
  0
LINE
  5
9F
330
1F
100
AcDbEntity
  8
0
  6
Continuous
 62
     7
370
    25
100
AcDbLine
 10
1329.7086085303
 20
6788.9217109968
 30
0.0
 11
1329.7086085303
 21
6810.9217109968
 31
0.0
  0
LINE
  5
A0
330
1F
100
AcDbEntity
  8
0
  6
Continuous
 62
     7
370
    25
100
AcDbLine
 10
1319.7086085303
 20
6810.9217109968
 30
0.0
 11
1319.7086085303
 21
6788.9217109968
 31
0.0
  0
LINE
  5
A1
330
1F
100
AcDbEntity
  8
0
  6
Continuous
 62
     7
370
    25
100
AcDbLine
 10
1416.7086085303
 20
6866.9217109968
 30
0.0
 11
1416.7086085303
 21
7296.8453197168
 31
0.0
  0
LINE
  5
A2
330
1F
100
AcDbEntity
  8
0
  6
Continuous
 62
     7
370
    25
100
AcDbLine
 10
1416.7086085303
 20
7336.8453197168
 30
0.0
 11
1416.7086085303
 21
7442.9217109968
 31
0.0
  0
LINE
  5
A3
330
1F
100
AcDbEntity
  8
0
  6
Continuous
 62
     7
370
    25
100
AcDbLine
 10
1400.7086085303
 20
7442.9217109968
 30
0.0
 11
1400.7086085303
 21
7336.8453197168
 31
0.0
  0
LINE
  5
A4
330
1F
100
AcDbEntity
  8
0
  6
Continuous
 62
     7
370
    25
100
AcDbLine
 10
1400.7086085303
 20
7296.8453197168
 30
0.0
 11
1400.7086085303
 21
6866.9217109968
 31
0.0
  0
LINE
  5
A5
330
1F
100
AcDbEntity
  8
0
  6
Continuous
 62
     7
370
    25
100
AcDbLine
 10
1416.2086085303
 20
6852.9217109968
 30
0.0
 11
1416.2086085303
 21
6866.9217109968
 31
0.0
  0
LINE
  5
A6
330
1F
100
AcDbEntity
  8
0
  6
Continuous
 62
     7
370
    25
100
AcDbLine
 10
1401.2086085303
 20
6866.9217109968
 30
0.0
 11
1401.2086085303
 21
6852.9217109968
 31
0.0
  0
LINE
  5
A7
330
1F
100
AcDbEntity
  8
0
  6
Continuous
 62
     7
370
    25
100
AcDbLine
 10
1594.7086085302
 20
6866.9217109969
 30
0.0
 11
1594.7086085302
 21
7296.8453197168
 31
0.0
  0
LINE
  5
A8
330
1F
100
AcDbEntity
  8
0
  6
Continuous
 62
     7
370
    25
100
AcDbLine
 10
1594.7086085302
 20
7336.8453197168
 30
0.0
 11
1594.7086085302
 21
7442.9217109969
 31
0.0
  0
LINE
  5
A9
330
1F
100
AcDbEntity
  8
0
  6
Continuous
 62
     7
370
    25
100
AcDbLine
 10
1578.7086085302
 20
7442.9217109969
 30
0.0
 11
1578.7086085302
 21
7336.8453197168
 31
0.0
  0
LINE
  5
AA
330
1F
100
AcDbEntity
  8
0
  6
Continuous
 62
     7
370
    25
100
AcDbLine
 10
1578.7086085302
 20
7296.8453197168
 30
0.0
 11
1578.7086085302
 21
6866.9217109969
 31
0.0
  0
LINE
  5
AB
330
1F
100
AcDbEntity
  8
0
  6
Continuous
 62
     7
370
    25
100
AcDbLine
 10
1594.2086085302
 20
6850.9217109968
 30
0.0
 11
1594.2086085302
 21
6866.9217109969
 31
0.0
  0
LINE
  5
AC
330
1F
100
AcDbEntity
  8
0
  6
Continuous
 62
     7
370
    25
100
AcDbLine
 10
1579.2086085302
 20
6866.9217109969
 30
0.0
 11
1579.2086085302
 21
6850.9217109968
 31
0.0
  0
ARC
  5
AD
330
1F
100
AcDbEntity
  8
0
  6
Continuous
 62
     7
370
    25
100
AcDbCircle
 10
1586.7086085303
 20
6784.9217109968
 30
0.0
 40
37.00000000000021
100
AcDbArc
 50
6.206267751
 51
173.793732249
  0
SPLINE
  5
AE
330
1F
100
AcDbEntity
  8
0
  6
Continuous
 62
     7
370
    25
100
AcDbSpline
210
0.0
220
0.0
230
1.0
 70
    24
 71
     3
 72
    13
 73
     9
 74
     0
 42
0.00000001
 43
0.00000001
 40
0.0
 40
0.0
 40
0.0
 40
0.0
 40
0.0182643221583875
 40
0.2335684078516803
 40
0.4492911466059604
 40
0.5866691202829882
 40
0.7988969923628517
 40
0.9999999999999999
 40
0.9999999999999999
 40
0.9999999999999999
 40
0.9999999999999999
 10
1623.491756845754
 20
6788.921710996839
 30
0.0
 10
1623.424013195327
 20
6788.921710996839
 30
0.0
 10
1622.557691607534
 20
6788.921710996839
 30
0.0
 10
1620.888127198437
 20
6788.921710996839
 30
0.0
 10
1619.034870216311
 20
6788.921710996839
 30
0.0
 10
1617.590170849508
 20
6788.921710996839
 30
0.0
 10
1616.572014349173
 20
6788.921710996839
 30
0.0
 10
1616.454764881154
 20
6788.921710996839
 30
0.0
 10
1616.397718040911
 20
6788.921710996839
 30
0.0
  0
SPLINE
  5
AF
330
1F
100
AcDbEntity
  8
0
  6
Continuous
 62
     7
370
    25
100
AcDbSpline
210
0.0
220
0.0
230
1.0
 70
    24
 71
     3
 72
    13
 73
     9
 74
     0
 42
0.00000001
 43
0.00000001
 40
0.0
 40
0.0
 40
0.0
 40
0.0
 40
0.1942976966541475
 40
0.4058985990976514
 40
0.6186836373358109
 40
0.752193938646924
 40
0.9681160135214284
 40
1.0
 40
1.0
 40
1.0
 40
1.0
 10
1557.009424156301
 20
6788.921710996839
 30
0.0
 10
1556.959236931615
 20
6788.921710996839
 30
0.0
 10
1556.854393052644
 20
6788.921710996839
 30
0.0
 10
1555.735249125629
 20
6788.921710996839
 30
0.0
 10
1554.221770006613
 20
6788.921710996839
 30
0.0
 10
1552.372761522529
 20
6788.921710996839
 30
0.0
 10
1550.961407066811
 20
6788.921710996839
 30
0.0
 10
1550.04355564103
 20
6788.921710996839
 30
0.0
 10
1549.925460214756
 20
6788.921710996839
 30
0.0
  0
SPLINE
  5
B0
330
1F
100
AcDbEntity
  8
0
  6
Continuous
 62
     7
370
    25
100
AcDbSpline
210
0.0
220
0.0
230
1.0
 70
    24
 71
     3
 72
    13
 73
     9
 74
     0
 42
0.00000001
 43
0.00000001
 40
0.0
 40
0.0
 40
0.0
 40
0.0
 40
0.068728851903946
 40
0.2808043854324123
 40
0.4111696613215589
 40
0.6266734584139018
 40
0.8421378728322406
 40
1.0
 40
1.0
 40
1.0
 40
1.0
 10
1616.429162025492
 20
6780.921710996839
 30
0.0
 10
1616.418316517781
 20
6780.921710996839
 30
0.0
 10
1616.374005198111
 20
6780.921710996839
 30
0.0
 10
1616.875477632272
 20
6780.921710996839
 30
0.0
 10
1617.939621706096
 20
6780.921710996839
 30
0.0
 10
1619.494124734465
 20
6780.921710996839
 30
0.0
 10
1621.524496490798
 20
6780.921710996839
 30
0.0
 10
1622.907113530499
 20
6780.921710996839
 30
0.0
 10
1623.491756845754
 20
6780.921710996839
 30
0.0
  0
ARC
  5
B1
330
1F
100
AcDbEntity
  8
0
  6
Continuous
 62
     7
370
    25
100
AcDbCircle
 10
1586.7086085303
 20
6784.9217109968
 30
0.0
 40
37.00000000000001
100
AcDbArc
 50
186.206267751
 51
353.793732249
  0
SPLINE
  5
B2
330
1F
100
AcDbEntity
  8
0
  6
Continuous
 62
     7
370
    25
100
AcDbSpline
210
0.0
220
0.0
230
1.0
 70
    24
 71
     3
 72
    13
 73
     9
 74
     0
 42
0.00000001
 43
0.00000001
 40
0.0
 40
0.0
 40
0.0
 40
0.0
 40
0.1123083562650359
 40
0.248970176155586
 40
0.4644415085157083
 40
0.6799544776839243
 40
0.8943510684255601
 40
1.0
 40
1.0
 40
1.0
 40
1.0
 10
1549.925460214756
 20
6780.921710996839
 30
0.0
 10
1550.341226855974
 20
6780.921710996839
 30
0.0
 10
1551.262916900653
 20
6780.921710996839
 30
0.0
 10
1552.92339379427
 20
6780.921710996839
 30
0.0
 10
1554.750792376138
 20
6780.921710996839
 30
0.0
 10
1556.247586688395
 20
6780.921710996839
 30
0.0
 10
1557.005672703382
 20
6780.921710996839
 30
0.0
 10
1556.971935160358
 20
6780.921710996839
 30
0.0
 10
1556.960798196627
 20
6780.921710996839
 30
0.0
  0
ARC
  5
B3
330
1F
100
AcDbEntity
  8
0
  6
Continuous
 62
     7
370
    25
100
AcDbCircle
 10
1586.7086085303
 20
6784.9217109968
 30
0.0
 40
41.00000000000018
100
AcDbArc
 50
5.5987378162
 51
174.4012621838
  0
LINE
  5
B4
330
1F
100
AcDbEntity
  8
0
  6
Continuous
 62
     7
370
    25
100
AcDbLine
 10
1549.9254602148
 20
6788.9217109968
 30
0.0
 11
1545.904197004
 21
6788.9217109968
 31
0.0
  0
LINE
  5
B5
330
1F
100
AcDbEntity
  8
0
  6
Continuous
 62
     7
370
    25
100
AcDbLine
 10
1627.5130200565
 20
6788.9217109968
 30
0.0
 11
1623.4917568458
 21
6788.9217109968
 31
0.0
  0
ARC
  5
B6
330
1F
100
AcDbEntity
  8
0
  6
Continuous
 62
     7
370
    25
100
AcDbCircle
 10
1586.7086085303
 20
6784.9217109968
 30
0.0
 40
41.0
100
AcDbArc
 50
185.5987378162
 51
354.4012621838
  0
LINE
  5
B7
330
1F
100
AcDbEntity
  8
0
  6
Continuous
 62
     7
370
    25
100
AcDbLine
 10
1623.4917568458
 20
6780.9217109968
 30
0.0
 11
1627.5130200565
 21
6780.9217109968
 31
0.0
  0
LINE
  5
B8
330
1F
100
AcDbEntity
  8
0
  6
Continuous
 62
     7
370
    25
100
AcDbLine
 10
1545.904197004
 20
6780.9217109968
 30
0.0
 11
1549.9254602148
 21
6780.9217109968
 31
0.0
  0
LINE
  5
B9
330
1F
100
AcDbEntity
  8
0
  6
Continuous
 62
     7
370
    25
100
AcDbLine
 10
1545.904197004
 20
6780.9217109968
 30
0.0
 11
1506.7086085303
 21
6780.9217109968
 31
0.0
  0
LINE
  5
BA
330
1F
100
AcDbEntity
  8
0
  6
Continuous
 62
     7
370
    25
100
AcDbLine
 10
1506.7086085303
 20
6780.9217109968
 30
0.0
 11
1506.7086085303
 21
6788.9217109968
 31
0.0
  0
LINE
  5
BB
330
1F
100
AcDbEntity
  8
0
  6
Continuous
 62
     7
370
    25
100
AcDbLine
 10
1554.9764710356
 20
6788.9217109968
 30
0.0
 11
1554.9764710356
 21
6780.9217109968
 31
0.0
  0
LINE
  5
BC
330
1F
100
AcDbEntity
  8
0
  6
Continuous
 62
     7
370
    25
100
AcDbLine
 10
1506.7086085303
 20
6788.9217109968
 30
0.0
 11
1545.904197004
 21
6788.9217109968
 31
0.0
  0
LINE
  5
BD
330
1F
100
AcDbEntity
  8
0
  6
Continuous
 62
     7
370
    25
100
AcDbLine
 10
1627.5130200565
 20
6788.9217109968
 30
0.0
 11
1666.7086085303
 21
6788.9217109968
 31
0.0
  0
LINE
  5
BE
330
1F
100
AcDbEntity
  8
0
  6
Continuous
 62
     7
370
    25
100
AcDbLine
 10
1666.7086085303
 20
6788.9217109968
 30
0.0
 11
1666.7086085303
 21
6780.9217109968
 31
0.0
  0
LINE
  5
BF
330
1F
100
AcDbEntity
  8
0
  6
Continuous
 62
     7
370
    25
100
AcDbLine
 10
1666.7086085303
 20
6780.9217109968
 30
0.0
 11
1627.5130200565
 21
6780.9217109968
 31
0.0
  0
LINE
  5
C0
330
1F
100
AcDbEntity
  8
0
  6
Continuous
 62
     7
370
    25
100
AcDbLine
 10
1618.4407460249
 20
6780.9217109968
 30
0.0
 11
1618.4407460249
 21
6788.9217109968
 31
0.0
  0
SPLINE
  5
C1
330
1F
100
AcDbEntity
  8
0
  6
Continuous
 62
     7
370
    25
100
AcDbSpline
210
0.0
220
0.0
230
1.0
 70
    24
 71
     3
 72
    13
 73
     9
 74
     0
 42
0.00000001
 43
0.00000001
 40
0.0
 40
0.0
 40
0.0
 40
0.0
 40
0.2116312622098059
 40
0.3406257452806878
 40
0.5556512031336075
 40
0.7706131343060005
 40
0.9870639391933446
 40
1.0
 40
1.0
 40
1.0
 40
1.0
 10
1613.410668817984
 20
6780.921710996839
 30
0.0
 10
1613.442960425444
 20
6780.921710996839
 30
0.0
 10
1613.494934565475
 20
6780.921710996839
 30
0.0
 10
1613.880866744616
 20
6780.921710996839
 30
0.0
 10
1614.462012108491
 20
6780.921710996839
 30
0.0
 10
1615.359166766625
 20
6780.92171099684
 30
0.0
 10
1616.060037391905
 20
6780.921710996838
 30
0.0
 10
1616.420422442236
 20
6780.921710996839
 30
0.0
 10
1616.440746024891
 20
6780.921710996839
 30
0.0
  0
SPLINE
  5
C2
330
1F
100
AcDbEntity
  8
0
  6
Continuous
 62
     7
370
    25
100
AcDbSpline
210
0.0
220
0.0
230
1.0
 70
    24
 71
     3
 72
    13
 73
     9
 74
     0
 42
0.00000001
 43
0.00000001
 40
0.0
 40
0.0
 40
0.0
 40
0.0
 40
0.1268010067953889
 40
0.2652987387519016
 40
0.4810517933237274
 40
0.6968662608070697
 40
0.9111064203663031
 40
1.0
 40
1.0
 40
1.0
 40
1.0
 10
1556.976471035618
 20
6780.921710996839
 30
0.0
 10
1557.175979361812
 20
6780.921710996839
 30
0.0
 10
1557.59339960671
 20
6780.921710996839
 30
0.0
 10
1558.319005820222
 20
6780.921710996839
 30
0.0
 10
1559.088502834701
 20
6780.921710996839
 30
0.0
 10
1559.701604692754
 20
6780.921710996839
 30
0.0
 10
1560.007879738451
 20
6780.921710996839
 30
0.0
 10
1559.974907917836
 20
6780.921710996839
 30
0.0
 10
1559.965238973794
 20
6780.921710996839
 30
0.0
  0
SPLINE
  5
C3
330
1F
100
AcDbEntity
  8
0
  6
Continuous
 62
     7
370
    25
100
AcDbSpline
210
0.0
220
0.0
230
1.0
 70
    24
 71
     3
 72
    13
 73
     9
 74
     0
 42
0.00000001
 43
0.00000001
 40
0.0
 40
0.0
 40
0.0
 40
0.0
 40
0.1808526799198804
 40
0.3916861860700202
 40
0.6037975081670276
 40
0.7362038813296535
 40
0.9530135516130765
 40
1.0
 40
1.0
 40
1.0
 40
1.0
 10
1559.98581187973
 20
6788.921710996839
 30
0.0
 10
1559.971201941821
 20
6788.921710996839
 30
0.0
 10
1559.939560105709
 20
6788.921710996839
 30
0.0
 10
1559.489462725301
 20
6788.921710996839
 30
0.0
 10
1558.862333005412
 20
6788.921710996839
 30
0.0
 10
1558.08642392326
 20
6788.921710996839
 30
0.0
 10
1557.466148959192
 20
6788.92171099684
 30
0.0
 10
1557.050504230916
 20
6788.921710996839
 30
0.0
 10
1556.976471035618
 20
6788.921710996839
 30
0.0
  0
SPLINE
  5
C4
330
1F
100
AcDbEntity
  8
0
  6
Continuous
 62
     7
370
    25
100
AcDbSpline
210
0.0
220
0.0
230
1.0
 70
    24
 71
     3
 72
    13
 73
     9
 74
     0
 42
0.00000001
 43
0.00000001
 40
0.0
 40
0.0
 40
0.0
 40
0.0
 40
0.0867491482877773
 40
0.3035078745653211
 40
0.5201535350004423
 40
0.657873499846675
 40
0.8692472714246291
 40
1.0
 40
1.0
 40
1.0
 40
1.0
 10
1616.440746024892
 20
6788.921710996839
 30
0.0
 10
1616.3039592022
 20
6788.921710996839
 30
0.0
 10
1615.825385306744
 20
6788.921710996839
 30
0.0
 10
1615.026998412347
 20
6788.921710996839
 30
0.0
 10
1614.288636367099
 20
6788.921710996839
 30
0.0
 10
1613.752310920469
 20
6788.921710996839
 30
0.0
 10
1613.435801200138
 20
6788.921710996839
 30
0.0
 10
1613.446587910566
 20
6788.921710996839
 30
0.0
 10
1613.45071033844
 20
6788.921710996839
 30
0.0
  0
LINE
  5
C5
330
1F
100
AcDbEntity
  8
0
  6
Continuous
 62
     7
370
    25
100
AcDbLine
 10
1594.2141620297
 20
6850.9217109968
 30
0.0
 11
1594.2141620297
 21
6825.2288650351
 31
0.0
  0
LINE
  5
C6
330
1F
100
AcDbEntity
  8
0
  6
Continuous
 62
     7
370
    25
100
AcDbLine
 10
1594.2141620297
 20
6850.9217109968
 30
0.0
 11
1601.7197155292
 21
6850.9217109968
 31
0.0
  0
LINE
  5
C7
330
1F
100
AcDbEntity
  8
0
  6
Continuous
 62
     7
370
    25
100
AcDbLine
 10
1601.7197155292
 20
6850.9217109968
 30
0.0
 11
1601.7197155292
 21
6823.07491095
 31
0.0
  0
LINE
  5
C8
330
1F
100
AcDbEntity
  8
0
  6
Continuous
 62
     7
370
    25
100
AcDbLine
 10
1579.2030550308
 20
6850.9217109968
 30
0.0
 11
1579.2030550308
 21
6825.2288650351
 31
0.0
  0
LINE
  5
C9
330
1F
100
AcDbEntity
  8
0
  6
Continuous
 62
     7
370
    25
100
AcDbLine
 10
1579.2030550308
 20
6850.9217109968
 30
0.0
 11
1594.2141620297
 21
6850.9217109968
 31
0.0
  0
LINE
  5
CA
330
1F
100
AcDbEntity
  8
0
  6
Continuous
 62
     7
370
    25
100
AcDbLine
 10
1571.6975015313
 20
6850.9217109968
 30
0.0
 11
1571.6975015313
 21
6823.07491095
 31
0.0
  0
LINE
  5
CB
330
1F
100
AcDbEntity
  8
0
  6
Continuous
 62
     7
370
    25
100
AcDbLine
 10
1571.6975015313
 20
6850.9217109968
 30
0.0
 11
1579.2030550308
 21
6850.9217109968
 31
0.0
  0
LINE
  5
CC
330
1F
100
AcDbEntity
  8
0
  6
Continuous
 62
     7
370
    25
100
AcDbLine
 10
1656.7086085303
 20
6773.9217109968
 30
0.0
 11
1644.7086085303
 21
6773.9217109968
 31
0.0
  0
LINE
  5
CD
330
1F
100
AcDbEntity
  8
0
  6
Continuous
 62
     7
370
    25
100
AcDbLine
 10
1528.7086085303
 20
6773.9217109968
 30
0.0
 11
1516.7086085303
 21
6773.9217109968
 31
0.0
  0
LINE
  5
CE
330
1F
100
AcDbEntity
  8
0
  6
Continuous
 62
     7
370
    25
100
AcDbLine
 10
1655.7086085303
 20
6810.9217109968
 30
0.0
 11
1645.7086085303
 21
6810.9217109968
 31
0.0
  0
LINE
  5
CF
330
1F
100
AcDbEntity
  8
0
  6
Continuous
 62
     7
370
    25
100
AcDbLine
 10
1517.7086085303
 20
6810.9217109968
 30
0.0
 11
1527.7086085303
 21
6810.9217109968
 31
0.0
  0
ARC
  5
D0
330
1F
100
AcDbEntity
  8
0
  6
Continuous
 62
     7
370
    25
100
AcDbCircle
 10
1408.7086085303
 20
6784.9217109968
 30
0.0
 40
57.00000000000069
100
AcDbArc
 50
184.0240638894
 51
355.9759361106
  0
SPLINE
  5
D1
330
1F
100
AcDbEntity
  8
0
  6
Continuous
 62
     7
370
    25
100
AcDbSpline
210
0.0
220
0.0
230
1.0
 70
    24
 71
     3
 72
    13
 73
     9
 74
     0
 42
0.00000001
 43
0.00000001
 40
0.0
 40
0.0
 40
0.0
 40
0.0
 40
0.143629492544455
 40
0.3589919333848288
 40
0.5742476886567408
 40
0.7890362718423144
 40
0.923191220413298
 40
1.0
 40
1.0
 40
1.0
 40
1.0
 10
1351.849132626936
 20
6780.921710996839
 30
0.0
 10
1352.379840802379
 20
6780.921710996839
 30
0.0
 10
1353.70630899906
 20
6780.921710996839
 30
0.0
 10
1355.700871822431
 20
6780.921710996839
 30
0.0
 10
1357.515037309467
 20
6780.921710996839
 30
0.0
 10
1358.509460875704
 20
6780.921710996839
 30
0.0
 10
1358.920555696173
 20
6780.921710996839
 30
0.0
 10
1358.886927936907
 20
6780.921710996839
 30
0.0
 10
1358.874684566106
 20
6780.921710996839
 30
0.0
  0
SPLINE
  5
D2
330
1F
100
AcDbEntity
  8
0
  6
Continuous
 62
     7
370
    25
100
AcDbSpline
210
0.0
220
0.0
230
1.0
 70
    24
 71
     3
 72
    13
 73
     9
 74
     0
 42
0.00000001
 43
0.00000001
 40
0.0
 40
0.0
 40
0.0
 40
0.0
 40
0.1313083640452031
 40
0.3448867624506894
 40
0.5584479789291598
 40
0.7724495343311997
 40
0.9870254306076457
 40
1.0
 40
1.0
 40
1.0
 40
1.0
 10
1458.487478669218
 20
6780.921710996839
 30
0.0
 10
1458.514707446289
 20
6780.921710996839
 30
0.0
 10
1458.586224937485
 20
6780.921710996839
 30
0.0
 10
1459.382381043319
 20
6780.921710996839
 30
0.0
 10
1460.946183487146
 20
6780.921710996839
 30
0.0
 10
1463.040061281325
 20
6780.921710996839
 30
0.0
 10
1464.678891108003
 20
6780.921710996839
 30
0.0
 10
1465.52011894631
 20
6780.921710996839
 30
0.0
 10
1465.568084433573
 20
6780.921710996839
 30
0.0
  0
SPLINE
  5
D3
330
1F
100
AcDbEntity
  8
0
  6
Continuous
 62
     7
370
    25
100
AcDbSpline
210
0.0
220
0.0
230
1.0
 70
    24
 71
     3
 72
    13
 73
     9
 74
     0
 42
0.00000001
 43
0.00000001
 40
0.0
 40
0.0
 40
0.0
 40
0.0
 40
0.077435651082792
 40
0.2913552831730933
 40
0.505259495278485
 40
0.7195724882586477
 40
0.9344981429470964
 40
1.0
 40
1.0
 40
1.0
 40
1.0
 10
1358.893795349501
 20
6788.921710996839
 30
0.0
 10
1358.89774944802
 20
6788.921710996839
 30
0.0
 10
1358.912626929871
 20
6788.921710996839
 30
0.0
 10
1358.30741789814
 20
6788.921710996839
 30
0.0
 10
1356.910899957496
 20
6788.921710996839
 30
0.0
 10
1354.920652514704
 20
6788.921710996839
 30
0.0
 10
1353.1253220551
 20
6788.921710996839
 30
0.0
 10
1352.090779578704
 20
6788.921710996839
 30
0.0
 10
1351.849132626936
 20
6788.921710996839
 30
0.0
  0
ARC
  5
D4
330
1F
100
AcDbEntity
  8
0
  6
Continuous
 62
     7
370
    25
100
AcDbCircle
 10
1408.7086085303
 20
6784.9217109968
 30
0.0
 40
57.00000000000082
100
AcDbArc
 50
4.0240638894
 51
175.9759361106
  0
SPLINE
  5
D5
330
1F
100
AcDbEntity
  8
0
  6
Continuous
 62
     7
370
    25
100
AcDbSpline
210
0.0
220
0.0
230
1.0
 70
    24
 71
     3
 72
    13
 73
     9
 74
     0
 42
0.00000001
 43
0.00000001
 40
0.0
 40
0.0
 40
0.0
 40
0.0
 40
0.0913704615593775
 40
0.3066477062920603
 40
0.5219098636007223
 40
0.7367831426478699
 40
0.8711864102193241
 40
1.0
 40
1.0
 40
1.0
 40
1.0
 10
1465.568084433573
 20
6788.921710996839
 30
0.0
 10
1465.23084876913
 20
6788.921710996839
 30
0.0
 10
1464.099054738361
 20
6788.921710996839
 30
0.0
 10
1462.228864308524
 20
6788.921710996839
 30
0.0
 10
1460.288903153962
 20
6788.921710996839
 30
0.0
 10
1459.141900149077
 20
6788.921710996839
 30
0.0
 10
1458.545180712672
 20
6788.921710996839
 30
0.0
 10
1458.568995547468
 20
6788.921710996839
 30
0.0
 10
1458.580650098741
 20
6788.921710996839
 30
0.0
  0
ARC
  5
D6
330
1F
100
AcDbEntity
  8
0
  6
Continuous
 62
     7
370
    25
100
AcDbCircle
 10
1408.7086085303
 20
6784.9217109968
 30
0.0
 40
61.00000000000065
100
AcDbArc
 50
183.7597980573
 51
356.2402019427
  0
LINE
  5
D7
330
1F
100
AcDbEntity
  8
0
  6
Continuous
 62
     7
370
    25
100
AcDbLine
 10
1465.5680844336
 20
6780.9217109968
 30
0.0
 11
1469.5773197044
 21
6780.9217109968
 31
0.0
  0
LINE
  5
D8
330
1F
100
AcDbEntity
  8
0
  6
Continuous
 62
     7
370
    25
100
AcDbLine
 10
1347.8398973561
 20
6780.9217109968
 30
0.0
 11
1351.8491326269
 21
6780.9217109968
 31
0.0
  0
ARC
  5
D9
330
1F
100
AcDbEntity
  8
0
  6
Continuous
 62
     7
370
    25
100
AcDbCircle
 10
1408.7086085303
 20
6784.9217109968
 30
0.0
 40
61.00000000000077
100
AcDbArc
 50
3.7597980573
 51
176.2402019427
  0
LINE
  5
DA
330
1F
100
AcDbEntity
  8
0
  6
Continuous
 62
     7
370
    25
100
AcDbLine
 10
1351.8491326269
 20
6788.9217109968
 30
0.0
 11
1347.8398973561
 21
6788.9217109968
 31
0.0
  0
LINE
  5
DB
330
1F
100
AcDbEntity
  8
0
  6
Continuous
 62
     7
370
    25
100
AcDbLine
 10
1469.5773197044
 20
6788.9217109968
 30
0.0
 11
1465.5680844336
 21
6788.9217109968
 31
0.0
  0
LINE
  5
DC
330
1F
100
AcDbEntity
  8
0
  6
Continuous
 62
     7
370
    25
100
AcDbLine
 10
1469.5773197044
 20
6780.9217109968
 30
0.0
 11
1508.7086085303
 21
6780.9217109968
 31
0.0
  0
LINE
  5
DD
330
1F
100
AcDbEntity
  8
0
  6
Continuous
 62
     7
370
    25
100
AcDbLine
 10
1460.5483517078
 20
6788.9217109968
 30
0.0
 11
1460.5483517078
 21
6780.9217109968
 31
0.0
  0
LINE
  5
DE
330
1F
100
AcDbEntity
  8
0
  6
Continuous
 62
     7
370
    25
100
AcDbLine
 10
1508.7086085303
 20
6788.9217109968
 30
0.0
 11
1469.5773197044
 21
6788.9217109968
 31
0.0
  0
LINE
  5
DF
330
1F
100
AcDbEntity
  8
0
  6
Continuous
 62
     7
370
    25
100
AcDbLine
 10
1508.7086085303
 20
6780.9217109968
 30
0.0
 11
1508.7086085303
 21
6788.9217109968
 31
0.0
  0
LINE
  5
E0
330
1F
100
AcDbEntity
  8
0
  6
Continuous
 62
     7
370
    25
100
AcDbLine
 10
1308.7086085303
 20
6780.9217109968
 30
0.0
 11
1347.8398973561
 21
6780.9217109968
 31
0.0
  0
LINE
  5
E1
330
1F
100
AcDbEntity
  8
0
  6
Continuous
 62
     7
370
    25
100
AcDbLine
 10
1308.7086085303
 20
6788.9217109968
 30
0.0
 11
1308.7086085303
 21
6780.9217109968
 31
0.0
  0
LINE
  5
E2
330
1F
100
AcDbEntity
  8
0
  6
Continuous
 62
     7
370
    25
100
AcDbLine
 10
1347.8398973561
 20
6788.9217109968
 30
0.0
 11
1308.7086085303
 21
6788.9217109968
 31
0.0
  0
LINE
  5
E3
330
1F
100
AcDbEntity
  8
0
  6
Continuous
 62
     7
370
    25
100
AcDbLine
 10
1356.8688653527
 20
6780.9217109968
 30
0.0
 11
1356.8688653527
 21
6788.9217109968
 31
0.0
  0
SPLINE
  5
E4
330
1F
100
AcDbEntity
  8
0
  6
Continuous
 62
     7
370
    25
100
AcDbSpline
210
0.0
220
0.0
230
1.0
 70
    24
 71
     3
 72
    12
 73
     8
 74
     0
 42
0.00000001
 43
0.00000001
 40
0.0
 40
0.0
 40
0.0
 40
0.0
 40
0.1901077015489664
 40
0.4024029504201515
 40
0.6151188750619135
 40
0.8285454721536439
 40
1.0
 40
1.0
 40
1.0
 40
1.0
 10
1361.863123935359
 20
6788.921710996839
 30
0.0
 10
1361.846050844739
 20
6788.921710996839
 30
0.0
 10
1361.809912056137
 20
6788.921710996839
 30
0.0
 10
1361.346582600478
 20
6788.921710996839
 30
0.0
 10
1360.619705982557
 20
6788.921710996839
 30
0.0
 10
1359.747843650706
 20
6788.921710996839
 30
0.0
 10
1359.139753634505
 20
6788.921710996839
 30
0.0
 10
1358.868865352746
 20
6788.921710996839
 30
0.0
  0
SPLINE
  5
E5
330
1F
100
AcDbEntity
  8
0
  6
Continuous
 62
     7
370
    25
100
AcDbSpline
210
0.0
220
0.0
230
1.0
 70
    24
 71
     3
 72
    13
 73
     9
 74
     0
 42
0.00000001
 43
0.00000001
 40
0.0
 40
0.0
 40
0.0
 40
0.0
 40
0.1162146370570107
 40
0.3330544225099062
 40
0.5497369572315933
 40
0.7658458212356748
 40
0.9812111335298038
 40
1.0
 40
1.0
 40
1.0
 40
1.0
 10
1458.548351707764
 20
6788.921710996839
 30
0.0
 10
1458.367058842645
 20
6788.921710996839
 30
0.0
 10
1457.847499585512
 20
6788.921710996839
 30
0.0
 10
1457.027508194042
 20
6788.921710996839
 30
0.0
 10
1456.22222873276
 20
6788.92171099684
 30
0.0
 10
1455.716391196887
 20
6788.921710996839
 30
0.0
 10
1455.495406090634
 20
6788.921710996839
 30
0.0
 10
1455.54751241835
 20
6788.921710996839
 30
0.0
 10
1455.551693504671
 20
6788.921710996839
 30
0.0
  0
SPLINE
  5
E6
330
1F
100
AcDbEntity
  8
0
  6
Continuous
 62
     7
370
    25
100
AcDbSpline
210
0.0
220
0.0
230
1.0
 70
    24
 71
     3
 72
    13
 73
     9
 74
     0
 42
0.00000001
 43
0.00000001
 40
0.0
 40
0.0
 40
0.0
 40
0.0
 40
0.107721155654708
 40
0.321318015720887
 40
0.5351659635205988
 40
0.7496609671927279
 40
0.9648740344404168
 40
1.0
 40
1.0
 40
1.0
 40
1.0
 10
1455.580626181683
 20
6780.921710996839
 30
0.0
 10
1455.572549541213
 20
6780.921710996839
 30
0.0
 10
1455.548457986741
 20
6780.921710996839
 30
0.0
 10
1455.875761098451
 20
6780.921710996839
 30
0.0
 10
1456.502614494213
 20
6780.921710996839
 30
0.0
 10
1457.376445478676
 20
6780.921710996839
 30
0.0
 10
1458.101271298853
 20
6780.921710996839
 30
0.0
 10
1458.49333925042
 20
6780.921710996839
 30
0.0
 10
1458.548351707764
 20
6780.921710996839
 30
0.0
  0
SPLINE
  5
E7
330
1F
100
AcDbEntity
  8
0
  6
Continuous
 62
     7
370
    25
100
AcDbSpline
210
0.0
220
0.0
230
1.0
 70
    24
 71
     3
 72
    13
 73
     9
 74
     0
 42
0.00000001
 43
0.00000001
 40
0.0
 40
0.0
 40
0.0
 40
0.0
 40
0.0348448104212912
 40
0.2506117401650091
 40
0.4663964296399231
 40
0.6817470943079907
 40
0.8963811306165805
 40
1.0
 40
1.0
 40
1.0
 40
1.0
 10
1358.868865352749
 20
6780.921710996839
 30
0.0
 10
1358.923411206295
 20
6780.921710996839
 30
0.0
 10
1359.315717294651
 20
6780.921710996839
 30
0.0
 10
1360.042678242713
 20
6780.921710996839
 30
0.0
 10
1360.920311198045
 20
6780.921710996839
 30
0.0
 10
1361.547636086554
 20
6780.921710996839
 30
0.0
 10
1361.871296011369
 20
6780.921710996839
 30
0.0
 10
1361.845146581445
 20
6780.921710996839
 30
0.0
 10
1361.83663267846
 20
6780.921710996839
 30
0.0
  0
LINE
  5
E8
330
1F
100
AcDbEntity
  8
0
  6
Continuous
 62
     7
370
    25
100
AcDbLine
 10
1416.2141620297
 20
6852.9217109968
 30
0.0
 11
1416.2141620297
 21
6845.4582013697
 31
0.0
  0
LINE
  5
E9
330
1F
100
AcDbEntity
  8
0
  6
Continuous
 62
     7
370
    25
100
AcDbLine
 10
1416.2141620297
 20
6852.9217109968
 30
0.0
 11
1423.7197155292
 21
6852.9217109968
 31
0.0
  0
LINE
  5
EA
330
1F
100
AcDbEntity
  8
0
  6
Continuous
 62
     7
370
    25
100
AcDbLine
 10
1423.7197155292
 20
6852.9217109968
 30
0.0
 11
1423.7197155292
 21
6844.045874134
 31
0.0
  0
LINE
  5
EB
330
1F
100
AcDbEntity
  8
0
  6
Continuous
 62
     7
370
    25
100
AcDbLine
 10
1401.2030550308
 20
6852.9217109968
 30
0.0
 11
1401.2030550308
 21
6845.4582013697
 31
0.0
  0
LINE
  5
EC
330
1F
100
AcDbEntity
  8
0
  6
Continuous
 62
     7
370
    25
100
AcDbLine
 10
1401.2030550308
 20
6852.9217109968
 30
0.0
 11
1416.2141620297
 21
6852.9217109968
 31
0.0
  0
LINE
  5
ED
330
1F
100
AcDbEntity
  8
0
  6
Continuous
 62
     7
370
    25
100
AcDbLine
 10
1393.6975015313
 20
6852.9217109968
 30
0.0
 11
1393.6975015313
 21
6844.045874134
 31
0.0
  0
LINE
  5
EE
330
1F
100
AcDbEntity
  8
0
  6
Continuous
 62
     7
370
    25
100
AcDbLine
 10
1393.6975015313
 20
6852.9217109968
 30
0.0
 11
1401.2030550308
 21
6852.9217109968
 31
0.0
  0
LINE
  5
EF
330
1F
100
AcDbEntity
  8
0
  6
Continuous
 62
     7
370
    25
100
AcDbLine
 10
1492.7086085303
 20
6773.9217109968
 30
0.0
 11
1486.7086085303
 21
6773.9217109968
 31
0.0
  0
LINE
  5
F0
330
1F
100
AcDbEntity
  8
0
  6
Continuous
 62
     7
370
    25
100
AcDbLine
 10
1498.7086085303
 20
6773.9217109968
 30
0.0
 11
1492.7086085303
 21
6773.9217109968
 31
0.0
  0
LINE
  5
F1
330
1F
100
AcDbEntity
  8
0
  6
Continuous
 62
     7
370
    25
100
AcDbLine
 10
1324.7086085303
 20
6773.9217109968
 30
0.0
 11
1318.7086085303
 21
6773.9217109968
 31
0.0
  0
LINE
  5
F2
330
1F
100
AcDbEntity
  8
0
  6
Continuous
 62
     7
370
    25
100
AcDbLine
 10
1330.7086085303
 20
6773.9217109968
 30
0.0
 11
1324.7086085303
 21
6773.9217109968
 31
0.0
  0
LINE
  5
F3
330
1F
100
AcDbEntity
  8
0
  6
Continuous
 62
     7
370
    25
100
AcDbLine
 10
1487.7086085303
 20
6810.9217109968
 30
0.0
 11
1497.7086085303
 21
6810.9217109968
 31
0.0
  0
LINE
  5
F4
330
1F
100
AcDbEntity
  8
0
  6
Continuous
 62
     7
370
    25
100
AcDbLine
 10
1329.7086085303
 20
6810.9217109968
 30
0.0
 11
1319.7086085303
 21
6810.9217109968
 31
0.0
  0
LINE
  5
F5
330
1F
100
AcDbEntity
  8
0
  6
Continuous
 62
     7
370
    25
100
AcDbLine
 10
908.7086085302
 20
6439.8453197168
 30
0.0
 11
914.7086085302
 21
6439.8453197168
 31
0.0
  0
LINE
  5
F6
330
1F
100
AcDbEntity
  8
0
  6
Continuous
 62
     7
370
    25
100
AcDbLine
 10
908.7086085302
 20
6439.8453197168
 30
0.0
 11
908.7086085302
 21
6685.8453197168
 31
0.0
  0
LINE
  5
F7
330
1F
100
AcDbEntity
  8
0
  6
Continuous
 62
     7
370
    25
100
AcDbLine
 10
908.7086085302
 20
6685.8453197168
 30
0.0
 11
914.7086085302
 21
6685.8453197168
 31
0.0
  0
LINE
  5
F8
330
1F
100
AcDbEntity
  8
0
  6
Continuous
 62
     7
370
    25
100
AcDbLine
 10
914.7086085302
 20
6591.8453197168
 30
0.0
 11
914.7086085302
 21
6685.8453197168
 31
0.0
  0
LINE
  5
F9
330
1F
100
AcDbEntity
  8
0
  6
Continuous
 62
     7
370
    25
100
AcDbLine
 10
1298.7086085302
 20
6591.8453197168
 30
0.0
 11
914.7086085302
 21
6591.8453197168
 31
0.0
  0
LINE
  5
FA
330
1F
100
AcDbEntity
  8
0
  6
Continuous
 62
     7
370
    25
100
AcDbLine
 10
1298.7086085302
 20
6591.8453197168
 30
0.0
 11
1298.7086085302
 21
6579.8453197168
 31
0.0
  0
LINE
  5
FB
330
1F
100
AcDbEntity
  8
0
  6
Continuous
 62
     7
370
    25
100
AcDbLine
 10
1298.7086085302
 20
6579.8453197168
 30
0.0
 11
1254.6246883133
 21
6579.8453197168
 31
0.0
  0
LINE
  5
FC
330
1F
100
AcDbEntity
  8
0
  6
Continuous
 62
     7
370
    25
100
AcDbLine
 10
1242.7925287472
 20
6579.8453197168
 30
0.0
 11
914.7086085302
 21
6579.8453197168
 31
0.0
  0
LINE
  5
FD
330
1F
100
AcDbEntity
  8
0
  6
Continuous
 62
     7
370
    25
100
AcDbLine
 10
914.7086085302
 20
6545.8453197168
 30
0.0
 11
914.7086085302
 21
6579.8453197168
 31
0.0
  0
LINE
  5
FE
330
1F
100
AcDbEntity
  8
0
  6
Continuous
 62
     7
370
    25
100
AcDbLine
 10
1298.7086085302
 20
6545.8453197168
 30
0.0
 11
1254.6246883134
 21
6545.8453197168
 31
0.0
  0
LINE
  5
FF
330
1F
100
AcDbEntity
  8
0
  6
Continuous
 62
     7
370
    25
100
AcDbLine
 10
1242.7925287471
 20
6545.8453197168
 30
0.0
 11
914.7086085302
 21
6545.8453197168
 31
0.0
  0
LINE
  5
100
330
1F
100
AcDbEntity
  8
0
  6
Continuous
 62
     7
370
    25
100
AcDbLine
 10
1298.7086085302
 20
6545.8453197168
 30
0.0
 11
1298.7086085302
 21
6533.8453197168
 31
0.0
  0
LINE
  5
101
330
1F
100
AcDbEntity
  8
0
  6
Continuous
 62
     7
370
    25
100
AcDbLine
 10
1298.7086085302
 20
6533.8453197168
 30
0.0
 11
914.7086085302
 21
6533.8453197168
 31
0.0
  0
LINE
  5
102
330
1F
100
AcDbEntity
  8
0
  6
Continuous
 62
     7
370
    25
100
AcDbLine
 10
914.7086085302
 20
6439.8453197168
 30
0.0
 11
914.7086085302
 21
6533.8453197168
 31
0.0
  0
LINE
  5
103
330
1F
100
AcDbEntity
  8
0
  6
Continuous
 62
     7
370
    25
100
AcDbLine
 10
1298.7086085302
 20
6597.8453197168
 30
0.0
 11
914.7086085302
 21
6597.8453197168
 31
0.0
  0
LINE
  5
104
330
1F
100
AcDbEntity
  8
0
  6
Continuous
 62
     7
370
    25
100
AcDbLine
 10
1298.7086085302
 20
6597.8453197168
 30
0.0
 11
1298.7086085302
 21
6591.8453197168
 31
0.0
  0
LINE
  5
105
330
1F
100
AcDbEntity
  8
0
  6
Continuous
 62
     7
370
    25
100
AcDbLine
 10
1298.7086085302
 20
6533.8453197168
 30
0.0
 11
1298.7086085302
 21
6527.8453197168
 31
0.0
  0
LINE
  5
106
330
1F
100
AcDbEntity
  8
0
  6
Continuous
 62
     7
370
    25
100
AcDbLine
 10
1298.7086085302
 20
6527.8453197168
 30
0.0
 11
914.7086085302
 21
6527.8453197168
 31
0.0
  0
LINE
  5
107
330
1F
100
AcDbEntity
  8
0
  6
Continuous
 62
     7
370
    25
100
AcDbLine
 10
1908.7086085302
 20
6685.8453197168
 30
0.0
 11
1902.7086085302
 21
6685.8453197168
 31
0.0
  0
LINE
  5
108
330
1F
100
AcDbEntity
  8
0
  6
Continuous
 62
     7
370
    25
100
AcDbLine
 10
1908.7086085302
 20
6685.8453197168
 30
0.0
 11
1908.7086085302
 21
6439.8453197168
 31
0.0
  0
LINE
  5
109
330
1F
100
AcDbEntity
  8
0
  6
Continuous
 62
     7
370
    25
100
AcDbLine
 10
1908.7086085302
 20
6439.8453197168
 30
0.0
 11
1902.7086085302
 21
6439.8453197168
 31
0.0
  0
LINE
  5
10A
330
1F
100
AcDbEntity
  8
0
  6
Continuous
 62
     7
370
    25
100
AcDbLine
 10
1902.7086085302
 20
6533.8453197168
 30
0.0
 11
1902.7086085302
 21
6439.8453197168
 31
0.0
  0
LINE
  5
10B
330
1F
100
AcDbEntity
  8
0
  6
Continuous
 62
     7
370
    25
100
AcDbLine
 10
1518.7086085302
 20
6533.8453197168
 30
0.0
 11
1902.7086085302
 21
6533.8453197168
 31
0.0
  0
LINE
  5
10C
330
1F
100
AcDbEntity
  8
0
  6
Continuous
 62
     7
370
    25
100
AcDbLine
 10
1518.7086085302
 20
6533.8453197168
 30
0.0
 11
1518.7086085302
 21
6545.8453197168
 31
0.0
  0
LINE
  5
10D
330
1F
100
AcDbEntity
  8
0
  6
Continuous
 62
     7
370
    25
100
AcDbLine
 10
1518.7086085302
 20
6545.8453197168
 30
0.0
 11
1562.7925287472
 21
6545.8453197168
 31
0.0
  0
LINE
  5
10E
330
1F
100
AcDbEntity
  8
0
  6
Continuous
 62
     7
370
    25
100
AcDbLine
 10
1574.6246883133
 20
6545.8453197168
 30
0.0
 11
1902.7086085302
 21
6545.8453197168
 31
0.0
  0
LINE
  5
10F
330
1F
100
AcDbEntity
  8
0
  6
Continuous
 62
     7
370
    25
100
AcDbLine
 10
1902.7086085302
 20
6579.8453197168
 30
0.0
 11
1902.7086085302
 21
6545.8453197168
 31
0.0
  0
LINE
  5
110
330
1F
100
AcDbEntity
  8
0
  6
Continuous
 62
     7
370
    25
100
AcDbLine
 10
1518.7086085302
 20
6579.8453197168
 30
0.0
 11
1562.7925287471
 21
6579.8453197168
 31
0.0
  0
LINE
  5
111
330
1F
100
AcDbEntity
  8
0
  6
Continuous
 62
     7
370
    25
100
AcDbLine
 10
1574.6246883134
 20
6579.8453197168
 30
0.0
 11
1902.7086085302
 21
6579.8453197168
 31
0.0
  0
LINE
  5
112
330
1F
100
AcDbEntity
  8
0
  6
Continuous
 62
     7
370
    25
100
AcDbLine
 10
1518.7086085302
 20
6579.8453197168
 30
0.0
 11
1518.7086085302
 21
6591.8453197168
 31
0.0
  0
LINE
  5
113
330
1F
100
AcDbEntity
  8
0
  6
Continuous
 62
     7
370
    25
100
AcDbLine
 10
1518.7086085302
 20
6591.8453197168
 30
0.0
 11
1902.7086085302
 21
6591.8453197168
 31
0.0
  0
LINE
  5
114
330
1F
100
AcDbEntity
  8
0
  6
Continuous
 62
     7
370
    25
100
AcDbLine
 10
1902.7086085302
 20
6685.8453197168
 30
0.0
 11
1902.7086085302
 21
6591.8453197168
 31
0.0
  0
LINE
  5
115
330
1F
100
AcDbEntity
  8
0
  6
Continuous
 62
     7
370
    25
100
AcDbLine
 10
1518.7086085302
 20
6591.8453197168
 30
0.0
 11
1518.7086085302
 21
6597.8453197168
 31
0.0
  0
LINE
  5
116
330
1F
100
AcDbEntity
  8
0
  6
Continuous
 62
     7
370
    25
100
AcDbLine
 10
1518.7086085302
 20
6597.8453197168
 30
0.0
 11
1902.7086085302
 21
6597.8453197168
 31
0.0
  0
LINE
  5
117
330
1F
100
AcDbEntity
  8
0
  6
Continuous
 62
     7
370
    25
100
AcDbLine
 10
1518.7086085302
 20
6527.8453197168
 30
0.0
 11
1902.7086085302
 21
6527.8453197168
 31
0.0
  0
LINE
  5
118
330
1F
100
AcDbEntity
  8
0
  6
Continuous
 62
     7
370
    25
100
AcDbLine
 10
1518.7086085302
 20
6527.8453197168
 30
0.0
 11
1518.7086085302
 21
6533.8453197168
 31
0.0
  0
SPLINE
  5
119
330
1F
100
AcDbEntity
  8
0
  6
Continuous
 62
     7
370
    25
100
AcDbSpline
210
0.0
220
0.0
230
1.0
 70
    24
 71
     3
 72
     9
 73
     5
 74
     0
 42
0.00000001
 43
0.00000001
 40
0.0
 40
0.0
 40
0.0
 40
0.0
 40
0.8995915963006003
 40
1.0
 40
1.0
 40
1.0
 40
1.0
 10
1568.708608530246
 20
6572.845319716826
 30
0.0
 10
1566.916965588927
 20
6572.845319716826
 30
0.0
 10
1564.925347449444
 20
6572.845319716826
 30
0.0
 10
1563.11670839834
 20
6572.845319716826
 30
0.0
 10
1562.93510583835
 20
6572.845319716826
 30
0.0
  0
ARC
  5
11A
330
1F
100
AcDbEntity
  8
0
  6
Continuous
 62
     7
370
    25
100
AcDbCircle
 10
1568.7086085302
 20
6562.8453197168
 30
0.0
 40
10.00000000000167
100
AcDbArc
 50
90.0
 51
150.0
  0
SPLINE
  5
11B
330
1F
100
AcDbEntity
  8
0
  6
Continuous
 62
     7
370
    25
100
AcDbSpline
210
0.0
220
0.0
230
1.0
 70
    24
 71
     3
 72
     9
 73
     5
 74
     0
 42
0.00000001
 43
0.00000001
 40
0.0
 40
0.0
 40
0.0
 40
0.0
 40
0.6360037752862032
 40
1.0
 40
1.0
 40
1.0
 40
1.0
 10
1562.93510583835
 20
6572.845319716826
 30
0.0
 10
1562.334879601784
 20
6571.805697379059
 30
0.0
 10
1561.391133259563
 20
6570.171080764874
 30
0.0
 10
1560.406688623402
 20
6568.465972637808
 30
0.0
 10
1560.0483544924
 20
6567.845319716826
 30
0.0
  0
ARC
  5
11C
330
1F
100
AcDbEntity
  8
0
  6
Continuous
 62
     7
370
    25
100
AcDbCircle
 10
1568.7086085302
 20
6562.8453197168
 30
0.0
 40
9.99999999999909
100
AcDbArc
 50
270.0
 51
330.0
  0
SPLINE
  5
11D
330
1F
100
AcDbEntity
  8
0
  6
Continuous
 62
     7
370
    25
100
AcDbSpline
210
0.0
220
0.0
230
1.0
 70
    24
 71
     3
 72
     9
 73
     5
 74
     0
 42
0.00000001
 43
0.00000001
 40
0.0
 40
0.0
 40
0.0
 40
0.0
 40
0.6360037752862091
 40
1.0
 40
1.0
 40
1.0
 40
1.0
 10
1574.482111222143
 20
6552.845319716826
 30
0.0
 10
1575.082337458708
 20
6553.884942054593
 30
0.0
 10
1576.026083800929
 20
6555.519558668777
 30
0.0
 10
1577.010528437088
 20
6557.224666795846
 30
0.0
 10
1577.36886256809
 20
6557.845319716827
 30
0.0
  0
SPLINE
  5
11E
330
1F
100
AcDbEntity
  8
0
  6
Continuous
 62
     7
370
    25
100
AcDbSpline
210
0.0
220
0.0
230
1.0
 70
    24
 71
     3
 72
     9
 73
     5
 74
     0
 42
0.00000001
 43
0.00000001
 40
0.0
 40
0.0
 40
0.0
 40
0.0
 40
0.8995915963001404
 40
1.0
 40
1.0
 40
1.0
 40
1.0
 10
1568.708608530246
 20
6552.845319716826
 30
0.0
 10
1570.500251471564
 20
6552.845319716826
 30
0.0
 10
1572.491869611047
 20
6552.845319716826
 30
0.0
 10
1574.300508662152
 20
6552.845319716826
 30
0.0
 10
1574.482111222143
 20
6552.845319716826
 30
0.0
  0
ARC
  5
11F
330
1F
100
AcDbEntity
  8
0
  6
Continuous
 62
     7
370
    25
100
AcDbCircle
 10
1568.7086085302
 20
6562.8453197168
 30
0.0
 40
9.999999999999245
100
AcDbArc
 50
330.0
 51
30.0
  0
SPLINE
  5
120
330
1F
100
AcDbEntity
  8
0
  6
Continuous
 62
     7
370
    25
100
AcDbSpline
210
0.0
220
0.0
230
1.0
 70
    24
 71
     3
 72
     9
 73
     5
 74
     0
 42
0.00000001
 43
0.00000001
 40
0.0
 40
0.0
 40
0.0
 40
0.0
 40
0.6081419703452783
 40
1.0
 40
1.0
 40
1.0
 40
1.0
 10
1577.36886256809
 20
6557.845319716827
 30
0.0
 10
1577.970849880043
 20
6558.887992326642
 30
0.0
 10
1578.960729449796
 20
6560.602514034829
 30
0.0
 10
1579.891057426252
 20
6562.213889357752
 30
0.0
 10
1580.255613914039
 20
6562.845319716826
 30
0.0
  0
SPLINE
  5
121
330
1F
100
AcDbEntity
  8
0
  6
Continuous
 62
     7
370
    25
100
AcDbSpline
210
0.0
220
0.0
230
1.0
 70
    24
 71
     3
 72
     9
 73
     5
 74
     0
 42
0.00000001
 43
0.00000001
 40
0.0
 40
0.0
 40
0.0
 40
0.0
 40
0.6360037752867674
 40
0.9999999999999999
 40
0.9999999999999999
 40
0.9999999999999999
 40
0.9999999999999999
 10
1580.255613914039
 20
6562.845319716826
 30
0.0
 10
1579.655387677473
 20
6563.884942054594
 30
0.0
 10
1578.711641335251
 20
6565.519558668779
 30
0.0
 10
1577.727196699091
 20
6567.224666795845
 30
0.0
 10
1577.36886256809
 20
6567.845319716826
 30
0.0
  0
ARC
  5
122
330
1F
100
AcDbEntity
  8
0
  6
Continuous
 62
     7
370
    25
100
AcDbCircle
 10
1568.7086085302
 20
6562.8453197168
 30
0.0
 40
10.00000000000167
100
AcDbArc
 50
150.0
 51
210.0
  0
SPLINE
  5
123
330
1F
100
AcDbEntity
  8
0
  6
Continuous
 62
     7
370
    25
100
AcDbSpline
210
0.0
220
0.0
230
1.0
 70
    24
 71
     3
 72
     9
 73
     5
 74
     0
 42
0.00000001
 43
0.00000001
 40
0.0
 40
0.0
 40
0.0
 40
0.0
 40
0.6360037752867156
 40
1.0
 40
1.0
 40
1.0
 40
1.0
 10
1557.161603146453
 20
6562.845319716826
 30
0.0
 10
1557.761829383019
 20
6561.805697379058
 30
0.0
 10
1558.70557572524
 20
6560.171080764873
 30
0.0
 10
1559.6900203614
 20
6558.465972637807
 30
0.0
 10
1560.048354492401
 20
6557.845319716826
 30
0.0
  0
SPLINE
  5
124
330
1F
100
AcDbEntity
  8
0
  6
Continuous
 62
     7
370
    25
100
AcDbSpline
210
0.0
220
0.0
230
1.0
 70
    24
 71
     3
 72
     9
 73
     5
 74
     0
 42
0.00000001
 43
0.00000001
 40
0.0
 40
0.0
 40
0.0
 40
0.0
 40
0.6081419703452375
 40
0.9999999999999999
 40
0.9999999999999999
 40
0.9999999999999999
 40
0.9999999999999999
 10
1560.0483544924
 20
6567.845319716826
 30
0.0
 10
1559.446367180447
 20
6566.802647107011
 30
0.0
 10
1558.456487610696
 20
6565.088125398824
 30
0.0
 10
1557.52615963424
 20
6563.476750075902
 30
0.0
 10
1557.161603146453
 20
6562.845319716826
 30
0.0
  0
ARC
  5
125
330
1F
100
AcDbEntity
  8
0
  6
Continuous
 62
     7
370
    25
100
AcDbCircle
 10
1568.7086085302
 20
6562.8453197168
 30
0.0
 40
10.00000000000062
100
AcDbArc
 50
210.0
 51
270.0
  0
SPLINE
  5
126
330
1F
100
AcDbEntity
  8
0
  6
Continuous
 62
     7
370
    25
100
AcDbSpline
210
0.0
220
0.0
230
1.0
 70
    24
 71
     3
 72
     9
 73
     5
 74
     0
 42
0.00000001
 43
0.00000001
 40
0.0
 40
0.0
 40
0.0
 40
0.0
 40
0.6081419703454986
 40
1.0
 40
1.0
 40
1.0
 40
1.0
 10
1560.048354492401
 20
6557.845319716826
 30
0.0
 10
1560.650341804355
 20
6556.80264710701
 30
0.0
 10
1561.640221374108
 20
6555.088125398825
 30
0.0
 10
1562.570549350562
 20
6553.476750075902
 30
0.0
 10
1562.935105838348
 20
6552.845319716826
 30
0.0
  0
SPLINE
  5
127
330
1F
100
AcDbEntity
  8
0
  6
Continuous
 62
     7
370
    25
100
AcDbSpline
210
0.0
220
0.0
230
1.0
 70
    24
 71
     3
 72
     9
 73
     5
 74
     0
 42
0.00000001
 43
0.00000001
 40
0.0
 40
0.0
 40
0.0
 40
0.0
 40
0.3221204093178266
 40
0.9999999999999999
 40
0.9999999999999999
 40
0.9999999999999999
 40
0.9999999999999999
 10
1562.935105838348
 20
6552.845319716826
 30
0.0
 10
1563.531189874369
 20
6552.845319716826
 30
0.0
 10
1565.381690552928
 20
6552.845319716826
 30
0.0
 10
1567.364501474399
 20
6552.845319716826
 30
0.0
 10
1568.708608530246
 20
6552.845319716826
 30
0.0
  0
ARC
  5
128
330
1F
100
AcDbEntity
  8
0
  6
Continuous
 62
     7
370
    25
100
AcDbCircle
 10
1568.7086085302
 20
6562.8453197168
 30
0.0
 40
10.00000000000091
100
AcDbArc
 50
30.0
 51
90.0
  0
SPLINE
  5
129
330
1F
100
AcDbEntity
  8
0
  6
Continuous
 62
     7
370
    25
100
AcDbSpline
210
0.0
220
0.0
230
1.0
 70
    24
 71
     3
 72
     9
 73
     5
 74
     0
 42
0.00000001
 43
0.00000001
 40
0.0
 40
0.0
 40
0.0
 40
0.0
 40
0.6081419703453662
 40
1.0
 40
1.0
 40
1.0
 40
1.0
 10
1577.36886256809
 20
6567.845319716826
 30
0.0
 10
1576.766875256136
 20
6568.887992326641
 30
0.0
 10
1575.776995686382
 20
6570.602514034827
 30
0.0
 10
1574.846667709927
 20
6572.213889357751
 30
0.0
 10
1574.482111222141
 20
6572.845319716826
 30
0.0
  0
SPLINE
  5
12A
330
1F
100
AcDbEntity
  8
0
  6
Continuous
 62
     7
370
    25
100
AcDbSpline
210
0.0
220
0.0
230
1.0
 70
    24
 71
     3
 72
     9
 73
     5
 74
     0
 42
0.00000001
 43
0.00000001
 40
0.0
 40
0.0
 40
0.0
 40
0.0
 40
0.3221204093176308
 40
1.0
 40
1.0
 40
1.0
 40
1.0
 10
1574.482111222141
 20
6572.845319716826
 30
0.0
 10
1573.886027186122
 20
6572.845319716826
 30
0.0
 10
1572.035526507563
 20
6572.845319716826
 30
0.0
 10
1570.052715586093
 20
6572.845319716826
 30
0.0
 10
1568.708608530246
 20
6572.845319716826
 30
0.0
  0
SPLINE
  5
12B
330
1F
100
AcDbEntity
  8
0
  6
Continuous
 62
     7
370
    25
100
AcDbSpline
210
0.0
220
0.0
230
1.0
 70
    24
 71
     3
 72
     9
 73
     5
 74
     0
 42
0.00000001
 43
0.00000001
 40
0.0
 40
0.0
 40
0.0
 40
0.0
 40
0.8995915963006041
 40
1.0
 40
1.0
 40
1.0
 40
1.0
 10
1158.708608530249
 20
7593.845319716836
 30
0.0
 10
1156.91696558893
 20
7593.845319716836
 30
0.0
 10
1154.925347449447
 20
7593.845319716836
 30
0.0
 10
1153.116708398343
 20
7593.845319716837
 30
0.0
 10
1152.935105838353
 20
7593.845319716837
 30
0.0
  0
ARC
  5
12C
330
1F
100
AcDbEntity
  8
0
  6
Continuous
 62
     7
370
    25
100
AcDbCircle
 10
1158.7086085302
 20
7583.8453197168
 30
0.0
 40
10.00000000000122
100
AcDbArc
 50
90.0
 51
150.0
  0
SPLINE
  5
12D
330
1F
100
AcDbEntity
  8
0
  6
Continuous
 62
     7
370
    25
100
AcDbSpline
210
0.0
220
0.0
230
1.0
 70
    24
 71
     3
 72
     9
 73
     5
 74
     0
 42
0.00000001
 43
0.00000001
 40
0.0
 40
0.0
 40
0.0
 40
0.0
 40
0.6360037752862173
 40
1.0
 40
1.0
 40
1.0
 40
1.0
 10
1152.935105838353
 20
7593.845319716837
 30
0.0
 10
1152.334879601788
 20
7592.805697379069
 30
0.0
 10
1151.391133259566
 20
7591.171080764885
 30
0.0
 10
1150.406688623406
 20
7589.465972637818
 30
0.0
 10
1150.048354492404
 20
7588.845319716836
 30
0.0
  0
ARC
  5
12E
330
1F
100
AcDbEntity
  8
0
  6
Continuous
 62
     7
370
    25
100
AcDbCircle
 10
1158.7086085302
 20
7583.8453197168
 30
0.0
 40
10.0
100
AcDbArc
 50
270.0
 51
330.0
  0
SPLINE
  5
12F
330
1F
100
AcDbEntity
  8
0
  6
Continuous
 62
     7
370
    25
100
AcDbSpline
210
0.0
220
0.0
230
1.0
 70
    24
 71
     3
 72
     9
 73
     5
 74
     0
 42
0.00000001
 43
0.00000001
 40
0.0
 40
0.0
 40
0.0
 40
0.0
 40
0.6360037752861957
 40
0.9999999999999999
 40
0.9999999999999999
 40
0.9999999999999999
 40
0.9999999999999999
 10
1164.482111222146
 20
7573.845319716836
 30
0.0
 10
1165.082337458711
 20
7574.884942054603
 30
0.0
 10
1166.026083800932
 20
7576.519558668788
 30
0.0
 10
1167.010528437091
 20
7578.224666795856
 30
0.0
 10
1167.368862568093
 20
7578.845319716837
 30
0.0
  0
SPLINE
  5
130
330
1F
100
AcDbEntity
  8
0
  6
Continuous
 62
     7
370
    25
100
AcDbSpline
210
0.0
220
0.0
230
1.0
 70
    24
 71
     3
 72
     9
 73
     5
 74
     0
 42
0.00000001
 43
0.00000001
 40
0.0
 40
0.0
 40
0.0
 40
0.0
 40
0.8995915963001404
 40
1.0
 40
1.0
 40
1.0
 40
1.0
 10
1158.708608530249
 20
7573.845319716836
 30
0.0
 10
1160.500251471567
 20
7573.845319716836
 30
0.0
 10
1162.491869611051
 20
7573.845319716836
 30
0.0
 10
1164.300508662155
 20
7573.845319716836
 30
0.0
 10
1164.482111222146
 20
7573.845319716836
 30
0.0
  0
ARC
  5
131
330
1F
100
AcDbEntity
  8
0
  6
Continuous
 62
     7
370
    25
100
AcDbCircle
 10
1158.7086085302
 20
7583.8453197168
 30
0.0
 40
9.999999999999048
100
AcDbArc
 50
330.0
 51
30.0
  0
SPLINE
  5
132
330
1F
100
AcDbEntity
  8
0
  6
Continuous
 62
     7
370
    25
100
AcDbSpline
210
0.0
220
0.0
230
1.0
 70
    24
 71
     3
 72
     9
 73
     5
 74
     0
 42
0.00000001
 43
0.00000001
 40
0.0
 40
0.0
 40
0.0
 40
0.0
 40
0.6081419703452925
 40
1.0
 40
1.0
 40
1.0
 40
1.0
 10
1167.368862568093
 20
7578.845319716837
 30
0.0
 10
1167.970849880046
 20
7579.887992326654
 30
0.0
 10
1168.960729449799
 20
7581.60251403484
 30
0.0
 10
1169.891057426255
 20
7583.213889357762
 30
0.0
 10
1170.255613914042
 20
7583.845319716836
 30
0.0
  0
SPLINE
  5
133
330
1F
100
AcDbEntity
  8
0
  6
Continuous
 62
     7
370
    25
100
AcDbSpline
210
0.0
220
0.0
230
1.0
 70
    24
 71
     3
 72
     9
 73
     5
 74
     0
 42
0.00000001
 43
0.00000001
 40
0.0
 40
0.0
 40
0.0
 40
0.0
 40
0.6360037752867571
 40
1.0
 40
1.0
 40
1.0
 40
1.0
 10
1170.255613914042
 20
7583.845319716836
 30
0.0
 10
1169.655387677476
 20
7584.884942054605
 30
0.0
 10
1168.711641335255
 20
7586.519558668789
 30
0.0
 10
1167.727196699094
 20
7588.224666795856
 30
0.0
 10
1167.368862568093
 20
7588.845319716836
 30
0.0
  0
ARC
  5
134
330
1F
100
AcDbEntity
  8
0
  6
Continuous
 62
     7
370
    25
100
AcDbCircle
 10
1158.7086085302
 20
7583.8453197168
 30
0.0
 40
10.00000000000122
100
AcDbArc
 50
150.0
 51
210.0
  0
SPLINE
  5
135
330
1F
100
AcDbEntity
  8
0
  6
Continuous
 62
     7
370
    25
100
AcDbSpline
210
0.0
220
0.0
230
1.0
 70
    24
 71
     3
 72
     9
 73
     5
 74
     0
 42
0.00000001
 43
0.00000001
 40
0.0
 40
0.0
 40
0.0
 40
0.0
 40
0.6360037752867055
 40
1.0
 40
1.0
 40
1.0
 40
1.0
 10
1147.161603146456
 20
7583.845319716836
 30
0.0
 10
1147.761829383022
 20
7582.805697379069
 30
0.0
 10
1148.705575725243
 20
7581.171080764884
 30
0.0
 10
1149.690020361403
 20
7579.465972637817
 30
0.0
 10
1150.048354492404
 20
7578.845319716836
 30
0.0
  0
SPLINE
  5
136
330
1F
100
AcDbEntity
  8
0
  6
Continuous
 62
     7
370
    25
100
AcDbSpline
210
0.0
220
0.0
230
1.0
 70
    24
 71
     3
 72
     9
 73
     5
 74
     0
 42
0.00000001
 43
0.00000001
 40
0.0
 40
0.0
 40
0.0
 40
0.0
 40
0.6081419703452421
 40
1.0
 40
1.0
 40
1.0
 40
1.0
 10
1150.048354492403
 20
7588.845319716836
 30
0.0
 10
1149.44636718045
 20
7587.802647107021
 30
0.0
 10
1148.456487610699
 20
7586.088125398835
 30
0.0
 10
1147.526159634243
 20
7584.476750075911
 30
0.0
 10
1147.161603146456
 20
7583.845319716836
 30
0.0
  0
ARC
  5
137
330
1F
100
AcDbEntity
  8
0
  6
Continuous
 62
     7
370
    25
100
AcDbCircle
 10
1158.7086085302
 20
7583.8453197168
 30
0.0
 40
10.00000000000108
100
AcDbArc
 50
210.0
 51
270.0
  0
SPLINE
  5
138
330
1F
100
AcDbEntity
  8
0
  6
Continuous
 62
     7
370
    25
100
AcDbSpline
210
0.0
220
0.0
230
1.0
 70
    24
 71
     3
 72
     9
 73
     5
 74
     0
 42
0.00000001
 43
0.00000001
 40
0.0
 40
0.0
 40
0.0
 40
0.0
 40
0.6081419703455032
 40
1.0
 40
1.0
 40
1.0
 40
1.0
 10
1150.048354492404
 20
7578.845319716836
 30
0.0
 10
1150.650341804358
 20
7577.802647107021
 30
0.0
 10
1151.640221374111
 20
7576.088125398835
 30
0.0
 10
1152.570549350565
 20
7574.476750075912
 30
0.0
 10
1152.935105838351
 20
7573.845319716836
 30
0.0
  0
SPLINE
  5
139
330
1F
100
AcDbEntity
  8
0
  6
Continuous
 62
     7
370
    25
100
AcDbSpline
210
0.0
220
0.0
230
1.0
 70
    24
 71
     3
 72
     9
 73
     5
 74
     0
 42
0.00000001
 43
0.00000001
 40
0.0
 40
0.0
 40
0.0
 40
0.0
 40
0.3221204093178296
 40
1.0
 40
1.0
 40
1.0
 40
1.0
 10
1152.935105838351
 20
7573.845319716836
 30
0.0
 10
1153.531189874372
 20
7573.845319716836
 30
0.0
 10
1155.381690552931
 20
7573.845319716836
 30
0.0
 10
1157.364501474402
 20
7573.845319716836
 30
0.0
 10
1158.708608530249
 20
7573.845319716836
 30
0.0
  0
ARC
  5
13A
330
1F
100
AcDbEntity
  8
0
  6
Continuous
 62
     7
370
    25
100
AcDbCircle
 10
1158.7086085302
 20
7583.8453197168
 30
0.0
 40
10.0
100
AcDbArc
 50
30.0
 51
90.0
  0
SPLINE
  5
13B
330
1F
100
AcDbEntity
  8
0
  6
Continuous
 62
     7
370
    25
100
AcDbSpline
210
0.0
220
0.0
230
1.0
 70
    24
 71
     3
 72
     9
 73
     5
 74
     0
 42
0.00000001
 43
0.00000001
 40
0.0
 40
0.0
 40
0.0
 40
0.0
 40
0.6081419703453692
 40
1.0
 40
1.0
 40
1.0
 40
1.0
 10
1167.368862568093
 20
7588.845319716836
 30
0.0
 10
1166.766875256139
 20
7589.887992326652
 30
0.0
 10
1165.776995686386
 20
7591.602514034837
 30
0.0
 10
1164.84666770993
 20
7593.213889357761
 30
0.0
 10
1164.482111222144
 20
7593.845319716836
 30
0.0
  0
SPLINE
  5
13C
330
1F
100
AcDbEntity
  8
0
  6
Continuous
 62
     7
370
    25
100
AcDbSpline
210
0.0
220
0.0
230
1.0
 70
    24
 71
     3
 72
     9
 73
     5
 74
     0
 42
0.00000001
 43
0.00000001
 40
0.0
 40
0.0
 40
0.0
 40
0.0
 40
0.3221204093176308
 40
1.0
 40
1.0
 40
1.0
 40
1.0
 10
1164.482111222144
 20
7593.845319716836
 30
0.0
 10
1163.886027186125
 20
7593.845319716836
 30
0.0
 10
1162.035526507566
 20
7593.845319716836
 30
0.0
 10
1160.052715586096
 20
7593.845319716836
 30
0.0
 10
1158.708608530249
 20
7593.845319716836
 30
0.0
  0
SPLINE
  5
13D
330
1F
100
AcDbEntity
  8
0
  6
Continuous
 62
     7
370
    25
100
AcDbSpline
210
0.0
220
0.0
230
1.0
 70
    24
 71
     3
 72
     9
 73
     5
 74
     0
 42
0.00000001
 43
0.00000001
 40
0.0
 40
0.0
 40
0.0
 40
0.0
 40
0.8995915963006003
 40
1.0
 40
1.0
 40
1.0
 40
1.0
 10
1248.708608530246
 20
6572.845319716835
 30
0.0
 10
1246.916965588927
 20
6572.845319716835
 30
0.0
 10
1244.925347449444
 20
6572.845319716835
 30
0.0
 10
1243.116708398339
 20
6572.845319716836
 30
0.0
 10
1242.93510583835
 20
6572.845319716836
 30
0.0
  0
ARC
  5
13E
330
1F
100
AcDbEntity
  8
0
  6
Continuous
 62
     7
370
    25
100
AcDbCircle
 10
1248.7086085302
 20
6562.8453197168
 30
0.0
 40
10.00000000000102
100
AcDbArc
 50
90.0
 51
150.0
  0
SPLINE
  5
13F
330
1F
100
AcDbEntity
  8
0
  6
Continuous
 62
     7
370
    25
100
AcDbSpline
210
0.0
220
0.0
230
1.0
 70
    24
 71
     3
 72
     9
 73
     5
 74
     0
 42
0.00000001
 43
0.00000001
 40
0.0
 40
0.0
 40
0.0
 40
0.0
 40
0.6360037752862032
 40
1.0
 40
1.0
 40
1.0
 40
1.0
 10
1242.93510583835
 20
6572.845319716836
 30
0.0
 10
1242.334879601784
 20
6571.805697379068
 30
0.0
 10
1241.391133259563
 20
6570.171080764883
 30
0.0
 10
1240.406688623403
 20
6568.465972637816
 30
0.0
 10
1240.0483544924
 20
6567.845319716835
 30
0.0
  0
ARC
  5
140
330
1F
100
AcDbEntity
  8
0
  6
Continuous
 62
     7
370
    25
100
AcDbCircle
 10
1248.7086085302
 20
6562.8453197168
 30
0.0
 40
10.0
100
AcDbArc
 50
270.0
 51
330.0
  0
SPLINE
  5
141
330
1F
100
AcDbEntity
  8
0
  6
Continuous
 62
     7
370
    25
100
AcDbSpline
210
0.0
220
0.0
230
1.0
 70
    24
 71
     3
 72
     9
 73
     5
 74
     0
 42
0.00000001
 43
0.00000001
 40
0.0
 40
0.0
 40
0.0
 40
0.0
 40
0.6360037752862091
 40
1.0
 40
1.0
 40
1.0
 40
1.0
 10
1254.482111222143
 20
6552.845319716834
 30
0.0
 10
1255.082337458708
 20
6553.884942054601
 30
0.0
 10
1256.026083800929
 20
6555.519558668786
 30
0.0
 10
1257.010528437088
 20
6557.224666795854
 30
0.0
 10
1257.36886256809
 20
6557.845319716836
 30
0.0
  0
SPLINE
  5
142
330
1F
100
AcDbEntity
  8
0
  6
Continuous
 62
     7
370
    25
100
AcDbSpline
210
0.0
220
0.0
230
1.0
 70
    24
 71
     3
 72
     9
 73
     5
 74
     0
 42
0.00000001
 43
0.00000001
 40
0.0
 40
0.0
 40
0.0
 40
0.0
 40
0.8995915963001404
 40
1.0
 40
1.0
 40
1.0
 40
1.0
 10
1248.708608530246
 20
6552.845319716835
 30
0.0
 10
1250.500251471564
 20
6552.845319716835
 30
0.0
 10
1252.491869611048
 20
6552.845319716835
 30
0.0
 10
1254.300508662152
 20
6552.845319716834
 30
0.0
 10
1254.482111222143
 20
6552.845319716834
 30
0.0
  0
ARC
  5
143
330
1F
100
AcDbEntity
  8
0
  6
Continuous
 62
     7
370
    25
100
AcDbCircle
 10
1248.7086085302
 20
6562.8453197168
 30
0.0
 40
9.999999999999442
100
AcDbArc
 50
330.0
 51
30.0
  0
SPLINE
  5
144
330
1F
100
AcDbEntity
  8
0
  6
Continuous
 62
     7
370
    25
100
AcDbSpline
210
0.0
220
0.0
230
1.0
 70
    24
 71
     3
 72
     9
 73
     5
 74
     0
 42
0.00000001
 43
0.00000001
 40
0.0
 40
0.0
 40
0.0
 40
0.0
 40
0.6081419703452783
 40
1.0
 40
1.0
 40
1.0
 40
1.0
 10
1257.36886256809
 20
6557.845319716836
 30
0.0
 10
1257.970849880043
 20
6558.887992326651
 30
0.0
 10
1258.960729449796
 20
6560.602514034838
 30
0.0
 10
1259.891057426252
 20
6562.21388935776
 30
0.0
 10
1260.255613914039
 20
6562.845319716836
 30
0.0
  0
SPLINE
  5
145
330
1F
100
AcDbEntity
  8
0
  6
Continuous
 62
     7
370
    25
100
AcDbSpline
210
0.0
220
0.0
230
1.0
 70
    24
 71
     3
 72
     9
 73
     5
 74
     0
 42
0.00000001
 43
0.00000001
 40
0.0
 40
0.0
 40
0.0
 40
0.0
 40
0.6360037752867674
 40
0.9999999999999999
 40
0.9999999999999999
 40
0.9999999999999999
 40
0.9999999999999999
 10
1260.255613914039
 20
6562.845319716836
 30
0.0
 10
1259.655387677473
 20
6563.884942054603
 30
0.0
 10
1258.711641335251
 20
6565.519558668788
 30
0.0
 10
1257.727196699091
 20
6567.224666795854
 30
0.0
 10
1257.36886256809
 20
6567.845319716835
 30
0.0
  0
ARC
  5
146
330
1F
100
AcDbEntity
  8
0
  6
Continuous
 62
     7
370
    25
100
AcDbCircle
 10
1248.7086085302
 20
6562.8453197168
 30
0.0
 40
10.00000000000102
100
AcDbArc
 50
150.0
 51
210.0
  0
SPLINE
  5
147
330
1F
100
AcDbEntity
  8
0
  6
Continuous
 62
     7
370
    25
100
AcDbSpline
210
0.0
220
0.0
230
1.0
 70
    24
 71
     3
 72
     9
 73
     5
 74
     0
 42
0.00000001
 43
0.00000001
 40
0.0
 40
0.0
 40
0.0
 40
0.0
 40
0.6360037752867156
 40
1.0
 40
1.0
 40
1.0
 40
1.0
 10
1237.161603146453
 20
6562.845319716835
 30
0.0
 10
1237.761829383018
 20
6561.805697379067
 30
0.0
 10
1238.70557572524
 20
6560.171080764882
 30
0.0
 10
1239.6900203614
 20
6558.465972637815
 30
0.0
 10
1240.048354492401
 20
6557.845319716835
 30
0.0
  0
SPLINE
  5
148
330
1F
100
AcDbEntity
  8
0
  6
Continuous
 62
     7
370
    25
100
AcDbSpline
210
0.0
220
0.0
230
1.0
 70
    24
 71
     3
 72
     9
 73
     5
 74
     0
 42
0.00000001
 43
0.00000001
 40
0.0
 40
0.0
 40
0.0
 40
0.0
 40
0.6081419703452375
 40
0.9999999999999999
 40
0.9999999999999999
 40
0.9999999999999999
 40
0.9999999999999999
 10
1240.0483544924
 20
6567.845319716835
 30
0.0
 10
1239.446367180447
 20
6566.802647107019
 30
0.0
 10
1238.456487610696
 20
6565.088125398833
 30
0.0
 10
1237.52615963424
 20
6563.476750075911
 30
0.0
 10
1237.161603146453
 20
6562.845319716835
 30
0.0
  0
ARC
  5
149
330
1F
100
AcDbEntity
  8
0
  6
Continuous
 62
     7
370
    25
100
AcDbCircle
 10
1248.7086085302
 20
6562.8453197168
 30
0.0
 40
10.00000000000043
100
AcDbArc
 50
210.0
 51
270.0
  0
SPLINE
  5
14A
330
1F
100
AcDbEntity
  8
0
  6
Continuous
 62
     7
370
    25
100
AcDbSpline
210
0.0
220
0.0
230
1.0
 70
    24
 71
     3
 72
     9
 73
     5
 74
     0
 42
0.00000001
 43
0.00000001
 40
0.0
 40
0.0
 40
0.0
 40
0.0
 40
0.6081419703454986
 40
1.0
 40
1.0
 40
1.0
 40
1.0
 10
1240.048354492401
 20
6557.845319716834
 30
0.0
 10
1240.650341804355
 20
6556.802647107018
 30
0.0
 10
1241.640221374108
 20
6555.088125398834
 30
0.0
 10
1242.570549350562
 20
6553.47675007591
 30
0.0
 10
1242.935105838348
 20
6552.845319716835
 30
0.0
  0
SPLINE
  5
14B
330
1F
100
AcDbEntity
  8
0
  6
Continuous
 62
     7
370
    25
100
AcDbSpline
210
0.0
220
0.0
230
1.0
 70
    24
 71
     3
 72
     9
 73
     5
 74
     0
 42
0.00000001
 43
0.00000001
 40
0.0
 40
0.0
 40
0.0
 40
0.0
 40
0.3221204093178266
 40
0.9999999999999999
 40
0.9999999999999999
 40
0.9999999999999999
 40
0.9999999999999999
 10
1242.935105838348
 20
6552.845319716835
 30
0.0
 10
1243.531189874369
 20
6552.845319716836
 30
0.0
 10
1245.381690552928
 20
6552.845319716836
 30
0.0
 10
1247.364501474399
 20
6552.845319716835
 30
0.0
 10
1248.708608530246
 20
6552.845319716835
 30
0.0
  0
ARC
  5
14C
330
1F
100
AcDbEntity
  8
0
  6
Continuous
 62
     7
370
    25
100
AcDbCircle
 10
1248.7086085302
 20
6562.8453197168
 30
0.0
 40
10.0
100
AcDbArc
 50
30.0
 51
90.0
  0
SPLINE
  5
14D
330
1F
100
AcDbEntity
  8
0
  6
Continuous
 62
     7
370
    25
100
AcDbSpline
210
0.0
220
0.0
230
1.0
 70
    24
 71
     3
 72
     9
 73
     5
 74
     0
 42
0.00000001
 43
0.00000001
 40
0.0
 40
0.0
 40
0.0
 40
0.0
 40
0.6081419703453662
 40
1.0
 40
1.0
 40
1.0
 40
1.0
 10
1257.36886256809
 20
6567.845319716835
 30
0.0
 10
1256.766875256135
 20
6568.88799232665
 30
0.0
 10
1255.776995686382
 20
6570.602514034836
 30
0.0
 10
1254.846667709927
 20
6572.213889357759
 30
0.0
 10
1254.482111222141
 20
6572.845319716835
 30
0.0
  0
SPLINE
  5
14E
330
1F
100
AcDbEntity
  8
0
  6
Continuous
 62
     7
370
    25
100
AcDbSpline
210
0.0
220
0.0
230
1.0
 70
    24
 71
     3
 72
     9
 73
     5
 74
     0
 42
0.00000001
 43
0.00000001
 40
0.0
 40
0.0
 40
0.0
 40
0.0
 40
0.3221204093176308
 40
1.0
 40
1.0
 40
1.0
 40
1.0
 10
1254.482111222141
 20
6572.845319716835
 30
0.0
 10
1253.886027186122
 20
6572.845319716836
 30
0.0
 10
1252.035526507563
 20
6572.845319716836
 30
0.0
 10
1250.052715586093
 20
6572.845319716836
 30
0.0
 10
1248.708608530246
 20
6572.845319716835
 30
0.0
  0
SPLINE
  5
14F
330
1F
100
AcDbEntity
  8
0
  6
Continuous
 62
     7
370
    25
100
AcDbSpline
210
0.0
220
0.0
230
1.0
 70
    24
 71
     3
 72
     9
 73
     5
 74
     0
 42
0.00000001
 43
0.00000001
 40
0.0
 40
0.0
 40
0.0
 40
0.0
 40
0.8995915963006006
 40
1.0
 40
1.0
 40
1.0
 40
1.0
 10
1658.708608530249
 20
7593.845319716822
 30
0.0
 10
1656.91696558893
 20
7593.845319716822
 30
0.0
 10
1654.925347449447
 20
7593.845319716821
 30
0.0
 10
1653.116708398343
 20
7593.845319716823
 30
0.0
 10
1652.935105838353
 20
7593.845319716823
 30
0.0
  0
ARC
  5
150
330
1F
100
AcDbEntity
  8
0
  6
Continuous
 62
     7
370
    25
100
AcDbCircle
 10
1658.7086085302
 20
7583.8453197168
 30
0.0
 40
10.00000000000167
100
AcDbArc
 50
90.0
 51
150.0
  0
SPLINE
  5
151
330
1F
100
AcDbEntity
  8
0
  6
Continuous
 62
     7
370
    25
100
AcDbSpline
210
0.0
220
0.0
230
1.0
 70
    24
 71
     3
 72
     9
 73
     5
 74
     0
 42
0.00000001
 43
0.00000001
 40
0.0
 40
0.0
 40
0.0
 40
0.0
 40
0.6360037752862172
 40
1.0
 40
1.0
 40
1.0
 40
1.0
 10
1652.935105838353
 20
7593.845319716823
 30
0.0
 10
1652.334879601788
 20
7592.805697379056
 30
0.0
 10
1651.391133259566
 20
7591.171080764871
 30
0.0
 10
1650.406688623406
 20
7589.465972637804
 30
0.0
 10
1650.048354492404
 20
7588.845319716823
 30
0.0
  0
ARC
  5
152
330
1F
100
AcDbEntity
  8
0
  6
Continuous
 62
     7
370
    25
100
AcDbCircle
 10
1658.7086085302
 20
7583.8453197168
 30
0.0
 40
10.0
100
AcDbArc
 50
270.0
 51
330.0
  0
SPLINE
  5
153
330
1F
100
AcDbEntity
  8
0
  6
Continuous
 62
     7
370
    25
100
AcDbSpline
210
0.0
220
0.0
230
1.0
 70
    24
 71
     3
 72
     9
 73
     5
 74
     0
 42
0.00000001
 43
0.00000001
 40
0.0
 40
0.0
 40
0.0
 40
0.0
 40
0.6360037752861943
 40
1.0
 40
1.0
 40
1.0
 40
1.0
 10
1664.482111222146
 20
7573.845319716822
 30
0.0
 10
1665.082337458711
 20
7574.884942054589
 30
0.0
 10
1666.026083800932
 20
7576.519558668773
 30
0.0
 10
1667.010528437091
 20
7578.224666795842
 30
0.0
 10
1667.368862568093
 20
7578.845319716824
 30
0.0
  0
SPLINE
  5
154
330
1F
100
AcDbEntity
  8
0
  6
Continuous
 62
     7
370
    25
100
AcDbSpline
210
0.0
220
0.0
230
1.0
 70
    24
 71
     3
 72
     9
 73
     5
 74
     0
 42
0.00000001
 43
0.00000001
 40
0.0
 40
0.0
 40
0.0
 40
0.0
 40
0.8995915963001404
 40
1.0
 40
1.0
 40
1.0
 40
1.0
 10
1658.708608530249
 20
7573.845319716822
 30
0.0
 10
1660.500251471567
 20
7573.845319716822
 30
0.0
 10
1662.491869611051
 20
7573.845319716822
 30
0.0
 10
1664.300508662155
 20
7573.845319716822
 30
0.0
 10
1664.482111222146
 20
7573.845319716822
 30
0.0
  0
ARC
  5
155
330
1F
100
AcDbEntity
  8
0
  6
Continuous
 62
     7
370
    25
100
AcDbCircle
 10
1658.7086085302
 20
7583.8453197168
 30
0.0
 40
9.999999999999048
100
AcDbArc
 50
330.0
 51
30.0
  0
SPLINE
  5
156
330
1F
100
AcDbEntity
  8
0
  6
Continuous
 62
     7
370
    25
100
AcDbSpline
210
0.0
220
0.0
230
1.0
 70
    24
 71
     3
 72
     9
 73
     5
 74
     0
 42
0.00000001
 43
0.00000001
 40
0.0
 40
0.0
 40
0.0
 40
0.0
 40
0.608141970345291
 40
1.0
 40
1.0
 40
1.0
 40
1.0
 10
1667.368862568093
 20
7578.845319716824
 30
0.0
 10
1667.970849880046
 20
7579.88799232664
 30
0.0
 10
1668.960729449799
 20
7581.602514034826
 30
0.0
 10
1669.891057426255
 20
7583.213889357748
 30
0.0
 10
1670.255613914042
 20
7583.845319716823
 30
0.0
  0
SPLINE
  5
157
330
1F
100
AcDbEntity
  8
0
  6
Continuous
 62
     7
370
    25
100
AcDbSpline
210
0.0
220
0.0
230
1.0
 70
    24
 71
     3
 72
     9
 73
     5
 74
     0
 42
0.00000001
 43
0.00000001
 40
0.0
 40
0.0
 40
0.0
 40
0.0
 40
0.6360037752867603
 40
1.0
 40
1.0
 40
1.0
 40
1.0
 10
1670.255613914042
 20
7583.845319716823
 30
0.0
 10
1669.655387677476
 20
7584.88494205459
 30
0.0
 10
1668.711641335255
 20
7586.519558668774
 30
0.0
 10
1667.727196699094
 20
7588.224666795842
 30
0.0
 10
1667.368862568093
 20
7588.845319716822
 30
0.0
  0
ARC
  5
158
330
1F
100
AcDbEntity
  8
0
  6
Continuous
 62
     7
370
    25
100
AcDbCircle
 10
1658.7086085302
 20
7583.8453197168
 30
0.0
 40
10.00000000000167
100
AcDbArc
 50
150.0
 51
210.0
  0
SPLINE
  5
159
330
1F
100
AcDbEntity
  8
0
  6
Continuous
 62
     7
370
    25
100
AcDbSpline
210
0.0
220
0.0
230
1.0
 70
    24
 71
     3
 72
     9
 73
     5
 74
     0
 42
0.00000001
 43
0.00000001
 40
0.0
 40
0.0
 40
0.0
 40
0.0
 40
0.6360037752867024
 40
0.9999999999999999
 40
0.9999999999999999
 40
0.9999999999999999
 40
0.9999999999999999
 10
1647.161603146456
 20
7583.845319716822
 30
0.0
 10
1647.761829383022
 20
7582.805697379054
 30
0.0
 10
1648.705575725243
 20
7581.171080764871
 30
0.0
 10
1649.690020361403
 20
7579.465972637802
 30
0.0
 10
1650.048354492404
 20
7578.845319716822
 30
0.0
  0
SPLINE
  5
15A
330
1F
100
AcDbEntity
  8
0
  6
Continuous
 62
     7
370
    25
100
AcDbSpline
210
0.0
220
0.0
230
1.0
 70
    24
 71
     3
 72
     9
 73
     5
 74
     0
 42
0.00000001
 43
0.00000001
 40
0.0
 40
0.0
 40
0.0
 40
0.0
 40
0.6081419703452425
 40
1.0
 40
1.0
 40
1.0
 40
1.0
 10
1650.048354492404
 20
7588.845319716823
 30
0.0
 10
1649.44636718045
 20
7587.802647107006
 30
0.0
 10
1648.456487610699
 20
7586.08812539882
 30
0.0
 10
1647.526159634243
 20
7584.476750075897
 30
0.0
 10
1647.161603146456
 20
7583.845319716822
 30
0.0
  0
ARC
  5
15B
330
1F
100
AcDbEntity
  8
0
  6
Continuous
 62
     7
370
    25
100
AcDbCircle
 10
1658.7086085302
 20
7583.8453197168
 30
0.0
 40
10.00000000000062
100
AcDbArc
 50
210.0
 51
270.0
  0
SPLINE
  5
15C
330
1F
100
AcDbEntity
  8
0
  6
Continuous
 62
     7
370
    25
100
AcDbSpline
210
0.0
220
0.0
230
1.0
 70
    24
 71
     3
 72
     9
 73
     5
 74
     0
 42
0.00000001
 43
0.00000001
 40
0.0
 40
0.0
 40
0.0
 40
0.0
 40
0.6081419703455019
 40
1.0
 40
1.0
 40
1.0
 40
1.0
 10
1650.048354492404
 20
7578.845319716822
 30
0.0
 10
1650.650341804358
 20
7577.802647107006
 30
0.0
 10
1651.640221374111
 20
7576.088125398822
 30
0.0
 10
1652.570549350565
 20
7574.476750075897
 30
0.0
 10
1652.935105838352
 20
7573.845319716822
 30
0.0
  0
SPLINE
  5
15D
330
1F
100
AcDbEntity
  8
0
  6
Continuous
 62
     7
370
    25
100
AcDbSpline
210
0.0
220
0.0
230
1.0
 70
    24
 71
     3
 72
     9
 73
     5
 74
     0
 42
0.00000001
 43
0.00000001
 40
0.0
 40
0.0
 40
0.0
 40
0.0
 40
0.3221204093178281
 40
1.0
 40
1.0
 40
1.0
 40
1.0
 10
1652.935105838352
 20
7573.845319716822
 30
0.0
 10
1653.531189874372
 20
7573.845319716822
 30
0.0
 10
1655.381690552931
 20
7573.845319716822
 30
0.0
 10
1657.364501474402
 20
7573.845319716822
 30
0.0
 10
1658.708608530249
 20
7573.845319716822
 30
0.0
  0
ARC
  5
15E
330
1F
100
AcDbEntity
  8
0
  6
Continuous
 62
     7
370
    25
100
AcDbCircle
 10
1658.7086085302
 20
7583.8453197168
 30
0.0
 40
10.0
100
AcDbArc
 50
30.0
 51
90.0
  0
SPLINE
  5
15F
330
1F
100
AcDbEntity
  8
0
  6
Continuous
 62
     7
370
    25
100
AcDbSpline
210
0.0
220
0.0
230
1.0
 70
    24
 71
     3
 72
     9
 73
     5
 74
     0
 42
0.00000001
 43
0.00000001
 40
0.0
 40
0.0
 40
0.0
 40
0.0
 40
0.6081419703453684
 40
1.0
 40
1.0
 40
1.0
 40
1.0
 10
1667.368862568093
 20
7588.845319716822
 30
0.0
 10
1666.766875256139
 20
7589.887992326638
 30
0.0
 10
1665.776995686386
 20
7591.602514034824
 30
0.0
 10
1664.846667709931
 20
7593.213889357747
 30
0.0
 10
1664.482111222144
 20
7593.845319716822
 30
0.0
  0
SPLINE
  5
160
330
1F
100
AcDbEntity
  8
0
  6
Continuous
 62
     7
370
    25
100
AcDbSpline
210
0.0
220
0.0
230
1.0
 70
    24
 71
     3
 72
     9
 73
     5
 74
     0
 42
0.00000001
 43
0.00000001
 40
0.0
 40
0.0
 40
0.0
 40
0.0
 40
0.3221204093176308
 40
1.0
 40
1.0
 40
1.0
 40
1.0
 10
1664.482111222144
 20
7593.845319716822
 30
0.0
 10
1663.886027186125
 20
7593.845319716822
 30
0.0
 10
1662.035526507566
 20
7593.845319716823
 30
0.0
 10
1660.052715586096
 20
7593.845319716823
 30
0.0
 10
1658.708608530249
 20
7593.845319716822
 30
0.0
  0
CIRCLE
  5
161
330
1F
100
AcDbEntity
  8
0
  6
Continuous
 62
     7
370
    25
100
AcDbCircle
 10
1658.7086085302
 20
7583.8453197168
 30
0.0
 40
18.0
  0
CIRCLE
  5
162
330
1F
100
AcDbEntity
  8
0
  6
Continuous
 62
     7
370
    25
100
AcDbCircle
 10
1248.7086085302
 20
6562.8453197168
 30
0.0
 40
18.0
  0
CIRCLE
  5
163
330
1F
100
AcDbEntity
  8
0
  6
Continuous
 62
     7
370
    25
100
AcDbCircle
 10
1568.7086085302
 20
6562.8453197168
 30
0.0
 40
17.99999999999987
  0
CIRCLE
  5
164
330
1F
100
AcDbEntity
  8
0
  6
Continuous
 62
     7
370
    25
100
AcDbCircle
 10
1158.7086085302
 20
7583.8453197168
 30
0.0
 40
18.0
  0
LINE
  5
165
330
1F
100
AcDbEntity
  8
0
  6
Continuous
 62
     7
370
    25
100
AcDbLine
 10
1416.7086085303
 20
6866.9217109968
 30
0.0
 11
1400.7086085303
 21
6866.9217109968
 31
0.0
  0
LINE
  5
166
330
1F
100
AcDbEntity
  8
0
  6
Continuous
 62
     7
370
    25
100
AcDbLine
 10
1408.7086085303
 20
7442.9217109968
 30
0.0
 11
1416.7086085303
 21
7442.9217109968
 31
0.0
  0
LINE
  5
167
330
1F
100
AcDbEntity
  8
0
  6
Continuous
 62
     7
370
    25
100
AcDbLine
 10
1400.7086085303
 20
7442.9217109968
 30
0.0
 11
1408.7086085303
 21
7442.9217109968
 31
0.0
  0
LINE
  5
168
330
1F
100
AcDbEntity
  8
0
  6
Continuous
 62
     7
370
    25
100
AcDbLine
 10
1594.7086085302
 20
6866.9217109969
 30
0.0
 11
1578.7086085302
 21
6866.9217109969
 31
0.0
  0
LINE
  5
169
330
1F
100
AcDbEntity
  8
0
  6
Continuous
 62
     7
370
    25
100
AcDbLine
 10
1593.3566222241
 20
7442.9217109969
 30
0.0
 11
1594.7086085302
 21
7442.9217109969
 31
0.0
  0
LINE
  5
16A
330
1F
100
AcDbEntity
  8
0
  6
Continuous
 62
     7
370
    25
100
AcDbLine
 10
1578.7086085302
 20
7442.9217109969
 30
0.0
 11
1593.3566222241
 21
7442.9217109969
 31
0.0
  0
LINE
  5
16B
330
1F
100
AcDbEntity
  8
0
  6
Continuous
 62
     7
370
    25
100
AcDbLine
 10
1758.7086085302
 20
7598.8453197168
 30
0.0
 11
1758.7086085302
 21
7594.8453197168
 31
0.0
  0
LINE
  5
16C
330
1F
100
AcDbEntity
  8
0
  6
Continuous
 62
     7
370
    25
100
AcDbLine
 10
1758.7086085302
 20
7594.8453197168
 30
0.0
 11
1672.956415379
 21
7594.8453197168
 31
0.0
  0
LINE
  5
16D
330
1F
100
AcDbEntity
  8
0
  6
Continuous
 62
     7
370
    25
100
AcDbLine
 10
1644.4608016815
 20
7594.8453197168
 30
0.0
 11
1172.956415379
 21
7594.8453197168
 31
0.0
  0
LINE
  5
16E
330
1F
100
AcDbEntity
  8
0
  6
Continuous
 62
     7
370
    25
100
AcDbLine
 10
1144.4608016815
 20
7594.8453197168
 30
0.0
 11
1058.7086085302
 21
7594.8453197168
 31
0.0
  0
LINE
  5
16F
330
1F
100
AcDbEntity
  8
0
  6
Continuous
 62
     7
370
    25
100
AcDbLine
 10
1058.7086085302
 20
7598.8453197169
 30
0.0
 11
1058.7086085302
 21
7594.8453197168
 31
0.0
  0
LINE
  5
170
330
1F
100
AcDbEntity
  8
0
  6
Continuous
 62
     7
370
    25
100
AcDbLine
 10
1518.7086085302
 20
7552.8453197168
 30
0.0
 11
1298.7086085302
 21
7552.8453197168
 31
0.0
  0
LINE
  5
171
330
1F
100
AcDbEntity
  8
0
  6
Continuous
 62
     7
370
    25
100
AcDbLine
 10
1518.7086085302
 20
7612.8453197168
 30
0.0
 11
1298.7086085302
 21
7612.8453197168
 31
0.0
  0
LINE
  5
172
330
1F
100
AcDbEntity
  8
0
  6
Continuous
 62
     7
370
    25
100
AcDbLine
 10
1758.7086085302
 20
7570.8453197168
 30
0.0
 11
1671.1585081282
 21
7570.8453197168
 31
0.0
  0
LINE
  5
173
330
1F
100
AcDbEntity
  8
0
  6
Continuous
 62
     7
370
    25
100
AcDbLine
 10
1646.2587089323
 20
7570.8453197168
 30
0.0
 11
1171.1585081282
 21
7570.8453197168
 31
0.0
  0
LINE
  5
174
330
1F
100
AcDbEntity
  8
0
  6
Continuous
 62
     7
370
    25
100
AcDbLine
 10
1146.2587089323
 20
7570.8453197168
 30
0.0
 11
1058.7086085302
 21
7570.8453197168
 31
0.0
  0
LINE
  5
175
330
1F
100
AcDbEntity
  8
0
  6
Continuous
 62
     7
370
    25
100
AcDbLine
 10
1758.7086085302
 20
7570.8453197168
 30
0.0
 11
1758.7086085302
 21
7564.8453197168
 31
0.0
  0
LINE
  5
176
330
1F
100
AcDbEntity
  8
0
  6
Continuous
 62
     7
370
    25
100
AcDbLine
 10
1058.7086085302
 20
7570.8453197168
 30
0.0
 11
1058.7086085302
 21
7564.8453197169
 31
0.0
  0
LINE
  5
177
330
1F
100
AcDbEntity
  8
0
  6
Continuous
 62
     7
370
    25
100
AcDbLine
 10
1758.7086085302
 20
7594.8453197168
 30
0.0
 11
1758.7086085302
 21
7570.8453197168
 31
0.0
  0
LINE
  5
178
330
1F
100
AcDbEntity
  8
0
  6
Continuous
 62
     7
370
    25
100
AcDbLine
 10
1058.7086085302
 20
7594.8453197168
 30
0.0
 11
1058.7086085302
 21
7570.8453197168
 31
0.0
  0
LINE
  5
179
330
1F
100
AcDbEntity
  8
0
  6
Continuous
 62
     7
370
    25
100
AcDbLine
 10
1758.7086085303
 20
6579.8453197168
 30
0.0
 11
1758.7086085303
 21
6574.8453197168
 31
0.0
  0
LINE
  5
17A
330
1F
100
AcDbEntity
  8
0
  6
Continuous
 62
     7
370
    25
100
AcDbLine
 10
1758.7086085303
 20
6574.8453197168
 30
0.0
 11
1582.1250163952
 21
6574.8453197168
 31
0.0
  0
LINE
  5
17B
330
1F
100
AcDbEntity
  8
0
  6
Continuous
 62
     7
370
    25
100
AcDbLine
 10
1555.2922006652
 20
6574.8453197168
 30
0.0
 11
1262.1250163953
 21
6574.8453197168
 31
0.0
  0
LINE
  5
17C
330
1F
100
AcDbEntity
  8
0
  6
Continuous
 62
     7
370
    25
100
AcDbLine
 10
1235.2922006652
 20
6574.8453197168
 30
0.0
 11
1058.7086085303
 21
6574.8453197168
 31
0.0
  0
LINE
  5
17D
330
1F
100
AcDbEntity
  8
0
  6
Continuous
 62
     7
370
    25
100
AcDbLine
 10
1058.7086085303
 20
6579.8453197168
 30
0.0
 11
1058.7086085303
 21
6574.8453197168
 31
0.0
  0
LINE
  5
17E
330
1F
100
AcDbEntity
  8
0
  6
Continuous
 62
     7
370
    25
100
AcDbLine
 10
1518.7086085302
 20
6532.8453197168
 30
0.0
 11
1298.7086085302
 21
6532.8453197168
 31
0.0
  0
LINE
  5
17F
330
1F
100
AcDbEntity
  8
0
  6
Continuous
 62
     7
370
    25
100
AcDbLine
 10
1518.7086085302
 20
6592.8453197168
 30
0.0
 11
1298.7086085302
 21
6592.8453197168
 31
0.0
  0
LINE
  5
180
330
1F
100
AcDbEntity
  8
0
  6
Continuous
 62
     7
370
    25
100
AcDbLine
 10
1758.7086085303
 20
6550.8453197168
 30
0.0
 11
1582.1250163952
 21
6550.8453197168
 31
0.0
  0
LINE
  5
181
330
1F
100
AcDbEntity
  8
0
  6
Continuous
 62
     7
370
    25
100
AcDbLine
 10
1555.2922006652
 20
6550.8453197168
 30
0.0
 11
1262.1250163952
 21
6550.8453197168
 31
0.0
  0
LINE
  5
182
330
1F
100
AcDbEntity
  8
0
  6
Continuous
 62
     7
370
    25
100
AcDbLine
 10
1235.2922006653
 20
6550.8453197168
 30
0.0
 11
1058.7086085303
 21
6550.8453197168
 31
0.0
  0
LINE
  5
183
330
1F
100
AcDbEntity
  8
0
  6
Continuous
 62
     7
370
    25
100
AcDbLine
 10
1758.7086085303
 20
6550.8453197168
 30
0.0
 11
1758.7086085303
 21
6545.8453197168
 31
0.0
  0
LINE
  5
184
330
1F
100
AcDbEntity
  8
0
  6
Continuous
 62
     7
370
    25
100
AcDbLine
 10
1058.7086085303
 20
6550.8453197168
 30
0.0
 11
1058.7086085303
 21
6545.8453197168
 31
0.0
  0
LINE
  5
185
330
1F
100
AcDbEntity
  8
0
  6
Continuous
 62
     7
370
    25
100
AcDbLine
 10
1758.7086085303
 20
6574.8453197168
 30
0.0
 11
1758.7086085303
 21
6550.8453197168
 31
0.0
  0
LINE
  5
186
330
1F
100
AcDbEntity
  8
0
  6
Continuous
 62
     7
370
    25
100
AcDbLine
 10
1058.7086085303
 20
6574.8453197168
 30
0.0
 11
1058.7086085303
 21
6550.8453197168
 31
0.0
  0
LINE
  5
187
330
1F
100
AcDbEntity
  8
0
  6
Continuous
 62
     7
370
    25
100
AcDbLine
 10
1803.7086085302
 20
7330.8453197168
 30
0.0
 11
1013.7086085302
 21
7330.8453197168
 31
0.0
  0
LINE
  5
188
330
1F
100
AcDbEntity
  8
0
  6
Continuous
 62
     7
370
    25
100
AcDbLine
 10
1803.7086085302
 20
7330.8453197168
 30
0.0
 11
1803.7086085302
 21
7302.8453197168
 31
0.0
  0
LINE
  5
189
330
1F
100
AcDbEntity
  8
0
  6
Continuous
 62
     7
370
    25
100
AcDbLine
 10
1803.7086085302
 20
7302.8453197168
 30
0.0
 11
1013.7086085302
 21
7302.8453197168
 31
0.0
  0
LINE
  5
18A
330
1F
100
AcDbEntity
  8
0
  6
Continuous
 62
     7
370
    25
100
AcDbLine
 10
1013.7086085302
 20
7330.8453197168
 30
0.0
 11
1013.7086085302
 21
7302.8453197168
 31
0.0
  0
LINE
  5
18B
330
1F
100
AcDbEntity
  8
0
  6
Continuous
 62
     7
370
    25
100
AcDbLine
 10
1803.7086085302
 20
7302.8453197168
 30
0.0
 11
1803.7086085302
 21
7296.8453197168
 31
0.0
  0
LINE
  5
18C
330
1F
100
AcDbEntity
  8
0
  6
Continuous
 62
     7
370
    25
100
AcDbLine
 10
1803.7086085302
 20
7296.8453197168
 30
0.0
 11
1013.7086085302
 21
7296.8453197168
 31
0.0
  0
LINE
  5
18D
330
1F
100
AcDbEntity
  8
0
  6
Continuous
 62
     7
370
    25
100
AcDbLine
 10
1013.7086085302
 20
7302.8453197168
 30
0.0
 11
1013.7086085302
 21
7296.8453197168
 31
0.0
  0
LINE
  5
18E
330
1F
100
AcDbEntity
  8
0
  6
Continuous
 62
     7
370
    25
100
AcDbLine
 10
1803.7086085302
 20
7336.8453197168
 30
0.0
 11
1013.7086085302
 21
7336.8453197168
 31
0.0
  0
LINE
  5
18F
330
1F
100
AcDbEntity
  8
0
  6
Continuous
 62
     7
370
    25
100
AcDbLine
 10
1803.7086085302
 20
7336.8453197168
 30
0.0
 11
1803.7086085302
 21
7330.8453197168
 31
0.0
  0
LINE
  5
190
330
1F
100
AcDbEntity
  8
0
  6
Continuous
 62
     7
370
    25
100
AcDbLine
 10
1013.7086085302
 20
7336.8453197168
 30
0.0
 11
1013.7086085302
 21
7330.8453197168
 31
0.0
  0
CIRCLE
  5
191
330
1F
100
AcDbEntity
  8
0
  6
Continuous
 62
     7
370
    25
100
AcDbCircle
 10
1158.7086085302
 20
7583.8453197168
 30
0.0
 40
6.0
  0
LINE
  5
192
330
1F
100
AcDbEntity
  8
0
  6
Continuous
 62
     7
370
    25
100
AcDbLine
 10
1186.7086085302
 20
7570.8453197168
 30
0.0
 11
1186.7086085302
 21
7594.8453197168
 31
0.0
  0
LINE
  5
193
330
1F
100
AcDbEntity
  8
0
  6
Continuous
 62
     7
370
    25
100
AcDbLine
 10
1130.7086085302
 20
7594.8453197168
 30
0.0
 11
1130.7086085302
 21
7570.8453197168
 31
0.0
  0
CIRCLE
  5
194
330
1F
100
AcDbEntity
  8
0
  6
Continuous
 62
     7
370
    25
100
AcDbCircle
 10
1248.7086085303
 20
6562.8453197168
 30
0.0
 40
6.0
  0
LINE
  5
195
330
1F
100
AcDbEntity
  8
0
  6
Continuous
 62
     7
370
    25
100
AcDbLine
 10
1276.7086085303
 20
6550.8453197168
 30
0.0
 11
1276.7086085303
 21
6574.8453197168
 31
0.0
  0
LINE
  5
196
330
1F
100
AcDbEntity
  8
0
  6
Continuous
 62
     7
370
    25
100
AcDbLine
 10
1220.7086085303
 20
6574.8453197168
 30
0.0
 11
1220.7086085303
 21
6550.8453197168
 31
0.0
  0
CIRCLE
  5
197
330
1F
100
AcDbEntity
  8
0
  6
Continuous
 62
     7
370
    25
100
AcDbCircle
 10
1568.7086085303
 20
6562.8453197168
 30
0.0
 40
6.0
  0
LINE
  5
198
330
1F
100
AcDbEntity
  8
0
  6
Continuous
 62
     7
370
    25
100
AcDbLine
 10
1596.7086085303
 20
6550.8453197168
 30
0.0
 11
1596.7086085303
 21
6574.8453197168
 31
0.0
  0
LINE
  5
199
330
1F
100
AcDbEntity
  8
0
  6
Continuous
 62
     7
370
    25
100
AcDbLine
 10
1540.7086085303
 20
6574.8453197168
 30
0.0
 11
1540.7086085303
 21
6550.8453197168
 31
0.0
  0
CIRCLE
  5
19A
330
1F
100
AcDbEntity
  8
0
  6
Continuous
 62
     7
370
    25
100
AcDbCircle
 10
1658.7086085302
 20
7583.8453197168
 30
0.0
 40
6.0
  0
LINE
  5
19B
330
1F
100
AcDbEntity
  8
0
  6
Continuous
 62
     7
370
    25
100
AcDbLine
 10
1686.7086085302
 20
7570.8453197168
 30
0.0
 11
1686.7086085302
 21
7594.8453197168
 31
0.0
  0
LINE
  5
19C
330
1F
100
AcDbEntity
  8
0
  6
Continuous
 62
     7
370
    25
100
AcDbLine
 10
1630.7086085302
 20
7594.8453197168
 30
0.0
 11
1630.7086085302
 21
7570.8453197168
 31
0.0
  0
LINE
  5
19D
330
1F
100
AcDbEntity
  8
0
  6
Continuous
 62
     7
370
    25
100
AcDbLine
 10
1908.7086085302
 20
7720.8453197168
 30
0.0
 11
1902.7086085302
 21
7720.8453197168
 31
0.0
  0
LINE
  5
19E
330
1F
100
AcDbEntity
  8
0
  6
Continuous
 62
     7
370
    25
100
AcDbLine
 10
1908.7086085302
 20
7720.8453197168
 30
0.0
 11
1908.7086085302
 21
7220.8453197168
 31
0.0
  0
LINE
  5
19F
330
1F
100
AcDbEntity
  8
0
  6
Continuous
 62
     7
370
    25
100
AcDbLine
 10
1908.7086085302
 20
7220.8453197168
 30
0.0
 11
1902.7086085302
 21
7220.8453197168
 31
0.0
  0
LINE
  5
1A0
330
1F
100
AcDbEntity
  8
0
  6
Continuous
 62
     7
370
    25
100
AcDbLine
 10
1902.7086085302
 20
7552.8453197168
 30
0.0
 11
1902.7086085302
 21
7220.8453197168
 31
0.0
  0
LINE
  5
1A1
330
1F
100
AcDbEntity
  8
0
  6
Continuous
 62
     7
370
    25
100
AcDbLine
 10
1518.7086085302
 20
7552.8453197168
 30
0.0
 11
1902.7086085302
 21
7552.8453197168
 31
0.0
  0
LINE
  5
1A2
330
1F
100
AcDbEntity
  8
0
  6
Continuous
 62
     7
370
    25
100
AcDbLine
 10
1518.7086085302
 20
7552.8453197168
 30
0.0
 11
1518.7086085302
 21
7564.8453197168
 31
0.0
  0
LINE
  5
1A3
330
1F
100
AcDbEntity
  8
0
  6
Continuous
 62
     7
370
    25
100
AcDbLine
 10
1518.7086085302
 20
7564.8453197168
 30
0.0
 11
1902.7086085302
 21
7564.8453197168
 31
0.0
  0
LINE
  5
1A4
330
1F
100
AcDbEntity
  8
0
  6
Continuous
 62
     7
370
    25
100
AcDbLine
 10
1902.7086085302
 20
7598.8453197168
 30
0.0
 11
1902.7086085302
 21
7564.8453197168
 31
0.0
  0
LINE
  5
1A5
330
1F
100
AcDbEntity
  8
0
  6
Continuous
 62
     7
370
    25
100
AcDbLine
 10
1518.7086085302
 20
7598.8453197168
 30
0.0
 11
1648.7587341592
 21
7598.8453197168
 31
0.0
  0
LINE
  5
1A6
330
1F
100
AcDbEntity
  8
0
  6
Continuous
 62
     7
370
    25
100
AcDbLine
 10
1668.6584829013
 20
7598.8453197168
 30
0.0
 11
1902.7086085302
 21
7598.8453197168
 31
0.0
  0
LINE
  5
1A7
330
1F
100
AcDbEntity
  8
0
  6
Continuous
 62
     7
370
    25
100
AcDbLine
 10
1518.7086085302
 20
7598.8453197168
 30
0.0
 11
1518.7086085302
 21
7610.8453197168
 31
0.0
  0
LINE
  5
1A8
330
1F
100
AcDbEntity
  8
0
  6
Continuous
 62
     7
370
    25
100
AcDbLine
 10
1518.7086085302
 20
7610.8453197168
 30
0.0
 11
1902.7086085302
 21
7610.8453197168
 31
0.0
  0
LINE
  5
1A9
330
1F
100
AcDbEntity
  8
0
  6
Continuous
 62
     7
370
    25
100
AcDbLine
 10
1902.7086085302
 20
7720.8453197168
 30
0.0
 11
1902.7086085302
 21
7610.8453197168
 31
0.0
  0
LINE
  5
1AA
330
1F
100
AcDbEntity
  8
0
  6
Continuous
 62
     7
370
    25
100
AcDbLine
 10
1518.7086085302
 20
7616.8453197168
 30
0.0
 11
1902.7086085302
 21
7616.8453197168
 31
0.0
  0
LINE
  5
1AB
330
1F
100
AcDbEntity
  8
0
  6
Continuous
 62
     7
370
    25
100
AcDbLine
 10
1518.7086085302
 20
7610.8453197168
 30
0.0
 11
1518.7086085302
 21
7616.8453197168
 31
0.0
  0
LINE
  5
1AC
330
1F
100
AcDbEntity
  8
0
  6
Continuous
 62
     7
370
    25
100
AcDbLine
 10
1518.7086085302
 20
7546.8453197168
 30
0.0
 11
1902.7086085302
 21
7546.8453197168
 31
0.0
  0
LINE
  5
1AD
330
1F
100
AcDbEntity
  8
0
  6
Continuous
 62
     7
370
    25
100
AcDbLine
 10
1518.7086085302
 20
7546.8453197168
 30
0.0
 11
1518.7086085302
 21
7552.8453197168
 31
0.0
  0
LINE
  5
1AE
330
1F
100
AcDbEntity
  8
0
  6
Continuous
 62
     7
370
    25
100
AcDbLine
 10
1803.7086085302
 20
7300.8453197168
 30
0.0
 11
1902.7086085302
 21
7300.8453197168
 31
0.0
  0
LINE
  5
1AF
330
1F
100
AcDbEntity
  8
0
  6
Continuous
 62
     7
370
    25
100
AcDbLine
 10
1803.7086085302
 20
7331.8453197168
 30
0.0
 11
1902.7086085302
 21
7331.8453197168
 31
0.0
  0
LINE
  5
1B0
330
1F
100
AcDbEntity
  8
0
  6
Continuous
 62
     7
370
    25
100
AcDbLine
 10
1298.7086085302
 20
7610.8453197169
 30
0.0
 11
914.7086085302
 21
7610.8453197169
 31
0.0
  0
LINE
  5
1B1
330
1F
100
AcDbEntity
  8
0
  6
Continuous
 62
     7
370
    25
100
AcDbLine
 10
1298.7086085302
 20
7598.8453197169
 30
0.0
 11
1298.7086085302
 21
7610.8453197169
 31
0.0
  0
LINE
  5
1B2
330
1F
100
AcDbEntity
  8
0
  6
Continuous
 62
     7
370
    25
100
AcDbLine
 10
1298.7086085302
 20
7598.8453197169
 30
0.0
 11
1168.6584829013
 21
7598.8453197169
 31
0.0
  0
LINE
  5
1B3
330
1F
100
AcDbEntity
  8
0
  6
Continuous
 62
     7
370
    25
100
AcDbLine
 10
1148.7587341592
 20
7598.8453197169
 30
0.0
 11
914.7086085302
 21
7598.8453197169
 31
0.0
  0
LINE
  5
1B4
330
1F
100
AcDbEntity
  8
0
  6
Continuous
 62
     7
370
    25
100
AcDbLine
 10
914.7086085302
 20
7598.8453197169
 30
0.0
 11
914.7086085302
 21
7564.8453197169
 31
0.0
  0
LINE
  5
1B5
330
1F
100
AcDbEntity
  8
0
  6
Continuous
 62
     7
370
    25
100
AcDbLine
 10
1298.7086085302
 20
7564.8453197169
 30
0.0
 11
914.7086085302
 21
7564.8453197169
 31
0.0
  0
LINE
  5
1B6
330
1F
100
AcDbEntity
  8
0
  6
Continuous
 62
     7
370
    25
100
AcDbLine
 10
1298.7086085302
 20
7552.8453197169
 30
0.0
 11
1298.7086085302
 21
7564.8453197169
 31
0.0
  0
LINE
  5
1B7
330
1F
100
AcDbEntity
  8
0
  6
Continuous
 62
     7
370
    25
100
AcDbLine
 10
1298.7086085302
 20
7552.8453197169
 30
0.0
 11
914.7086085302
 21
7552.8453197169
 31
0.0
  0
LINE
  5
1B8
330
1F
100
AcDbEntity
  8
0
  6
Continuous
 62
     7
370
    25
100
AcDbLine
 10
914.7086085302
 20
7552.8453197169
 30
0.0
 11
914.7086085302
 21
7220.8453197169
 31
0.0
  0
LINE
  5
1B9
330
1F
100
AcDbEntity
  8
0
  6
Continuous
 62
     7
370
    25
100
AcDbLine
 10
908.7086085302
 20
7220.8453197169
 30
0.0
 11
914.7086085302
 21
7220.8453197169
 31
0.0
  0
LINE
  5
1BA
330
1F
100
AcDbEntity
  8
0
  6
Continuous
 62
     7
370
    25
100
AcDbLine
 10
908.7086085302
 20
7720.8453197169
 30
0.0
 11
908.7086085302
 21
7220.8453197169
 31
0.0
  0
LINE
  5
1BB
330
1F
100
AcDbEntity
  8
0
  6
Continuous
 62
     7
370
    25
100
AcDbLine
 10
908.7086085302
 20
7720.8453197169
 30
0.0
 11
914.7086085302
 21
7720.8453197169
 31
0.0
  0
LINE
  5
1BC
330
1F
100
AcDbEntity
  8
0
  6
Continuous
 62
     7
370
    25
100
AcDbLine
 10
914.7086085302
 20
7720.8453197169
 30
0.0
 11
914.7086085302
 21
7610.8453197169
 31
0.0
  0
LINE
  5
1BD
330
1F
100
AcDbEntity
  8
0
  6
Continuous
 62
     7
370
    25
100
AcDbLine
 10
1298.7086085302
 20
7616.8453197169
 30
0.0
 11
914.7086085302
 21
7616.8453197169
 31
0.0
  0
LINE
  5
1BE
330
1F
100
AcDbEntity
  8
0
  6
Continuous
 62
     7
370
    25
100
AcDbLine
 10
1298.7086085302
 20
7610.8453197169
 30
0.0
 11
1298.7086085302
 21
7616.8453197169
 31
0.0
  0
LINE
  5
1BF
330
1F
100
AcDbEntity
  8
0
  6
Continuous
 62
     7
370
    25
100
AcDbLine
 10
1298.7086085302
 20
7546.8453197169
 30
0.0
 11
914.7086085302
 21
7546.8453197169
 31
0.0
  0
LINE
  5
1C0
330
1F
100
AcDbEntity
  8
0
  6
Continuous
 62
     7
370
    25
100
AcDbLine
 10
1298.7086085302
 20
7546.8453197169
 30
0.0
 11
1298.7086085302
 21
7552.8453197169
 31
0.0
  0
LINE
  5
1C1
330
1F
100
AcDbEntity
  8
0
  6
Continuous
 62
     7
370
    25
100
AcDbLine
 10
1013.7086085302
 20
7300.8453197169
 30
0.0
 11
914.7086085302
 21
7300.8453197169
 31
0.0
  0
LINE
  5
1C2
330
1F
100
AcDbEntity
  8
0
  6
Continuous
 62
     7
370
    25
100
AcDbLine
 10
1013.7086085302
 20
7331.8453197169
 30
0.0
 11
914.7086085302
 21
7331.8453197169
 31
0.0
  0
LINE
  5
1C3
330
1F
100
AcDbEntity
  8
0
  6
Continuous
 62
     8
370
    25
100
AcDbLine
 10
1640.7086085303
 20
6777.9217109968
 30
0.0
 11
1660.7086085303
 21
6777.9217109968
 31
0.0
  0
LINE
  5
1C4
330
1F
100
AcDbEntity
  8
0
  6
Continuous
 62
     8
370
    25
100
AcDbLine
 10
1512.7086085303
 20
6777.9217109968
 30
0.0
 11
1532.7086085303
 21
6777.9217109968
 31
0.0
  0
LINE
  5
1C5
330
1F
100
AcDbEntity
  8
0
  6
Continuous
 62
     8
370
    25
100
AcDbLine
 10
1492.7086085303
 20
6777.9217109968
 30
0.0
 11
1502.7086085303
 21
6777.9217109968
 31
0.0
  0
LINE
  5
1C6
330
1F
100
AcDbEntity
  8
0
  6
Continuous
 62
     8
370
    25
100
AcDbLine
 10
1482.7086085303
 20
6777.9217109968
 30
0.0
 11
1492.7086085303
 21
6777.9217109968
 31
0.0
  0
LINE
  5
1C7
330
1F
100
AcDbEntity
  8
0
  6
Continuous
 62
     8
370
    25
100
AcDbLine
 10
1324.7086085303
 20
6777.9217109968
 30
0.0
 11
1334.7086085303
 21
6777.9217109968
 31
0.0
  0
LINE
  5
1C8
330
1F
100
AcDbEntity
  8
0
  6
Continuous
 62
     8
370
    25
100
AcDbLine
 10
1314.7086085303
 20
6777.9217109968
 30
0.0
 11
1324.7086085303
 21
6777.9217109968
 31
0.0
  0
LINE
  5
1C9
330
1F
100
AcDbEntity
  8
0
  6
Continuous
 62
     8
370
    25
100
AcDbLine
 10
1518.7086085302
 20
7606.8453197168
 30
0.0
 11
1298.7086085302
 21
7606.8453197168
 31
0.0
  0
LINE
  5
1CA
330
1F
100
AcDbEntity
  8
0
  6
Continuous
 62
     8
370
    25
100
AcDbLine
 10
1518.7086085302
 20
7558.8453197168
 30
0.0
 11
1298.7086085302
 21
7558.8453197168
 31
0.0
  0
LINE
  5
1CB
330
1F
100
AcDbEntity
  8
0
  6
Continuous
 62
     8
370
    25
100
AcDbLine
 10
1518.7086085302
 20
6586.8453197168
 30
0.0
 11
1298.7086085302
 21
6586.8453197168
 31
0.0
  0
LINE
  5
1CC
330
1F
100
AcDbEntity
  8
0
  6
Continuous
 62
     8
370
    25
100
AcDbLine
 10
1518.7086085302
 20
6538.8453197168
 30
0.0
 11
1298.7086085302
 21
6538.8453197168
 31
0.0
  0
LINE
  5
1CD
330
1F
100
AcDbEntity
  8
0
  6
Continuous
 62
     7
370
    25
100
AcDbLine
 10
2536.611541444
 20
6780.9217109968
 30
0.0
 11
2536.611541444
 21
6777.9217109968
 31
0.0
  0
LINE
  5
1CE
330
1F
100
AcDbEntity
  8
0
  6
Continuous
 62
     7
370
    25
100
AcDbLine
 10
2556.611541444
 20
6777.9217109968
 30
0.0
 11
2556.611541444
 21
6780.9217109968
 31
0.0
  0
ARC
  5
1CF
330
1F
100
AcDbEntity
  8
0
  6
Continuous
 62
     7
370
    25
100
AcDbCircle
 10
2552.611541444
 20
6777.9217109968
 30
0.0
 40
4.000000000000909
100
AcDbArc
 50
270.0
 51
0.0
  0
ARC
  5
1D0
330
1F
100
AcDbEntity
  8
0
  6
Continuous
 62
     7
370
    25
100
AcDbCircle
 10
2540.611541444
 20
6777.9217109968
 30
0.0
 40
4.000000000000909
100
AcDbArc
 50
180.0
 51
270.0
  0
LINE
  5
1D1
330
1F
100
AcDbEntity
  8
0
  6
Continuous
 62
     7
370
    25
100
AcDbLine
 10
2551.611541444
 20
6788.9217109968
 30
0.0
 11
2551.611541444
 21
6810.9217109968
 31
0.0
  0
LINE
  5
1D2
330
1F
100
AcDbEntity
  8
0
  6
Continuous
 62
     7
370
    25
100
AcDbLine
 10
2541.611541444
 20
6810.9217109968
 30
0.0
 11
2541.611541444
 21
6788.9217109968
 31
0.0
  0
LINE
  5
1D3
330
1F
100
AcDbEntity
  8
0
  6
Continuous
 62
     7
370
    25
100
AcDbLine
 10
2533.611541444
 20
6843.928853854
 30
0.0
 11
2524.311541444
 21
6845.9217109968
 31
0.0
  0
LINE
  5
1D4
330
1F
100
AcDbEntity
  8
0
  6
Continuous
 62
     7
370
    25
100
AcDbLine
 10
2524.311541444
 20
6723.9217109968
 30
0.0
 11
2538.311541444
 21
6726.9217109968
 31
0.0
  0
LINE
  5
1D5
330
1F
100
AcDbEntity
  8
0
  6
Continuous
 62
     7
370
    25
100
AcDbLine
 10
2568.911541444
 20
6845.9217109968
 30
0.0
 11
2559.611541444
 21
6843.928853854
 31
0.0
  0
LINE
  5
1D6
330
1F
100
AcDbEntity
  8
0
  6
Continuous
 62
     7
370
    25
100
AcDbLine
 10
2554.911541444
 20
6726.9217109968
 30
0.0
 11
2568.911541444
 21
6723.9217109968
 31
0.0
  0
LINE
  5
1D7
330
1F
100
AcDbEntity
  8
0
  6
Continuous
 62
     7
370
    25
100
AcDbLine
 10
2538.311541444
 20
6728.9217109968
 30
0.0
 11
2554.911541444
 21
6728.9217109968
 31
0.0
  0
LINE
  5
1D8
330
1F
100
AcDbEntity
  8
0
  6
Continuous
 62
     7
370
    25
100
AcDbLine
 10
2616.8835455379
 20
6544.8453197168
 30
0.0
 11
2619.8835455379
 21
6544.8453197168
 31
0.0
  0
LINE
  5
1D9
330
1F
100
AcDbEntity
  8
0
  6
Continuous
 62
     7
370
    25
100
AcDbLine
 10
2619.8835455379
 20
6580.8453197168
 30
0.0
 11
2616.8835455379
 21
6580.8453197168
 31
0.0
  0
LINE
  5
1DA
330
1F
100
AcDbEntity
  8
0
  6
Continuous
 62
     7
370
    25
100
AcDbLine
 10
2616.8835455377
 20
7565.8453197168
 30
0.0
 11
2619.8835455377
 21
7565.8453197168
 31
0.0
  0
LINE
  5
1DB
330
1F
100
AcDbEntity
  8
0
  6
Continuous
 62
     7
370
    25
100
AcDbLine
 10
2619.8835455377
 20
7601.8453197168
 30
0.0
 11
2616.8835455377
 21
7601.8453197168
 31
0.0
  0
LINE
  5
1DC
330
1F
100
AcDbEntity
  8
0
  6
Continuous
 62
     7
370
    25
100
AcDbLine
 10
2554.611541444
 20
6866.9217109968
 30
0.0
 11
2554.611541444
 21
7220.8453197169
 31
0.0
  0
LINE
  5
1DD
330
1F
100
AcDbEntity
  8
0
  6
Continuous
 62
     7
370
    25
100
AcDbLine
 10
2538.611541444
 20
7273.3869823185
 30
0.0
 11
2538.611541444
 21
7256.3036571152
 31
0.0
  0
LINE
  5
1DE
330
1F
100
AcDbEntity
  8
0
  6
Continuous
 62
     7
370
    25
100
AcDbLine
 10
2538.611541444
 20
7220.8453197169
 30
0.0
 11
2538.611541444
 21
6866.9217109968
 31
0.0
  0
LINE
  5
1DF
330
1F
100
AcDbEntity
  8
0
  6
Continuous
 62
     7
370
    25
100
AcDbLine
 10
2554.111541444
 20
6852.9217109968
 30
0.0
 11
2554.111541444
 21
6866.9217109968
 31
0.0
  0
LINE
  5
1E0
330
1F
100
AcDbEntity
  8
0
  6
Continuous
 62
     7
370
    25
100
AcDbLine
 10
2539.111541444
 20
6866.9217109968
 30
0.0
 11
2539.111541444
 21
6852.9217109968
 31
0.0
  0
LINE
  5
1E1
330
1F
100
AcDbEntity
  8
0
  6
Continuous
 62
     7
370
    25
100
AcDbLine
 10
2573.811541444
 20
7577.8453197168
 30
0.0
 11
2616.8835455377
 21
7577.8453197168
 31
0.0
  0
LINE
  5
1E2
330
1F
100
AcDbEntity
  8
0
  6
Continuous
 62
     7
370
    25
100
AcDbLine
 10
2630.2835455377
 20
7577.8453197168
 30
0.0
 11
2759.411541444
 21
7577.8453197168
 31
0.0
  0
LINE
  5
1E3
330
1F
100
AcDbEntity
  8
0
  6
Continuous
 62
     7
370
    25
100
AcDbLine
 10
2759.411541444
 20
7589.8453197168
 30
0.0
 11
2630.2835455377
 21
7589.8453197168
 31
0.0
  0
LINE
  5
1E4
330
1F
100
AcDbEntity
  8
0
  6
Continuous
 62
     7
370
    25
100
AcDbLine
 10
2616.8835455377
 20
7589.8453197168
 30
0.0
 11
2573.811541444
 21
7589.8453197168
 31
0.0
  0
LINE
  5
1E5
330
1F
100
AcDbEntity
  8
0
  6
Continuous
 62
     7
370
    25
100
AcDbLine
 10
2573.811541444
 20
6556.8453197168
 30
0.0
 11
2616.8835455379
 21
6556.8453197168
 31
0.0
  0
LINE
  5
1E6
330
1F
100
AcDbEntity
  8
0
  6
Continuous
 62
     7
370
    25
100
AcDbLine
 10
2630.2835455379
 20
6556.8453197168
 30
0.0
 11
2762.611541444
 21
6556.8453197168
 31
0.0
  0
LINE
  5
1E7
330
1F
100
AcDbEntity
  8
0
  6
Continuous
 62
     7
370
    25
100
AcDbLine
 10
2762.611541444
 20
6568.8453197168
 30
0.0
 11
2630.2835455379
 21
6568.8453197168
 31
0.0
  0
LINE
  5
1E8
330
1F
100
AcDbEntity
  8
0
  6
Continuous
 62
     7
370
    25
100
AcDbLine
 10
2616.8835455379
 20
6568.8453197168
 30
0.0
 11
2573.811541444
 21
6568.8453197168
 31
0.0
  0
LINE
  5
1E9
330
1F
100
AcDbEntity
  8
0
  6
Continuous
 62
     7
370
    25
100
AcDbLine
 10
2513.811541444
 20
7321.3453197169
 30
0.0
 11
2511.811541444
 21
7321.3453197169
 31
0.0
  0
LINE
  5
1EA
330
1F
100
AcDbEntity
  8
0
  6
Continuous
 62
     7
370
    25
100
AcDbLine
 10
2511.811541444
 20
7311.3453197169
 30
0.0
 11
2513.811541444
 21
7311.3453197169
 31
0.0
  0
LINE
  5
1EB
330
1F
100
AcDbEntity
  8
0
  6
Continuous
 62
     7
370
    25
100
AcDbLine
 10
2513.811541444
 20
7321.8453197168
 30
0.0
 11
2511.811541444
 21
7321.8453197168
 31
0.0
  0
LINE
  5
1EC
330
1F
100
AcDbEntity
  8
0
  6
Continuous
 62
     7
370
    25
100
AcDbLine
 10
2566.611541444
 20
6788.9217109968
 30
0.0
 11
2526.611541444
 21
6788.9217109968
 31
0.0
  0
LINE
  5
1ED
330
1F
100
AcDbEntity
  8
0
  6
Continuous
 62
     7
370
    25
100
AcDbLine
 10
2566.611541444
 20
6788.9217109968
 30
0.0
 11
2566.611541444
 21
6780.9217109968
 31
0.0
  0
LINE
  5
1EE
330
1F
100
AcDbEntity
  8
0
  6
Continuous
 62
     7
370
    25
100
AcDbLine
 10
2566.611541444
 20
6780.9217109968
 30
0.0
 11
2526.611541444
 21
6780.9217109968
 31
0.0
  0
LINE
  5
1EF
330
1F
100
AcDbEntity
  8
0
  6
Continuous
 62
     7
370
    25
100
AcDbLine
 10
2526.611541444
 20
6788.9217109968
 30
0.0
 11
2526.611541444
 21
6780.9217109968
 31
0.0
  0
LINE
  5
1F0
330
1F
100
AcDbEntity
  8
0
  6
Continuous
 62
     7
370
    25
100
AcDbLine
 10
2552.611541444
 20
6773.9217109968
 30
0.0
 11
2540.611541444
 21
6773.9217109968
 31
0.0
  0
LINE
  5
1F1
330
1F
100
AcDbEntity
  8
0
  6
Continuous
 62
     7
370
    25
100
AcDbLine
 10
2551.611541444
 20
6810.9217109968
 30
0.0
 11
2541.611541444
 21
6810.9217109968
 31
0.0
  0
ELLIPSE
  5
1F2
330
1F
100
AcDbEntity
  8
0
  6
Continuous
 62
     7
370
    25
100
AcDbEllipse
 10
2474.5411272429
 20
6784.9217109968
 30
0.0
 11
124.1275748567436
 21
0.0
 31
0.0
210
0.0
220
0.0
230
1.0
 40
0.5361109642
 41
1.031247488784156
 42
1.074826660447568
  0
LINE
  5
1F3
330
1F
100
AcDbEntity
  8
0
  6
Continuous
 62
     7
370
    25
100
AcDbLine
 10
2538.311541444
 20
6788.9217109968
 30
0.0
 11
2538.311541444
 21
6842.0143550064
 31
0.0
  0
LINE
  5
1F4
330
1F
100
AcDbEntity
  8
0
  6
Continuous
 62
     7
370
    25
100
AcDbLine
 10
2524.311541444
 20
6788.9217109968
 30
0.0
 11
2524.311541444
 21
6845.9217109968
 31
0.0
  0
LINE
  5
1F5
330
1F
100
AcDbEntity
  8
0
  6
Continuous
 62
     7
370
    25
100
AcDbLine
 10
2526.611541444
 20
6788.9217109968
 30
0.0
 11
2524.311541444
 21
6788.9217109968
 31
0.0
  0
LINE
  5
1F6
330
1F
100
AcDbEntity
  8
0
  6
Continuous
 62
     7
370
    25
100
AcDbLine
 10
2538.311541444
 20
6726.9217109968
 30
0.0
 11
2538.311541444
 21
6774.6490973624
 31
0.0
  0
LINE
  5
1F7
330
1F
100
AcDbEntity
  8
0
  6
Continuous
 62
     7
370
    25
100
AcDbLine
 10
2524.311541444
 20
6723.9217109968
 30
0.0
 11
2524.311541444
 21
6780.9217109968
 31
0.0
  0
LINE
  5
1F8
330
1F
100
AcDbEntity
  8
0
  6
Continuous
 62
     7
370
    25
100
AcDbLine
 10
2524.311541444
 20
6780.9217109968
 30
0.0
 11
2526.611541444
 21
6780.9217109968
 31
0.0
  0
LINE
  5
1F9
330
1F
100
AcDbEntity
  8
0
  6
Continuous
 62
     7
370
    25
100
AcDbLine
 10
2568.911541444
 20
6788.9217109968
 30
0.0
 11
2568.911541444
 21
6845.9217109968
 31
0.0
  0
LINE
  5
1FA
330
1F
100
AcDbEntity
  8
0
  6
Continuous
 62
     7
370
    25
100
AcDbLine
 10
2554.911541444
 20
6788.9217109968
 30
0.0
 11
2554.911541444
 21
6842.0143550064
 31
0.0
  0
ELLIPSE
  5
1FB
330
1F
100
AcDbEntity
  8
0
  6
Continuous
 62
     7
370
    25
100
AcDbEllipse
 10
2618.6819556452
 20
6784.9217109968
 30
0.0
 11
124.1275748567436
 21
0.0
 31
0.0
210
0.0
220
0.0
230
1.0
 40
0.5361109642
 41
2.066765993142229
 42
2.110345164805637
  0
LINE
  5
1FC
330
1F
100
AcDbEntity
  8
0
  6
Continuous
 62
     7
370
    25
100
AcDbLine
 10
2568.911541444
 20
6788.9217109968
 30
0.0
 11
2566.611541444
 21
6788.9217109968
 31
0.0
  0
LINE
  5
1FD
330
1F
100
AcDbEntity
  8
0
  6
Continuous
 62
     7
370
    25
100
AcDbLine
 10
2554.911541444
 20
6726.9217109968
 30
0.0
 11
2554.911541444
 21
6774.6490973624
 31
0.0
  0
LINE
  5
1FE
330
1F
100
AcDbEntity
  8
0
  6
Continuous
 62
     7
370
    25
100
AcDbLine
 10
2568.911541444
 20
6723.9217109968
 30
0.0
 11
2568.911541444
 21
6780.9217109968
 31
0.0
  0
LINE
  5
1FF
330
1F
100
AcDbEntity
  8
0
  6
Continuous
 62
     7
370
    25
100
AcDbLine
 10
2566.611541444
 20
6780.9217109968
 30
0.0
 11
2568.911541444
 21
6780.9217109968
 31
0.0
  0
ELLIPSE
  5
200
330
1F
100
AcDbEntity
  8
0
  6
Continuous
 62
     7
370
    25
100
AcDbEllipse
 10
2520.611541444
 20
6784.9217109968
 30
0.0
 11
96.99484522385728
 21
0.0
 31
0.0
210
0.0
220
0.0
230
1.0
 40
0.5773502692
 41
1.299422247474157
 42
1.387284120242606
  0
ELLIPSE
  5
201
330
1F
100
AcDbEntity
  8
0
  6
Continuous
 62
     7
370
    25
100
AcDbEllipse
 10
2572.611541444
 20
6784.9217109968
 30
0.0
 11
96.99484522385728
 21
0.0
 31
0.0
210
0.0
220
0.0
230
1.0
 40
0.5773502692
 41
1.754308533347187
 42
1.842170406115631
  0
LINE
  5
202
330
1F
100
AcDbEntity
  8
0
  6
Continuous
 62
     7
370
    25
100
AcDbLine
 10
2533.611541444
 20
6852.9217109968
 30
0.0
 11
2533.611541444
 21
6843.4495639801
 31
0.0
  0
LINE
  5
203
330
1F
100
AcDbEntity
  8
0
  6
Continuous
 62
     7
370
    25
100
AcDbLine
 10
2533.611541444
 20
6852.9217109968
 30
0.0
 11
2546.611541444
 21
6852.9217109968
 31
0.0
  0
LINE
  5
204
330
1F
100
AcDbEntity
  8
0
  6
Continuous
 62
     7
370
    25
100
AcDbLine
 10
2546.611541444
 20
6852.9217109968
 30
0.0
 11
2546.611541444
 21
6838.87230568
 31
0.0
  0
LINE
  5
205
330
1F
100
AcDbEntity
  8
0
  6
Continuous
 62
     7
370
    25
100
AcDbLine
 10
2559.611541444
 20
6852.9217109968
 30
0.0
 11
2559.611541444
 21
6843.4495639801
 31
0.0
  0
LINE
  5
206
330
1F
100
AcDbEntity
  8
0
  6
Continuous
 62
     7
370
    25
100
AcDbLine
 10
2546.611541444
 20
6852.9217109968
 30
0.0
 11
2559.611541444
 21
6852.9217109968
 31
0.0
  0
CIRCLE
  5
207
330
1F
100
AcDbEntity
  8
0
  6
Continuous
 62
     7
370
    25
100
AcDbCircle
 10
2543.811541444
 20
6482.8453197168
 30
0.0
 40
10.00000000000045
  0
LINE
  5
208
330
1F
100
AcDbEntity
  8
0
  6
Continuous
 62
     7
370
    25
100
AcDbLine
 10
2513.811541444
 20
6685.8453197168
 30
0.0
 11
2513.811541444
 21
6439.8453197168
 31
0.0
  0
LINE
  5
209
330
1F
100
AcDbEntity
  8
0
  6
Continuous
 62
     7
370
    25
100
AcDbLine
 10
2573.811541444
 20
6439.8453197168
 30
0.0
 11
2573.811541444
 21
6685.8453197168
 31
0.0
  0
CIRCLE
  5
20A
330
1F
100
AcDbEntity
  8
0
  6
Continuous
 62
     7
370
    25
100
AcDbCircle
 10
2543.811541444
 20
6642.8453197168
 30
0.0
 40
10.00000000000045
  0
LINE
  5
20B
330
1F
100
AcDbEntity
  8
0
  6
Continuous
 62
     7
370
    25
100
AcDbLine
 10
2573.811541444
 20
6685.8453197168
 30
0.0
 11
2513.811541444
 21
6685.8453197168
 31
0.0
  0
LINE
  5
20C
330
1F
100
AcDbEntity
  8
0
  6
Continuous
 62
     7
370
    25
100
AcDbLine
 10
2513.811541444
 20
6439.8453197168
 30
0.0
 11
2573.811541444
 21
6439.8453197168
 31
0.0
  0
LINE
  5
20D
330
1F
100
AcDbEntity
  8
0
  6
Continuous
 62
     7
370
    25
100
AcDbLine
 10
2507.811541444
 20
6591.8453197168
 30
0.0
 11
2507.811541444
 21
6533.8453197168
 31
0.0
  0
ARC
  5
20E
330
1F
100
AcDbEntity
  8
0
  6
Continuous
 62
     7
370
    25
100
AcDbCircle
 10
2509.811541444
 20
6533.8453197168
 30
0.0
 40
2.0
100
AcDbArc
 50
180.0
 51
270.0
  0
LINE
  5
20F
330
1F
100
AcDbEntity
  8
0
  6
Continuous
 62
     7
370
    25
100
AcDbLine
 10
2513.811541444
 20
6527.8453197168
 30
0.0
 11
2509.811541444
 21
6527.8453197168
 31
0.0
  0
ARC
  5
210
330
1F
100
AcDbEntity
  8
0
  6
Continuous
 62
     7
370
    25
100
AcDbCircle
 10
2509.811541444
 20
6533.8453197168
 30
0.0
 40
6.0
100
AcDbArc
 50
180.0
 51
270.0
  0
LINE
  5
211
330
1F
100
AcDbEntity
  8
0
  6
Continuous
 62
     7
370
    25
100
AcDbLine
 10
2503.811541444
 20
6533.8453197168
 30
0.0
 11
2503.811541444
 21
6591.8453197168
 31
0.0
  0
ARC
  5
212
330
1F
100
AcDbEntity
  8
0
  6
Continuous
 62
     7
370
    25
100
AcDbCircle
 10
2509.811541444
 20
6591.8453197168
 30
0.0
 40
6.0
100
AcDbArc
 50
90.0
 51
180.0
  0
LINE
  5
213
330
1F
100
AcDbEntity
  8
0
  6
Continuous
 62
     7
370
    25
100
AcDbLine
 10
2513.811541444
 20
6593.8453197168
 30
0.0
 11
2509.811541444
 21
6593.8453197168
 31
0.0
  0
LINE
  5
214
330
1F
100
AcDbEntity
  8
0
  6
Continuous
 62
     7
370
    25
100
AcDbLine
 10
2509.811541444
 20
6531.8453197168
 30
0.0
 11
2513.811541444
 21
6531.8453197168
 31
0.0
  0
LINE
  5
215
330
1F
100
AcDbEntity
  8
0
  6
Continuous
 62
     7
370
    25
100
AcDbLine
 10
2509.811541444
 20
6597.8453197168
 30
0.0
 11
2513.811541444
 21
6597.8453197168
 31
0.0
  0
ARC
  5
216
330
1F
100
AcDbEntity
  8
0
  6
Continuous
 62
     7
370
    25
100
AcDbCircle
 10
2509.811541444
 20
6591.8453197168
 30
0.0
 40
2.0
100
AcDbArc
 50
90.0
 51
180.0
  0
SPLINE
  5
217
330
1F
100
AcDbEntity
  8
0
  6
Continuous
 62
     7
370
    25
100
AcDbSpline
210
0.0
220
0.0
230
1.0
 70
     8
 71
     3
 72
     9
 73
     5
 74
     0
 42
0.00000001
 43
0.00000001
 40
0.0
 40
0.0
 40
0.0
 40
0.0
 40
0.6081419703452358
 40
1.0
 40
1.0
 40
1.0
 40
1.0
 10
2619.883545537656
 20
7578.845319716838
 30
0.0
 10
2619.915467838953
 20
7579.887992326654
 30
0.0
 10
2619.967959367005
 20
7581.60251403484
 30
0.0
 10
2620.625775143574
 20
7583.213889357762
 30
0.0
 10
2620.883545537657
 20
7583.845319716837
 30
0.0
  0
SPLINE
  5
218
330
1F
100
AcDbEntity
  8
0
  6
Continuous
 62
     7
370
    25
100
AcDbSpline
210
0.0
220
0.0
230
1.0
 70
     8
 71
     3
 72
     9
 73
     5
 74
     0
 42
0.00000001
 43
0.00000001
 40
0.0
 40
0.0
 40
0.0
 40
0.0
 40
0.6360037752867018
 40
1.0
 40
1.0
 40
1.0
 40
1.0
 10
2620.883545537657
 20
7583.845319716837
 30
0.0
 10
2620.510835626561
 20
7584.884942054605
 30
0.0
 10
2619.924817232368
 20
7586.51955866879
 30
0.0
 10
2619.894559307922
 20
7588.224666795857
 30
0.0
 10
2619.883545537656
 20
7588.845319716838
 30
0.0
  0
LINE
  5
219
330
1F
100
AcDbEntity
  8
0
  6
Continuous
 62
     7
370
    25
100
AcDbLine
 10
2629.2835455377
 20
7583.8453197168
 30
0.0
 11
2620.8835455377
 21
7583.8453197168
 31
0.0
  0
SPLINE
  5
21A
330
1F
100
AcDbEntity
  8
0
  6
Continuous
 62
     7
370
    25
100
AcDbSpline
210
0.0
220
0.0
230
1.0
 70
     8
 71
     3
 72
     9
 73
     5
 74
     0
 42
0.00000001
 43
0.00000001
 40
0.0
 40
0.0
 40
0.0
 40
0.0
 40
0.6360037752867055
 40
1.0
 40
1.0
 40
1.0
 40
1.0
 10
2629.283545537656
 20
7583.845319716836
 30
0.0
 10
2629.65625544875
 20
7582.805697379069
 30
0.0
 10
2630.242273842943
 20
7581.171080764884
 30
0.0
 10
2630.272531767389
 20
7579.465972637817
 30
0.0
 10
2630.283545537655
 20
7578.845319716836
 30
0.0
  0
SPLINE
  5
21B
330
1F
100
AcDbEntity
  8
0
  6
Continuous
 62
     7
370
    25
100
AcDbSpline
210
0.0
220
0.0
230
1.0
 70
     8
 71
     3
 72
     9
 73
     5
 74
     0
 42
0.00000001
 43
0.00000001
 40
0.0
 40
0.0
 40
0.0
 40
0.0
 40
0.6081419703455032
 40
1.0
 40
1.0
 40
1.0
 40
1.0
 10
2630.283545537655
 20
7578.845319716836
 30
0.0
 10
2630.251623236358
 20
7577.802647107021
 30
0.0
 10
2630.199131708303
 20
7576.088125398835
 30
0.0
 10
2629.541315931738
 20
7574.476750075912
 30
0.0
 10
2629.283545537658
 20
7573.845319716836
 30
0.0
  0
LINE
  5
21C
330
1F
100
AcDbEntity
  8
0
  6
Continuous
 62
     7
370
    25
100
AcDbLine
 10
2629.2835455377
 20
7573.8453197168
 30
0.0
 11
2620.8835455377
 21
7573.8453197168
 31
0.0
  0
SPLINE
  5
21D
330
1F
100
AcDbEntity
  8
0
  6
Continuous
 62
     7
370
    25
100
AcDbSpline
210
0.0
220
0.0
230
1.0
 70
     8
 71
     3
 72
     9
 73
     5
 74
     0
 42
0.00000001
 43
0.00000001
 40
0.0
 40
0.0
 40
0.0
 40
0.0
 40
0.6360037752861786
 40
1.0
 40
1.0
 40
1.0
 40
1.0
 10
2620.883545537656
 20
7573.845319716837
 30
0.0
 10
2620.510835626564
 20
7574.884942054604
 30
0.0
 10
2619.924817232374
 20
7576.519558668789
 30
0.0
 10
2619.894559307924
 20
7578.224666795856
 30
0.0
 10
2619.883545537656
 20
7578.845319716838
 30
0.0
  0
SPLINE
  5
21E
330
1F
100
AcDbEntity
  8
0
  6
Continuous
 62
     7
370
    25
100
AcDbSpline
210
0.0
220
0.0
230
1.0
 70
     8
 71
     3
 72
     9
 73
     5
 74
     0
 42
0.00000001
 43
0.00000001
 40
0.0
 40
0.0
 40
0.0
 40
0.0
 40
0.6081419703453564
 40
1.0
 40
1.0
 40
1.0
 40
1.0
 10
2619.883545537656
 20
7588.845319716838
 30
0.0
 10
2619.915467838952
 20
7589.887992326653
 30
0.0
 10
2619.967959367005
 20
7591.602514034838
 30
0.0
 10
2620.625775143572
 20
7593.213889357762
 30
0.0
 10
2620.883545537654
 20
7593.845319716837
 30
0.0
  0
LINE
  5
21F
330
1F
100
AcDbEntity
  8
0
  6
Continuous
 62
     7
370
    25
100
AcDbLine
 10
2629.2835455377
 20
7593.8453197168
 30
0.0
 11
2620.8835455377
 21
7593.8453197168
 31
0.0
  0
SPLINE
  5
220
330
1F
100
AcDbEntity
  8
0
  6
Continuous
 62
     7
370
    25
100
AcDbSpline
210
0.0
220
0.0
230
1.0
 70
     8
 71
     3
 72
     9
 73
     5
 74
     0
 42
0.00000001
 43
0.00000001
 40
0.0
 40
0.0
 40
0.0
 40
0.0
 40
0.6360037752862173
 40
1.0
 40
1.0
 40
1.0
 40
1.0
 10
2629.283545537656
 20
7593.845319716837
 30
0.0
 10
2629.656255448748
 20
7592.805697379069
 30
0.0
 10
2630.242273842937
 20
7591.171080764885
 30
0.0
 10
2630.272531767388
 20
7589.465972637818
 30
0.0
 10
2630.283545537655
 20
7588.845319716836
 30
0.0
  0
SPLINE
  5
221
330
1F
100
AcDbEntity
  8
0
  6
Continuous
 62
     7
370
    25
100
AcDbSpline
210
0.0
220
0.0
230
1.0
 70
     8
 71
     3
 72
     9
 73
     5
 74
     0
 42
0.00000001
 43
0.00000001
 40
0.0
 40
0.0
 40
0.0
 40
0.0
 40
0.6081419703452421
 40
1.0
 40
1.0
 40
1.0
 40
1.0
 10
2630.283545537655
 20
7588.845319716836
 30
0.0
 10
2630.251623236359
 20
7587.802647107021
 30
0.0
 10
2630.199131708306
 20
7586.088125398835
 30
0.0
 10
2629.541315931738
 20
7584.476750075911
 30
0.0
 10
2629.283545537656
 20
7583.845319716836
 30
0.0
  0
LINE
  5
222
330
1F
100
AcDbEntity
  8
0
  6
Continuous
 62
     7
370
    25
100
AcDbLine
 10
2630.2835455377
 20
7588.8453197168
 30
0.0
 11
2630.2835455377
 21
7578.8453197168
 31
0.0
  0
SPLINE
  5
223
330
1F
100
AcDbEntity
  8
0
  6
Continuous
 62
     7
370
    25
100
AcDbSpline
210
0.0
220
0.0
230
1.0
 70
    24
 71
     3
 72
     9
 73
     5
 74
     0
 42
0.00000001
 43
0.00000001
 40
0.0
 40
0.0
 40
0.0
 40
0.0
 40
0.8995915963006041
 40
1.0
 40
1.0
 40
1.0
 40
1.0
 10
2630.283545537655
 20
7593.845319716836
 30
0.0
 10
2630.204909829939
 20
7593.845319716836
 30
0.0
 10
2630.117497155076
 20
7593.845319716836
 30
0.0
 10
2629.359640695041
 20
7593.845319716837
 30
0.0
 10
2629.283545537656
 20
7593.845319716837
 30
0.0
  0
LINE
  5
224
330
1F
100
AcDbEntity
  8
0
  6
Continuous
 62
     7
370
    25
100
AcDbLine
 10
2630.2835455377
 20
7593.8453197168
 30
0.0
 11
2630.2835455377
 21
7588.8453197168
 31
0.0
  0
SPLINE
  5
225
330
1F
100
AcDbEntity
  8
0
  6
Continuous
 62
     7
370
    25
100
AcDbSpline
210
0.0
220
0.0
230
1.0
 70
    24
 71
     3
 72
     9
 73
     5
 74
     0
 42
0.00000001
 43
0.00000001
 40
0.0
 40
0.0
 40
0.0
 40
0.0
 40
0.3221204093178296
 40
1.0
 40
1.0
 40
1.0
 40
1.0
 10
2629.283545537658
 20
7573.845319716836
 30
0.0
 10
2629.502732021859
 20
7573.845319716836
 30
0.0
 10
2630.183180940528
 20
7573.845319716836
 30
0.0
 10
2630.242997269236
 20
7573.845319716836
 30
0.0
 10
2630.283545537656
 20
7573.845319716836
 30
0.0
  0
LINE
  5
226
330
1F
100
AcDbEntity
  8
0
  6
Continuous
 62
     7
370
    25
100
AcDbLine
 10
2630.2835455377
 20
7578.8453197168
 30
0.0
 11
2630.2835455377
 21
7573.8453197168
 31
0.0
  0
SPLINE
  5
227
330
1F
100
AcDbEntity
  8
0
  6
Continuous
 62
     7
370
    25
100
AcDbSpline
210
0.0
220
0.0
230
1.0
 70
    24
 71
     3
 72
     9
 73
     5
 74
     0
 42
0.00000001
 43
0.00000001
 40
0.0
 40
0.0
 40
0.0
 40
0.0
 40
0.3221204093176432
 40
0.9999999999999999
 40
0.9999999999999999
 40
0.9999999999999999
 40
0.9999999999999999
 10
2620.883545537654
 20
7593.845319716837
 30
0.0
 10
2620.664359053452
 20
7593.845319716837
 30
0.0
 10
2619.983910134783
 20
7593.845319716839
 30
0.0
 10
2619.924093806077
 20
7593.845319716838
 30
0.0
 10
2619.883545537657
 20
7593.845319716837
 30
0.0
  0
SPLINE
  5
228
330
1F
100
AcDbEntity
  8
0
  6
Continuous
 62
     7
370
    25
100
AcDbSpline
210
0.0
220
0.0
230
1.0
 70
    24
 71
     3
 72
     9
 73
     5
 74
     0
 42
0.00000001
 43
0.00000001
 40
0.0
 40
0.0
 40
0.0
 40
0.0
 40
0.8995915963004224
 40
1.0
 40
1.0
 40
1.0
 40
1.0
 10
2619.883545537656
 20
7573.845319716836
 30
0.0
 10
2619.962181245377
 20
7573.845319716835
 30
0.0
 10
2620.049593920244
 20
7573.845319716833
 30
0.0
 10
2620.807450380271
 20
7573.845319716836
 30
0.0
 10
2620.883545537656
 20
7573.845319716837
 30
0.0
  0
SPLINE
  5
229
330
1F
100
AcDbEntity
  8
0
  6
Continuous
 62
     7
370
    25
100
AcDbSpline
210
0.0
220
0.0
230
1.0
 70
     8
 71
     3
 72
     9
 73
     5
 74
     0
 42
0.00000001
 43
0.00000001
 40
0.0
 40
0.0
 40
0.0
 40
0.0
 40
0.6081419703452406
 40
1.0
 40
1.0
 40
1.0
 40
1.0
 10
2619.88354553793
 20
6557.845319716836
 30
0.0
 10
2619.915467839226
 20
6558.887992326652
 30
0.0
 10
2619.967959367279
 20
6560.602514034838
 30
0.0
 10
2620.625775143848
 20
6562.21388935776
 30
0.0
 10
2620.88354553793
 20
6562.845319716836
 30
0.0
  0
LINE
  5
22A
330
1F
100
AcDbEntity
  8
0
  6
Continuous
 62
     7
370
    25
100
AcDbLine
 10
2629.2835455379
 20
6562.8453197168
 30
0.0
 11
2620.8835455379
 21
6562.8453197168
 31
0.0
  0
SPLINE
  5
22B
330
1F
100
AcDbEntity
  8
0
  6
Continuous
 62
     7
370
    25
100
AcDbSpline
210
0.0
220
0.0
230
1.0
 70
     8
 71
     3
 72
     9
 73
     5
 74
     0
 42
0.00000001
 43
0.00000001
 40
0.0
 40
0.0
 40
0.0
 40
0.0
 40
0.6360037752867156
 40
1.0
 40
1.0
 40
1.0
 40
1.0
 10
2629.28354553793
 20
6562.845319716835
 30
0.0
 10
2629.656255449023
 20
6561.805697379067
 30
0.0
 10
2630.242273843216
 20
6560.171080764882
 30
0.0
 10
2630.272531767663
 20
6558.465972637815
 30
0.0
 10
2630.283545537929
 20
6557.845319716835
 30
0.0
  0
SPLINE
  5
22C
330
1F
100
AcDbEntity
  8
0
  6
Continuous
 62
     7
370
    25
100
AcDbSpline
210
0.0
220
0.0
230
1.0
 70
     8
 71
     3
 72
     9
 73
     5
 74
     0
 42
0.00000001
 43
0.00000001
 40
0.0
 40
0.0
 40
0.0
 40
0.0
 40
0.6081419703454986
 40
1.0
 40
1.0
 40
1.0
 40
1.0
 10
2630.283545537929
 20
6557.845319716834
 30
0.0
 10
2630.251623236632
 20
6556.802647107018
 30
0.0
 10
2630.199131708577
 20
6555.088125398834
 30
0.0
 10
2629.541315932012
 20
6553.47675007591
 30
0.0
 10
2629.283545537931
 20
6552.845319716835
 30
0.0
  0
LINE
  5
22D
330
1F
100
AcDbEntity
  8
0
  6
Continuous
 62
     7
370
    25
100
AcDbLine
 10
2629.2835455379
 20
6552.8453197168
 30
0.0
 11
2620.8835455379
 21
6552.8453197168
 31
0.0
  0
SPLINE
  5
22E
330
1F
100
AcDbEntity
  8
0
  6
Continuous
 62
     7
370
    25
100
AcDbSpline
210
0.0
220
0.0
230
1.0
 70
     8
 71
     3
 72
     9
 73
     5
 74
     0
 42
0.00000001
 43
0.00000001
 40
0.0
 40
0.0
 40
0.0
 40
0.0
 40
0.636003775286186
 40
1.0
 40
1.0
 40
1.0
 40
1.0
 10
2620.883545537929
 20
6552.845319716836
 30
0.0
 10
2620.510835626838
 20
6553.884942054603
 30
0.0
 10
2619.924817232647
 20
6555.519558668788
 30
0.0
 10
2619.894559308198
 20
6557.224666795854
 30
0.0
 10
2619.88354553793
 20
6557.845319716836
 30
0.0
  0
SPLINE
  5
22F
330
1F
100
AcDbEntity
  8
0
  6
Continuous
 62
     7
370
    25
100
AcDbSpline
210
0.0
220
0.0
230
1.0
 70
     8
 71
     3
 72
     9
 73
     5
 74
     0
 42
0.00000001
 43
0.00000001
 40
0.0
 40
0.0
 40
0.0
 40
0.0
 40
0.6081419703453668
 40
1.0
 40
1.0
 40
1.0
 40
1.0
 10
2619.88354553793
 20
6567.845319716836
 30
0.0
 10
2619.915467839226
 20
6568.887992326652
 30
0.0
 10
2619.967959367279
 20
6570.602514034837
 30
0.0
 10
2620.625775143846
 20
6572.21388935776
 30
0.0
 10
2620.883545537927
 20
6572.845319716836
 30
0.0
  0
LINE
  5
230
330
1F
100
AcDbEntity
  8
0
  6
Continuous
 62
     7
370
    25
100
AcDbLine
 10
2629.2835455379
 20
6572.8453197168
 30
0.0
 11
2620.8835455379
 21
6572.8453197168
 31
0.0
  0
SPLINE
  5
231
330
1F
100
AcDbEntity
  8
0
  6
Continuous
 62
     7
370
    25
100
AcDbSpline
210
0.0
220
0.0
230
1.0
 70
     8
 71
     3
 72
     9
 73
     5
 74
     0
 42
0.00000001
 43
0.00000001
 40
0.0
 40
0.0
 40
0.0
 40
0.0
 40
0.6360037752862032
 40
1.0
 40
1.0
 40
1.0
 40
1.0
 10
2629.28354553793
 20
6572.845319716836
 30
0.0
 10
2629.656255449021
 20
6571.805697379068
 30
0.0
 10
2630.242273843211
 20
6570.171080764883
 30
0.0
 10
2630.272531767661
 20
6568.465972637816
 30
0.0
 10
2630.283545537929
 20
6567.845319716835
 30
0.0
  0
SPLINE
  5
232
330
1F
100
AcDbEntity
  8
0
  6
Continuous
 62
     7
370
    25
100
AcDbSpline
210
0.0
220
0.0
230
1.0
 70
     8
 71
     3
 72
     9
 73
     5
 74
     0
 42
0.00000001
 43
0.00000001
 40
0.0
 40
0.0
 40
0.0
 40
0.0
 40
0.6081419703452375
 40
0.9999999999999999
 40
0.9999999999999999
 40
0.9999999999999999
 40
0.9999999999999999
 10
2630.283545537929
 20
6567.845319716835
 30
0.0
 10
2630.251623236632
 20
6566.802647107019
 30
0.0
 10
2630.199131708579
 20
6565.088125398833
 30
0.0
 10
2629.541315932011
 20
6563.476750075911
 30
0.0
 10
2629.28354553793
 20
6562.845319716835
 30
0.0
  0
SPLINE
  5
233
330
1F
100
AcDbEntity
  8
0
  6
Continuous
 62
     7
370
    25
100
AcDbSpline
210
0.0
220
0.0
230
1.0
 70
     8
 71
     3
 72
     9
 73
     5
 74
     0
 42
0.00000001
 43
0.00000001
 40
0.0
 40
0.0
 40
0.0
 40
0.0
 40
0.6360037752867048
 40
1.0
 40
1.0
 40
1.0
 40
1.0
 10
2620.88354553793
 20
6562.845319716836
 30
0.0
 10
2620.510835626835
 20
6563.884942054603
 30
0.0
 10
2619.924817232642
 20
6565.519558668788
 30
0.0
 10
2619.894559308196
 20
6567.224666795855
 30
0.0
 10
2619.88354553793
 20
6567.845319716836
 30
0.0
  0
LINE
  5
234
330
1F
100
AcDbEntity
  8
0
  6
Continuous
 62
     7
370
    25
100
AcDbLine
 10
2630.2835455379
 20
6567.8453197168
 30
0.0
 11
2630.2835455379
 21
6557.8453197168
 31
0.0
  0
SPLINE
  5
235
330
1F
100
AcDbEntity
  8
0
  6
Continuous
 62
     7
370
    25
100
AcDbSpline
210
0.0
220
0.0
230
1.0
 70
    24
 71
     3
 72
     9
 73
     5
 74
     0
 42
0.00000001
 43
0.00000001
 40
0.0
 40
0.0
 40
0.0
 40
0.0
 40
0.8995915963006003
 40
1.0
 40
1.0
 40
1.0
 40
1.0
 10
2630.283545537929
 20
6572.845319716835
 30
0.0
 10
2630.204909830212
 20
6572.845319716835
 30
0.0
 10
2630.11749715535
 20
6572.845319716835
 30
0.0
 10
2629.359640695315
 20
6572.845319716836
 30
0.0
 10
2629.28354553793
 20
6572.845319716836
 30
0.0
  0
LINE
  5
236
330
1F
100
AcDbEntity
  8
0
  6
Continuous
 62
     7
370
    25
100
AcDbLine
 10
2630.2835455379
 20
6572.8453197168
 30
0.0
 11
2630.2835455379
 21
6567.8453197168
 31
0.0
  0
SPLINE
  5
237
330
1F
100
AcDbEntity
  8
0
  6
Continuous
 62
     7
370
    25
100
AcDbSpline
210
0.0
220
0.0
230
1.0
 70
    24
 71
     3
 72
     9
 73
     5
 74
     0
 42
0.00000001
 43
0.00000001
 40
0.0
 40
0.0
 40
0.0
 40
0.0
 40
0.3221204093178266
 40
0.9999999999999999
 40
0.9999999999999999
 40
0.9999999999999999
 40
0.9999999999999999
 10
2629.283545537931
 20
6552.845319716835
 30
0.0
 10
2629.502732022132
 20
6552.845319716836
 30
0.0
 10
2630.183180940802
 20
6552.845319716836
 30
0.0
 10
2630.242997269509
 20
6552.845319716835
 30
0.0
 10
2630.28354553793
 20
6552.845319716835
 30
0.0
  0
LINE
  5
238
330
1F
100
AcDbEntity
  8
0
  6
Continuous
 62
     7
370
    25
100
AcDbLine
 10
2630.2835455379
 20
6557.8453197168
 30
0.0
 11
2630.2835455379
 21
6552.8453197168
 31
0.0
  0
SPLINE
  5
239
330
1F
100
AcDbEntity
  8
0
  6
Continuous
 62
     7
370
    25
100
AcDbSpline
210
0.0
220
0.0
230
1.0
 70
    24
 71
     3
 72
     9
 73
     5
 74
     0
 42
0.00000001
 43
0.00000001
 40
0.0
 40
0.0
 40
0.0
 40
0.0
 40
0.3221204093176418
 40
1.0
 40
1.0
 40
1.0
 40
1.0
 10
2620.883545537927
 20
6572.845319716836
 30
0.0
 10
2620.664359053726
 20
6572.845319716836
 30
0.0
 10
2619.983910135057
 20
6572.845319716837
 30
0.0
 10
2619.92409380635
 20
6572.845319716836
 30
0.0
 10
2619.883545537931
 20
6572.845319716836
 30
0.0
  0
SPLINE
  5
23A
330
1F
100
AcDbEntity
  8
0
  6
Continuous
 62
     7
370
    25
100
AcDbSpline
210
0.0
220
0.0
230
1.0
 70
    24
 71
     3
 72
     9
 73
     5
 74
     0
 42
0.00000001
 43
0.00000001
 40
0.0
 40
0.0
 40
0.0
 40
0.0
 40
0.8995915963004265
 40
1.0
 40
1.0
 40
1.0
 40
1.0
 10
2619.883545537929
 20
6552.845319716836
 30
0.0
 10
2619.96218124565
 20
6552.845319716833
 30
0.0
 10
2620.049593920518
 20
6552.845319716831
 30
0.0
 10
2620.807450380545
 20
6552.845319716836
 30
0.0
 10
2620.883545537929
 20
6552.845319716836
 30
0.0
  0
LINE
  5
23B
330
1F
100
AcDbEntity
  8
0
  6
Continuous
 62
     7
370
    25
100
AcDbLine
 10
2616.8835455379
 20
6580.8453197168
 30
0.0
 11
2616.8835455379
 21
6544.8453197168
 31
0.0
  0
LINE
  5
23C
330
1F
100
AcDbEntity
  8
0
  6
Continuous
 62
     7
370
    25
100
AcDbLine
 10
2619.8835455379
 20
6580.8453197168
 30
0.0
 11
2619.8835455379
 21
6544.8453197168
 31
0.0
  0
LINE
  5
23D
330
1F
100
AcDbEntity
  8
0
  6
Continuous
 62
     7
370
    25
100
AcDbLine
 10
2619.8835455377
 20
7601.8453197168
 30
0.0
 11
2619.8835455377
 21
7565.8453197168
 31
0.0
  0
LINE
  5
23E
330
1F
100
AcDbEntity
  8
0
  6
Continuous
 62
     7
370
    25
100
AcDbLine
 10
2616.8835455377
 20
7601.8453197168
 30
0.0
 11
2616.8835455377
 21
7565.8453197168
 31
0.0
  0
LINE
  5
23F
330
1F
100
AcDbEntity
  8
0
  6
Continuous
 62
     7
370
    25
100
AcDbLine
 10
2554.611541444
 20
6866.9217109968
 30
0.0
 11
2538.611541444
 21
6866.9217109968
 31
0.0
  0
ARC
  5
240
330
1F
100
AcDbEntity
  8
0
  6
Continuous
 62
     7
370
    25
100
AcDbCircle
 10
2513.811541444
 20
7606.8453197168
 30
0.0
 40
2.000000000000909
100
AcDbArc
 50
90.0
 51
180.0
  0
ARC
  5
241
330
1F
100
AcDbEntity
  8
0
  6
Continuous
 62
     7
370
    25
100
AcDbCircle
 10
2513.811541444
 20
7606.8453197168
 30
0.0
 40
6.000000000000455
100
AcDbArc
 50
90.0
 51
180.0
  0
ARC
  5
242
330
1F
100
AcDbEntity
  8
0
  6
Continuous
 62
     7
370
    25
100
AcDbCircle
 10
2513.811541444
 20
7558.8453197168
 30
0.0
 40
6.0
100
AcDbArc
 50
180.0
 51
270.0
  0
ARC
  5
243
330
1F
100
AcDbEntity
  8
0
  6
Continuous
 62
     7
370
    25
100
AcDbCircle
 10
2513.811541444
 20
7558.8453197168
 30
0.0
 40
2.0
100
AcDbArc
 50
180.0
 51
270.0
  0
LINE
  5
244
330
1F
100
AcDbEntity
  8
0
  6
Continuous
 62
     7
370
    25
100
AcDbLine
 10
2511.811541444
 20
7606.8453197168
 30
0.0
 11
2511.811541444
 21
7558.8453197168
 31
0.0
  0
ARC
  5
245
330
1F
100
AcDbEntity
  8
0
  6
Continuous
 62
     7
370
    25
100
AcDbCircle
 10
2514.811541444
 20
6586.8453197168
 30
0.0
 40
2.0
100
AcDbArc
 50
119.9999999999
 51
180.0
  0
LINE
  5
246
330
1F
100
AcDbEntity
  8
0
  6
Continuous
 62
     7
370
    25
100
AcDbLine
 10
2512.811541444
 20
6586.8453197168
 30
0.0
 11
2512.811541444
 21
6538.8453197168
 31
0.0
  0
ARC
  5
247
330
1F
100
AcDbEntity
  8
0
  6
Continuous
 62
     7
370
    25
100
AcDbCircle
 10
2514.811541444
 20
6538.8453197168
 30
0.0
 40
2.000000000000935
100
AcDbArc
 50
180.0
 51
240.0000000001
  0
LINE
  5
248
330
1F
100
AcDbEntity
  8
0
  6
Continuous
 62
     7
370
    25
100
AcDbLine
 10
2508.811541444
 20
6538.8453197168
 30
0.0
 11
2508.811541444
 21
6586.8453197168
 31
0.0
  0
ARC
  5
249
330
1F
100
AcDbEntity
  8
0
  6
Continuous
 62
     7
370
    25
100
AcDbCircle
 10
2514.811541444
 20
6586.8453197168
 30
0.0
 40
6.000000000000258
100
AcDbArc
 50
99.5940682269
 51
180.0
  0
ARC
  5
24A
330
1F
100
AcDbEntity
  8
0
  6
Continuous
 62
     7
370
    25
100
AcDbCircle
 10
2514.811541444
 20
6538.8453197168
 30
0.0
 40
6.000000000000775
100
AcDbArc
 50
180.0
 51
260.4059317732
  0
LINE
  5
24B
330
1F
100
AcDbEntity
  8
0
  6
Continuous
 62
     7
370
    25
100
AcDbLine
 10
2513.811541444
 20
7560.8453197168
 30
0.0
 11
2511.811541444
 21
7560.8453197168
 31
0.0
  0
LINE
  5
24C
330
1F
100
AcDbEntity
  8
0
  6
Continuous
 62
     7
370
    25
100
AcDbLine
 10
2513.811541444
 20
7606.8453197168
 30
0.0
 11
2511.811541444
 21
7606.8453197168
 31
0.0
  0
LINE
  5
24D
330
1F
100
AcDbEntity
  8
0
  6
Continuous
 62
     7
370
    25
100
AcDbLine
 10
2759.411541444
 20
7577.8453197168
 30
0.0
 11
2759.411541444
 21
7589.8453197168
 31
0.0
  0
LINE
  5
24E
330
1F
100
AcDbEntity
  8
0
  6
Continuous
 62
     7
370
    25
100
AcDbLine
 10
2762.611541444
 20
6556.8453197168
 30
0.0
 11
2762.611541444
 21
6568.8453197168
 31
0.0
  0
CIRCLE
  5
24F
330
1F
100
AcDbEntity
  8
0
  6
Continuous
 62
     7
370
    25
100
AcDbCircle
 10
2543.811541444
 20
7676.8453197169
 30
0.0
 40
10.0
  0
LINE
  5
250
330
1F
100
AcDbEntity
  8
0
  6
Continuous
 62
     7
370
    25
100
AcDbLine
 10
2573.811541444
 20
7220.8453197169
 30
0.0
 11
2513.811541444
 21
7220.8453197169
 31
0.0
  0
LINE
  5
251
330
1F
100
AcDbEntity
  8
0
  6
Continuous
 62
     7
370
    25
100
AcDbLine
 10
2513.811541444
 20
7220.8453197169
 30
0.0
 11
2513.811541444
 21
7720.8453197169
 31
0.0
  0
LINE
  5
252
330
1F
100
AcDbEntity
  8
0
  6
Continuous
 62
     7
370
    25
100
AcDbLine
 10
2573.811541444
 20
7720.8453197169
 30
0.0
 11
2573.811541444
 21
7220.8453197169
 31
0.0
  0
CIRCLE
  5
253
330
1F
100
AcDbEntity
  8
0
  6
Continuous
 62
     7
370
    25
100
AcDbCircle
 10
2543.811541444
 20
7264.8453197169
 30
0.0
 40
10.0
  0
LINE
  5
254
330
1F
100
AcDbEntity
  8
0
  6
Continuous
 62
     7
370
    25
100
AcDbLine
 10
2513.811541444
 20
7720.8453197169
 30
0.0
 11
2573.811541444
 21
7720.8453197169
 31
0.0
  0
LINE
  5
255
330
1F
100
AcDbEntity
  8
0
  6
Continuous
 62
     7
370
    25
100
AcDbLine
 10
2509.811541444
 20
7612.8453197169
 30
0.0
 11
2513.811541444
 21
7612.8453197169
 31
0.0
  0
ARC
  5
256
330
1F
100
AcDbEntity
  8
0
  6
Continuous
 62
     7
370
    25
100
AcDbCircle
 10
2509.811541444
 20
7610.8453197169
 30
0.0
 40
2.000000000000909
100
AcDbArc
 50
90.0
 51
180.0
  0
LINE
  5
257
330
1F
100
AcDbEntity
  8
0
  6
Continuous
 62
     7
370
    25
100
AcDbLine
 10
2507.811541444
 20
7552.8453197169
 30
0.0
 11
2507.811541444
 21
7610.8453197169
 31
0.0
  0
ARC
  5
258
330
1F
100
AcDbEntity
  8
0
  6
Continuous
 62
     7
370
    25
100
AcDbCircle
 10
2509.811541444
 20
7552.8453197169
 30
0.0
 40
2.000000000000909
100
AcDbArc
 50
180.0
 51
270.0
  0
LINE
  5
259
330
1F
100
AcDbEntity
  8
0
  6
Continuous
 62
     7
370
    25
100
AcDbLine
 10
2513.811541444
 20
7550.8453197169
 30
0.0
 11
2509.811541444
 21
7550.8453197169
 31
0.0
  0
LINE
  5
25A
330
1F
100
AcDbEntity
  8
0
  6
Continuous
 62
     7
370
    25
100
AcDbLine
 10
2509.811541444
 20
7546.8453197169
 30
0.0
 11
2513.811541444
 21
7546.8453197169
 31
0.0
  0
ARC
  5
25B
330
1F
100
AcDbEntity
  8
0
  6
Continuous
 62
     7
370
    25
100
AcDbCircle
 10
2509.811541444
 20
7552.8453197169
 30
0.0
 40
6.000000000001819
100
AcDbArc
 50
180.0
 51
270.0
  0
LINE
  5
25C
330
1F
100
AcDbEntity
  8
0
  6
Continuous
 62
     7
370
    25
100
AcDbLine
 10
2503.811541444
 20
7610.8453197169
 30
0.0
 11
2503.811541444
 21
7552.8453197169
 31
0.0
  0
ARC
  5
25D
330
1F
100
AcDbEntity
  8
0
  6
Continuous
 62
     7
370
    25
100
AcDbCircle
 10
2509.811541444
 20
7610.8453197169
 30
0.0
 40
6.000000000000909
100
AcDbArc
 50
90.0
 51
180.0
  0
LINE
  5
25E
330
1F
100
AcDbEntity
  8
0
  6
Continuous
 62
     7
370
    25
100
AcDbLine
 10
2513.811541444
 20
7616.8453197169
 30
0.0
 11
2509.811541444
 21
7616.8453197169
 31
0.0
  0
LINE
  5
25F
330
1F
100
AcDbEntity
  8
0
  6
Continuous
 62
     7
370
    25
100
AcDbLine
 10
2511.811541444
 20
7321.3453197169
 30
0.0
 11
2511.811541444
 21
7311.3453197169
 31
0.0
  0
LINE
  5
260
330
1F
100
AcDbEntity
  8
0
  6
Continuous
 62
     7
370
    25
100
AcDbLine
 10
2511.811541444
 20
7321.3453197168
 30
0.0
 11
2511.811541444
 21
7321.8453197168
 31
0.0
  0
LINE
  5
261
330
1F
100
AcDbEntity
  8
0
  6
Continuous
 62
     8
370
    25
100
AcDbLine
 10
2536.611541444
 20
6777.9217109968
 30
0.0
 11
2556.611541444
 21
6777.9217109968
 31
0.0
  0
LINE
  5
262
330
1F
100
AcDbEntity
  8
0
  6
Continuous
 62
     8
370
    25
100
AcDbLine
 10
2513.811541444
 20
7568.8453197168
 30
0.0
 11
2511.811541444
 21
7568.8453197168
 31
0.0
  0
LINE
  5
263
330
1F
100
AcDbEntity
  8
0
  6
Continuous
 62
     8
370
    25
100
AcDbLine
 10
2513.811541444
 20
7598.8453197168
 30
0.0
 11
2511.811541444
 21
7598.8453197168
 31
0.0
  0
ARC
  5
264
330
1F
100
AcDbEntity
  8
0
  6
Continuous
 62
     7
370
    25
100
AcDbCircle
 10
1561.1537039773
 20
5733.6511166535
 30
0.0
 40
6.000000000000973
100
AcDbArc
 50
114.0488832487
 51
131.7231613614
  0
ARC
  5
265
330
1F
100
AcDbEntity
  8
0
  6
Continuous
 62
     7
370
    25
100
AcDbCircle
 10
1576.2635130831
 20
5733.6511166535
 30
0.0
 40
6.000000000000603
100
AcDbArc
 50
48.3589426157
 51
65.9511167513
  0
ARC
  5
266
330
1F
100
AcDbEntity
  8
0
  6
Continuous
 62
     7
370
    25
100
AcDbCircle
 10
1561.1537039773
 20
5734.2094939521
 30
0.0
 40
5.999999999999541
100
AcDbArc
 50
228.3589426158
 51
245.9511167513
  0
ARC
  5
267
330
1F
100
AcDbEntity
  8
0
  6
Continuous
 62
     7
370
    25
100
AcDbCircle
 10
1576.2635130831
 20
5734.2094939521
 30
0.0
 40
5.999999999999866
100
AcDbArc
 50
294.0488832487
 51
311.7231613613
  0
ARC
  5
268
330
1F
100
AcDbEntity
  8
0
  6
Continuous
 62
     7
370
    25
100
AcDbCircle
 10
1151.1537039774
 20
5733.6511166538
 30
0.0
 40
5.999999999999943
100
AcDbArc
 50
114.0488832487
 51
131.7231613614
  0
ARC
  5
269
330
1F
100
AcDbEntity
  8
0
  6
Continuous
 62
     7
370
    25
100
AcDbCircle
 10
1166.2635130831
 20
5733.6511166538
 30
0.0
 40
5.999999999999766
100
AcDbArc
 50
48.3589426157
 51
65.9511167513
  0
ARC
  5
26A
330
1F
100
AcDbEntity
  8
0
  6
Continuous
 62
     7
370
    25
100
AcDbCircle
 10
1151.1537039774
 20
5734.2094939524
 30
0.0
 40
5.999999999999955
100
AcDbArc
 50
228.3589426158
 51
245.9511167513
  0
ARC
  5
26B
330
1F
100
AcDbEntity
  8
0
  6
Continuous
 62
     7
370
    25
100
AcDbCircle
 10
1166.2635130831
 20
5734.2094939524
 30
0.0
 40
6.000000000000139
100
AcDbArc
 50
294.0488832487
 51
311.7231613613
  0
ARC
  5
26C
330
1F
100
AcDbEntity
  8
0
  6
Continuous
 62
     7
370
    25
100
AcDbCircle
 10
1241.1537039773
 20
5733.6511166535
 30
0.0
 40
6.000000000000143
100
AcDbArc
 50
114.0488832487
 51
131.7231613614
  0
ARC
  5
26D
330
1F
100
AcDbEntity
  8
0
  6
Continuous
 62
     7
370
    25
100
AcDbCircle
 10
1256.2635130831
 20
5733.6511166535
 30
0.0
 40
6.000000000000511
100
AcDbArc
 50
48.3589426157
 51
65.9511167513
  0
ARC
  5
26E
330
1F
100
AcDbEntity
  8
0
  6
Continuous
 62
     7
370
    25
100
AcDbCircle
 10
1241.1537039773
 20
5734.2094939521
 30
0.0
 40
5.999999999999541
100
AcDbArc
 50
228.3589426158
 51
245.9511167513
  0
ARC
  5
26F
330
1F
100
AcDbEntity
  8
0
  6
Continuous
 62
     7
370
    25
100
AcDbCircle
 10
1256.2635130831
 20
5734.2094939521
 30
0.0
 40
5.999999999999715
100
AcDbArc
 50
294.0488832487
 51
311.7231613613
  0
ARC
  5
270
330
1F
100
AcDbEntity
  8
0
  6
Continuous
 62
     7
370
    25
100
AcDbCircle
 10
1651.1537039774
 20
5733.6511166538
 30
0.0
 40
5.999999999999943
100
AcDbArc
 50
114.0488832487
 51
131.7231613614
  0
ARC
  5
271
330
1F
100
AcDbEntity
  8
0
  6
Continuous
 62
     7
370
    25
100
AcDbCircle
 10
1666.2635130831
 20
5733.6511166538
 30
0.0
 40
5.999999999999773
100
AcDbArc
 50
48.3589426157
 51
65.9511167513
  0
ARC
  5
272
330
1F
100
AcDbEntity
  8
0
  6
Continuous
 62
     7
370
    25
100
AcDbCircle
 10
1651.1537039774
 20
5734.2094939524
 30
0.0
 40
6.000000000000785
100
AcDbArc
 50
228.3589426158
 51
245.9511167513
  0
ARC
  5
273
330
1F
100
AcDbEntity
  8
0
  6
Continuous
 62
     7
370
    25
100
AcDbCircle
 10
1666.2635130831
 20
5734.2094939524
 30
0.0
 40
6.000000000000971
100
AcDbArc
 50
294.0488832487
 51
311.7231613613
  0
LINE
  5
274
330
1F
100
AcDbEntity
  8
0
  6
Continuous
 62
     7
370
    25
100
AcDbLine
 10
1640.7086085302
 20
5742.1303053031
 30
0.0
 11
1640.7086085302
 21
5739.1303053031
 31
0.0
  0
LINE
  5
275
330
1F
100
AcDbEntity
  8
0
  6
Continuous
 62
     7
370
    25
100
AcDbLine
 10
1676.7086085302
 20
5739.1303053031
 30
0.0
 11
1676.7086085302
 21
5742.1303053031
 31
0.0
  0
LINE
  5
276
330
1F
100
AcDbEntity
  8
0
  6
Continuous
 62
     7
370
    25
100
AcDbLine
 10
1230.7086085302
 20
5742.1303053028
 30
0.0
 11
1230.7086085302
 21
5739.1303053028
 31
0.0
  0
LINE
  5
277
330
1F
100
AcDbEntity
  8
0
  6
Continuous
 62
     7
370
    25
100
AcDbLine
 10
1266.7086085302
 20
5739.1303053028
 30
0.0
 11
1266.7086085302
 21
5742.1303053028
 31
0.0
  0
LINE
  5
278
330
1F
100
AcDbEntity
  8
0
  6
Continuous
 62
     7
370
    25
100
AcDbLine
 10
1550.7086085302
 20
5742.1303053028
 30
0.0
 11
1550.7086085302
 21
5739.1303053028
 31
0.0
  0
LINE
  5
279
330
1F
100
AcDbEntity
  8
0
  6
Continuous
 62
     7
370
    25
100
AcDbLine
 10
1586.7086085302
 20
5739.1303053028
 30
0.0
 11
1586.7086085302
 21
5742.1303053028
 31
0.0
  0
LINE
  5
27A
330
1F
100
AcDbEntity
  8
0
  6
Continuous
 62
     7
370
    25
100
AcDbLine
 10
1140.7086085302
 20
5742.1303053031
 30
0.0
 11
1140.7086085302
 21
5739.1303053031
 31
0.0
  0
LINE
  5
27B
330
1F
100
AcDbEntity
  8
0
  6
Continuous
 62
     7
370
    25
100
AcDbLine
 10
1176.7086085302
 20
5739.1303053031
 30
0.0
 11
1176.7086085302
 21
5742.1303053031
 31
0.0
  0
LINE
  5
27C
330
1F
100
AcDbEntity
  8
0
  6
Continuous
 62
     7
370
    25
100
AcDbLine
 10
1152.7086085302
 20
5785.2023093967
 30
0.0
 11
1152.7086085302
 21
5742.1303053031
 31
0.0
  0
LINE
  5
27D
330
1F
100
AcDbEntity
  8
0
  6
Continuous
 62
     7
370
    25
100
AcDbLine
 10
1152.7086085302
 20
5728.7303053031
 30
0.0
 11
1152.7086085302
 21
5599.6023093967
 31
0.0
  0
LINE
  5
27E
330
1F
100
AcDbEntity
  8
0
  6
Continuous
 62
     7
370
    25
100
AcDbLine
 10
1164.7086085302
 20
5599.6023093967
 30
0.0
 11
1164.7086085302
 21
5728.7303053031
 31
0.0
  0
LINE
  5
27F
330
1F
100
AcDbEntity
  8
0
  6
Continuous
 62
     7
370
    25
100
AcDbLine
 10
1164.7086085302
 20
5742.1303053031
 30
0.0
 11
1164.7086085302
 21
5785.2023093967
 31
0.0
  0
LINE
  5
280
330
1F
100
AcDbEntity
  8
0
  6
Continuous
 62
     7
370
    25
100
AcDbLine
 10
1242.7086085303
 20
5785.2023093967
 30
0.0
 11
1242.7086085303
 21
5742.1303053028
 31
0.0
  0
LINE
  5
281
330
1F
100
AcDbEntity
  8
0
  6
Continuous
 62
     7
370
    25
100
AcDbLine
 10
1242.7086085303
 20
5728.7303053028
 30
0.0
 11
1242.7086085303
 21
5596.4023093967
 31
0.0
  0
LINE
  5
282
330
1F
100
AcDbEntity
  8
0
  6
Continuous
 62
     7
370
    25
100
AcDbLine
 10
1254.7086085303
 20
5596.4023093967
 30
0.0
 11
1254.7086085303
 21
5728.7303053028
 31
0.0
  0
LINE
  5
283
330
1F
100
AcDbEntity
  8
0
  6
Continuous
 62
     7
370
    25
100
AcDbLine
 10
1254.7086085303
 20
5742.1303053028
 30
0.0
 11
1254.7086085303
 21
5785.2023093967
 31
0.0
  0
LINE
  5
284
330
1F
100
AcDbEntity
  8
0
  6
Continuous
 62
     7
370
    25
100
AcDbLine
 10
1562.7086085303
 20
5785.2023093967
 30
0.0
 11
1562.7086085303
 21
5742.1303053028
 31
0.0
  0
LINE
  5
285
330
1F
100
AcDbEntity
  8
0
  6
Continuous
 62
     7
370
    25
100
AcDbLine
 10
1562.7086085303
 20
5728.7303053028
 30
0.0
 11
1562.7086085303
 21
5596.4023093967
 31
0.0
  0
LINE
  5
286
330
1F
100
AcDbEntity
  8
0
  6
Continuous
 62
     7
370
    25
100
AcDbLine
 10
1574.7086085303
 20
5596.4023093967
 30
0.0
 11
1574.7086085303
 21
5728.7303053028
 31
0.0
  0
LINE
  5
287
330
1F
100
AcDbEntity
  8
0
  6
Continuous
 62
     7
370
    25
100
AcDbLine
 10
1574.7086085303
 20
5742.1303053028
 30
0.0
 11
1574.7086085303
 21
5785.2023093967
 31
0.0
  0
LINE
  5
288
330
1F
100
AcDbEntity
  8
0
  6
Continuous
 62
     7
370
    25
100
AcDbLine
 10
1652.7086085302
 20
5785.2023093967
 30
0.0
 11
1652.7086085302
 21
5742.1303053031
 31
0.0
  0
LINE
  5
289
330
1F
100
AcDbEntity
  8
0
  6
Continuous
 62
     7
370
    25
100
AcDbLine
 10
1652.7086085302
 20
5728.7303053031
 30
0.0
 11
1652.7086085302
 21
5599.6023093967
 31
0.0
  0
LINE
  5
28A
330
1F
100
AcDbEntity
  8
0
  6
Continuous
 62
     7
370
    25
100
AcDbLine
 10
1664.7086085302
 20
5599.6023093967
 30
0.0
 11
1664.7086085302
 21
5728.7303053031
 31
0.0
  0
LINE
  5
28B
330
1F
100
AcDbEntity
  8
0
  6
Continuous
 62
     7
370
    25
100
AcDbLine
 10
1664.7086085302
 20
5742.1303053031
 30
0.0
 11
1664.7086085302
 21
5785.2023093967
 31
0.0
  0
LINE
  5
28C
330
1F
100
AcDbEntity
  8
0
  6
Continuous
 62
     7
370
    25
100
AcDbLine
 10
1574.4821112221
 20
5729.7303053028
 30
0.0
 11
1574.4821112221
 21
5738.1303053028
 31
0.0
  0
SPLINE
  5
28D
330
1F
100
AcDbEntity
  8
0
  6
Continuous
 62
     7
370
    25
100
AcDbSpline
210
0.0
220
0.0
230
1.0
 70
     8
 71
     3
 72
     9
 73
     5
 74
     0
 42
0.00000001
 43
0.00000001
 40
0.0
 40
0.0
 40
0.0
 40
0.0
 40
0.3221204093176308
 40
1.0
 40
1.0
 40
1.0
 40
1.0
 10
1574.482111222141
 20
5729.730305302802
 30
0.0
 10
1573.886027186122
 20
5729.5111188186
 30
0.0
 10
1572.035526507563
 20
5728.830669899931
 30
0.0
 10
1570.052715586093
 20
5728.770853571224
 30
0.0
 10
1568.708608530246
 20
5728.730305302803
 30
0.0
  0
SPLINE
  5
28E
330
1F
100
AcDbEntity
  8
0
  6
Continuous
 62
     7
370
    25
100
AcDbSpline
210
0.0
220
0.0
230
1.0
 70
     8
 71
     3
 72
     9
 73
     5
 74
     0
 42
0.00000001
 43
0.00000001
 40
0.0
 40
0.0
 40
0.0
 40
0.0
 40
0.8995915963006003
 40
1.0
 40
1.0
 40
1.0
 40
1.0
 10
1568.708608530246
 20
5728.730305302803
 30
0.0
 10
1566.916965588927
 20
5728.808941010519
 30
0.0
 10
1564.925347449444
 20
5728.896353685381
 30
0.0
 10
1563.11670839834
 20
5729.654210145416
 30
0.0
 10
1562.93510583835
 20
5729.730305302801
 30
0.0
  0
LINE
  5
28F
330
1F
100
AcDbEntity
  8
0
  6
Continuous
 62
     7
370
    25
100
AcDbLine
 10
1562.9351058383
 20
5729.7303053028
 30
0.0
 11
1562.9351058383
 21
5738.1303053028
 31
0.0
  0
SPLINE
  5
290
330
1F
100
AcDbEntity
  8
0
  6
Continuous
 62
     7
370
    25
100
AcDbSpline
210
0.0
220
0.0
230
1.0
 70
     8
 71
     3
 72
     9
 73
     5
 74
     0
 42
0.00000001
 43
0.00000001
 40
0.0
 40
0.0
 40
0.0
 40
0.0
 40
0.3221204093176418
 40
1.0
 40
1.0
 40
1.0
 40
1.0
 10
1562.935105838349
 20
5738.130305302803
 30
0.0
 10
1563.531189874369
 20
5738.349491787005
 30
0.0
 10
1565.381690552928
 20
5739.029940705674
 30
0.0
 10
1567.364501474399
 20
5739.08975703438
 30
0.0
 10
1568.708608530246
 20
5739.1303053028
 30
0.0
  0
SPLINE
  5
291
330
1F
100
AcDbEntity
  8
0
  6
Continuous
 62
     7
370
    25
100
AcDbSpline
210
0.0
220
0.0
230
1.0
 70
     8
 71
     3
 72
     9
 73
     5
 74
     0
 42
0.00000001
 43
0.00000001
 40
0.0
 40
0.0
 40
0.0
 40
0.0
 40
0.899591596300444
 40
1.0
 40
1.0
 40
1.0
 40
1.0
 10
1568.708608530246
 20
5739.1303053028
 30
0.0
 10
1570.500251471563
 20
5739.051669595082
 30
0.0
 10
1572.491869611045
 20
5738.964256920217
 30
0.0
 10
1574.300508662151
 20
5738.206400460187
 30
0.0
 10
1574.482111222141
 20
5738.130305302802
 30
0.0
  0
SPLINE
  5
292
330
1F
100
AcDbEntity
  8
0
  6
Continuous
 62
     7
370
    25
100
AcDbSpline
210
0.0
220
0.0
230
1.0
 70
     8
 71
     3
 72
     9
 73
     5
 74
     0
 42
0.00000001
 43
0.00000001
 40
0.0
 40
0.0
 40
0.0
 40
0.0
 40
0.6081419703453668
 40
1.0
 40
1.0
 40
1.0
 40
1.0
 10
1560.048354492401
 20
5739.130305302801
 30
0.0
 10
1560.650341804355
 20
5739.098383001505
 30
0.0
 10
1561.640221374108
 20
5739.045891473453
 30
0.0
 10
1562.570549350563
 20
5738.388075696885
 30
0.0
 10
1562.93510583835
 20
5738.130305302803
 30
0.0
  0
SPLINE
  5
293
330
1F
100
AcDbEntity
  8
0
  6
Continuous
 62
     7
370
    25
100
AcDbSpline
210
0.0
220
0.0
230
1.0
 70
     8
 71
     3
 72
     9
 73
     5
 74
     0
 42
0.00000001
 43
0.00000001
 40
0.0
 40
0.0
 40
0.0
 40
0.0
 40
0.6360037752862032
 40
1.0
 40
1.0
 40
1.0
 40
1.0
 10
1562.93510583835
 20
5729.730305302801
 30
0.0
 10
1562.334879601784
 20
5729.35759539171
 30
0.0
 10
1561.391133259563
 20
5728.77157699752
 30
0.0
 10
1560.406688623402
 20
5728.741319073069
 30
0.0
 10
1560.0483544924
 20
5728.730305302803
 30
0.0
  0
SPLINE
  5
294
330
1F
100
AcDbEntity
  8
0
  6
Continuous
 62
     7
370
    25
100
AcDbSpline
210
0.0
220
0.0
230
1.0
 70
     8
 71
     3
 72
     9
 73
     5
 74
     0
 42
0.00000001
 43
0.00000001
 40
0.0
 40
0.0
 40
0.0
 40
0.0
 40
0.6081419703452375
 40
0.9999999999999999
 40
0.9999999999999999
 40
0.9999999999999999
 40
0.9999999999999999
 10
1560.0483544924
 20
5728.730305302803
 30
0.0
 10
1559.446367180447
 20
5728.762227604098
 30
0.0
 10
1558.456487610696
 20
5728.814719132152
 30
0.0
 10
1557.52615963424
 20
5729.472534908719
 30
0.0
 10
1557.161603146453
 20
5729.730305302802
 30
0.0
  0
LINE
  5
295
330
1F
100
AcDbEntity
  8
0
  6
Continuous
 62
     7
370
    25
100
AcDbLine
 10
1557.1616031465
 20
5729.7303053028
 30
0.0
 11
1557.1616031465
 21
5738.1303053028
 31
0.0
  0
SPLINE
  5
296
330
1F
100
AcDbEntity
  8
0
  6
Continuous
 62
     7
370
    25
100
AcDbSpline
210
0.0
220
0.0
230
1.0
 70
     8
 71
     3
 72
     9
 73
     5
 74
     0
 42
0.00000001
 43
0.00000001
 40
0.0
 40
0.0
 40
0.0
 40
0.0
 40
0.6360037752867048
 40
1.0
 40
1.0
 40
1.0
 40
1.0
 10
1557.161603146453
 20
5738.1303053028
 30
0.0
 10
1557.761829383018
 20
5738.503015213895
 30
0.0
 10
1558.705575725239
 20
5739.089033608089
 30
0.0
 10
1559.6900203614
 20
5739.119291532535
 30
0.0
 10
1560.048354492401
 20
5739.130305302801
 30
0.0
  0
LINE
  5
297
330
1F
100
AcDbEntity
  8
0
  6
Continuous
 62
     7
370
    25
100
AcDbLine
 10
1568.7086085302
 20
5728.7303053028
 30
0.0
 11
1560.0483544924
 21
5728.7303053028
 31
0.0
  0
SPLINE
  5
298
330
1F
100
AcDbEntity
  8
0
  6
Continuous
 62
     7
370
    25
100
AcDbSpline
210
0.0
220
0.0
230
1.0
 70
     8
 71
     3
 72
     9
 73
     5
 74
     0
 42
0.00000001
 43
0.00000001
 40
0.0
 40
0.0
 40
0.0
 40
0.0
 40
0.6360037752866364
 40
1.0
 40
1.0
 40
1.0
 40
1.0
 10
1574.482111222141
 20
5738.130305302802
 30
0.0
 10
1575.082337458707
 20
5738.503015213895
 30
0.0
 10
1576.026083800929
 20
5739.089033608087
 30
0.0
 10
1577.010528437089
 20
5739.119291532536
 30
0.0
 10
1577.368862568091
 20
5739.130305302803
 30
0.0
  0
SPLINE
  5
299
330
1F
100
AcDbEntity
  8
0
  6
Continuous
 62
     7
370
    25
100
AcDbSpline
210
0.0
220
0.0
230
1.0
 70
     8
 71
     3
 72
     9
 73
     5
 74
     0
 42
0.00000001
 43
0.00000001
 40
0.0
 40
0.0
 40
0.0
 40
0.0
 40
0.6081419703454963
 40
1.0
 40
1.0
 40
1.0
 40
1.0
 10
1577.368862568091
 20
5739.130305302803
 30
0.0
 10
1577.970849880045
 20
5739.098383001508
 30
0.0
 10
1578.960729449798
 20
5739.045891473456
 30
0.0
 10
1579.891057426252
 20
5738.388075696886
 30
0.0
 10
1580.255613914038
 20
5738.130305302803
 30
0.0
  0
LINE
  5
29A
330
1F
100
AcDbEntity
  8
0
  6
Continuous
 62
     7
370
    25
100
AcDbLine
 10
1580.255613914
 20
5729.7303053028
 30
0.0
 11
1580.255613914
 21
5738.1303053028
 31
0.0
  0
SPLINE
  5
29B
330
1F
100
AcDbEntity
  8
0
  6
Continuous
 62
     7
370
    25
100
AcDbSpline
210
0.0
220
0.0
230
1.0
 70
     8
 71
     3
 72
     9
 73
     5
 74
     0
 42
0.00000001
 43
0.00000001
 40
0.0
 40
0.0
 40
0.0
 40
0.0
 40
0.6360037752867674
 40
0.9999999999999999
 40
0.9999999999999999
 40
0.9999999999999999
 40
0.9999999999999999
 10
1580.255613914039
 20
5729.730305302804
 30
0.0
 10
1579.655387677473
 20
5729.357595391712
 30
0.0
 10
1578.711641335251
 20
5728.77157699752
 30
0.0
 10
1577.727196699091
 20
5728.74131907307
 30
0.0
 10
1577.36886256809
 20
5728.730305302804
 30
0.0
  0
SPLINE
  5
29C
330
1F
100
AcDbEntity
  8
0
  6
Continuous
 62
     7
370
    25
100
AcDbSpline
210
0.0
220
0.0
230
1.0
 70
     8
 71
     3
 72
     9
 73
     5
 74
     0
 42
0.00000001
 43
0.00000001
 40
0.0
 40
0.0
 40
0.0
 40
0.0
 40
0.6081419703453662
 40
1.0
 40
1.0
 40
1.0
 40
1.0
 10
1577.36886256809
 20
5728.730305302804
 30
0.0
 10
1576.766875256136
 20
5728.762227604099
 30
0.0
 10
1575.776995686382
 20
5728.814719132154
 30
0.0
 10
1574.846667709927
 20
5729.47253490872
 30
0.0
 10
1574.482111222141
 20
5729.730305302802
 30
0.0
  0
LINE
  5
29D
330
1F
100
AcDbEntity
  8
0
  6
Continuous
 62
     7
370
    25
100
AcDbLine
 10
1568.7086085302
 20
5728.7303053028
 30
0.0
 11
1577.3688625681
 21
5728.7303053028
 31
0.0
  0
LINE
  5
29E
330
1F
100
AcDbEntity
  8
0
  6
Continuous
 62
     7
370
    25
100
AcDbLine
 10
1560.0483544924
 20
5728.7303053028
 30
0.0
 11
1558.7086085302
 21
5728.7303053028
 31
0.0
  0
LINE
  5
29F
330
1F
100
AcDbEntity
  8
0
  6
Continuous
 62
     7
370
    25
100
AcDbLine
 10
1578.7086085302
 20
5728.7303053028
 30
0.0
 11
1577.3688625681
 21
5728.7303053028
 31
0.0
  0
LINE
  5
2A0
330
1F
100
AcDbEntity
  8
0
  6
Continuous
 62
     7
370
    25
100
AcDbLine
 10
1164.4821112221
 20
5729.7303053031
 30
0.0
 11
1164.4821112221
 21
5738.1303053031
 31
0.0
  0
SPLINE
  5
2A1
330
1F
100
AcDbEntity
  8
0
  6
Continuous
 62
     7
370
    25
100
AcDbSpline
210
0.0
220
0.0
230
1.0
 70
     8
 71
     3
 72
     9
 73
     5
 74
     0
 42
0.00000001
 43
0.00000001
 40
0.0
 40
0.0
 40
0.0
 40
0.0
 40
0.3221204093176308
 40
1.0
 40
1.0
 40
1.0
 40
1.0
 10
1164.482111222144
 20
5729.730305303076
 30
0.0
 10
1163.886027186125
 20
5729.511118818874
 30
0.0
 10
1162.035526507566
 20
5728.830669900205
 30
0.0
 10
1160.052715586096
 20
5728.770853571497
 30
0.0
 10
1158.708608530249
 20
5728.730305303076
 30
0.0
  0
SPLINE
  5
2A2
330
1F
100
AcDbEntity
  8
0
  6
Continuous
 62
     7
370
    25
100
AcDbSpline
210
0.0
220
0.0
230
1.0
 70
     8
 71
     3
 72
     9
 73
     5
 74
     0
 42
0.00000001
 43
0.00000001
 40
0.0
 40
0.0
 40
0.0
 40
0.0
 40
0.8995915963006041
 40
1.0
 40
1.0
 40
1.0
 40
1.0
 10
1158.708608530249
 20
5728.730305303076
 30
0.0
 10
1156.91696558893
 20
5728.808941010792
 30
0.0
 10
1154.925347449447
 20
5728.896353685655
 30
0.0
 10
1153.116708398343
 20
5729.654210145689
 30
0.0
 10
1152.935105838353
 20
5729.730305303076
 30
0.0
  0
LINE
  5
2A3
330
1F
100
AcDbEntity
  8
0
  6
Continuous
 62
     7
370
    25
100
AcDbLine
 10
1152.9351058384
 20
5729.7303053031
 30
0.0
 11
1152.9351058384
 21
5738.1303053031
 31
0.0
  0
SPLINE
  5
2A4
330
1F
100
AcDbEntity
  8
0
  6
Continuous
 62
     7
370
    25
100
AcDbSpline
210
0.0
220
0.0
230
1.0
 70
     8
 71
     3
 72
     9
 73
     5
 74
     0
 42
0.00000001
 43
0.00000001
 40
0.0
 40
0.0
 40
0.0
 40
0.0
 40
0.3221204093176432
 40
0.9999999999999999
 40
0.9999999999999999
 40
0.9999999999999999
 40
0.9999999999999999
 10
1152.935105838353
 20
5738.130305303078
 30
0.0
 10
1153.531189874373
 20
5738.349491787279
 30
0.0
 10
1155.381690552932
 20
5739.029940705947
 30
0.0
 10
1157.364501474402
 20
5739.089757034654
 30
0.0
 10
1158.708608530249
 20
5739.130305303074
 30
0.0
  0
SPLINE
  5
2A5
330
1F
100
AcDbEntity
  8
0
  6
Continuous
 62
     7
370
    25
100
AcDbSpline
210
0.0
220
0.0
230
1.0
 70
     8
 71
     3
 72
     9
 73
     5
 74
     0
 42
0.00000001
 43
0.00000001
 40
0.0
 40
0.0
 40
0.0
 40
0.0
 40
0.899591596300444
 40
1.0
 40
1.0
 40
1.0
 40
1.0
 10
1158.708608530249
 20
5739.130305303074
 30
0.0
 10
1160.500251471566
 20
5739.051669595356
 30
0.0
 10
1162.491869611048
 20
5738.964256920492
 30
0.0
 10
1164.300508662154
 20
5738.206400460461
 30
0.0
 10
1164.482111222144
 20
5738.130305303076
 30
0.0
  0
SPLINE
  5
2A6
330
1F
100
AcDbEntity
  8
0
  6
Continuous
 62
     7
370
    25
100
AcDbSpline
210
0.0
220
0.0
230
1.0
 70
     8
 71
     3
 72
     9
 73
     5
 74
     0
 42
0.00000001
 43
0.00000001
 40
0.0
 40
0.0
 40
0.0
 40
0.0
 40
0.6081419703453564
 40
1.0
 40
1.0
 40
1.0
 40
1.0
 10
1150.048354492405
 20
5739.130305303074
 30
0.0
 10
1150.650341804359
 20
5739.098383001779
 30
0.0
 10
1151.640221374111
 20
5739.045891473726
 30
0.0
 10
1152.570549350566
 20
5738.388075697159
 30
0.0
 10
1152.935105838353
 20
5738.130305303078
 30
0.0
  0
SPLINE
  5
2A7
330
1F
100
AcDbEntity
  8
0
  6
Continuous
 62
     7
370
    25
100
AcDbSpline
210
0.0
220
0.0
230
1.0
 70
     8
 71
     3
 72
     9
 73
     5
 74
     0
 42
0.00000001
 43
0.00000001
 40
0.0
 40
0.0
 40
0.0
 40
0.0
 40
0.6360037752862173
 40
1.0
 40
1.0
 40
1.0
 40
1.0
 10
1152.935105838353
 20
5729.730305303076
 30
0.0
 10
1152.334879601788
 20
5729.357595391984
 30
0.0
 10
1151.391133259566
 20
5728.771576997794
 30
0.0
 10
1150.406688623406
 20
5728.741319073343
 30
0.0
 10
1150.048354492404
 20
5728.730305303076
 30
0.0
  0
SPLINE
  5
2A8
330
1F
100
AcDbEntity
  8
0
  6
Continuous
 62
     7
370
    25
100
AcDbSpline
210
0.0
220
0.0
230
1.0
 70
     8
 71
     3
 72
     9
 73
     5
 74
     0
 42
0.00000001
 43
0.00000001
 40
0.0
 40
0.0
 40
0.0
 40
0.0
 40
0.6081419703452421
 40
1.0
 40
1.0
 40
1.0
 40
1.0
 10
1150.048354492403
 20
5728.730305303076
 30
0.0
 10
1149.44636718045
 20
5728.762227604372
 30
0.0
 10
1148.456487610699
 20
5728.814719132425
 30
0.0
 10
1147.526159634243
 20
5729.472534908994
 30
0.0
 10
1147.161603146456
 20
5729.730305303076
 30
0.0
  0
LINE
  5
2A9
330
1F
100
AcDbEntity
  8
0
  6
Continuous
 62
     7
370
    25
100
AcDbLine
 10
1147.1616031465
 20
5729.7303053031
 30
0.0
 11
1147.1616031465
 21
5738.1303053031
 31
0.0
  0
SPLINE
  5
2AA
330
1F
100
AcDbEntity
  8
0
  6
Continuous
 62
     7
370
    25
100
AcDbSpline
210
0.0
220
0.0
230
1.0
 70
     8
 71
     3
 72
     9
 73
     5
 74
     0
 42
0.00000001
 43
0.00000001
 40
0.0
 40
0.0
 40
0.0
 40
0.0
 40
0.6360037752867018
 40
1.0
 40
1.0
 40
1.0
 40
1.0
 10
1147.161603146455
 20
5738.130305303075
 30
0.0
 10
1147.761829383021
 20
5738.503015214169
 30
0.0
 10
1148.705575725243
 20
5739.089033608363
 30
0.0
 10
1149.690020361403
 20
5739.119291532809
 30
0.0
 10
1150.048354492405
 20
5739.130305303074
 30
0.0
  0
LINE
  5
2AB
330
1F
100
AcDbEntity
  8
0
  6
Continuous
 62
     7
370
    25
100
AcDbLine
 10
1158.7086085302
 20
5728.7303053031
 30
0.0
 11
1150.0483544924
 21
5728.7303053031
 31
0.0
  0
SPLINE
  5
2AC
330
1F
100
AcDbEntity
  8
0
  6
Continuous
 62
     7
370
    25
100
AcDbSpline
210
0.0
220
0.0
230
1.0
 70
     8
 71
     3
 72
     9
 73
     5
 74
     0
 42
0.00000001
 43
0.00000001
 40
0.0
 40
0.0
 40
0.0
 40
0.0
 40
0.636003775286626
 40
1.0
 40
1.0
 40
1.0
 40
1.0
 10
1164.482111222144
 20
5738.130305303076
 30
0.0
 10
1165.082337458711
 20
5738.50301521417
 30
0.0
 10
1166.026083800932
 20
5739.089033608362
 30
0.0
 10
1167.010528437092
 20
5739.11929153281
 30
0.0
 10
1167.368862568094
 20
5739.130305303076
 30
0.0
  0
SPLINE
  5
2AD
330
1F
100
AcDbEntity
  8
0
  6
Continuous
 62
     7
370
    25
100
AcDbSpline
210
0.0
220
0.0
230
1.0
 70
     8
 71
     3
 72
     9
 73
     5
 74
     0
 42
0.00000001
 43
0.00000001
 40
0.0
 40
0.0
 40
0.0
 40
0.0
 40
0.6081419703454963
 40
1.0
 40
1.0
 40
1.0
 40
1.0
 10
1167.368862568094
 20
5739.130305303076
 30
0.0
 10
1167.970849880048
 20
5739.09838300178
 30
0.0
 10
1168.960729449801
 20
5739.045891473729
 30
0.0
 10
1169.891057426255
 20
5738.38807569716
 30
0.0
 10
1170.255613914042
 20
5738.130305303078
 30
0.0
  0
LINE
  5
2AE
330
1F
100
AcDbEntity
  8
0
  6
Continuous
 62
     7
370
    25
100
AcDbLine
 10
1170.255613914
 20
5729.7303053031
 30
0.0
 11
1170.255613914
 21
5738.1303053031
 31
0.0
  0
SPLINE
  5
2AF
330
1F
100
AcDbEntity
  8
0
  6
Continuous
 62
     7
370
    25
100
AcDbSpline
210
0.0
220
0.0
230
1.0
 70
     8
 71
     3
 72
     9
 73
     5
 74
     0
 42
0.00000001
 43
0.00000001
 40
0.0
 40
0.0
 40
0.0
 40
0.0
 40
0.6360037752867571
 40
1.0
 40
1.0
 40
1.0
 40
1.0
 10
1170.255613914042
 20
5729.730305303078
 30
0.0
 10
1169.655387677476
 20
5729.357595391984
 30
0.0
 10
1168.711641335255
 20
5728.771576997794
 30
0.0
 10
1167.727196699094
 20
5728.741319073344
 30
0.0
 10
1167.368862568093
 20
5728.730305303077
 30
0.0
  0
SPLINE
  5
2B0
330
1F
100
AcDbEntity
  8
0
  6
Continuous
 62
     7
370
    25
100
AcDbSpline
210
0.0
220
0.0
230
1.0
 70
     8
 71
     3
 72
     9
 73
     5
 74
     0
 42
0.00000001
 43
0.00000001
 40
0.0
 40
0.0
 40
0.0
 40
0.0
 40
0.6081419703453692
 40
1.0
 40
1.0
 40
1.0
 40
1.0
 10
1167.368862568093
 20
5728.730305303077
 30
0.0
 10
1166.766875256139
 20
5728.762227604374
 30
0.0
 10
1165.776995686386
 20
5728.814719132427
 30
0.0
 10
1164.84666770993
 20
5729.472534908994
 30
0.0
 10
1164.482111222144
 20
5729.730305303076
 30
0.0
  0
LINE
  5
2B1
330
1F
100
AcDbEntity
  8
0
  6
Continuous
 62
     7
370
    25
100
AcDbLine
 10
1158.7086085302
 20
5728.7303053031
 30
0.0
 11
1167.3688625681
 21
5728.7303053031
 31
0.0
  0
LINE
  5
2B2
330
1F
100
AcDbEntity
  8
0
  6
Continuous
 62
     7
370
    25
100
AcDbLine
 10
1150.0483544924
 20
5728.7303053031
 30
0.0
 11
1148.7086085302
 21
5728.7303053031
 31
0.0
  0
LINE
  5
2B3
330
1F
100
AcDbEntity
  8
0
  6
Continuous
 62
     7
370
    25
100
AcDbLine
 10
1168.7086085302
 20
5728.7303053031
 30
0.0
 11
1167.3688625681
 21
5728.7303053031
 31
0.0
  0
LINE
  5
2B4
330
1F
100
AcDbEntity
  8
0
  6
Continuous
 62
     7
370
    25
100
AcDbLine
 10
1254.4821112221
 20
5729.7303053028
 30
0.0
 11
1254.4821112221
 21
5738.1303053028
 31
0.0
  0
SPLINE
  5
2B5
330
1F
100
AcDbEntity
  8
0
  6
Continuous
 62
     7
370
    25
100
AcDbSpline
210
0.0
220
0.0
230
1.0
 70
     8
 71
     3
 72
     9
 73
     5
 74
     0
 42
0.00000001
 43
0.00000001
 40
0.0
 40
0.0
 40
0.0
 40
0.0
 40
0.3221204093176308
 40
1.0
 40
1.0
 40
1.0
 40
1.0
 10
1254.482111222141
 20
5729.730305302802
 30
0.0
 10
1253.886027186122
 20
5729.511118818601
 30
0.0
 10
1252.035526507563
 20
5728.830669899931
 30
0.0
 10
1250.052715586093
 20
5728.770853571224
 30
0.0
 10
1248.708608530246
 20
5728.730305302803
 30
0.0
  0
SPLINE
  5
2B6
330
1F
100
AcDbEntity
  8
0
  6
Continuous
 62
     7
370
    25
100
AcDbSpline
210
0.0
220
0.0
230
1.0
 70
     8
 71
     3
 72
     9
 73
     5
 74
     0
 42
0.00000001
 43
0.00000001
 40
0.0
 40
0.0
 40
0.0
 40
0.0
 40
0.8995915963006003
 40
1.0
 40
1.0
 40
1.0
 40
1.0
 10
1248.708608530246
 20
5728.730305302803
 30
0.0
 10
1246.916965588927
 20
5728.808941010519
 30
0.0
 10
1244.925347449444
 20
5728.896353685381
 30
0.0
 10
1243.116708398339
 20
5729.654210145416
 30
0.0
 10
1242.93510583835
 20
5729.730305302802
 30
0.0
  0
LINE
  5
2B7
330
1F
100
AcDbEntity
  8
0
  6
Continuous
 62
     7
370
    25
100
AcDbLine
 10
1242.9351058383
 20
5729.7303053028
 30
0.0
 11
1242.9351058383
 21
5738.1303053028
 31
0.0
  0
SPLINE
  5
2B8
330
1F
100
AcDbEntity
  8
0
  6
Continuous
 62
     7
370
    25
100
AcDbSpline
210
0.0
220
0.0
230
1.0
 70
     8
 71
     3
 72
     9
 73
     5
 74
     0
 42
0.00000001
 43
0.00000001
 40
0.0
 40
0.0
 40
0.0
 40
0.0
 40
0.3221204093176418
 40
1.0
 40
1.0
 40
1.0
 40
1.0
 10
1242.93510583835
 20
5738.130305302804
 30
0.0
 10
1243.53118987437
 20
5738.349491787005
 30
0.0
 10
1245.381690552928
 20
5739.029940705674
 30
0.0
 10
1247.364501474399
 20
5739.08975703438
 30
0.0
 10
1248.708608530246
 20
5739.130305302801
 30
0.0
  0
SPLINE
  5
2B9
330
1F
100
AcDbEntity
  8
0
  6
Continuous
 62
     7
370
    25
100
AcDbSpline
210
0.0
220
0.0
230
1.0
 70
     8
 71
     3
 72
     9
 73
     5
 74
     0
 42
0.00000001
 43
0.00000001
 40
0.0
 40
0.0
 40
0.0
 40
0.0
 40
0.899591596300444
 40
1.0
 40
1.0
 40
1.0
 40
1.0
 10
1248.708608530246
 20
5739.130305302801
 30
0.0
 10
1250.500251471563
 20
5739.051669595083
 30
0.0
 10
1252.491869611044
 20
5738.964256920218
 30
0.0
 10
1254.300508662151
 20
5738.206400460188
 30
0.0
 10
1254.482111222141
 20
5738.130305302802
 30
0.0
  0
SPLINE
  5
2BA
330
1F
100
AcDbEntity
  8
0
  6
Continuous
 62
     7
370
    25
100
AcDbSpline
210
0.0
220
0.0
230
1.0
 70
     8
 71
     3
 72
     9
 73
     5
 74
     0
 42
0.00000001
 43
0.00000001
 40
0.0
 40
0.0
 40
0.0
 40
0.0
 40
0.6081419703453668
 40
1.0
 40
1.0
 40
1.0
 40
1.0
 10
1240.048354492401
 20
5739.130305302802
 30
0.0
 10
1240.650341804356
 20
5739.098383001506
 30
0.0
 10
1241.640221374108
 20
5739.045891473453
 30
0.0
 10
1242.570549350563
 20
5738.388075696886
 30
0.0
 10
1242.935105838349
 20
5738.130305302804
 30
0.0
  0
SPLINE
  5
2BB
330
1F
100
AcDbEntity
  8
0
  6
Continuous
 62
     7
370
    25
100
AcDbSpline
210
0.0
220
0.0
230
1.0
 70
     8
 71
     3
 72
     9
 73
     5
 74
     0
 42
0.00000001
 43
0.00000001
 40
0.0
 40
0.0
 40
0.0
 40
0.0
 40
0.6360037752862032
 40
1.0
 40
1.0
 40
1.0
 40
1.0
 10
1242.93510583835
 20
5729.730305302802
 30
0.0
 10
1242.334879601784
 20
5729.35759539171
 30
0.0
 10
1241.391133259563
 20
5728.77157699752
 30
0.0
 10
1240.406688623403
 20
5728.741319073069
 30
0.0
 10
1240.0483544924
 20
5728.730305302803
 30
0.0
  0
SPLINE
  5
2BC
330
1F
100
AcDbEntity
  8
0
  6
Continuous
 62
     7
370
    25
100
AcDbSpline
210
0.0
220
0.0
230
1.0
 70
     8
 71
     3
 72
     9
 73
     5
 74
     0
 42
0.00000001
 43
0.00000001
 40
0.0
 40
0.0
 40
0.0
 40
0.0
 40
0.6081419703452375
 40
0.9999999999999999
 40
0.9999999999999999
 40
0.9999999999999999
 40
0.9999999999999999
 10
1240.0483544924
 20
5728.730305302803
 30
0.0
 10
1239.446367180447
 20
5728.762227604098
 30
0.0
 10
1238.456487610696
 20
5728.814719132152
 30
0.0
 10
1237.52615963424
 20
5729.47253490872
 30
0.0
 10
1237.161603146453
 20
5729.730305302802
 30
0.0
  0
LINE
  5
2BD
330
1F
100
AcDbEntity
  8
0
  6
Continuous
 62
     7
370
    25
100
AcDbLine
 10
1237.1616031465
 20
5729.7303053028
 30
0.0
 11
1237.1616031465
 21
5738.1303053028
 31
0.0
  0
SPLINE
  5
2BE
330
1F
100
AcDbEntity
  8
0
  6
Continuous
 62
     7
370
    25
100
AcDbSpline
210
0.0
220
0.0
230
1.0
 70
     8
 71
     3
 72
     9
 73
     5
 74
     0
 42
0.00000001
 43
0.00000001
 40
0.0
 40
0.0
 40
0.0
 40
0.0
 40
0.6360037752867048
 40
1.0
 40
1.0
 40
1.0
 40
1.0
 10
1237.161603146453
 20
5738.130305302801
 30
0.0
 10
1237.761829383018
 20
5738.503015213895
 30
0.0
 10
1238.705575725239
 20
5739.089033608089
 30
0.0
 10
1239.6900203614
 20
5739.119291532535
 30
0.0
 10
1240.048354492401
 20
5739.130305302802
 30
0.0
  0
LINE
  5
2BF
330
1F
100
AcDbEntity
  8
0
  6
Continuous
 62
     7
370
    25
100
AcDbLine
 10
1248.7086085302
 20
5728.7303053028
 30
0.0
 11
1240.0483544924
 21
5728.7303053028
 31
0.0
  0
SPLINE
  5
2C0
330
1F
100
AcDbEntity
  8
0
  6
Continuous
 62
     7
370
    25
100
AcDbSpline
210
0.0
220
0.0
230
1.0
 70
     8
 71
     3
 72
     9
 73
     5
 74
     0
 42
0.00000001
 43
0.00000001
 40
0.0
 40
0.0
 40
0.0
 40
0.0
 40
0.6360037752866364
 40
1.0
 40
1.0
 40
1.0
 40
1.0
 10
1254.482111222141
 20
5738.130305302802
 30
0.0
 10
1255.082337458707
 20
5738.503015213896
 30
0.0
 10
1256.026083800929
 20
5739.089033608088
 30
0.0
 10
1257.010528437089
 20
5739.119291532536
 30
0.0
 10
1257.368862568091
 20
5739.130305302803
 30
0.0
  0
SPLINE
  5
2C1
330
1F
100
AcDbEntity
  8
0
  6
Continuous
 62
     7
370
    25
100
AcDbSpline
210
0.0
220
0.0
230
1.0
 70
     8
 71
     3
 72
     9
 73
     5
 74
     0
 42
0.00000001
 43
0.00000001
 40
0.0
 40
0.0
 40
0.0
 40
0.0
 40
0.6081419703454963
 40
1.0
 40
1.0
 40
1.0
 40
1.0
 10
1257.368862568091
 20
5739.130305302803
 30
0.0
 10
1257.970849880045
 20
5739.098383001508
 30
0.0
 10
1258.960729449798
 20
5739.045891473456
 30
0.0
 10
1259.891057426252
 20
5738.388075696887
 30
0.0
 10
1260.255613914038
 20
5738.130305302804
 30
0.0
  0
LINE
  5
2C2
330
1F
100
AcDbEntity
  8
0
  6
Continuous
 62
     7
370
    25
100
AcDbLine
 10
1260.255613914
 20
5729.7303053028
 30
0.0
 11
1260.255613914
 21
5738.1303053028
 31
0.0
  0
SPLINE
  5
2C3
330
1F
100
AcDbEntity
  8
0
  6
Continuous
 62
     7
370
    25
100
AcDbSpline
210
0.0
220
0.0
230
1.0
 70
     8
 71
     3
 72
     9
 73
     5
 74
     0
 42
0.00000001
 43
0.00000001
 40
0.0
 40
0.0
 40
0.0
 40
0.0
 40
0.6360037752867674
 40
0.9999999999999999
 40
0.9999999999999999
 40
0.9999999999999999
 40
0.9999999999999999
 10
1260.255613914039
 20
5729.730305302804
 30
0.0
 10
1259.655387677473
 20
5729.357595391712
 30
0.0
 10
1258.711641335251
 20
5728.77157699752
 30
0.0
 10
1257.727196699091
 20
5728.74131907307
 30
0.0
 10
1257.36886256809
 20
5728.730305302804
 30
0.0
  0
SPLINE
  5
2C4
330
1F
100
AcDbEntity
  8
0
  6
Continuous
 62
     7
370
    25
100
AcDbSpline
210
0.0
220
0.0
230
1.0
 70
     8
 71
     3
 72
     9
 73
     5
 74
     0
 42
0.00000001
 43
0.00000001
 40
0.0
 40
0.0
 40
0.0
 40
0.0
 40
0.6081419703453662
 40
1.0
 40
1.0
 40
1.0
 40
1.0
 10
1257.36886256809
 20
5728.730305302804
 30
0.0
 10
1256.766875256135
 20
5728.7622276041
 30
0.0
 10
1255.776995686382
 20
5728.814719132154
 30
0.0
 10
1254.846667709927
 20
5729.47253490872
 30
0.0
 10
1254.482111222141
 20
5729.730305302802
 30
0.0
  0
LINE
  5
2C5
330
1F
100
AcDbEntity
  8
0
  6
Continuous
 62
     7
370
    25
100
AcDbLine
 10
1248.7086085302
 20
5728.7303053028
 30
0.0
 11
1257.3688625681
 21
5728.7303053028
 31
0.0
  0
LINE
  5
2C6
330
1F
100
AcDbEntity
  8
0
  6
Continuous
 62
     7
370
    25
100
AcDbLine
 10
1240.0483544924
 20
5728.7303053028
 30
0.0
 11
1238.7086085302
 21
5728.7303053028
 31
0.0
  0
LINE
  5
2C7
330
1F
100
AcDbEntity
  8
0
  6
Continuous
 62
     7
370
    25
100
AcDbLine
 10
1258.7086085302
 20
5728.7303053028
 30
0.0
 11
1257.3688625681
 21
5728.7303053028
 31
0.0
  0
LINE
  5
2C8
330
1F
100
AcDbEntity
  8
0
  6
Continuous
 62
     7
370
    25
100
AcDbLine
 10
1664.4821112221
 20
5729.7303053031
 30
0.0
 11
1664.4821112221
 21
5738.1303053031
 31
0.0
  0
SPLINE
  5
2C9
330
1F
100
AcDbEntity
  8
0
  6
Continuous
 62
     7
370
    25
100
AcDbSpline
210
0.0
220
0.0
230
1.0
 70
     8
 71
     3
 72
     9
 73
     5
 74
     0
 42
0.00000001
 43
0.00000001
 40
0.0
 40
0.0
 40
0.0
 40
0.0
 40
0.3221204093176308
 40
1.0
 40
1.0
 40
1.0
 40
1.0
 10
1664.482111222144
 20
5729.730305303075
 30
0.0
 10
1663.886027186125
 20
5729.511118818873
 30
0.0
 10
1662.035526507566
 20
5728.830669900205
 30
0.0
 10
1660.052715586096
 20
5728.770853571496
 30
0.0
 10
1658.708608530249
 20
5728.730305303075
 30
0.0
  0
SPLINE
  5
2CA
330
1F
100
AcDbEntity
  8
0
  6
Continuous
 62
     7
370
    25
100
AcDbSpline
210
0.0
220
0.0
230
1.0
 70
     8
 71
     3
 72
     9
 73
     5
 74
     0
 42
0.00000001
 43
0.00000001
 40
0.0
 40
0.0
 40
0.0
 40
0.0
 40
0.8995915963006006
 40
1.0
 40
1.0
 40
1.0
 40
1.0
 10
1658.708608530249
 20
5728.730305303075
 30
0.0
 10
1656.91696558893
 20
5728.808941010792
 30
0.0
 10
1654.925347449447
 20
5728.896353685654
 30
0.0
 10
1653.116708398343
 20
5729.654210145689
 30
0.0
 10
1652.935105838353
 20
5729.730305303075
 30
0.0
  0
LINE
  5
2CB
330
1F
100
AcDbEntity
  8
0
  6
Continuous
 62
     7
370
    25
100
AcDbLine
 10
1652.9351058384
 20
5729.7303053031
 30
0.0
 11
1652.9351058384
 21
5738.1303053031
 31
0.0
  0
SPLINE
  5
2CC
330
1F
100
AcDbEntity
  8
0
  6
Continuous
 62
     7
370
    25
100
AcDbSpline
210
0.0
220
0.0
230
1.0
 70
     8
 71
     3
 72
     9
 73
     5
 74
     0
 42
0.00000001
 43
0.00000001
 40
0.0
 40
0.0
 40
0.0
 40
0.0
 40
0.3221204093176418
 40
1.0
 40
1.0
 40
1.0
 40
1.0
 10
1652.935105838353
 20
5738.130305303077
 30
0.0
 10
1653.531189874373
 20
5738.349491787278
 30
0.0
 10
1655.381690552931
 20
5739.029940705947
 30
0.0
 10
1657.364501474402
 20
5739.089757034653
 30
0.0
 10
1658.708608530249
 20
5739.130305303073
 30
0.0
  0
SPLINE
  5
2CD
330
1F
100
AcDbEntity
  8
0
  6
Continuous
 62
     7
370
    25
100
AcDbSpline
210
0.0
220
0.0
230
1.0
 70
     8
 71
     3
 72
     9
 73
     5
 74
     0
 42
0.00000001
 43
0.00000001
 40
0.0
 40
0.0
 40
0.0
 40
0.0
 40
0.8995915963004484
 40
1.0
 40
1.0
 40
1.0
 40
1.0
 10
1658.708608530249
 20
5739.130305303073
 30
0.0
 10
1660.500251471566
 20
5739.051669595355
 30
0.0
 10
1662.491869611048
 20
5738.964256920491
 30
0.0
 10
1664.300508662154
 20
5738.20640046046
 30
0.0
 10
1664.482111222144
 20
5738.130305303075
 30
0.0
  0
SPLINE
  5
2CE
330
1F
100
AcDbEntity
  8
0
  6
Continuous
 62
     7
370
    25
100
AcDbSpline
210
0.0
220
0.0
230
1.0
 70
     8
 71
     3
 72
     9
 73
     5
 74
     0
 42
0.00000001
 43
0.00000001
 40
0.0
 40
0.0
 40
0.0
 40
0.0
 40
0.6081419703453559
 40
1.0
 40
1.0
 40
1.0
 40
1.0
 10
1650.048354492405
 20
5739.130305303074
 30
0.0
 10
1650.650341804359
 20
5739.098383001779
 30
0.0
 10
1651.640221374111
 20
5739.045891473726
 30
0.0
 10
1652.570549350566
 20
5738.388075697158
 30
0.0
 10
1652.935105838353
 20
5738.130305303077
 30
0.0
  0
SPLINE
  5
2CF
330
1F
100
AcDbEntity
  8
0
  6
Continuous
 62
     7
370
    25
100
AcDbSpline
210
0.0
220
0.0
230
1.0
 70
     8
 71
     3
 72
     9
 73
     5
 74
     0
 42
0.00000001
 43
0.00000001
 40
0.0
 40
0.0
 40
0.0
 40
0.0
 40
0.6360037752862172
 40
1.0
 40
1.0
 40
1.0
 40
1.0
 10
1652.935105838353
 20
5729.730305303075
 30
0.0
 10
1652.334879601788
 20
5729.357595391984
 30
0.0
 10
1651.391133259566
 20
5728.771576997794
 30
0.0
 10
1650.406688623406
 20
5728.741319073343
 30
0.0
 10
1650.048354492404
 20
5728.730305303075
 30
0.0
  0
SPLINE
  5
2D0
330
1F
100
AcDbEntity
  8
0
  6
Continuous
 62
     7
370
    25
100
AcDbSpline
210
0.0
220
0.0
230
1.0
 70
     8
 71
     3
 72
     9
 73
     5
 74
     0
 42
0.00000001
 43
0.00000001
 40
0.0
 40
0.0
 40
0.0
 40
0.0
 40
0.6081419703452425
 40
1.0
 40
1.0
 40
1.0
 40
1.0
 10
1650.048354492404
 20
5728.730305303075
 30
0.0
 10
1649.44636718045
 20
5728.762227604371
 30
0.0
 10
1648.456487610699
 20
5728.814719132424
 30
0.0
 10
1647.526159634243
 20
5729.472534908993
 30
0.0
 10
1647.161603146456
 20
5729.730305303075
 30
0.0
  0
LINE
  5
2D1
330
1F
100
AcDbEntity
  8
0
  6
Continuous
 62
     7
370
    25
100
AcDbLine
 10
1647.1616031465
 20
5729.7303053031
 30
0.0
 11
1647.1616031465
 21
5738.1303053031
 31
0.0
  0
SPLINE
  5
2D2
330
1F
100
AcDbEntity
  8
0
  6
Continuous
 62
     7
370
    25
100
AcDbSpline
210
0.0
220
0.0
230
1.0
 70
     8
 71
     3
 72
     9
 73
     5
 74
     0
 42
0.00000001
 43
0.00000001
 40
0.0
 40
0.0
 40
0.0
 40
0.0
 40
0.6360037752867049
 40
0.9999999999999999
 40
0.9999999999999999
 40
0.9999999999999999
 40
0.9999999999999999
 10
1647.161603146455
 20
5738.130305303074
 30
0.0
 10
1647.761829383021
 20
5738.503015214169
 30
0.0
 10
1648.705575725243
 20
5739.089033608362
 30
0.0
 10
1649.690020361403
 20
5739.119291532808
 30
0.0
 10
1650.048354492405
 20
5739.130305303074
 30
0.0
  0
LINE
  5
2D3
330
1F
100
AcDbEntity
  8
0
  6
Continuous
 62
     7
370
    25
100
AcDbLine
 10
1658.7086085302
 20
5728.7303053031
 30
0.0
 11
1650.0483544924
 21
5728.7303053031
 31
0.0
  0
SPLINE
  5
2D4
330
1F
100
AcDbEntity
  8
0
  6
Continuous
 62
     7
370
    25
100
AcDbSpline
210
0.0
220
0.0
230
1.0
 70
     8
 71
     3
 72
     9
 73
     5
 74
     0
 42
0.00000001
 43
0.00000001
 40
0.0
 40
0.0
 40
0.0
 40
0.0
 40
0.6360037752866244
 40
1.0
 40
1.0
 40
1.0
 40
1.0
 10
1664.482111222144
 20
5738.130305303075
 30
0.0
 10
1665.082337458711
 20
5738.503015214169
 30
0.0
 10
1666.026083800932
 20
5739.089033608361
 30
0.0
 10
1667.010528437092
 20
5739.119291532809
 30
0.0
 10
1667.368862568094
 20
5739.130305303075
 30
0.0
  0
SPLINE
  5
2D5
330
1F
100
AcDbEntity
  8
0
  6
Continuous
 62
     7
370
    25
100
AcDbSpline
210
0.0
220
0.0
230
1.0
 70
     8
 71
     3
 72
     9
 73
     5
 74
     0
 42
0.00000001
 43
0.00000001
 40
0.0
 40
0.0
 40
0.0
 40
0.0
 40
0.6081419703454976
 40
1.0
 40
1.0
 40
1.0
 40
1.0
 10
1667.368862568094
 20
5739.130305303075
 30
0.0
 10
1667.970849880048
 20
5739.098383001779
 30
0.0
 10
1668.960729449801
 20
5739.045891473728
 30
0.0
 10
1669.891057426255
 20
5738.388075697159
 30
0.0
 10
1670.255613914042
 20
5738.130305303077
 30
0.0
  0
LINE
  5
2D6
330
1F
100
AcDbEntity
  8
0
  6
Continuous
 62
     7
370
    25
100
AcDbLine
 10
1670.255613914
 20
5729.7303053031
 30
0.0
 11
1670.255613914
 21
5738.1303053031
 31
0.0
  0
SPLINE
  5
2D7
330
1F
100
AcDbEntity
  8
0
  6
Continuous
 62
     7
370
    25
100
AcDbSpline
210
0.0
220
0.0
230
1.0
 70
     8
 71
     3
 72
     9
 73
     5
 74
     0
 42
0.00000001
 43
0.00000001
 40
0.0
 40
0.0
 40
0.0
 40
0.0
 40
0.6360037752867603
 40
1.0
 40
1.0
 40
1.0
 40
1.0
 10
1670.255613914042
 20
5729.730305303077
 30
0.0
 10
1669.655387677476
 20
5729.357595391984
 30
0.0
 10
1668.711641335255
 20
5728.771576997793
 30
0.0
 10
1667.727196699094
 20
5728.741319073344
 30
0.0
 10
1667.368862568093
 20
5728.730305303076
 30
0.0
  0
SPLINE
  5
2D8
330
1F
100
AcDbEntity
  8
0
  6
Continuous
 62
     7
370
    25
100
AcDbSpline
210
0.0
220
0.0
230
1.0
 70
     8
 71
     3
 72
     9
 73
     5
 74
     0
 42
0.00000001
 43
0.00000001
 40
0.0
 40
0.0
 40
0.0
 40
0.0
 40
0.6081419703453684
 40
1.0
 40
1.0
 40
1.0
 40
1.0
 10
1667.368862568093
 20
5728.730305303076
 30
0.0
 10
1666.766875256139
 20
5728.762227604373
 30
0.0
 10
1665.776995686386
 20
5728.814719132426
 30
0.0
 10
1664.846667709931
 20
5729.472534908993
 30
0.0
 10
1664.482111222144
 20
5729.730305303075
 30
0.0
  0
LINE
  5
2D9
330
1F
100
AcDbEntity
  8
0
  6
Continuous
 62
     7
370
    25
100
AcDbLine
 10
1658.7086085302
 20
5728.7303053031
 30
0.0
 11
1667.3688625681
 21
5728.7303053031
 31
0.0
  0
LINE
  5
2DA
330
1F
100
AcDbEntity
  8
0
  6
Continuous
 62
     7
370
    25
100
AcDbLine
 10
1650.0483544924
 20
5728.7303053031
 30
0.0
 11
1648.7086085302
 21
5728.7303053031
 31
0.0
  0
LINE
  5
2DB
330
1F
100
AcDbEntity
  8
0
  6
Continuous
 62
     7
370
    25
100
AcDbLine
 10
1668.7086085302
 20
5728.7303053031
 30
0.0
 11
1667.3688625681
 21
5728.7303053031
 31
0.0
  0
LINE
  5
2DC
330
1F
100
AcDbEntity
  8
0
  6
Continuous
 62
     7
370
    25
100
AcDbLine
 10
1676.7086085302
 20
5739.1303053031
 30
0.0
 11
1640.7086085302
 21
5739.1303053031
 31
0.0
  0
LINE
  5
2DD
330
1F
100
AcDbEntity
  8
0
  6
Continuous
 62
     7
370
    25
100
AcDbLine
 10
1676.7086085302
 20
5742.1303053031
 30
0.0
 11
1640.7086085302
 21
5742.1303053031
 31
0.0
  0
LINE
  5
2DE
330
1F
100
AcDbEntity
  8
0
  6
Continuous
 62
     7
370
    25
100
AcDbLine
 10
1266.7086085302
 20
5742.1303053028
 30
0.0
 11
1230.7086085302
 21
5742.1303053028
 31
0.0
  0
LINE
  5
2DF
330
1F
100
AcDbEntity
  8
0
  6
Continuous
 62
     7
370
    25
100
AcDbLine
 10
1266.7086085302
 20
5739.1303053028
 30
0.0
 11
1230.7086085302
 21
5739.1303053028
 31
0.0
  0
LINE
  5
2E0
330
1F
100
AcDbEntity
  8
0
  6
Continuous
 62
     7
370
    25
100
AcDbLine
 10
1586.7086085302
 20
5742.1303053028
 30
0.0
 11
1550.7086085302
 21
5742.1303053028
 31
0.0
  0
LINE
  5
2E1
330
1F
100
AcDbEntity
  8
0
  6
Continuous
 62
     7
370
    25
100
AcDbLine
 10
1586.7086085302
 20
5739.1303053028
 30
0.0
 11
1550.7086085302
 21
5739.1303053028
 31
0.0
  0
LINE
  5
2E2
330
1F
100
AcDbEntity
  8
0
  6
Continuous
 62
     7
370
    25
100
AcDbLine
 10
1176.7086085302
 20
5739.1303053031
 30
0.0
 11
1140.7086085302
 21
5739.1303053031
 31
0.0
  0
LINE
  5
2E3
330
1F
100
AcDbEntity
  8
0
  6
Continuous
 62
     7
370
    25
100
AcDbLine
 10
1176.7086085302
 20
5742.1303053031
 30
0.0
 11
1140.7086085302
 21
5742.1303053031
 31
0.0
  0
LINE
  5
2E4
330
1F
100
AcDbEntity
  8
0
  6
Continuous
 62
     7
370
    25
100
AcDbLine
 10
1518.7086085302
 20
5851.2023093967
 30
0.0
 11
1298.7086085302
 21
5851.2023093967
 31
0.0
  0
LINE
  5
2E5
330
1F
100
AcDbEntity
  8
0
  6
Continuous
 62
     7
370
    25
100
AcDbLine
 10
1518.7086085302
 20
5791.2023093967
 30
0.0
 11
1298.7086085302
 21
5791.2023093967
 31
0.0
  0
LINE
  5
2E6
330
1F
100
AcDbEntity
  8
0
  6
Continuous
 62
     7
370
    25
100
AcDbLine
 10
1518.7086085302
 20
5788.2023093967
 30
0.0
 11
1298.7086085302
 21
5788.2023093967
 31
0.0
  0
LINE
  5
2E7
330
1F
100
AcDbEntity
  8
0
  6
Continuous
 62
     7
370
    25
100
AcDbLine
 10
1158.7086085302
 20
5599.6023093967
 30
0.0
 11
1164.7086085302
 21
5599.6023093967
 31
0.0
  0
LINE
  5
2E8
330
1F
100
AcDbEntity
  8
0
  6
Continuous
 62
     7
370
    25
100
AcDbLine
 10
1152.7086085302
 20
5599.6023093967
 30
0.0
 11
1158.7086085302
 21
5599.6023093967
 31
0.0
  0
LINE
  5
2E9
330
1F
100
AcDbEntity
  8
0
  6
Continuous
 62
     7
370
    25
100
AcDbLine
 10
1248.7086085303
 20
5596.4023093967
 30
0.0
 11
1254.7086085303
 21
5596.4023093967
 31
0.0
  0
LINE
  5
2EA
330
1F
100
AcDbEntity
  8
0
  6
Continuous
 62
     7
370
    25
100
AcDbLine
 10
1242.7086085303
 20
5596.4023093967
 30
0.0
 11
1248.7086085303
 21
5596.4023093967
 31
0.0
  0
LINE
  5
2EB
330
1F
100
AcDbEntity
  8
0
  6
Continuous
 62
     7
370
    25
100
AcDbLine
 10
1568.7086085303
 20
5596.4023093967
 30
0.0
 11
1574.7086085303
 21
5596.4023093967
 31
0.0
  0
LINE
  5
2EC
330
1F
100
AcDbEntity
  8
0
  6
Continuous
 62
     7
370
    25
100
AcDbLine
 10
1562.7086085303
 20
5596.4023093967
 30
0.0
 11
1568.7086085303
 21
5596.4023093967
 31
0.0
  0
LINE
  5
2ED
330
1F
100
AcDbEntity
  8
0
  6
Continuous
 62
     7
370
    25
100
AcDbLine
 10
1658.7086085302
 20
5599.6023093967
 30
0.0
 11
1664.7086085302
 21
5599.6023093967
 31
0.0
  0
LINE
  5
2EE
330
1F
100
AcDbEntity
  8
0
  6
Continuous
 62
     7
370
    25
100
AcDbLine
 10
1652.7086085302
 20
5599.6023093967
 30
0.0
 11
1658.7086085302
 21
5599.6023093967
 31
0.0
  0
LINE
  5
2EF
330
1F
100
AcDbEntity
  8
0
  6
Continuous
 62
     7
370
    25
100
AcDbLine
 10
1908.7086085302
 20
5845.2023093967
 30
0.0
 11
1908.7086085302
 21
5785.2023093967
 31
0.0
  0
LINE
  5
2F0
330
1F
100
AcDbEntity
  8
0
  6
Continuous
 62
     7
370
    25
100
AcDbLine
 10
1908.7086085302
 20
5785.2023093967
 30
0.0
 11
1902.7086085302
 21
5785.2023093967
 31
0.0
  0
LINE
  5
2F1
330
1F
100
AcDbEntity
  8
0
  6
Continuous
 62
     7
370
    25
100
AcDbLine
 10
1902.7086085302
 20
5845.2023093967
 30
0.0
 11
1902.7086085302
 21
5785.2023093967
 31
0.0
  0
LINE
  5
2F2
330
1F
100
AcDbEntity
  8
0
  6
Continuous
 62
     7
370
    25
100
AcDbLine
 10
1908.7086085302
 20
5845.2023093967
 30
0.0
 11
1902.7086085302
 21
5845.2023093967
 31
0.0
  0
LINE
  5
2F3
330
1F
100
AcDbEntity
  8
0
  6
Continuous
 62
     7
370
    25
100
AcDbLine
 10
1518.7086085302
 20
5791.2023093967
 30
0.0
 11
1902.7086085302
 21
5791.2023093967
 31
0.0
  0
LINE
  5
2F4
330
1F
100
AcDbEntity
  8
0
  6
Continuous
 62
     7
370
    25
100
AcDbLine
 10
1518.7086085302
 20
5791.2023093967
 30
0.0
 11
1518.7086085302
 21
5849.2023093967
 31
0.0
  0
LINE
  5
2F5
330
1F
100
AcDbEntity
  8
0
  6
Continuous
 62
     7
370
    25
100
AcDbLine
 10
1518.7086085302
 20
5849.2023093967
 30
0.0
 11
1902.7086085302
 21
5849.2023093967
 31
0.0
  0
LINE
  5
2F6
330
1F
100
AcDbEntity
  8
0
  6
Continuous
 62
     7
370
    25
100
AcDbLine
 10
1902.7086085302
 20
5845.2023093967
 30
0.0
 11
1902.7086085302
 21
5849.2023093967
 31
0.0
  0
LINE
  5
2F7
330
1F
100
AcDbEntity
  8
0
  6
Continuous
 62
     7
370
    25
100
AcDbLine
 10
1518.7086085302
 20
5849.2023093967
 30
0.0
 11
1518.7086085302
 21
5855.2023093967
 31
0.0
  0
LINE
  5
2F8
330
1F
100
AcDbEntity
  8
0
  6
Continuous
 62
     7
370
    25
100
AcDbLine
 10
1518.7086085302
 20
5855.2023093967
 30
0.0
 11
1902.7086085302
 21
5855.2023093967
 31
0.0
  0
LINE
  5
2F9
330
1F
100
AcDbEntity
  8
0
  6
Continuous
 62
     7
370
    25
100
AcDbLine
 10
1902.7086085302
 20
5849.2023093967
 30
0.0
 11
1902.7086085302
 21
5855.2023093967
 31
0.0
  0
LINE
  5
2FA
330
1F
100
AcDbEntity
  8
0
  6
Continuous
 62
     7
370
    25
100
AcDbLine
 10
1518.7086085302
 20
5785.2023093967
 30
0.0
 11
1518.7086085302
 21
5791.2023093967
 31
0.0
  0
LINE
  5
2FB
330
1F
100
AcDbEntity
  8
0
  6
Continuous
 62
     7
370
    25
100
AcDbLine
 10
1518.7086085302
 20
5785.2023093967
 30
0.0
 11
1902.7086085302
 21
5785.2023093967
 31
0.0
  0
LINE
  5
2FC
330
1F
100
AcDbEntity
  8
0
  6
Continuous
 62
     7
370
    25
100
AcDbLine
 10
908.7086085302
 20
5785.2023093967
 30
0.0
 11
914.7086085302
 21
5785.2023093967
 31
0.0
  0
LINE
  5
2FD
330
1F
100
AcDbEntity
  8
0
  6
Continuous
 62
     7
370
    25
100
AcDbLine
 10
908.7086085302
 20
5845.2023093967
 30
0.0
 11
908.7086085302
 21
5785.2023093967
 31
0.0
  0
LINE
  5
2FE
330
1F
100
AcDbEntity
  8
0
  6
Continuous
 62
     7
370
    25
100
AcDbLine
 10
914.7086085302
 20
5845.2023093967
 30
0.0
 11
914.7086085302
 21
5785.2023093967
 31
0.0
  0
LINE
  5
2FF
330
1F
100
AcDbEntity
  8
0
  6
Continuous
 62
     7
370
    25
100
AcDbLine
 10
908.7086085302
 20
5845.2023093967
 30
0.0
 11
914.7086085302
 21
5845.2023093967
 31
0.0
  0
LINE
  5
300
330
1F
100
AcDbEntity
  8
0
  6
Continuous
 62
     7
370
    25
100
AcDbLine
 10
1298.7086085302
 20
5855.2023093967
 30
0.0
 11
914.7086085302
 21
5855.2023093967
 31
0.0
  0
LINE
  5
301
330
1F
100
AcDbEntity
  8
0
  6
Continuous
 62
     7
370
    25
100
AcDbLine
 10
1298.7086085302
 20
5849.2023093967
 30
0.0
 11
1298.7086085302
 21
5855.2023093967
 31
0.0
  0
LINE
  5
302
330
1F
100
AcDbEntity
  8
0
  6
Continuous
 62
     7
370
    25
100
AcDbLine
 10
1298.7086085302
 20
5849.2023093967
 30
0.0
 11
914.7086085302
 21
5849.2023093967
 31
0.0
  0
LINE
  5
303
330
1F
100
AcDbEntity
  8
0
  6
Continuous
 62
     7
370
    25
100
AcDbLine
 10
914.7086085302
 20
5849.2023093967
 30
0.0
 11
914.7086085302
 21
5855.2023093967
 31
0.0
  0
LINE
  5
304
330
1F
100
AcDbEntity
  8
0
  6
Continuous
 62
     7
370
    25
100
AcDbLine
 10
914.7086085302
 20
5845.2023093967
 30
0.0
 11
914.7086085302
 21
5849.2023093967
 31
0.0
  0
LINE
  5
305
330
1F
100
AcDbEntity
  8
0
  6
Continuous
 62
     7
370
    25
100
AcDbLine
 10
1298.7086085302
 20
5791.2023093967
 30
0.0
 11
914.7086085302
 21
5791.2023093967
 31
0.0
  0
LINE
  5
306
330
1F
100
AcDbEntity
  8
0
  6
Continuous
 62
     7
370
    25
100
AcDbLine
 10
1298.7086085302
 20
5791.2023093967
 30
0.0
 11
1298.7086085302
 21
5849.2023093967
 31
0.0
  0
LINE
  5
307
330
1F
100
AcDbEntity
  8
0
  6
Continuous
 62
     7
370
    25
100
AcDbLine
 10
1298.7086085302
 20
5785.2023093967
 30
0.0
 11
1298.7086085302
 21
5791.2023093967
 31
0.0
  0
LINE
  5
308
330
1F
100
AcDbEntity
  8
0
  6
Continuous
 62
     7
370
    25
100
AcDbLine
 10
1298.7086085302
 20
5785.2023093967
 30
0.0
 11
914.7086085302
 21
5785.2023093967
 31
0.0
  0
LINE
  5
309
330
1F
100
AcDbEntity
  8
0
  6
Continuous
 62
     8
370
    25
100
AcDbLine
 10
1518.7086085302
 20
5845.2023093967
 30
0.0
 11
1298.7086085302
 21
5845.2023093967
 31
0.0
  0
LINE
  5
30A
330
1F
100
AcDbEntity
  8
0
  6
Continuous
 62
     8
370
    25
100
AcDbLine
 10
1518.7086085302
 20
5797.2023093967
 30
0.0
 11
1298.7086085302
 21
5797.2023093967
 31
0.0
  0
ENDSEC
  0
SECTION
  2
OBJECTS
  0
DICTIONARY
  5
C
330
0
100
AcDbDictionary
281
     1
  3
ACAD_GROUP
350
D
  3
ACAD_LAYOUT
350
1A
  3
ACAD_MLINESTYLE
350
17
  3
ACAD_PLOTSETTINGS
350
19
  3
ACAD_PLOTSTYLENAME
350
E
  3
ACAD_SCALELIST
350
47
  3
DWGPROPS
350
30B
  0
DICTIONARY
  5
D
102
{ACAD_REACTORS
330
C
102
}
330
C
100
AcDbDictionary
281
     1
  0
DICTIONARY
  5
1A
102
{ACAD_REACTORS
330
C
102
}
330
C
100
AcDbDictionary
281
     1
  3
Layout1
350
1E
  3
Layout2
350
26
  3
Model
350
22
  0
DICTIONARY
  5
17
102
{ACAD_REACTORS
330
C
102
}
330
C
100
AcDbDictionary
281
     1
  3
Standard
350
18
  0
DICTIONARY
  5
19
102
{ACAD_REACTORS
330
C
102
}
330
C
100
AcDbDictionary
281
     1
  0
ACDBDICTIONARYWDFLT
  5
E
102
{ACAD_REACTORS
330
C
102
}
330
C
100
AcDbDictionary
281
     1
  3
Normal
350
F
100
AcDbDictionaryWithDefault
340
F
  0
DICTIONARY
  5
47
102
{ACAD_REACTORS
330
C
102
}
330
C
100
AcDbDictionary
281
     1
  3
A0
350
48
  3
A1
350
49
  3
A2
350
4A
  3
A3
350
4B
  3
A4
350
4C
  3
A5
350
4D
  3
A6
350
4E
  3
A7
350
4F
  3
A8
350
50
  3
A9
350
51
  3
B0
350
52
  3
B1
350
53
  3
B2
350
54
  3
B3
350
55
  3
B4
350
56
  3
B5
350
57
  3
B6
350
58
  3
B7
350
59
  3
B8
350
5A
  3
B9
350
5B
  3
C0
350
5C
  3
C1
350
5D
  3
C2
350
5E
  3
C3
350
5F
  3
C4
350
60
  3
C5
350
61
  3
C6
350
62
  3
C7
350
63
  3
C8
350
64
  3
C9
350
65
  3
D0
350
66
  3
D1
350
67
  3
D2
350
68
  0
XRECORD
  5
30B
102
{ACAD_REACTORS
330
C
102
}
330
C
100
AcDbXrecord
280
     1
  1
DWGPROPS COOKIE
  2

  3

  4

  6

  7

  8
radek.stransky
  9

300
=
301
=
302
=
303
=
304
=
305
=
306
=
307
=
308
=
309
=
 40
0.0
 41
2459095.380362523
 42
2459095.380362882
  1

 90
        0
  0
LAYOUT
  5
1E
102
{ACAD_REACTORS
330
1A
102
}
330
1A
100
AcDbPlotSettings
  1

  2
none_device
  4

  6

 40
0.0
 41
0.0
 42
0.0
 43
0.0
 44
0.0
 45
0.0
 46
0.0
 47
0.0
 48
0.0
 49
0.0
140
0.0
141
0.0
142
1.0
143
1.0
 70
   688
 72
     1
 73
     0
 74
     5
  7

 75
    16
147
1.0
148
0.0
149
0.0
100
AcDbLayout
  1
Layout1
 70
     1
 71
     1
 10
0.0
 20
0.0
 11
420.0
 21
297.0
 12
0.0
 22
0.0
 32
0.0
 14
1.0000000000E+20
 24
1.0000000000E+20
 34
1.0000000000E+20
 15
-1.0000000000E+20
 25
-1.0000000000E+20
 35
-1.0000000000E+20
146
0.0
 13
0.0
 23
0.0
 33
0.0
 16
1.0
 26
0.0
 36
0.0
 17
0.0
 27
1.0
 37
0.0
 76
     0
330
1B
  0
LAYOUT
  5
26
102
{ACAD_REACTORS
330
1A
102
}
330
1A
100
AcDbPlotSettings
  1

  2
none_device
  4

  6

 40
0.0
 41
0.0
 42
0.0
 43
0.0
 44
0.0
 45
0.0
 46
0.0
 47
0.0
 48
0.0
 49
0.0
140
0.0
141
0.0
142
1.0
143
1.0
 70
   688
 72
     1
 73
     0
 74
     5
  7

 75
    16
147
1.0
148
0.0
149
0.0
100
AcDbLayout
  1
Layout2
 70
     1
 71
     2
 10
0.0
 20
0.0
 11
0.0
 21
0.0
 12
0.0
 22
0.0
 32
0.0
 14
0.0
 24
0.0
 34
0.0
 15
0.0
 25
0.0
 35
0.0
146
0.0
 13
0.0
 23
0.0
 33
0.0
 16
1.0
 26
0.0
 36
0.0
 17
0.0
 27
1.0
 37
0.0
 76
     0
330
23
  0
LAYOUT
  5
22
102
{ACAD_REACTORS
330
1A
102
}
330
1A
100
AcDbPlotSettings
  1

  2
none_device
  4
Letter_(8.50_x_11.00_Inches)
  6

 40
6.35
 41
6.35
 42
6.35000508
 43
6.35000508
 44
215.9
 45
279.4
 46
0.0
 47
0.0
 48
0.0
 49
0.0
140
0.0
141
0.0
142
1.0
143
1.0
 70
  1712
 72
     1
 73
     0
 74
     0
  7

 75
     0
147
1.0
148
0.0
149
0.0
100
AcDbLayout
  1
Model
 70
     1
 71
     0
 10
0.0
 20
0.0
 11
20000.0
 21
10000.0
 12
0.0
 22
0.0
 32
0.0
 14
0.0
 24
0.0
 34
0.0
 15
20000.0
 25
10000.0
 35
0.0
146
0.0
 13
0.0
 23
0.0
 33
0.0
 16
1.0
 26
0.0
 36
0.0
 17
0.0
 27
1.0
 37
0.0
 76
     0
330
1F
331
29
  0
MLINESTYLE
  5
18
102
{ACAD_REACTORS
330
17
102
}
330
17
100
AcDbMlineStyle
  2
Standard
 70
     0
  3

 62
   256
 51
90.0
 52
90.0
 71
     2
 49
0.5
 62
   256
  6
BYLAYER
 49
-0.5
 62
   256
  6
BYLAYER
  0
ACDBPLACEHOLDER
  5
F
102
{ACAD_REACTORS
330
E
102
}
330
E
  0
SCALE
  5
48
102
{ACAD_REACTORS
330
47
102
}
330
47
100
AcDbScale
 70
     0
300
1:1
140
1.0
141
1.0
290
     1
  0
SCALE
  5
49
102
{ACAD_REACTORS
330
47
102
}
330
47
100
AcDbScale
 70
     0
300
1:2
140
1.0
141
2.0
290
     0
  0
SCALE
  5
4A
102
{ACAD_REACTORS
330
47
102
}
330
47
100
AcDbScale
 70
     0
300
1:4
140
1.0
141
4.0
290
     0
  0
SCALE
  5
4B
102
{ACAD_REACTORS
330
47
102
}
330
47
100
AcDbScale
 70
     0
300
1:5
140
1.0
141
5.0
290
     0
  0
SCALE
  5
4C
102
{ACAD_REACTORS
330
47
102
}
330
47
100
AcDbScale
 70
     0
300
1:8
140
1.0
141
8.0
290
     0
  0
SCALE
  5
4D
102
{ACAD_REACTORS
330
47
102
}
330
47
100
AcDbScale
 70
     0
300
1:10
140
1.0
141
10.0
290
     0
  0
SCALE
  5
4E
102
{ACAD_REACTORS
330
47
102
}
330
47
100
AcDbScale
 70
     0
300
1:16
140
1.0
141
16.0
290
     0
  0
SCALE
  5
4F
102
{ACAD_REACTORS
330
47
102
}
330
47
100
AcDbScale
 70
     0
300
1:20
140
1.0
141
20.0
290
     0
  0
SCALE
  5
50
102
{ACAD_REACTORS
330
47
102
}
330
47
100
AcDbScale
 70
     0
300
1:30
140
1.0
141
30.0
290
     0
  0
SCALE
  5
51
102
{ACAD_REACTORS
330
47
102
}
330
47
100
AcDbScale
 70
     0
300
1:40
140
1.0
141
40.0
290
     0
  0
SCALE
  5
52
102
{ACAD_REACTORS
330
47
102
}
330
47
100
AcDbScale
 70
     0
300
1:50
140
1.0
141
50.0
290
     0
  0
SCALE
  5
53
102
{ACAD_REACTORS
330
47
102
}
330
47
100
AcDbScale
 70
     0
300
1:100
140
1.0
141
100.0
290
     0
  0
SCALE
  5
54
102
{ACAD_REACTORS
330
47
102
}
330
47
100
AcDbScale
 70
     0
300
2:1
140
2.0
141
1.0
290
     0
  0
SCALE
  5
55
102
{ACAD_REACTORS
330
47
102
}
330
47
100
AcDbScale
 70
     0
300
4:1
140
4.0
141
1.0
290
     0
  0
SCALE
  5
56
102
{ACAD_REACTORS
330
47
102
}
330
47
100
AcDbScale
 70
     0
300
8:1
140
8.0
141
1.0
290
     0
  0
SCALE
  5
57
102
{ACAD_REACTORS
330
47
102
}
330
47
100
AcDbScale
 70
     0
300
10:1
140
10.0
141
1.0
290
     0
  0
SCALE
  5
58
102
{ACAD_REACTORS
330
47
102
}
330
47
100
AcDbScale
 70
     0
300
100:1
140
100.0
141
1.0
290
     0
  0
SCALE
  5
59
102
{ACAD_REACTORS
330
47
102
}
330
47
100
AcDbScale
 70
     0
300
1/128" = 1'-0"
140
0.0078125
141
12.0
290
     0
  0
SCALE
  5
5A
102
{ACAD_REACTORS
330
47
102
}
330
47
100
AcDbScale
 70
     0
300
1/64" = 1'-0"
140
0.015625
141
12.0
290
     0
  0
SCALE
  5
5B
102
{ACAD_REACTORS
330
47
102
}
330
47
100
AcDbScale
 70
     0
300
1/32" = 1'-0"
140
0.03125
141
12.0
290
     0
  0
SCALE
  5
5C
102
{ACAD_REACTORS
330
47
102
}
330
47
100
AcDbScale
 70
     0
300
1/16" = 1'-0"
140
0.0625
141
12.0
290
     0
  0
SCALE
  5
5D
102
{ACAD_REACTORS
330
47
102
}
330
47
100
AcDbScale
 70
     0
300
3/32" = 1'-0"
140
0.09375
141
12.0
290
     0
  0
SCALE
  5
5E
102
{ACAD_REACTORS
330
47
102
}
330
47
100
AcDbScale
 70
     0
300
1/8" = 1'-0"
140
0.125
141
12.0
290
     0
  0
SCALE
  5
5F
102
{ACAD_REACTORS
330
47
102
}
330
47
100
AcDbScale
 70
     0
300
3/16" = 1'-0"
140
0.1875
141
12.0
290
     0
  0
SCALE
  5
60
102
{ACAD_REACTORS
330
47
102
}
330
47
100
AcDbScale
 70
     0
300
1/4" = 1'-0"
140
0.25
141
12.0
290
     0
  0
SCALE
  5
61
102
{ACAD_REACTORS
330
47
102
}
330
47
100
AcDbScale
 70
     0
300
3/8" = 1'-0"
140
0.375
141
12.0
290
     0
  0
SCALE
  5
62
102
{ACAD_REACTORS
330
47
102
}
330
47
100
AcDbScale
 70
     0
300
1/2" = 1'-0"
140
0.5
141
12.0
290
     0
  0
SCALE
  5
63
102
{ACAD_REACTORS
330
47
102
}
330
47
100
AcDbScale
 70
     0
300
3/4" = 1'-0"
140
0.75
141
12.0
290
     0
  0
SCALE
  5
64
102
{ACAD_REACTORS
330
47
102
}
330
47
100
AcDbScale
 70
     0
300
1" = 1'-0"
140
1.0
141
12.0
290
     0
  0
SCALE
  5
65
102
{ACAD_REACTORS
330
47
102
}
330
47
100
AcDbScale
 70
     0
300
1-1/2" = 1'-0"
140
1.5
141
12.0
290
     0
  0
SCALE
  5
66
102
{ACAD_REACTORS
330
47
102
}
330
47
100
AcDbScale
 70
     0
300
3" = 1'-0"
140
3.0
141
12.0
290
     0
  0
SCALE
  5
67
102
{ACAD_REACTORS
330
47
102
}
330
47
100
AcDbScale
 70
     0
300
6" = 1'-0"
140
6.0
141
12.0
290
     0
  0
SCALE
  5
68
102
{ACAD_REACTORS
330
47
102
}
330
47
100
AcDbScale
 70
     0
300
1'-0" = 1'-0"
140
12.0
141
12.0
290
     0
  0
ENDSEC
  0
EOF
