  0
SECTION
  2
HEADER
  9
$ACADVER
  1
AC1015
  9
$ACADMAINTVER
 70
     6
  9
$DWGCODEPAGE
  3
ANSI_1250
  9
$INSBASE
 10
0.0
 20
0.0
 30
0.0
  9
$EXTMIN
 10
6530.7484781189
 20
4846.3154997765
 30
0.0
  9
$EXTMAX
 10
6981.5947483269
 20
5298.0800238692
 30
0.0
  9
$LIMMIN
 10
0.0
 20
0.0
  9
$LIMMAX
 10
420.0
 20
297.0
  9
$ORTHOMODE
 70
     0
  9
$REGENMODE
 70
     1
  9
$FILLMODE
 70
     1
  9
$QTEXTMODE
 70
     0
  9
$MIRRTEXT
 70
     1
  9
$LTSCALE
 40
1.0
  9
$ATTMODE
 70
     1
  9
$TEXTSIZE
 40
3.5
  9
$TRACEWID
 40
1.0
  9
$TEXTSTYLE
  7
Standard
  9
$CLAYER
  8
0
  9
$CELTYPE
  6
ByLayer
  9
$CECOLOR
 62
   256
  9
$CELTSCALE
 40
1.0
  9
$DISPSILH
 70
     0
  9
$DIMSCALE
 40
1.0
  9
$DIMASZ
 40
3.302
  9
$DIMEXO
 40
0.0
  9
$DIMDLI
 40
3.75
  9
$DIMRND
 40
0.0
  9
$DIMDLE
 40
0.0
  9
$DIMEXE
 40
1.0
  9
$DIMTP
 40
0.0
  9
$DIMTM
 40
0.0
  9
$DIMTXT
 40
3.5
  9
$DIMCEN
 40
2.5
  9
$DIMTSZ
 40
0.0
  9
$DIMTOL
 70
     0
  9
$DIMLIM
 70
     0
  9
$DIMTIH
 70
     1
  9
$DIMTOH
 70
     1
  9
$DIMSE1
 70
     0
  9
$DIMSE2
 70
     0
  9
$DIMTAD
 70
     1
  9
$DIMZIN
 70
     0
  9
$DIMBLK
  1

  9
$DIMASO
 70
     1
  9
$DIMSHO
 70
     1
  9
$DIMPOST
  1

  9
$DIMAPOST
  1

  9
$DIMALT
 70
     0
  9
$DIMALTD
 70
     3
  9
$DIMALTF
 40
0.0393700787
  9
$DIMLFAC
 40
1.0
  9
$DIMTOFL
 70
     1
  9
$DIMTVP
 40
0.0
  9
$DIMTIX
 70
     0
  9
$DIMSOXD
 70
     0
  9
$DIMSAH
 70
     0
  9
$DIMBLK1
  1

  9
$DIMBLK2
  1

  9
$DIMSTYLE
  2
ISO-25
  9
$DIMCLRD
 70
     0
  9
$DIMCLRE
 70
     0
  9
$DIMCLRT
 70
     0
  9
$DIMTFAC
 40
1.0
  9
$DIMGAP
 40
1.524
  9
$DIMJUST
 70
     0
  9
$DIMSD1
 70
     0
  9
$DIMSD2
 70
     0
  9
$DIMTOLJ
 70
     0
  9
$DIMTZIN
 70
     0
  9
$DIMALTZ
 70
     0
  9
$DIMALTTZ
 70
     0
  9
$DIMUPT
 70
     0
  9
$DIMDEC
 70
     2
  9
$DIMTDEC
 70
     2
  9
$DIMALTU
 70
     2
  9
$DIMALTTD
 70
     3
  9
$DIMTXSTY
  7
Standard
  9
$DIMAUNIT
 70
     0
  9
$DIMADEC
 70
     2
  9
$DIMALTRND
 40
0.0
  9
$DIMAZIN
 70
     0
  9
$DIMDSEP
 70
    44
  9
$DIMATFIT
 70
     3
  9
$DIMFRAC
 70
     0
  9
$DIMLDRBLK
  1

  9
$DIMLUNIT
 70
     2
  9
$DIMLWD
 70
    -2
  9
$DIMLWE
 70
    -2
  9
$DIMTMOVE
 70
     0
  9
$LUNITS
 70
     2
  9
$LUPREC
 70
     2
  9
$SKETCHINC
 40
1.0
  9
$FILLETRAD
 40
10.0
  9
$AUNITS
 70
     0
  9
$AUPREC
 70
     2
  9
$MENU
  1
.
  9
$ELEVATION
 40
0.0
  9
$PELEVATION
 40
0.0
  9
$THICKNESS
 40
0.0
  9
$LIMCHECK
 70
     0
  9
$CHAMFERA
 40
0.0
  9
$CHAMFERB
 40
0.0
  9
$CHAMFERC
 40
0.0
  9
$CHAMFERD
 40
0.0
  9
$SKPOLY
 70
     0
  9
$TDCREATE
 40
2459095.469940556
  9
$TDUCREATE
 40
2459095.386607222
  9
$TDUPDATE
 40
2459095.469994583
  9
$TDUUPDATE
 40
2459095.38666125
  9
$TDINDWG
 40
0.0000000116
  9
$TDUSRTIMER
 40
0.0000000116
  9
$USRTIMER
 70
     1
  9
$ANGBASE
 50
0.0
  9
$ANGDIR
 70
     0
  9
$PDMODE
 70
     0
  9
$PDSIZE
 40
-1.0
  9
$PLINEWID
 40
0.0
  9
$SPLFRAME
 70
     0
  9
$SPLINETYPE
 70
     6
  9
$SPLINESEGS
 70
     8
  9
$HANDSEED
  5
201
  9
$SURFTAB1
 70
     6
  9
$SURFTAB2
 70
     6
  9
$SURFTYPE
 70
     6
  9
$SURFU
 70
     6
  9
$SURFV
 70
     6
  9
$UCSBASE
  2

  9
$UCSNAME
  2

  9
$UCSORG
 10
0.0
 20
0.0
 30
0.0
  9
$UCSXDIR
 10
1.0
 20
0.0
 30
0.0
  9
$UCSYDIR
 10
0.0
 20
1.0
 30
0.0
  9
$UCSORTHOREF
  2

  9
$UCSORTHOVIEW
 70
     0
  9
$UCSORGTOP
 10
0.0
 20
0.0
 30
0.0
  9
$UCSORGBOTTOM
 10
0.0
 20
0.0
 30
0.0
  9
$UCSORGLEFT
 10
0.0
 20
0.0
 30
0.0
  9
$UCSORGRIGHT
 10
0.0
 20
0.0
 30
0.0
  9
$UCSORGFRONT
 10
0.0
 20
0.0
 30
0.0
  9
$UCSORGBACK
 10
0.0
 20
0.0
 30
0.0
  9
$PUCSBASE
  2

  9
$PUCSNAME
  2

  9
$PUCSORG
 10
0.0
 20
0.0
 30
0.0
  9
$PUCSXDIR
 10
1.0
 20
0.0
 30
0.0
  9
$PUCSYDIR
 10
0.0
 20
1.0
 30
0.0
  9
$PUCSORTHOREF
  2

  9
$PUCSORTHOVIEW
 70
     0
  9
$PUCSORGTOP
 10
0.0
 20
0.0
 30
0.0
  9
$PUCSORGBOTTOM
 10
0.0
 20
0.0
 30
0.0
  9
$PUCSORGLEFT
 10
0.0
 20
0.0
 30
0.0
  9
$PUCSORGRIGHT
 10
0.0
 20
0.0
 30
0.0
  9
$PUCSORGFRONT
 10
0.0
 20
0.0
 30
0.0
  9
$PUCSORGBACK
 10
0.0
 20
0.0
 30
0.0
  9
$USERI1
 70
     0
  9
$USERI2
 70
     0
  9
$USERI3
 70
     0
  9
$USERI4
 70
     0
  9
$USERI5
 70
     0
  9
$USERR1
 40
0.0
  9
$USERR2
 40
0.0
  9
$USERR3
 40
0.0
  9
$USERR4
 40
0.0
  9
$USERR5
 40
0.0
  9
$WORLDVIEW
 70
     1
  9
$SHADEDGE
 70
     3
  9
$SHADEDIF
 70
    70
  9
$TILEMODE
 70
     1
  9
$MAXACTVP
 70
    64
  9
$PINSBASE
 10
0.0
 20
0.0
 30
0.0
  9
$PLIMCHECK
 70
     0
  9
$PEXTMIN
 10
1.0000000000E+20
 20
1.0000000000E+20
 30
1.0000000000E+20
  9
$PEXTMAX
 10
-1.0000000000E+20
 20
-1.0000000000E+20
 30
-1.0000000000E+20
  9
$PLIMMIN
 10
0.0
 20
0.0
  9
$PLIMMAX
 10
420.0
 20
297.0
  9
$UNITMODE
 70
     0
  9
$VISRETAIN
 70
     1
  9
$PLINEGEN
 70
     0
  9
$PSLTSCALE
 70
     1
  9
$TREEDEPTH
 70
  3020
  9
$CMLSTYLE
  2
Standard
  9
$CMLJUST
 70
     0
  9
$CMLSCALE
 40
20.0
  9
$PROXYGRAPHICS
 70
     1
  9
$MEASUREMENT
 70
     1
  9
$CELWEIGHT
370
    -1
  9
$ENDCAPS
280
     0
  9
$JOINSTYLE
280
     0
  9
$LWDISPLAY
290
     1
  9
$INSUNITS
 70
     4
  9
$HYPERLINKBASE
  1

  9
$STYLESHEET
  1

  9
$XEDIT
290
     1
  9
$CEPSNTYPE
380
     0
  9
$PSTYLEMODE
290
     1
  9
$FINGERPRINTGUID
  2
{9f19cb53-a17c-413c-8fac-e40d2551c6e9}
  9
$VERSIONGUID
  2
{FAEB1C32-E019-11D5-929B-00C0DF256EC4}
  9
$EXTNAMES
290
     1
  9
$PSVPSCALE
 40
0.0
  9
$OLESTARTUP
290
     0
  0
ENDSEC
  0
SECTION
  2
CLASSES
  0
CLASS
  1
ACDBDICTIONARYWDFLT
  2
AcDbDictionaryWithDefault
  3
ObjectDBX Classes
 90
        0
280
     0
281
     0
  0
CLASS
  1
VISUALSTYLE
  2
AcDbVisualStyle
  3
ObjectDBX Classes
 90
     4095
280
     0
281
     0
  0
CLASS
  1
MATERIAL
  2
AcDbMaterial
  3
ObjectDBX Classes
 90
     1153
280
     0
281
     0
  0
CLASS
  1
SCALE
  2
AcDbScale
  3
ObjectDBX Classes
 90
     1153
280
     0
281
     0
  0
CLASS
  1
TABLESTYLE
  2
AcDbTableStyle
  3
ObjectDBX Classes
 90
     4095
280
     0
281
     0
  0
CLASS
  1
MLEADERSTYLE
  2
AcDbMLeaderStyle
  3
ACDB_MLEADERSTYLE_CLASS
 90
     4095
280
     0
281
     0
  0
CLASS
  1
SUN
  2
AcDbSun
  3
SCENEOE
 90
     1153
280
     0
281
     0
  0
CLASS
  1
ACDBPLACEHOLDER
  2
AcDbPlaceHolder
  3
ObjectDBX Classes
 90
        0
280
     0
281
     0
  0
CLASS
  1
LAYOUT
  2
AcDbLayout
  3
ObjectDBX Classes
 90
        0
280
     0
281
     0
  0
ENDSEC
  0
SECTION
  2
TABLES
  0
TABLE
  2
VPORT
  5
8
330
0
100
AcDbSymbolTable
 70
     1
  0
VPORT
  5
29
330
8
100
AcDbSymbolTableRecord
100
AcDbViewportTableRecord
  2
*Active
 70
     0
 10
0.0
 20
0.0
 11
1.0
 21
1.0
 12
6756.1716132229
 22
5072.1977618228
 13
0.0
 23
0.0
 14
10.0
 24
10.0
 15
10.0
 25
10.0
 16
0.0
 26
0.0
 36
1.0
 17
0.0
 27
0.0
 37
0.0
 40
460.7998145746
 41
0.9979674059
 42
50.0
 43
0.0
 44
0.0
 50
0.0
 51
0.0
 71
     0
 72
   100
 73
     1
 74
     3
 75
     0
 76
     0
 77
     0
 78
     0
281
     0
 65
     1
110
0.0
120
0.0
130
0.0
111
1.0
121
0.0
131
0.0
112
0.0
122
1.0
132
0.0
 79
     0
146
0.0
  0
ENDTAB
  0
TABLE
  2
LTYPE
  5
5
330
0
100
AcDbSymbolTable
 70
     6
  0
LTYPE
  5
14
330
5
100
AcDbSymbolTableRecord
100
AcDbLinetypeTableRecord
  2
ByBlock
 70
     0
  3

 72
    65
 73
     0
 40
0.0
  0
LTYPE
  5
15
330
5
100
AcDbSymbolTableRecord
100
AcDbLinetypeTableRecord
  2
ByLayer
 70
     0
  3

 72
    65
 73
     0
 40
0.0
  0
LTYPE
  5
16
330
5
100
AcDbSymbolTableRecord
100
AcDbLinetypeTableRecord
  2
Continuous
 70
     0
  3
Solid line
 72
    65
 73
     0
 40
0.0
  0
LTYPE
  5
6E
330
5
100
AcDbSymbolTableRecord
100
AcDbLinetypeTableRecord
  2
HIDDEN
 70
     0
  3
Hidden __ __ __ __ __ __ __ __ __ __ __ __ __ __
 72
    65
 73
     2
 40
1.905
 49
1.27
 74
     0
 49
-0.635
 74
     0
  0
LTYPE
  5
6F
330
5
100
AcDbSymbolTableRecord
100
AcDbLinetypeTableRecord
  2
PHANTOM
 70
     0
  3
Phantom ______  __  __  ______  __  __  ______
 72
    65
 73
     6
 40
12.7
 49
6.35
 74
     0
 49
-1.27
 74
     0
 49
1.27
 74
     0
 49
-1.27
 74
     0
 49
1.27
 74
     0
 49
-1.27
 74
     0
  0
LTYPE
  5
70
330
5
100
AcDbSymbolTableRecord
100
AcDbLinetypeTableRecord
  2
CENTER
 70
     0
  3
Center ____ _ ____ _ ____ _ ____ _ ____ _ ____
 72
    65
 73
     4
 40
10.16
 49
6.35
 74
     0
 49
-1.27
 74
     0
 49
1.27
 74
     0
 49
-1.27
 74
     0
  0
LTYPE
  5
71
330
5
100
AcDbSymbolTableRecord
100
AcDbLinetypeTableRecord
  2
CENTERX2
 70
     0
  3
Center (2x) ________  __  ________  __  _____
 72
    65
 73
     4
 40
20.32
 49
12.7
 74
     0
 49
-2.54
 74
     0
 49
2.54
 74
     0
 49
-2.54
 74
     0
  0
LTYPE
  5
72
330
5
100
AcDbSymbolTableRecord
100
AcDbLinetypeTableRecord
  2
DOT2
 70
     0
  3
Dot (.5x) ........................................
 72
    65
 73
     2
 40
0.635
 49
0.0
 74
     0
 49
-0.635
 74
     0
  0
ENDTAB
  0
TABLE
  2
LAYER
  5
2
330
0
100
AcDbSymbolTable
 70
     1
  0
LAYER
  5
10
330
2
100
AcDbSymbolTableRecord
100
AcDbLayerTableRecord
  2
0
 70
     0
 62
     7
  6
Continuous
370
    -3
390
F
  0
ENDTAB
  0
TABLE
  2
STYLE
  5
3
330
0
100
AcDbSymbolTable
 70
     1
  0
STYLE
  5
11
330
3
100
AcDbSymbolTableRecord
100
AcDbTextStyleTableRecord
  2
Standard
 70
     0
 40
0.0
 41
1.0
 50
0.0
 71
     0
 42
3.5
  3
txt
  4

  0
ENDTAB
  0
TABLE
  2
VIEW
  5
6
330
0
100
AcDbSymbolTable
 70
     0
  0
ENDTAB
  0
TABLE
  2
UCS
  5
7
330
0
100
AcDbSymbolTable
 70
     0
  0
ENDTAB
  0
TABLE
  2
APPID
  5
9
330
0
100
AcDbSymbolTable
 70
     1
  0
APPID
  5
12
330
9
100
AcDbSymbolTableRecord
100
AcDbRegAppTableRecord
  2
ACAD
 70
     0
  0
ENDTAB
  0
TABLE
  2
DIMSTYLE
  5
A
330
0
100
AcDbSymbolTable
 70
     1
100
AcDbDimStyleTable
  0
DIMSTYLE
105
27
330
A
100
AcDbSymbolTableRecord
100
AcDbDimStyleTableRecord
  2
ISO-25
 70
     0
 41
2.5
 42
0.625
 43
3.75
 44
1.25
 73
     0
 74
     0
 77
     1
 78
     8
140
2.5
141
2.5
143
0.0393700787
147
0.625
171
     3
172
     1
178
     0
271
     2
272
     2
274
     3
278
    44
283
     0
284
     8
340
11
  0
ENDTAB
  0
TABLE
  2
BLOCK_RECORD
  5
1
330
0
100
AcDbSymbolTable
 70
     1
  0
BLOCK_RECORD
  5
1F
330
1
100
AcDbSymbolTableRecord
100
AcDbBlockTableRecord
  2
*Model_Space
340
22
  0
BLOCK_RECORD
  5
1B
330
1
100
AcDbSymbolTableRecord
100
AcDbBlockTableRecord
  2
*Paper_Space
340
1E
  0
BLOCK_RECORD
  5
23
330
1
100
AcDbSymbolTableRecord
100
AcDbBlockTableRecord
  2
*Paper_Space0
340
26
  0
ENDTAB
  0
ENDSEC
  0
SECTION
  2
BLOCKS
  0
BLOCK
  5
20
330
1F
100
AcDbEntity
  8
0
100
AcDbBlockBegin
  2
*Model_Space
 70
     0
 10
0.0
 20
0.0
 30
0.0
  3
*Model_Space
  1

  0
ENDBLK
  5
21
330
1F
100
AcDbEntity
  8
0
100
AcDbBlockEnd
  0
BLOCK
  5
1C
330
1B
100
AcDbEntity
 67
     1
  8
0
100
AcDbBlockBegin
  2
*Paper_Space
 70
     0
 10
0.0
 20
0.0
 30
0.0
  3
*Paper_Space
  1

  0
ENDBLK
  5
1D
330
1B
100
AcDbEntity
 67
     1
  8
0
100
AcDbBlockEnd
  0
BLOCK
  5
24
330
23
100
AcDbEntity
  8
0
100
AcDbBlockBegin
  2
*Paper_Space0
 70
     0
 10
0.0
 20
0.0
 30
0.0
  3
*Paper_Space0
  1

  0
ENDBLK
  5
25
330
23
100
AcDbEntity
  8
0
100
AcDbBlockEnd
  0
ENDSEC
  0
SECTION
  2
ENTITIES
  0
CIRCLE
  5
73
330
1F
100
AcDbEntity
  8
0
  6
Continuous
 62
     7
100
AcDbCircle
 10
6615.748475539
 20
5177.9058132605
 30
0.0
 40
12.5
  0
CIRCLE
  5
74
330
1F
100
AcDbEntity
  8
0
  6
Continuous
 62
     7
100
AcDbCircle
 10
6615.748475539
 20
5177.9058132605
 30
0.0
 40
14.0
  0
ARC
  5
75
330
1F
100
AcDbEntity
  8
0
  6
Continuous
 62
     7
100
AcDbCircle
 10
6613.5675173226
 20
5186.6061518465
 30
0.0
 40
1.617047437670933
100
AcDbArc
 50
1.143011934
 51
181.1430119341
  0
ARC
  5
76
330
1F
100
AcDbEntity
  8
0
  6
Continuous
 62
     7
100
AcDbCircle
 10
6610.292152041
 20
5177.2128637637
 30
0.0
 40
2.569012885872416
100
AcDbArc
 50
45.2374613653
 51
106.6370736859
  0
ARC
  5
77
330
1F
100
AcDbEntity
  8
0
  6
Continuous
 62
     7
100
AcDbCircle
 10
6615.9860279912
 20
5174.3804167988
 30
0.0
 40
6.322526241460064
100
AcDbArc
 50
181.1430081228
 51
271.1429726018
  0
ARC
  5
78
330
1F
100
AcDbEntity
  8
0
  6
Continuous
 62
     7
100
AcDbCircle
 10
6618.3880246448
 20
5172.6610524435
 30
0.0
 40
4.555589483126918
100
AcDbArc
 50
271.1429778569
 51
1.1430237892
  0
ARC
  5
79
330
1F
100
AcDbEntity
  8
0
  6
Continuous
 62
     7
100
AcDbCircle
 10
6621.43303748
 20
5180.5601460768
 30
0.0
 40
1.353611246209155
100
AcDbArc
 50
1.1426562324
 51
91.1420256158
  0
ARC
  5
7A
330
1F
100
AcDbEntity
  8
0
  6
Continuous
 62
     7
100
AcDbCircle
 10
6620.9389281237
 20
5180.5502876556
 30
0.0
 40
1.353611246209659
100
AcDbArc
 50
91.1432131601
 51
119.8795729556
  0
ARC
  5
7B
330
1F
100
AcDbEntity
  8
0
  6
Continuous
 62
     7
100
AcDbCircle
 10
6618.9371406405
 20
5181.4591162583
 30
0.0
 40
1.353611246208296
100
AcDbArc
 50
11.2835188889
 51
91.1427816673
  0
ARC
  5
7C
330
1F
100
AcDbEntity
  8
0
  6
Continuous
 62
     7
100
AcDbCircle
 10
6618.3579382967
 20
5181.4475600577
 30
0.0
 40
1.353611246208026
100
AcDbArc
 50
91.1430268731
 51
125.8870070981
  0
ARC
  5
7D
330
1F
100
AcDbEntity
  8
0
  6
Continuous
 62
     7
100
AcDbCircle
 10
6616.364916687
 20
5181.9170508198
 30
0.0
 40
1.35361124620885
100
AcDbArc
 50
27.6022903616
 51
91.1427643353
  0
ARC
  5
7E
330
1F
100
AcDbEntity
  8
0
  6
Continuous
 62
     7
100
AcDbCircle
 10
6615.9083892272
 20
5181.9079420076
 30
0.0
 40
1.353611246208168
100
AcDbArc
 50
91.1427396007
 51
118.8636887188
  0
ARC
  5
7F
330
1F
100
AcDbEntity
  8
0
  6
Continuous
 62
     7
100
AcDbCircle
 10
6614.9753492299
 20
5178.9618741403
 30
0.0
 40
0.6676229094022266
100
AcDbArc
 50
181.1430117146
 51
1.1430117146
  0
ARC
  5
80
330
1F
100
AcDbEntity
  8
0
  6
Continuous
 62
     7
100
AcDbCircle
 10
6615.8242208692
 20
5181.920427681
 30
0.0
 40
0.2401101162875354
100
AcDbArc
 50
91.1425815134
 51
181.1429161537
  0
ARC
  5
81
330
1F
100
AcDbEntity
  8
0
  6
Continuous
 62
     7
100
AcDbCircle
 10
6616.4485106518
 20
5181.9328834701
 30
0.0
 40
0.2401101162884926
100
AcDbArc
 50
1.1430768047
 51
91.1403698031
  0
ARC
  5
82
330
1F
100
AcDbEntity
  8
0
  6
Continuous
 62
     7
100
AcDbCircle
 10
6617.4147363726
 20
5179.0105449416
 30
0.0
 40
0.6676154603341778
100
AcDbArc
 50
181.1430244697
 51
1.1430244697
  0
ARC
  5
83
330
1F
100
AcDbEntity
  8
0
  6
Continuous
 62
     7
100
AcDbCircle
 10
6618.2737631439
 20
5181.4600460612
 30
0.0
 40
0.240110116287459
100
AcDbArc
 50
91.1425792969
 51
181.1430272581
  0
ARC
  5
84
330
1F
100
AcDbEntity
  8
0
  6
Continuous
 62
     7
100
AcDbCircle
 10
6619.020734196
 20
5181.4749493662
 30
0.0
 40
0.2401101162887673
100
AcDbArc
 50
1.1430768045
 51
91.1403698272
  0
ARC
  5
85
330
1F
100
AcDbEntity
  8
0
  6
Continuous
 62
     7
100
AcDbCircle
 10
6619.9767973247
 20
5179.0616636079
 30
0.0
 40
0.6676154602841474
100
AcDbArc
 50
181.1430244698
 51
1.1430244698
  0
ARC
  5
86
330
1F
100
AcDbEntity
  8
0
  6
Continuous
 62
     7
100
AcDbCircle
 10
6620.8541227207
 20
5180.5949966985
 30
0.0
 40
0.2401101162885643
100
AcDbArc
 50
91.1461354419
 51
181.1430427072
  0
ARC
  5
87
330
1F
100
AcDbEntity
  8
0
  6
Continuous
 62
     7
100
AcDbCircle
 10
6618.3880246448
 20
5172.6610524435
 30
0.0
 40
3.525996968946212
100
AcDbArc
 50
271.143043719
 51
1.1430295244
  0
ARC
  5
88
330
1F
100
AcDbEntity
  8
0
  6
Continuous
 62
     7
100
AcDbCircle
 10
6615.9860279912
 20
5174.3804167988
 30
0.0
 40
5.292934658392652
100
AcDbArc
 50
181.1430225805
 51
271.1430152539
  0
ARC
  5
89
330
1F
100
AcDbEntity
  8
0
  6
Continuous
 62
     7
100
AcDbCircle
 10
6610.292152041
 20
5177.2128637637
 30
0.0
 40
1.539410673768255
100
AcDbArc
 50
1.1430661503
 51
78.2570515265
  0
ARC
  5
8A
330
1F
100
AcDbEntity
  8
0
  6
Continuous
 62
     7
100
AcDbCircle
 10
6612.5377278748
 20
5175.3028591427
 30
0.0
 40
0.6676229105631919
100
AcDbArc
 50
181.1430167084
 51
1.1430167084
  0
ARC
  5
8B
330
1F
100
AcDbEntity
  8
0
  6
Continuous
 62
     7
100
AcDbCircle
 10
6613.5675173226
 20
5186.6061518465
 30
0.0
 40
0.5874387099003453
100
AcDbArc
 50
1.1430255702
 51
181.1430255703
  0
ARC
  5
8C
330
1F
100
AcDbEntity
  8
0
  6
Continuous
 62
     7
100
AcDbCircle
 10
6621.5160055229
 20
5180.6082025513
 30
0.0
 40
0.240110116288217
100
AcDbArc
 50
1.1409827328
 51
91.1397443239
  0
CIRCLE
  5
8D
330
1F
100
AcDbEntity
  8
0
  6
Continuous
 62
     7
100
AcDbCircle
 10
6615.748475539
 20
5212.9058132605
 30
0.0
 40
70.5
  0
CIRCLE
  5
8E
330
1F
100
AcDbEntity
  8
0
  6
Continuous
 62
     7
100
AcDbCircle
 10
6615.748475539
 20
5212.9058132605
 30
0.0
 40
72.38561808316535
  0
CIRCLE
  5
8F
330
1F
100
AcDbEntity
  8
0
  6
Continuous
 62
     7
100
AcDbCircle
 10
6615.748475539
 20
5212.9058132605
 30
0.0
 40
73.32842712474576
  0
ARC
  5
90
330
1F
100
AcDbEntity
  8
0
  6
Continuous
 62
     7
100
AcDbCircle
 10
6670.7484758539
 20
5267.9058103406
 30
0.0
 40
28.00000000000092
100
AcDbArc
 50
0.0000058544
 51
90.0000017686
  0
ARC
  5
91
330
1F
100
AcDbEntity
  8
0
  6
Continuous
 62
     7
100
AcDbCircle
 10
6670.7484758539
 20
5267.9058103406
 30
0.0
 40
29.9999966025007
100
AcDbArc
 50
0.0000054641
 51
90.0000016507
  0
ARC
  5
92
330
1F
100
AcDbEntity
  8
0
  6
Continuous
 62
     7
100
AcDbCircle
 10
6670.7484758539
 20
5157.9058166587
 30
0.0
 40
28.00000000000106
100
AcDbArc
 50
269.9999982314
 51
359.9999941454
  0
ARC
  5
93
330
1F
100
AcDbEntity
  8
0
  6
Continuous
 62
     7
100
AcDbCircle
 10
6560.7484747214
 20
5157.9058166587
 30
0.0
 40
28.00000000000106
100
AcDbArc
 50
180.0000058546
 51
270.0000017686
  0
ARC
  5
94
330
1F
100
AcDbEntity
  8
0
  6
Continuous
 62
     7
100
AcDbCircle
 10
6560.7484747214
 20
5267.9058103406
 30
0.0
 40
28.00000000000106
100
AcDbArc
 50
89.9999982314
 51
179.9999941456
  0
ARC
  5
95
330
1F
100
AcDbEntity
  8
0
  6
Continuous
 62
     7
100
AcDbCircle
 10
6670.7484758539
 20
5157.9058166587
 30
0.0
 40
29.99999660250083
100
AcDbArc
 50
269.9999983493
 51
359.9999945357
  0
ARC
  5
96
330
1F
100
AcDbEntity
  8
0
  6
Continuous
 62
     7
100
AcDbCircle
 10
6560.7484747214
 20
5267.9058103406
 30
0.0
 40
29.99999660250083
100
AcDbArc
 50
89.9999983493
 51
179.9999945359
  0
ARC
  5
97
330
1F
100
AcDbEntity
  8
0
  6
Continuous
 62
     7
100
AcDbCircle
 10
6560.7484747214
 20
5157.9058166587
 30
0.0
 40
29.99999660250083
100
AcDbArc
 50
180.0000054643
 51
270.0000016507
  0
ARC
  5
98
330
1F
100
AcDbEntity
  8
0
  6
Continuous
 62
     7
100
AcDbCircle
 10
6978.5947484461
 20
5139.5773861357
 30
0.0
 40
1.0
100
AcDbArc
 50
109.4712206344
 51
179.9999999973
  0
ARC
  5
99
330
1F
100
AcDbEntity
  8
0
  6
Continuous
 62
     7
100
AcDbCircle
 10
6978.5947484461
 20
5286.2342403852
 30
0.0
 40
1.0
100
AcDbArc
 50
179.999999997
 51
250.5287793655
  0
ARC
  5
9A
330
1F
100
AcDbEntity
  8
0
  6
Continuous
 62
     7
100
AcDbCircle
 10
6977.5947517243
 20
5283.4058121014
 30
0.0
 40
2.000000000001835
100
AcDbArc
 50
0.000077619
 51
70.5288789758
  0
ARC
  5
9B
330
1F
100
AcDbEntity
  8
0
  6
Continuous
 62
     7
100
AcDbCircle
 10
6977.5947517243
 20
5142.4058144195
 30
0.0
 40
2.000000000001244
100
AcDbArc
 50
289.4711210242
 51
359.9999360804
  0
ARC
  5
9C
330
1F
100
AcDbEntity
  8
0
  6
Continuous
 62
     7
100
AcDbCircle
 10
6952.3947481421
 20
5279.480020579
 30
0.0
 40
0.8000000000004267
100
AcDbArc
 50
0.0000973311
 51
89.9999026689
  0
ARC
  5
9D
330
1F
100
AcDbEntity
  8
0
  6
Continuous
 62
     7
100
AcDbCircle
 10
6940.7947482136
 20
5279.480020579
 30
0.0
 40
0.7999999999995172
100
AcDbArc
 50
90.0000973311
 51
179.9999026689
  0
ARC
  5
9E
330
1F
100
AcDbEntity
  8
0
  6
Continuous
 62
     7
100
AcDbCircle
 10
6969.5947477308
 20
5292.6558120556
 30
0.0
 40
3.000000000001257
100
AcDbArc
 50
97.8993822548
 51
179.9999451012
  0
ARC
  5
9F
330
1F
100
AcDbEntity
  8
0
  6
Continuous
 62
     7
100
AcDbCircle
 10
6975.5947476712
 20
5129.9058126055
 30
0.0
 40
2.000000000001067
100
AcDbArc
 50
270.0000973311
 51
0.0001161157
  0
ARC
  5
A0
330
1F
100
AcDbEntity
  8
0
  6
Continuous
 62
     7
100
AcDbCircle
 10
6975.5947476712
 20
5295.9058143937
 30
0.0
 40
2.000000000000157
100
AcDbArc
 50
359.9998838872
 51
89.9999026689
  0
ARC
  5
A1
330
1F
100
AcDbEntity
  8
0
  6
Continuous
 62
     7
100
AcDbCircle
 10
6542.4200484143
 20
4849.3154996573
 30
0.0
 40
1.000000000002067
100
AcDbArc
 50
19.4712206345
 51
89.9999999972
  0
ARC
  5
A2
330
1F
100
AcDbEntity
  8
0
  6
Continuous
 62
     7
100
AcDbCircle
 10
6689.0769026638
 20
4849.3154996573
 30
0.0
 40
1.000000000001819
100
AcDbArc
 50
90.0000000028
 51
160.5287793655
  0
ARC
  5
A3
330
1F
100
AcDbEntity
  8
0
  6
Continuous
 62
     7
100
AcDbCircle
 10
6686.24847438
 20
4850.3154963791
 30
0.0
 40
1.999999999999212
100
AcDbArc
 50
269.9999568481
 51
340.5288789758
  0
ARC
  5
A4
330
1F
100
AcDbEntity
  8
0
  6
Continuous
 62
     7
100
AcDbCircle
 10
6545.2484766981
 20
4850.3154963791
 30
0.0
 40
2.000000000000252
100
AcDbArc
 50
199.4711210242
 51
270.0000287535
  0
ARC
  5
A5
330
1F
100
AcDbEntity
  8
0
  6
Continuous
 62
     7
100
AcDbCircle
 10
6535.9984730064
 20
4858.3155003726
 30
0.0
 40
2.99999999999987
100
AcDbArc
 50
89.999912605
 51
172.1006177471
  0
ARC
  5
A6
330
1F
100
AcDbEntity
  8
0
  6
Continuous
 62
     7
100
AcDbCircle
 10
6695.4984775689
 20
4858.3155003726
 30
0.0
 40
3.000000000000896
100
AcDbArc
 50
7.8993822529
 51
90.000087395
  0
ARC
  5
A7
330
1F
100
AcDbEntity
  8
0
  6
Continuous
 62
     7
100
AcDbCircle
 10
6532.7484781189
 20
4852.3155004322
 30
0.0
 40
2.000000000000157
100
AcDbArc
 50
180.0000973311
 51
269.9999026689
  0
ARC
  5
A8
330
1F
100
AcDbEntity
  8
0
  6
Continuous
 62
     7
100
AcDbCircle
 10
6698.7484724564
 20
4852.3155004322
 30
0.0
 40
2.000000000001067
100
AcDbArc
 50
270.0000973312
 51
359.9999026689
  0
CIRCLE
  5
A9
330
1F
100
AcDbEntity
  8
0
  6
Continuous
 62
     7
100
AcDbCircle
 10
6583.7269766374
 20
4881.3154996573
 30
0.0
 40
5.799999999999272
  0
CIRCLE
  5
AA
330
1F
100
AcDbEntity
  8
0
  6
Continuous
 62
     7
100
AcDbCircle
 10
6583.7269766374
 20
4881.3154996573
 30
0.0
 40
6.599999999999454
  0
CIRCLE
  5
AB
330
1F
100
AcDbEntity
  8
0
  6
Continuous
 62
     7
100
AcDbCircle
 10
6583.7269766374
 20
4881.3154996573
 30
0.0
 40
3.999999999999091
  0
CIRCLE
  5
AC
330
1F
100
AcDbEntity
  8
0
  6
Continuous
 62
     7
100
AcDbCircle
 10
6615.7269766681
 20
4905.3154995648
 30
0.0
 40
6.999999999999956
  0
CIRCLE
  5
AD
330
1F
100
AcDbEntity
  8
0
  6
Continuous
 62
     7
100
AcDbCircle
 10
6615.7269766681
 20
4905.3154995648
 30
0.0
 40
4.000000000000434
  0
CIRCLE
  5
AE
330
1F
100
AcDbEntity
  8
0
  6
Continuous
 62
     7
100
AcDbCircle
 10
6615.7269766681
 20
4905.3154995648
 30
0.0
 40
9.299999999999578
  0
CIRCLE
  5
AF
330
1F
100
AcDbEntity
  8
0
  6
Continuous
 62
     7
100
AcDbCircle
 10
6615.7269766681
 20
4905.3154995648
 30
0.0
 40
7.799999999999816
  0
ARC
  5
B0
330
1F
100
AcDbEntity
  8
0
  6
Continuous
 62
     7
100
AcDbCircle
 10
6615.7269766681
 20
4905.3154995648
 30
0.0
 40
13.22049993112987
100
AcDbArc
 50
153.360235524
 51
243.3602327506
  0
CIRCLE
  5
B1
330
1F
100
AcDbEntity
  8
0
  6
Continuous
 62
     7
100
AcDbCircle
 10
6615.7269766681
 20
4905.3154995648
 30
0.0
 40
11.72050000000115
  0
CIRCLE
  5
B2
330
1F
100
AcDbEntity
  8
0
  6
Continuous
 62
     7
100
AcDbCircle
 10
6615.7269766681
 20
4905.3154995648
 30
0.0
 40
9.750000000000055
  0
LINE
  5
B3
330
1F
100
AcDbEntity
  8
0
  6
Continuous
 62
     7
100
AcDbLine
 10
6615.2549639094
 20
5183.0933949843
 30
0.0
 11
6615.1842429984
 21
5186.6384087063
 31
0.0
  0
LINE
  5
B4
330
1F
100
AcDbEntity
  8
0
  6
Continuous
 62
     7
100
AcDbLine
 10
6611.9507916469
 20
5186.5738949867
 30
0.0
 11
6612.1011741657
 21
5179.0369433014
 31
0.0
  0
LINE
  5
B5
330
1F
100
AcDbEntity
  8
0
  6
Continuous
 62
     7
100
AcDbLine
 10
6609.5566220779
 20
5179.6743313911
 30
0.0
 11
6609.6647598047
 21
5174.2542954756
 31
0.0
  0
LINE
  5
B6
330
1F
100
AcDbEntity
  8
0
  6
Continuous
 62
     7
100
AcDbLine
 10
6616.1121453954
 20
5168.0591485341
 30
0.0
 11
6618.4788968278
 21
5168.1063693826
 31
0.0
  0
LINE
  5
B7
330
1F
100
AcDbEntity
  8
0
  6
Continuous
 62
     7
100
AcDbLine
 10
6622.9427076329
 20
5172.7519282778
 30
0.0
 11
6622.7863795508
 21
5180.5871395101
 31
0.0
  0
LINE
  5
B8
330
1F
100
AcDbEntity
  8
0
  6
Continuous
 62
     7
100
AcDbLine
 10
6621.4060589421
 20
5181.9134884446
 30
0.0
 11
6620.9119215357
 21
5181.9036294639
 31
0.0
  0
LINE
  5
B9
330
1F
100
AcDbEntity
  8
0
  6
Continuous
 62
     7
100
AcDbLine
 10
6618.9101442444
 20
5182.81245827
 30
0.0
 11
6618.3309361088
 21
5182.8009019538
 31
0.0
  0
LINE
  5
BA
330
1F
100
AcDbEntity
  8
0
  6
Continuous
 62
     7
100
AcDbLine
 10
6616.3379207003
 20
5183.2703928396
 30
0.0
 11
6615.8813938248
 21
5183.2612840391
 31
0.0
  0
LINE
  5
BB
330
1F
100
AcDbEntity
  8
0
  6
Continuous
 62
     7
100
AcDbLine
 10
6615.5841585222
 20
5181.9156383661
 30
0.0
 11
6615.642839295
 21
5178.9751918785
 31
0.0
  0
LINE
  5
BC
330
1F
100
AcDbEntity
  8
0
  6
Continuous
 62
     7
100
AcDbLine
 10
6616.4437320057
 20
5182.1729460297
 30
0.0
 11
6615.8194329563
 21
5182.1604900559
 31
0.0
  0
LINE
  5
BD
330
1F
100
AcDbEntity
  8
0
  6
Continuous
 62
     7
100
AcDbLine
 10
6616.747253758
 20
5178.9972272034
 30
0.0
 11
6616.6885729852
 21
5181.9376734582
 31
0.0
  0
LINE
  5
BE
330
1F
100
AcDbEntity
  8
0
  6
Continuous
 62
     7
100
AcDbLine
 10
6618.0337008062
 20
5181.4552562808
 30
0.0
 11
6618.0822189871
 21
5179.0238626798
 31
0.0
  0
LINE
  5
BF
330
1F
100
AcDbEntity
  8
0
  6
Continuous
 62
     7
100
AcDbLine
 10
6619.0159555498
 20
5181.7150119258
 30
0.0
 11
6618.2689752403
 21
5181.7001084363
 31
0.0
  0
LINE
  5
C0
330
1F
100
AcDbEntity
  8
0
  6
Continuous
 62
     7
100
AcDbLine
 10
6619.3093147102
 20
5179.0483458697
 30
0.0
 11
6619.2607965294
 21
5181.4797393543
 31
0.0
  0
LINE
  5
C1
330
1F
100
AcDbEntity
  8
0
  6
Continuous
 62
     7
100
AcDbLine
 10
6620.6140603843
 20
5180.5902068534
 30
0.0
 11
6620.6442799392
 21
5179.0749813461
 31
0.0
  0
LINE
  5
C2
330
1F
100
AcDbEntity
  8
0
  6
Continuous
 62
     7
100
AcDbLine
 10
6621.5112294975
 20
5180.848265163
 30
0.0
 11
6620.8493199173
 21
5180.835058776
 31
0.0
  0
LINE
  5
C3
330
1F
100
AcDbEntity
  8
0
  6
Continuous
 62
     7
100
AcDbLine
 10
6616.0916117501
 20
5169.0885353405
 30
0.0
 11
6618.4583631825
 21
5169.1357571203
 31
0.0
  0
LINE
  5
C4
330
1F
100
AcDbEntity
  8
0
  6
Continuous
 62
     7
100
AcDbLine
 10
6610.6054548351
 20
5178.7200553844
 30
0.0
 11
6610.6941465465
 21
5174.2748323631
 31
0.0
  0
LINE
  5
C5
330
1F
100
AcDbEntity
  8
0
  6
Continuous
 62
     7
100
AcDbLine
 10
6611.8702378097
 20
5175.2895413463
 30
0.0
 11
6611.831256372
 21
5177.2435733818
 31
0.0
  0
LINE
  5
C6
330
1F
100
AcDbEntity
  8
0
  6
Continuous
 62
     7
100
AcDbLine
 10
6612.9801955047
 20
5186.5944334803
 30
0.0
 11
6613.2052179399
 21
5175.3161769391
 31
0.0
  0
LINE
  5
C7
330
1F
100
AcDbEntity
  8
0
  6
Continuous
 62
     7
100
AcDbLine
 10
6614.3078591648
 20
5178.9485564021
 30
0.0
 11
6614.1548391405
 21
5186.6178702128
 31
0.0
  0
LINE
  5
C8
330
1F
100
AcDbEntity
  8
0
  6
Continuous
 62
     7
100
AcDbLine
 10
6621.9133199854
 20
5172.7313901078
 30
0.0
 11
6621.7560680313
 21
5180.6129837654
 31
0.0
  0
LINE
  5
C9
330
1F
100
AcDbEntity
  8
0
  6
Continuous
 62
     7
100
AcDbLine
 10
6627.621686068
 20
5297.9058143937
 30
0.0
 11
6627.4474765925
 21
5298.0800238692
 31
0.0
  0
LINE
  5
CA
330
1F
100
AcDbEntity
  8
0
  6
Continuous
 62
     7
100
AcDbLine
 10
6604.0064766822
 20
5298.0800238692
 30
0.0
 11
6603.8322672067
 21
5297.9058143937
 31
0.0
  0
LINE
  5
CB
330
1F
100
AcDbEntity
  8
0
  6
Continuous
 62
     7
100
AcDbLine
 10
6670.7484749896
 20
5295.9058103406
 30
0.0
 11
6670.7484749896
 21
5297.9058069431
 31
0.0
  0
LINE
  5
CC
330
1F
100
AcDbEntity
  8
0
  6
Continuous
 62
     7
100
AcDbLine
 10
6698.7484758539
 20
5267.9058132016
 30
0.0
 11
6700.7484724564
 21
5267.9058132016
 31
0.0
  0
LINE
  5
CD
330
1F
100
AcDbEntity
  8
0
  6
Continuous
 62
     7
100
AcDbLine
 10
6698.7484758539
 20
5157.9058137976
 30
0.0
 11
6698.7484758539
 21
5267.9058132016
 31
0.0
  0
LINE
  5
CE
330
1F
100
AcDbEntity
  8
0
  6
Continuous
 62
     7
100
AcDbLine
 10
6560.7484755857
 20
5129.9058166587
 30
0.0
 11
6670.7484749896
 21
5129.9058166587
 31
0.0
  0
LINE
  5
CF
330
1F
100
AcDbEntity
  8
0
  6
Continuous
 62
     7
100
AcDbLine
 10
6532.7484747214
 20
5267.9058132016
 30
0.0
 11
6532.7484747214
 21
5157.9058137976
 31
0.0
  0
LINE
  5
D0
330
1F
100
AcDbEntity
  8
0
  6
Continuous
 62
     7
100
AcDbLine
 10
6670.7484749896
 20
5295.9058103406
 30
0.0
 11
6560.7484755857
 21
5295.9058103406
 31
0.0
  0
LINE
  5
D1
330
1F
100
AcDbEntity
  8
0
  6
Continuous
 62
     7
100
AcDbLine
 10
6698.7484758539
 20
5157.9058137976
 30
0.0
 11
6700.7484724564
 21
5157.9058137976
 31
0.0
  0
LINE
  5
D2
330
1F
100
AcDbEntity
  8
0
  6
Continuous
 62
     7
100
AcDbLine
 10
6670.7484749896
 20
5127.9058200562
 30
0.0
 11
6670.7484749896
 21
5129.9058166587
 31
0.0
  0
LINE
  5
D3
330
1F
100
AcDbEntity
  8
0
  6
Continuous
 62
     7
100
AcDbLine
 10
6700.7484724564
 20
5267.9058132016
 30
0.0
 11
6700.7484724564
 21
5157.9058137976
 31
0.0
  0
LINE
  5
D4
330
1F
100
AcDbEntity
  8
0
  6
Continuous
 62
     7
100
AcDbLine
 10
6560.7484755857
 20
5295.9058103406
 30
0.0
 11
6560.7484755857
 21
5297.9058069431
 31
0.0
  0
LINE
  5
D5
330
1F
100
AcDbEntity
  8
0
  6
Continuous
 62
     7
100
AcDbLine
 10
6560.7484755857
 20
5297.9058069431
 30
0.0
 11
6670.7484749896
 21
5297.9058069431
 31
0.0
  0
LINE
  5
D6
330
1F
100
AcDbEntity
  8
0
  6
Continuous
 62
     7
100
AcDbLine
 10
6670.7484749896
 20
5127.9058200562
 30
0.0
 11
6560.7484755857
 21
5127.9058200562
 31
0.0
  0
LINE
  5
D7
330
1F
100
AcDbEntity
  8
0
  6
Continuous
 62
     7
100
AcDbLine
 10
6560.7484755857
 20
5127.9058200562
 30
0.0
 11
6560.7484755857
 21
5129.9058166587
 31
0.0
  0
LINE
  5
D8
330
1F
100
AcDbEntity
  8
0
  6
Continuous
 62
     7
100
AcDbLine
 10
6530.7484781189
 20
5267.9058132016
 30
0.0
 11
6532.7484747214
 21
5267.9058132016
 31
0.0
  0
LINE
  5
D9
330
1F
100
AcDbEntity
  8
0
  6
Continuous
 62
     7
100
AcDbLine
 10
6530.7484781189
 20
5157.9058137976
 30
0.0
 11
6532.7484747214
 21
5157.9058137976
 31
0.0
  0
LINE
  5
DA
330
1F
100
AcDbEntity
  8
0
  6
Continuous
 62
     7
100
AcDbLine
 10
6530.7484781189
 20
5157.9058137976
 30
0.0
 11
6530.7484781189
 21
5267.9058132016
 31
0.0
  0
LINE
  5
DB
330
1F
100
AcDbEntity
  8
0
  6
Continuous
 62
     7
100
AcDbLine
 10
6615.7638991027
 20
5298.0800238692
 30
0.0
 11
6627.4474765925
 21
5298.0800238692
 31
0.0
  0
LINE
  5
DC
330
1F
100
AcDbEntity
  8
0
  6
Continuous
 62
     7
100
AcDbLine
 10
6604.0064766822
 20
5298.0800238692
 30
0.0
 11
6615.7638991027
 21
5298.0800238692
 31
0.0
  0
LINE
  5
DD
330
1F
100
AcDbEntity
  8
0
  6
Continuous
 62
     7
100
AcDbLine
 10
6966.5947477308
 20
5278.5800216042
 30
0.0
 11
6897.0947484461
 21
5278.5800216042
 31
0.0
  0
LINE
  5
DE
330
1F
100
AcDbEntity
  8
0
  6
Continuous
 62
     7
100
AcDbLine
 10
6897.0947484461
 20
5147.580024346
 30
0.0
 11
6966.5947477308
 21
5147.580024346
 31
0.0
  0
LINE
  5
DF
330
1F
100
AcDbEntity
  8
0
  6
Continuous
 62
     7
100
AcDbLine
 10
6979.5947517243
 20
5163.9058147811
 30
0.0
 11
6980.094745287
 21
5163.9058147811
 31
0.0
  0
LINE
  5
E0
330
1F
100
AcDbEntity
  8
0
  6
Continuous
 62
     7
100
AcDbLine
 10
6980.094745287
 20
5191.9058137827
 30
0.0
 11
6979.5947517243
 21
5191.9058137827
 31
0.0
  0
LINE
  5
E1
330
1F
100
AcDbEntity
  8
0
  6
Continuous
 62
     7
100
AcDbLine
 10
6980.094745287
 20
5163.9058147811
 30
0.0
 11
6981.5947483269
 21
5165.4058140957
 31
0.0
  0
LINE
  5
E2
330
1F
100
AcDbEntity
  8
0
  6
Continuous
 62
     7
100
AcDbLine
 10
6981.5947483269
 20
5190.4058126055
 30
0.0
 11
6980.094745287
 21
5191.9058137827
 31
0.0
  0
LINE
  5
E3
330
1F
100
AcDbEntity
  8
0
  6
Continuous
 62
     7
100
AcDbLine
 10
6966.5947477308
 20
5292.6558149301
 30
0.0
 11
6966.5947477308
 21
5267.9058132016
 31
0.0
  0
LINE
  5
E4
330
1F
100
AcDbEntity
  8
0
  6
Continuous
 62
     7
100
AcDbLine
 10
6966.5947477308
 20
5157.9058137976
 30
0.0
 11
6966.5947477308
 21
5133.5711521351
 31
0.0
  0
LINE
  5
E5
330
1F
100
AcDbEntity
  8
0
  6
Continuous
 62
     7
100
AcDbLine
 10
6966.5947477308
 20
5267.9058132016
 30
0.0
 11
6966.5947477308
 21
5157.9058137976
 31
0.0
  0
LINE
  5
E6
330
1F
100
AcDbEntity
  8
0
  6
Continuous
 62
     7
100
AcDbLine
 10
6966.6741336671
 20
5276.5605789863
 30
0.0
 11
6966.615102717
 21
5276.6618323766
 31
0.0
  0
LINE
  5
E7
330
1F
100
AcDbEntity
  8
0
  6
Continuous
 62
     7
100
AcDbLine
 10
6966.6741336671
 20
5153.5605793142
 30
0.0
 11
6966.615102717
 21
5153.6618327045
 31
0.0
  0
LINE
  5
E8
330
1F
100
AcDbEntity
  8
0
  6
Continuous
 62
     7
100
AcDbLine
 10
6953.1947481421
 20
5278.5800216042
 30
0.0
 11
6953.1947481421
 21
5279.480021938
 31
0.0
  0
LINE
  5
E9
330
1F
100
AcDbEntity
  8
0
  6
Continuous
 62
     7
100
AcDbLine
 10
6939.9947482136
 20
5279.480021938
 30
0.0
 11
6939.9947482136
 21
5278.5800216042
 31
0.0
  0
LINE
  5
EA
330
1F
100
AcDbEntity
  8
0
  6
Continuous
 62
     7
100
AcDbLine
 10
6910.1780899775
 20
5128.7761819803
 30
0.0
 11
6910.8742480141
 21
5128.0800220811
 31
0.0
  0
LINE
  5
EB
330
1F
100
AcDbEntity
  8
0
  6
Continuous
 62
     7
100
AcDbLine
 10
6909.3742486996
 20
5129.5800251209
 30
0.0
 11
6909.5181287241
 21
5129.4361395084
 31
0.0
  0
LINE
  5
EC
330
1F
100
AcDbEntity
  8
0
  6
Continuous
 62
     7
100
AcDbLine
 10
6934.3152488557
 20
5128.0800220811
 30
0.0
 11
6935.5074982134
 21
5129.2722714388
 31
0.0
  0
LINE
  5
ED
330
1F
100
AcDbEntity
  8
0
  6
Continuous
 62
     7
100
AcDbLine
 10
6909.3742486996
 20
5129.9218279564
 30
0.0
 11
6909.3742486996
 21
5129.5800251209
 31
0.0
  0
LINE
  5
EE
330
1F
100
AcDbEntity
  8
0
  6
Continuous
 62
     7
100
AcDbLine
 10
6909.3742486996
 20
5131.5093306147
 30
0.0
 11
6909.3742486996
 21
5131.1124530875
 31
0.0
  0
LINE
  5
EF
330
1F
100
AcDbEntity
  8
0
  6
Continuous
 62
     7
100
AcDbLine
 10
6909.3742486996
 20
5133.0968332731
 30
0.0
 11
6909.3742486996
 21
5132.6999557459
 31
0.0
  0
LINE
  5
F0
330
1F
100
AcDbEntity
  8
0
  6
Continuous
 62
     7
100
AcDbLine
 10
6909.3742486996
 20
5134.6843284809
 30
0.0
 11
6909.3742486996
 21
5134.2874584042
 31
0.0
  0
LINE
  5
F1
330
1F
100
AcDbEntity
  8
0
  6
Continuous
 62
     7
100
AcDbLine
 10
6909.3742486996
 20
5136.2718311392
 30
0.0
 11
6909.3742486996
 21
5135.874953612
 31
0.0
  0
LINE
  5
F2
330
1F
100
AcDbEntity
  8
0
  6
Continuous
 62
     7
100
AcDbLine
 10
6935.8152481702
 20
5136.6688576781
 30
0.0
 11
6935.8152481702
 21
5137.0800254189
 31
0.0
  0
LINE
  5
F3
330
1F
100
AcDbEntity
  8
0
  6
Continuous
 62
     7
100
AcDbLine
 10
6935.8152481702
 20
5135.0813624703
 30
0.0
 11
6935.8152481702
 21
5135.4780462824
 31
0.0
  0
LINE
  5
F4
330
1F
100
AcDbEntity
  8
0
  6
Continuous
 62
     7
100
AcDbLine
 10
6935.8152481702
 20
5133.4938598119
 30
0.0
 11
6935.8152481702
 21
5133.8905510747
 31
0.0
  0
LINE
  5
F5
330
1F
100
AcDbEntity
  8
0
  6
Continuous
 62
     7
100
AcDbLine
 10
6935.8152481702
 20
5131.9063571536
 30
0.0
 11
6935.8152481702
 21
5132.3030484163
 31
0.0
  0
LINE
  5
F6
330
1F
100
AcDbEntity
  8
0
  6
Continuous
 62
     7
100
AcDbLine
 10
6935.8152481702
 20
5130.3188619458
 30
0.0
 11
6935.8152481702
 21
5130.7155532085
 31
0.0
  0
LINE
  5
F7
330
1F
100
AcDbEntity
  8
0
  6
Continuous
 62
     7
100
AcDbLine
 10
6910.0513965798
 20
5137.0668900453
 30
0.0
 11
6910.233533473
 21
5136.9616729461
 31
0.0
  0
LINE
  5
F8
330
1F
100
AcDbEntity
  8
0
  6
Continuous
 62
     7
100
AcDbLine
 10
6934.9559652594
 20
5131.2110689723
 30
0.0
 11
6934.9559652594
 21
5131.4054173671
 31
0.0
  0
LINE
  5
F9
330
1F
100
AcDbEntity
  8
0
  6
Continuous
 62
     7
100
AcDbLine
 10
6934.9559652594
 20
5132.7985716306
 30
0.0
 11
6934.9559652594
 21
5132.9929200255
 31
0.0
  0
LINE
  5
FA
330
1F
100
AcDbEntity
  8
0
  6
Continuous
 62
     7
100
AcDbLine
 10
6934.9559652594
 20
5134.386074289
 30
0.0
 11
6934.9559652594
 21
5134.5804226839
 31
0.0
  0
LINE
  5
FB
330
1F
100
AcDbEntity
  8
0
  6
Continuous
 62
     7
100
AcDbLine
 10
6934.9559652594
 20
5135.9735694968
 30
0.0
 11
6934.9559652594
 21
5136.1679178917
 31
0.0
  0
LINE
  5
FC
330
1F
100
AcDbEntity
  8
0
  6
Continuous
 62
     7
100
AcDbLine
 10
6910.233533473
 20
5130.615760132
 30
0.0
 11
6910.233533473
 21
5130.4224920713
 31
0.0
  0
LINE
  5
FD
330
1F
100
AcDbEntity
  8
0
  6
Continuous
 62
     7
100
AcDbLine
 10
6910.233533473
 20
5132.2032553398
 30
0.0
 11
6910.233533473
 21
5132.0099947297
 31
0.0
  0
LINE
  5
FE
330
1F
100
AcDbEntity
  8
0
  6
Continuous
 62
     7
100
AcDbLine
 10
6910.233533473
 20
5133.7907579981
 30
0.0
 11
6910.233533473
 21
5133.5974899375
 31
0.0
  0
LINE
  5
FF
330
1F
100
AcDbEntity
  8
0
  6
Continuous
 62
     7
100
AcDbLine
 10
6910.233533473
 20
5135.3782606565
 30
0.0
 11
6910.233533473
 21
5135.1849925958
 31
0.0
  0
LINE
  5
100
330
1F
100
AcDbEntity
  8
0
  6
Continuous
 62
     7
100
AcDbLine
 10
6910.233533473
 20
5136.9657558643
 30
0.0
 11
6910.233533473
 21
5136.7724952542
 31
0.0
  0
LINE
  5
101
330
1F
100
AcDbEntity
  8
0
  6
Continuous
 62
     7
100
AcDbLine
 10
6910.233533473
 20
5129.0282574736
 30
0.0
 11
6910.233533473
 21
5128.82981871
 31
0.0
  0
LINE
  5
102
330
1F
100
AcDbEntity
  8
0
  6
Continuous
 62
     7
100
AcDbLine
 10
6934.9559652594
 20
5129.6235737645
 30
0.0
 11
6934.9559652594
 21
5129.8179221594
 31
0.0
  0
LINE
  5
103
330
1F
100
AcDbEntity
  8
0
  6
Continuous
 62
     7
100
AcDbLine
 10
6935.7304866401
 20
5296.6647860848
 30
0.0
 11
6934.315189251
 21
5298.0800238692
 31
0.0
  0
LINE
  5
104
330
1F
100
AcDbEntity
  8
0
  6
Continuous
 62
     7
100
AcDbLine
 10
6910.8742480141
 20
5298.0800238692
 30
0.0
 11
6909.9738574562
 21
5297.1796286546
 31
0.0
  0
LINE
  5
105
330
1F
100
AcDbEntity
  8
0
  6
Continuous
 62
     7
100
AcDbLine
 10
6935.8152481702
 20
5295.1103640043
 30
0.0
 11
6935.8152481702
 21
5295.5075023019
 31
0.0
  0
LINE
  5
106
330
1F
100
AcDbEntity
  8
0
  6
Continuous
 62
     7
100
AcDbLine
 10
6935.8152481702
 20
5293.5228613459
 30
0.0
 11
6935.8152481702
 21
5293.9200070941
 31
0.0
  0
LINE
  5
107
330
1F
100
AcDbEntity
  8
0
  6
Continuous
 62
     7
100
AcDbLine
 10
6935.8152481702
 20
5291.9353661381
 30
0.0
 11
6935.8152481702
 21
5292.3325044357
 31
0.0
  0
LINE
  5
108
330
1F
100
AcDbEntity
  8
0
  6
Continuous
 62
     7
100
AcDbLine
 10
6935.8152481702
 20
5290.3478634798
 30
0.0
 11
6935.8152481702
 21
5290.7450017773
 31
0.0
  0
LINE
  5
109
330
1F
100
AcDbEntity
  8
0
  6
Continuous
 62
     7
100
AcDbLine
 10
6935.8152481702
 20
5289.0800205313
 30
0.0
 11
6935.8152481702
 21
5289.1575065695
 31
0.0
  0
LINE
  5
10A
330
1F
100
AcDbEntity
  8
0
  6
Continuous
 62
     7
100
AcDbLine
 10
6909.3742486996
 20
5289.9510753595
 30
0.0
 11
6909.3742486996
 21
5289.5543766462
 31
0.0
  0
LINE
  5
10B
330
1F
100
AcDbEntity
  8
0
  6
Continuous
 62
     7
100
AcDbLine
 10
6909.3742486996
 20
5291.5385780179
 30
0.0
 11
6909.3742486996
 21
5291.1418793046
 31
0.0
  0
LINE
  5
10C
330
1F
100
AcDbEntity
  8
0
  6
Continuous
 62
     7
100
AcDbLine
 10
6909.3742486996
 20
5293.1260806762
 30
0.0
 11
6909.3742486996
 21
5292.7293819629
 31
0.0
  0
LINE
  5
10D
330
1F
100
AcDbEntity
  8
0
  6
Continuous
 62
     7
100
AcDbLine
 10
6909.3742486996
 20
5294.713575884
 30
0.0
 11
6909.3742486996
 21
5294.3168771707
 31
0.0
  0
LINE
  5
10E
330
1F
100
AcDbEntity
  8
0
  6
Continuous
 62
     7
100
AcDbLine
 10
6909.3742486996
 20
5296.3010785424
 30
0.0
 11
6909.3742486996
 21
5295.9043798291
 31
0.0
  0
LINE
  5
10F
330
1F
100
AcDbEntity
  8
0
  6
Continuous
 62
     7
100
AcDbLine
 10
6909.9774141771
 20
5297.1395296299
 30
0.0
 11
6910.2335083273
 21
5296.9915909015
 31
0.0
  0
LINE
  5
110
330
1F
100
AcDbEntity
  8
0
  6
Continuous
 62
     7
100
AcDbLine
 10
6910.2335083273
 20
5295.4081786119
 30
0.0
 11
6910.2335083273
 21
5295.2138004147
 31
0.0
  0
LINE
  5
111
330
1F
100
AcDbEntity
  8
0
  6
Continuous
 62
     7
100
AcDbLine
 10
6910.2335083273
 20
5293.8206834041
 30
0.0
 11
6910.2335083273
 21
5293.6262977564
 31
0.0
  0
LINE
  5
112
330
1F
100
AcDbEntity
  8
0
  6
Continuous
 62
     7
100
AcDbLine
 10
6910.2335083273
 20
5292.2331807458
 30
0.0
 11
6910.2335083273
 21
5292.0388025486
 31
0.0
  0
LINE
  5
113
330
1F
100
AcDbEntity
  8
0
  6
Continuous
 62
     7
100
AcDbLine
 10
6910.2335083273
 20
5290.6456780874
 30
0.0
 11
6910.2335083273
 21
5290.4512998902
 31
0.0
  0
LINE
  5
114
330
1F
100
AcDbEntity
  8
0
  6
Continuous
 62
     7
100
AcDbLine
 10
6934.9559876111
 20
5294.4161114537
 30
0.0
 11
6934.9559876111
 21
5294.6103406393
 31
0.0
  0
LINE
  5
115
330
1F
100
AcDbEntity
  8
0
  6
Continuous
 62
     7
100
AcDbLine
 10
6934.9559876111
 20
5292.8286087953
 30
0.0
 11
6934.9559876111
 21
5293.0228379809
 31
0.0
  0
LINE
  5
116
330
1F
100
AcDbEntity
  8
0
  6
Continuous
 62
     7
100
AcDbLine
 10
6934.9559876111
 20
5291.2411135875
 30
0.0
 11
6934.9559876111
 21
5291.4353427731
 31
0.0
  0
LINE
  5
117
330
1F
100
AcDbEntity
  8
0
  6
Continuous
 62
     7
100
AcDbLine
 10
6934.9559876111
 20
5289.6536109292
 30
0.0
 11
6934.9559876111
 21
5289.8478401148
 31
0.0
  0
LINE
  5
118
330
1F
100
AcDbEntity
  8
0
  6
Continuous
 62
     7
100
AcDbLine
 10
6934.9559876111
 20
5296.0036141121
 30
0.0
 11
6934.9559876111
 21
5296.1978432976
 31
0.0
  0
LINE
  5
119
330
1F
100
AcDbEntity
  8
0
  6
Continuous
 62
     7
100
AcDbLine
 10
6910.2335083273
 20
5296.9956812703
 30
0.0
 11
6910.2335083273
 21
5296.8013030731
 31
0.0
  0
LINE
  5
11A
330
1F
100
AcDbEntity
  8
0
  6
Continuous
 62
     7
100
AcDbLine
 10
6966.5947477308
 20
5262.0947403156
 30
0.0
 11
6897.0947484461
 21
5262.0947403156
 31
0.0
  0
LINE
  5
11B
330
1F
100
AcDbEntity
  8
0
  6
Continuous
 62
     7
100
AcDbLine
 10
6966.5947477308
 20
5164.0653056347
 30
0.0
 11
6897.0947484461
 21
5164.0653056347
 31
0.0
  0
LINE
  5
11C
330
1F
100
AcDbEntity
  8
0
  6
Continuous
 62
     7
100
AcDbLine
 10
6897.0947484461
 20
5262.0947403156
 30
0.0
 11
6897.0947484461
 21
5164.0653056347
 31
0.0
  0
LINE
  5
11D
330
1F
100
AcDbEntity
  8
0
  6
Continuous
 62
     7
100
AcDbLine
 10
6897.0947484461
 20
5271.7515942895
 30
0.0
 11
6897.0947484461
 21
5278.5800216042
 31
0.0
  0
LINE
  5
11E
330
1F
100
AcDbEntity
  8
0
  6
Continuous
 62
     7
100
AcDbLine
 10
6966.5947477308
 20
5267.5089543008
 30
0.0
 11
6897.0947484461
 21
5267.5089543008
 31
0.0
  0
LINE
  5
11F
330
1F
100
AcDbEntity
  8
0
  6
Continuous
 62
     7
100
AcDbLine
 10
6897.0947484461
 20
5262.0947403156
 30
0.0
 11
6897.0947484461
 21
5267.5089543008
 31
0.0
  0
LINE
  5
120
330
1F
100
AcDbEntity
  8
0
  6
Continuous
 62
     7
100
AcDbLine
 10
6966.5947477308
 20
5158.6510916495
 30
0.0
 11
6897.0947484461
 21
5158.6510916495
 31
0.0
  0
LINE
  5
121
330
1F
100
AcDbEntity
  8
0
  6
Continuous
 62
     7
100
AcDbLine
 10
6897.0947484461
 20
5164.0653056347
 30
0.0
 11
6897.0947484461
 21
5158.6510916495
 31
0.0
  0
LINE
  5
122
330
1F
100
AcDbEntity
  8
0
  6
Continuous
 62
     7
100
AcDbLine
 10
6897.0947484461
 20
5154.4084516608
 30
0.0
 11
6897.0947484461
 21
5147.580024346
 31
0.0
  0
LINE
  5
123
330
1F
100
AcDbEntity
  8
0
  6
Continuous
 62
     7
100
AcDbLine
 10
6897.0947484461
 20
5158.6510916495
 30
0.0
 11
6897.0947484461
 21
5154.4084516608
 31
0.0
  0
LINE
  5
124
330
1F
100
AcDbEntity
  8
0
  6
Continuous
 62
     7
100
AcDbLine
 10
6897.0947484461
 20
5267.5089543008
 30
0.0
 11
6897.0947484461
 21
5271.7515942895
 31
0.0
  0
LINE
  5
125
330
1F
100
AcDbEntity
  8
0
  6
Continuous
 62
     7
100
AcDbLine
 10
6966.5947477308
 20
5147.580024346
 30
0.0
 11
6897.0947484461
 21
5147.580024346
 31
0.0
  0
LINE
  5
126
330
1F
100
AcDbEntity
  8
0
  6
Continuous
 62
     7
100
AcDbLine
 10
6966.5947477308
 20
5278.5800216042
 30
0.0
 11
6897.0947484461
 21
5278.5800216042
 31
0.0
  0
LINE
  5
127
330
1F
100
AcDbEntity
  8
0
  6
Continuous
 62
     7
100
AcDbLine
 10
6980.094745287
 20
5169.1032541238
 30
0.0
 11
6980.094745287
 21
5191.9058137827
 31
0.0
  0
LINE
  5
128
330
1F
100
AcDbEntity
  8
0
  6
Continuous
 62
     7
100
AcDbLine
 10
6980.094745287
 20
5163.9058147811
 30
0.0
 11
6980.094745287
 21
5169.1032541238
 31
0.0
  0
LINE
  5
129
330
1F
100
AcDbEntity
  8
0
  6
Continuous
 62
     7
100
AcDbLine
 10
6981.5947483269
 20
5170.0463858687
 30
0.0
 11
6981.5947483269
 21
5165.4058140957
 31
0.0
  0
LINE
  5
12A
330
1F
100
AcDbEntity
  8
0
  6
Continuous
 62
     7
100
AcDbLine
 10
6981.5947483269
 20
5190.4058126055
 30
0.0
 11
6981.5947483269
 21
5170.0463858687
 31
0.0
  0
LINE
  5
12B
330
1F
100
AcDbEntity
  8
0
  6
Continuous
 62
     7
100
AcDbLine
 10
6969.1824461308
 20
5295.6273448908
 30
0.0
 11
6969.1824461308
 21
5267.9058132016
 31
0.0
  0
LINE
  5
12C
330
1F
100
AcDbEntity
  8
0
  6
Continuous
 62
     7
100
AcDbLine
 10
6969.1824461308
 20
5295.6273448908
 30
0.0
 11
6969.5947463599
 21
5295.6845504486
 31
0.0
  0
LINE
  5
12D
330
1F
100
AcDbEntity
  8
0
  6
Continuous
 62
     7
100
AcDbLine
 10
6969.1824461308
 20
5130.5519608103
 30
0.0
 11
6969.5947463599
 21
5130.4940027439
 31
0.0
  0
LINE
  5
12E
330
1F
100
AcDbEntity
  8
0
  6
Continuous
 62
     7
100
AcDbLine
 10
6969.1824461308
 20
5157.9058137976
 30
0.0
 11
6969.1824461308
 21
5130.5519608103
 31
0.0
  0
LINE
  5
12F
330
1F
100
AcDbEntity
  8
0
  6
Continuous
 62
     7
100
AcDbLine
 10
6969.1824461308
 20
5267.9058132016
 30
0.0
 11
6969.1824461308
 21
5157.9058137976
 31
0.0
  0
LINE
  5
130
330
1F
100
AcDbEntity
  8
0
  6
Continuous
 62
     7
100
AcDbLine
 10
6975.5947510687
 20
5157.9058137976
 30
0.0
 11
6969.5947463599
 21
5157.9058137976
 31
0.0
  0
LINE
  5
131
330
1F
100
AcDbEntity
  8
0
  6
Continuous
 62
     7
100
AcDbLine
 10
6975.5947510687
 20
5127.9058126055
 30
0.0
 11
6975.5947510687
 21
5157.9058137976
 31
0.0
  0
LINE
  5
132
330
1F
100
AcDbEntity
  8
0
  6
Continuous
 62
     7
100
AcDbLine
 10
6975.5947510687
 20
5127.9058126055
 30
0.0
 11
6969.5947463599
 21
5127.9058126055
 31
0.0
  0
LINE
  5
133
330
1F
100
AcDbEntity
  8
0
  6
Continuous
 62
     7
100
AcDbLine
 10
6969.5947463599
 20
5157.9058137976
 30
0.0
 11
6969.5947463599
 21
5127.9058126055
 31
0.0
  0
LINE
  5
134
330
1F
100
AcDbEntity
  8
0
  6
Continuous
 62
     7
100
AcDbLine
 10
6975.5947510687
 20
5267.9058132016
 30
0.0
 11
6969.5947463599
 21
5267.9058132016
 31
0.0
  0
LINE
  5
135
330
1F
100
AcDbEntity
  8
0
  6
Continuous
 62
     7
100
AcDbLine
 10
6975.5947510687
 20
5157.9058137976
 30
0.0
 11
6975.5947510687
 21
5267.9058132016
 31
0.0
  0
LINE
  5
136
330
1F
100
AcDbEntity
  8
0
  6
Continuous
 62
     7
100
AcDbLine
 10
6969.5947463599
 20
5267.9058132016
 30
0.0
 11
6969.5947463599
 21
5157.9058137976
 31
0.0
  0
LINE
  5
137
330
1F
100
AcDbEntity
  8
0
  6
Continuous
 62
     7
100
AcDbLine
 10
6975.5947510687
 20
5157.9058137976
 30
0.0
 11
6977.5947476712
 21
5157.9058137976
 31
0.0
  0
LINE
  5
138
330
1F
100
AcDbEntity
  8
0
  6
Continuous
 62
     7
100
AcDbLine
 10
6977.5947476712
 20
5157.9058137976
 30
0.0
 11
6977.5947476712
 21
5129.9058166587
 31
0.0
  0
LINE
  5
139
330
1F
100
AcDbEntity
  8
0
  6
Continuous
 62
     7
100
AcDbLine
 10
6975.5947510687
 20
5297.9058143937
 30
0.0
 11
6969.5947463599
 21
5297.9058143937
 31
0.0
  0
LINE
  5
13A
330
1F
100
AcDbEntity
  8
0
  6
Continuous
 62
     7
100
AcDbLine
 10
6975.5947510687
 20
5267.9058132016
 30
0.0
 11
6975.5947510687
 21
5297.9058143937
 31
0.0
  0
LINE
  5
13B
330
1F
100
AcDbEntity
  8
0
  6
Continuous
 62
     7
100
AcDbLine
 10
6969.5947463599
 20
5297.9058143937
 30
0.0
 11
6969.5947463599
 21
5267.9058132016
 31
0.0
  0
LINE
  5
13C
330
1F
100
AcDbEntity
  8
0
  6
Continuous
 62
     7
100
AcDbLine
 10
6975.5947510687
 20
5267.9058132016
 30
0.0
 11
6977.5947476712
 21
5267.9058132016
 31
0.0
  0
LINE
  5
13D
330
1F
100
AcDbEntity
  8
0
  6
Continuous
 62
     7
100
AcDbLine
 10
6977.5947476712
 20
5267.9058132016
 30
0.0
 11
6977.5947476712
 21
5157.9058137976
 31
0.0
  0
LINE
  5
13E
330
1F
100
AcDbEntity
  8
0
  6
Continuous
 62
     7
100
AcDbLine
 10
6977.5947476712
 20
5295.9058103406
 30
0.0
 11
6977.5947476712
 21
5267.9058132016
 31
0.0
  0
LINE
  5
13F
330
1F
100
AcDbEntity
  8
0
  6
Continuous
 62
     7
100
AcDbLine
 10
6979.5947517243
 20
5283.4058148109
 30
0.0
 11
6979.5947517243
 21
5142.4058121883
 31
0.0
  0
LINE
  5
140
330
1F
100
AcDbEntity
  8
0
  6
Continuous
 62
     7
100
AcDbLine
 10
6952.3947495011
 20
5280.280020579
 30
0.0
 11
6940.7947468546
 21
5280.280020579
 31
0.0
  0
LINE
  5
141
330
1F
100
AcDbEntity
  8
0
  6
Continuous
 62
     7
100
AcDbLine
 10
6925.9221269724
 20
5137.0800254189
 30
0.0
 11
6925.9221269724
 21
5147.580024346
 31
0.0
  0
LINE
  5
142
330
1F
100
AcDbEntity
  8
0
  6
Continuous
 62
     7
100
AcDbLine
 10
6936.8682461766
 20
5137.0800254189
 30
0.0
 11
6936.8682461766
 21
5147.580024346
 31
0.0
  0
LINE
  5
143
330
1F
100
AcDbEntity
  8
0
  6
Continuous
 62
     7
100
AcDbLine
 10
6936.8682461766
 20
5137.0800254189
 30
0.0
 11
6933.0631676105
 21
5137.0800254189
 31
0.0
  0
LINE
  5
144
330
1F
100
AcDbEntity
  8
0
  6
Continuous
 62
     7
100
AcDbLine
 10
6930.9433321443
 20
5137.0800254189
 30
0.0
 11
6925.9221269724
 21
5137.0800254189
 31
0.0
  0
LINE
  5
145
330
1F
100
AcDbEntity
  8
0
  6
Continuous
 62
     7
100
AcDbLine
 10
6909.3742486996
 20
5129.5800251209
 30
0.0
 11
6909.6736502809
 21
5129.5800251209
 31
0.0
  0
LINE
  5
146
330
1F
100
AcDbEntity
  8
0
  6
Continuous
 62
     7
100
AcDbLine
 10
6934.3152488557
 20
5128.0800220811
 30
0.0
 11
6910.8742480141
 21
5128.0800220811
 31
0.0
  0
LINE
  5
147
330
1F
100
AcDbEntity
  8
0
  6
Continuous
 62
     7
100
AcDbLine
 10
6912.4600007174
 20
5137.0800254189
 30
0.0
 11
6912.4600007174
 21
5147.580024346
 31
0.0
  0
LINE
  5
148
330
1F
100
AcDbEntity
  8
0
  6
Continuous
 62
     7
100
AcDbLine
 10
6925.9221269724
 20
5137.0800254189
 30
0.0
 11
6912.4600007174
 21
5137.0800254189
 31
0.0
  0
LINE
  5
149
330
1F
100
AcDbEntity
  8
0
  6
Continuous
 62
     7
100
AcDbLine
 10
6908.3212506932
 20
5137.0800254189
 30
0.0
 11
6908.3212506932
 21
5147.580024346
 31
0.0
  0
LINE
  5
14A
330
1F
100
AcDbEntity
  8
0
  6
Continuous
 62
     7
100
AcDbLine
 10
6912.4600007174
 20
5137.0800254189
 30
0.0
 11
6908.3212506932
 21
5137.0800254189
 31
0.0
  0
LINE
  5
14B
330
1F
100
AcDbEntity
  8
0
  6
Continuous
 62
     7
100
AcDbLine
 10
6909.119368994
 20
5289.0800205313
 30
0.0
 11
6922.6438566086
 21
5289.0800205313
 31
0.0
  0
LINE
  5
14C
330
1F
100
AcDbEntity
  8
0
  6
Continuous
 62
     7
100
AcDbLine
 10
6922.6438566086
 20
5289.0800205313
 30
0.0
 11
6922.6438566086
 21
5278.5800216042
 31
0.0
  0
LINE
  5
14D
330
1F
100
AcDbEntity
  8
0
  6
Continuous
 62
     7
100
AcDbLine
 10
6909.119368994
 20
5289.0800205313
 30
0.0
 11
6909.119368994
 21
5278.5800216042
 31
0.0
  0
LINE
  5
14E
330
1F
100
AcDbEntity
  8
0
  6
Continuous
 62
     7
100
AcDbLine
 10
6936.1192355839
 20
5289.0800205313
 30
0.0
 11
6936.1192355839
 21
5278.5800216042
 31
0.0
  0
LINE
  5
14F
330
1F
100
AcDbEntity
  8
0
  6
Continuous
 62
     7
100
AcDbLine
 10
6922.6438566086
 20
5289.0800205313
 30
0.0
 11
6936.1192355839
 21
5289.0800205313
 31
0.0
  0
LINE
  5
150
330
1F
100
AcDbEntity
  8
0
  6
Continuous
 62
     7
100
AcDbLine
 10
6934.411804655
 20
5296.5800208293
 30
0.0
 11
6916.6669468371
 21
5296.5800208293
 31
0.0
  0
LINE
  5
151
330
1F
100
AcDbEntity
  8
0
  6
Continuous
 62
     7
100
AcDbLine
 10
6910.8742480141
 20
5298.0800238692
 30
0.0
 11
6934.315189251
 21
5298.0800238692
 31
0.0
  0
LINE
  5
152
330
1F
100
AcDbEntity
  8
0
  6
Continuous
 62
     7
100
AcDbLine
 10
6935.7310566095
 20
5289.165225371
 30
0.0
 11
6935.7475708214
 21
5289.1575065695
 31
0.0
  0
LINE
  5
153
330
1F
100
AcDbEntity
  8
0
  6
Continuous
 62
     7
100
AcDbLine
 10
6909.0702612859
 20
5289.0800205313
 30
0.0
 11
6909.0702612859
 21
5278.5800216042
 31
0.0
  0
LINE
  5
154
330
1F
100
AcDbEntity
  8
0
  6
Continuous
 62
     7
100
AcDbLine
 10
6909.0702612859
 20
5289.0800205313
 30
0.0
 11
6909.119368994
 21
5289.0800205313
 31
0.0
  0
LINE
  5
155
330
1F
100
AcDbEntity
  8
0
  6
Continuous
 62
     7
100
AcDbLine
 10
6966.5947477308
 20
5271.7515942895
 30
0.0
 11
6897.0947484461
 21
5271.7515942895
 31
0.0
  0
LINE
  5
156
330
1F
100
AcDbEntity
  8
0
  6
Continuous
 62
     7
100
AcDbLine
 10
6966.5947477308
 20
5154.4084516608
 30
0.0
 11
6897.0947484461
 21
5154.4084516608
 31
0.0
  0
LINE
  5
157
330
1F
100
AcDbEntity
  8
0
  6
Continuous
 62
     7
100
AcDbLine
 10
6969.1824461308
 20
5267.9058132016
 30
0.0
 11
6969.5947463599
 21
5267.9058132016
 31
0.0
  0
LINE
  5
158
330
1F
100
AcDbEntity
  8
0
  6
Continuous
 62
     7
100
AcDbLine
 10
6969.1824461308
 20
5157.9058137976
 30
0.0
 11
6969.5947463599
 21
5157.9058137976
 31
0.0
  0
LINE
  5
159
330
1F
100
AcDbEntity
  8
0
  6
Continuous
 62
     7
100
AcDbLine
 10
6966.5947477308
 20
5267.9058132016
 30
0.0
 11
6969.1824461308
 21
5267.9058132016
 31
0.0
  0
LINE
  5
15A
330
1F
100
AcDbEntity
  8
0
  6
Continuous
 62
     7
100
AcDbLine
 10
6966.5947477308
 20
5157.9058137976
 30
0.0
 11
6969.1824461308
 21
5157.9058137976
 31
0.0
  0
LINE
  5
15B
330
1F
100
AcDbEntity
  8
0
  6
Continuous
 62
     7
100
AcDbLine
 10
6978.2614151128
 20
5285.2914313436
 30
0.0
 11
6978.2614151128
 21
5140.5201951773
 31
0.0
  0
LINE
  5
15C
330
1F
100
AcDbEntity
  8
0
  6
Continuous
 62
     7
100
AcDbLine
 10
6939.9947482136
 20
5279.480021938
 30
0.0
 11
6953.1947481421
 21
5279.480021938
 31
0.0
  0
LINE
  5
15D
330
1F
100
AcDbEntity
  8
0
  6
Continuous
 62
     7
100
AcDbLine
 10
6550.2269780083
 20
4930.8154996573
 30
0.0
 11
6550.2269780083
 21
4861.3155003726
 31
0.0
  0
LINE
  5
15E
330
1F
100
AcDbEntity
  8
0
  6
Continuous
 62
     7
100
AcDbLine
 10
6681.2269752665
 20
4861.3155003726
 30
0.0
 11
6681.2269752665
 21
4930.8154996573
 31
0.0
  0
LINE
  5
15F
330
1F
100
AcDbEntity
  8
0
  6
Continuous
 62
     7
100
AcDbLine
 10
6601.7484757869
 20
4848.3154963791
 30
0.0
 11
6601.7484757869
 21
4847.8155028164
 31
0.0
  0
LINE
  5
160
330
1F
100
AcDbEntity
  8
0
  6
Continuous
 62
     7
100
AcDbLine
 10
6629.7484757198
 20
4847.8155028164
 30
0.0
 11
6629.7484757198
 21
4848.3154963791
 31
0.0
  0
LINE
  5
161
330
1F
100
AcDbEntity
  8
0
  6
Continuous
 62
     7
100
AcDbLine
 10
6601.7484757869
 20
4847.8155028164
 30
0.0
 11
6603.2484751014
 21
4846.3154997765
 31
0.0
  0
LINE
  5
162
330
1F
100
AcDbEntity
  8
0
  6
Continuous
 62
     7
100
AcDbLine
 10
6628.2484754739
 20
4846.3154997765
 30
0.0
 11
6629.7484757198
 21
4847.8155028164
 31
0.0
  0
LINE
  5
163
330
1F
100
AcDbEntity
  8
0
  6
Continuous
 62
     7
100
AcDbLine
 10
6560.7484755857
 20
4861.3155003726
 30
0.0
 11
6535.9984775824
 21
4861.3155003726
 31
0.0
  0
LINE
  5
164
330
1F
100
AcDbEntity
  8
0
  6
Continuous
 62
     7
100
AcDbLine
 10
6670.7484749896
 20
4861.3155003726
 30
0.0
 11
6560.7484755857
 21
4861.3155003726
 31
0.0
  0
LINE
  5
165
330
1F
100
AcDbEntity
  8
0
  6
Continuous
 62
     7
100
AcDbLine
 10
6695.4984729929
 20
4861.3155003726
 30
0.0
 11
6670.7484749896
 21
4861.3155003726
 31
0.0
  0
LINE
  5
166
330
1F
100
AcDbEntity
  8
0
  6
Continuous
 62
     7
100
AcDbLine
 10
6613.1769765453
 20
4905.9654999613
 30
0.0
 11
6611.7801423935
 21
4905.9654999613
 31
0.0
  0
LINE
  5
167
330
1F
100
AcDbEntity
  8
0
  6
Continuous
 62
     7
100
AcDbLine
 10
6611.7801423935
 20
4904.665500307
 30
0.0
 11
6613.1769765453
 21
4904.665500307
 31
0.0
  0
LINE
  5
168
330
1F
100
AcDbEntity
  8
0
  6
Continuous
 62
     7
100
AcDbLine
 10
6566.7122592969
 20
4861.3155003726
 30
0.0
 11
6566.7122592969
 21
4930.8154996573
 31
0.0
  0
LINE
  5
169
330
1F
100
AcDbEntity
  8
0
  6
Continuous
 62
     7
100
AcDbLine
 10
6664.7416939778
 20
4930.8154996573
 30
0.0
 11
6566.7122592969
 21
4930.8154996573
 31
0.0
  0
LINE
  5
16A
330
1F
100
AcDbEntity
  8
0
  6
Continuous
 62
     7
100
AcDbLine
 10
6664.7416939778
 20
4861.3155003726
 30
0.0
 11
6664.7416939778
 21
4930.8154996573
 31
0.0
  0
LINE
  5
16B
330
1F
100
AcDbEntity
  8
0
  6
Continuous
 62
     7
100
AcDbLine
 10
6670.155907963
 20
4861.3155003726
 30
0.0
 11
6670.155907963
 21
4930.8154996573
 31
0.0
  0
LINE
  5
16C
330
1F
100
AcDbEntity
  8
0
  6
Continuous
 62
     7
100
AcDbLine
 10
6670.155907963
 20
4930.8154996573
 30
0.0
 11
6664.7416939778
 21
4930.8154996573
 31
0.0
  0
LINE
  5
16D
330
1F
100
AcDbEntity
  8
0
  6
Continuous
 62
     7
100
AcDbLine
 10
6561.2980453117
 20
4861.3155003726
 30
0.0
 11
6561.2980453117
 21
4930.8154996573
 31
0.0
  0
LINE
  5
16E
330
1F
100
AcDbEntity
  8
0
  6
Continuous
 62
     7
100
AcDbLine
 10
6561.2980453117
 20
4930.8154996573
 30
0.0
 11
6566.7122592969
 21
4930.8154996573
 31
0.0
  0
LINE
  5
16F
330
1F
100
AcDbEntity
  8
0
  6
Continuous
 62
     7
100
AcDbLine
 10
6550.2269780083
 20
4930.8154996573
 30
0.0
 11
6557.055405323
 21
4930.8154996573
 31
0.0
  0
LINE
  5
170
330
1F
100
AcDbEntity
  8
0
  6
Continuous
 62
     7
100
AcDbLine
 10
6681.2269752665
 20
4930.8154996573
 30
0.0
 11
6674.3985479517
 21
4930.8154996573
 31
0.0
  0
LINE
  5
171
330
1F
100
AcDbEntity
  8
0
  6
Continuous
 62
     7
100
AcDbLine
 10
6557.055405323
 20
4930.8154996573
 30
0.0
 11
6561.2980453117
 21
4930.8154996573
 31
0.0
  0
LINE
  5
172
330
1F
100
AcDbEntity
  8
0
  6
Continuous
 62
     7
100
AcDbLine
 10
6674.3985479517
 20
4930.8154996573
 30
0.0
 11
6670.155907963
 21
4930.8154996573
 31
0.0
  0
LINE
  5
173
330
1F
100
AcDbEntity
  8
0
  6
Continuous
 62
     7
100
AcDbLine
 10
6550.2269780083
 20
4861.3155003726
 30
0.0
 11
6550.2269780083
 21
4930.8154996573
 31
0.0
  0
LINE
  5
174
330
1F
100
AcDbEntity
  8
0
  6
Continuous
 62
     7
100
AcDbLine
 10
6681.2269752665
 20
4861.3155003726
 30
0.0
 11
6681.2269752665
 21
4930.8154996573
 31
0.0
  0
LINE
  5
175
330
1F
100
AcDbEntity
  8
0
  6
Continuous
 62
     7
100
AcDbLine
 10
6601.7484757869
 20
4847.8155028164
 30
0.0
 11
6629.7484757198
 21
4847.8155028164
 31
0.0
  0
LINE
  5
176
330
1F
100
AcDbEntity
  8
0
  6
Continuous
 62
     7
100
AcDbLine
 10
6628.2484754739
 20
4846.3154997765
 30
0.0
 11
6603.2484751014
 21
4846.3154997765
 31
0.0
  0
LINE
  5
177
330
1F
100
AcDbEntity
  8
0
  6
Continuous
 62
     7
100
AcDbLine
 10
6533.0269401712
 20
4858.7278019725
 30
0.0
 11
6532.9697346134
 21
4858.3155017435
 31
0.0
  0
LINE
  5
178
330
1F
100
AcDbEntity
  8
0
  6
Continuous
 62
     7
100
AcDbLine
 10
6560.7484755857
 20
4858.7278019725
 30
0.0
 11
6533.0269401712
 21
4858.7278019725
 31
0.0
  0
LINE
  5
179
330
1F
100
AcDbEntity
  8
0
  6
Continuous
 62
     7
100
AcDbLine
 10
6670.7484749896
 20
4858.7278019725
 30
0.0
 11
6560.7484755857
 21
4858.7278019725
 31
0.0
  0
LINE
  5
17A
330
1F
100
AcDbEntity
  8
0
  6
Continuous
 62
     7
100
AcDbLine
 10
6698.4700104041
 20
4858.7278019725
 30
0.0
 11
6670.7484749896
 21
4858.7278019725
 31
0.0
  0
LINE
  5
17B
330
1F
100
AcDbEntity
  8
0
  6
Continuous
 62
     7
100
AcDbLine
 10
6698.4700104041
 20
4858.7278019725
 30
0.0
 11
6698.5272159619
 21
4858.3155017435
 31
0.0
  0
LINE
  5
17C
330
1F
100
AcDbEntity
  8
0
  6
Continuous
 62
     7
100
AcDbLine
 10
6670.7484749896
 20
4852.3154970347
 30
0.0
 11
6670.7484749896
 21
4858.3155017435
 31
0.0
  0
LINE
  5
17D
330
1F
100
AcDbEntity
  8
0
  6
Continuous
 62
     7
100
AcDbLine
 10
6560.7484755857
 20
4852.3154970347
 30
0.0
 11
6670.7484749896
 21
4852.3154970347
 31
0.0
  0
LINE
  5
17E
330
1F
100
AcDbEntity
  8
0
  6
Continuous
 62
     7
100
AcDbLine
 10
6560.7484755857
 20
4852.3154970347
 30
0.0
 11
6560.7484755857
 21
4858.3155017435
 31
0.0
  0
LINE
  5
17F
330
1F
100
AcDbEntity
  8
0
  6
Continuous
 62
     7
100
AcDbLine
 10
6670.7484749896
 20
4858.3155017435
 30
0.0
 11
6560.7484755857
 21
4858.3155017435
 31
0.0
  0
LINE
  5
180
330
1F
100
AcDbEntity
  8
0
  6
Continuous
 62
     7
100
AcDbLine
 10
6530.7484781189
 20
4852.3154970347
 30
0.0
 11
6560.7484755857
 21
4852.3154970347
 31
0.0
  0
LINE
  5
181
330
1F
100
AcDbEntity
  8
0
  6
Continuous
 62
     7
100
AcDbLine
 10
6530.7484781189
 20
4852.3154970347
 30
0.0
 11
6530.7484781189
 21
4858.3155017435
 31
0.0
  0
LINE
  5
182
330
1F
100
AcDbEntity
  8
0
  6
Continuous
 62
     7
100
AcDbLine
 10
6560.7484755857
 20
4858.3155017435
 30
0.0
 11
6530.7484781189
 21
4858.3155017435
 31
0.0
  0
LINE
  5
183
330
1F
100
AcDbEntity
  8
0
  6
Continuous
 62
     7
100
AcDbLine
 10
6700.7484724564
 20
4852.3154970347
 30
0.0
 11
6700.7484724564
 21
4858.3155017435
 31
0.0
  0
LINE
  5
184
330
1F
100
AcDbEntity
  8
0
  6
Continuous
 62
     7
100
AcDbLine
 10
6670.7484749896
 20
4852.3154970347
 30
0.0
 11
6700.7484724564
 21
4852.3154970347
 31
0.0
  0
LINE
  5
185
330
1F
100
AcDbEntity
  8
0
  6
Continuous
 62
     7
100
AcDbLine
 10
6700.7484724564
 20
4858.3155017435
 30
0.0
 11
6670.7484749896
 21
4858.3155017435
 31
0.0
  0
LINE
  5
186
330
1F
100
AcDbEntity
  8
0
  6
Continuous
 62
     7
100
AcDbLine
 10
6670.7484749896
 20
4850.3155004322
 30
0.0
 11
6560.7484755857
 21
4850.3155004322
 31
0.0
  0
LINE
  5
187
330
1F
100
AcDbEntity
  8
0
  6
Continuous
 62
     7
100
AcDbLine
 10
6560.7484755857
 20
4850.3155004322
 30
0.0
 11
6560.7484755857
 21
4852.3154970347
 31
0.0
  0
LINE
  5
188
330
1F
100
AcDbEntity
  8
0
  6
Continuous
 62
     7
100
AcDbLine
 10
6670.7484749896
 20
4850.3155004322
 30
0.0
 11
6670.7484749896
 21
4852.3154970347
 31
0.0
  0
LINE
  5
189
330
1F
100
AcDbEntity
  8
0
  6
Continuous
 62
     7
100
AcDbLine
 10
6560.7484755857
 20
4850.3155004322
 30
0.0
 11
6532.7484747214
 21
4850.3155004322
 31
0.0
  0
LINE
  5
18A
330
1F
100
AcDbEntity
  8
0
  6
Continuous
 62
     7
100
AcDbLine
 10
6698.7484758539
 20
4850.3155004322
 30
0.0
 11
6670.7484749896
 21
4850.3155004322
 31
0.0
  0
LINE
  5
18B
330
1F
100
AcDbEntity
  8
0
  6
Continuous
 62
     7
100
AcDbLine
 10
6686.2484728737
 20
4848.3154963791
 30
0.0
 11
6545.2484777017
 21
4848.3154963791
 31
0.0
  0
LINE
  5
18C
330
1F
100
AcDbEntity
  8
0
  6
Continuous
 62
     7
100
AcDbLine
 10
6613.1769765453
 20
4905.9654999613
 30
0.0
 11
6613.1769765453
 21
4904.665500307
 31
0.0
  0
LINE
  5
18D
330
1F
100
AcDbEntity
  8
0
  6
Continuous
 62
     7
100
AcDbLine
 10
6623.4786384558
 20
4918.8399868175
 30
0.0
 11
6607.8902585251
 21
4918.7908791094
 31
0.0
  0
LINE
  5
18E
330
1F
100
AcDbEntity
  8
0
  6
Continuous
 62
     7
100
AcDbLine
 10
6631.3153561024
 20
4905.3646069109
 30
0.0
 11
6623.4786384558
 21
4918.8399868175
 31
0.0
  0
LINE
  5
18F
330
1F
100
AcDbEntity
  8
0
  6
Continuous
 62
     7
100
AcDbLine
 10
6623.5636947496
 20
4891.8401192962
 30
0.0
 11
6631.3153561024
 21
4905.3646069109
 31
0.0
  0
LINE
  5
190
330
1F
100
AcDbEntity
  8
0
  6
Continuous
 62
     7
100
AcDbLine
 10
6607.9753148189
 20
4891.7910125195
 30
0.0
 11
6623.5636947496
 21
4891.8401192962
 31
0.0
  0
LINE
  5
191
330
1F
100
AcDbEntity
  8
0
  6
Continuous
 62
     7
100
AcDbLine
 10
6600.1385971723
 20
4905.2663914948
 30
0.0
 11
6607.9753148189
 21
4891.7910125195
 31
0.0
  0
LINE
  5
192
330
1F
100
AcDbEntity
  8
0
  6
Continuous
 62
     7
100
AcDbLine
 10
6607.8902585251
 20
4918.7908791094
 30
0.0
 11
6600.1385971723
 21
4905.2663914948
 31
0.0
  0
LINE
  5
193
330
1F
100
AcDbEntity
  8
0
  6
Continuous
 62
     7
100
AcDbLine
 10
6557.055405323
 20
4861.3155003726
 30
0.0
 11
6557.055405323
 21
4930.8154996573
 31
0.0
  0
LINE
  5
194
330
1F
100
AcDbEntity
  8
0
  6
Continuous
 62
     7
100
AcDbLine
 10
6674.3985479517
 20
4861.3155003726
 30
0.0
 11
6674.3985479517
 21
4930.8154996573
 31
0.0
  0
LINE
  5
195
330
1F
100
AcDbEntity
  8
0
  6
Continuous
 62
     7
100
AcDbLine
 10
6560.7484755857
 20
4858.7278019725
 30
0.0
 11
6560.7484755857
 21
4858.3155017435
 31
0.0
  0
LINE
  5
196
330
1F
100
AcDbEntity
  8
0
  6
Continuous
 62
     7
100
AcDbLine
 10
6670.7484749896
 20
4858.7278019725
 30
0.0
 11
6670.7484749896
 21
4858.3155017435
 31
0.0
  0
LINE
  5
197
330
1F
100
AcDbEntity
  8
0
  6
Continuous
 62
     7
100
AcDbLine
 10
6560.7484755857
 20
4861.3155003726
 30
0.0
 11
6560.7484755857
 21
4858.7278019725
 31
0.0
  0
LINE
  5
198
330
1F
100
AcDbEntity
  8
0
  6
Continuous
 62
     7
100
AcDbLine
 10
6670.7484749896
 20
4861.3155003726
 30
0.0
 11
6670.7484749896
 21
4858.7278019725
 31
0.0
  0
LINE
  5
199
330
1F
100
AcDbEntity
  8
0
  6
Continuous
 62
     7
100
AcDbLine
 10
6615.7484755387
 20
4849.6488299309
 30
0.0
 11
6543.3628574559
 21
4849.6488329906
 31
0.0
  0
LINE
  5
19A
330
1F
100
AcDbEntity
  8
0
  6
Continuous
 62
     7
100
AcDbLine
 10
6688.1340936222
 20
4849.6488329906
 30
0.0
 11
6615.7484755387
 21
4849.6488299309
 31
0.0
  0
LWPOLYLINE
  5
19B
330
1F
100
AcDbEntity
  8
0
  6
Continuous
 62
     7
100
AcDbPolyline
 90
        3
 70
   128
 43
0.0
 10
6966.5946960449
 20
5272.8917268358
 10
6966.6508068273
 20
5272.7959448615
 10
6966.6947494236
 20
5272.7206093513
  0
LWPOLYLINE
  5
19C
330
1F
100
AcDbEntity
  8
0
  6
Continuous
 62
     7
100
AcDbPolyline
 90
        3
 70
   128
 43
0.0
 10
6966.5946960449
 20
5149.8917234384
 10
6966.6508068273
 20
5149.795941464
 10
6966.6947494236
 20
5149.7206059538
  0
LWPOLYLINE
  5
19D
330
1F
100
AcDbEntity
  8
0
  6
Continuous
 62
     7
100
AcDbPolyline
 90
        3
 70
   128
 43
0.0
 10
6934.9479675293
 20
5131.4009023153
 10
6935.4296176448
 20
5131.6790497955
 10
6935.8079205242
 20
5131.8975878202
  0
LWPOLYLINE
  5
19E
330
1F
100
AcDbEntity
  8
0
  6
Continuous
 62
     7
100
AcDbPolyline
 90
        3
 70
   128
 43
0.0
 10
6934.9479675293
 20
5132.9884049736
 10
6935.4296176448
 20
5133.2665524539
 10
6935.8079205242
 20
5133.4850904785
  0
LWPOLYLINE
  5
19F
330
1F
100
AcDbEntity
  8
0
  6
Continuous
 62
     7
100
AcDbPolyline
 90
        3
 70
   128
 43
0.0
 10
6934.9479675293
 20
5134.5759001814
 10
6935.4296188376
 20
5134.8540497694
 10
6935.8079205242
 20
5135.0725931369
  0
LWPOLYLINE
  5
1A0
330
1F
100
AcDbEntity
  8
0
  6
Continuous
 62
     7
100
AcDbPolyline
 90
        3
 70
   128
 43
0.0
 10
6934.9479675293
 20
5136.1634028398
 10
6935.4296176448
 20
5136.4415503201
 10
6935.8079205242
 20
5136.6600883447
  0
LWPOLYLINE
  5
1A1
330
1F
100
AcDbEntity
  8
0
  6
Continuous
 62
     7
100
AcDbPolyline
 90
        3
 70
   128
 43
0.0
 10
6909.3780517578
 20
5131.1038402163
 10
6909.8586748496
 20
5130.8282277695
 10
6910.2335334731
 20
5130.6116697632
  0
LWPOLYLINE
  5
1A2
330
1F
100
AcDbEntity
  8
0
  6
Continuous
 62
     7
100
AcDbPolyline
 90
        3
 70
   128
 43
0.0
 10
6909.3780517578
 20
5132.6913428746
 10
6909.8586748496
 20
5132.4157304279
 10
6910.2335334731
 20
5132.1991724216
  0
LWPOLYLINE
  5
1A3
330
1F
100
AcDbEntity
  8
0
  6
Continuous
 62
     7
100
AcDbPolyline
 90
        3
 70
   128
 43
0.0
 10
6909.3780517578
 20
5134.2788380824
 10
6909.8586748496
 20
5134.0032256357
 10
6910.2335334731
 20
5133.7866676294
  0
LWPOLYLINE
  5
1A4
330
1F
100
AcDbEntity
  8
0
  6
Continuous
 62
     7
100
AcDbPolyline
 90
        3
 70
   128
 43
0.0
 10
6909.3780517578
 20
5135.8663407408
 10
6909.8586748496
 20
5135.5907282941
 10
6910.2335334731
 20
5135.3741702877
  0
LWPOLYLINE
  5
1A5
330
1F
100
AcDbEntity
  8
0
  6
Continuous
 62
     7
100
AcDbPolyline
 90
        3
 70
   128
 43
0.0
 10
6909.5420837402
 20
5129.4234884225
 10
6909.9293960948
 20
5129.1998697982
 10
6910.2335334731
 20
5129.0241671048
  0
LWPOLYLINE
  5
1A6
330
1F
100
AcDbEntity
  8
0
  6
Continuous
 62
     7
100
AcDbPolyline
 90
        3
 70
   128
 43
0.0
 10
6934.9479675293
 20
5129.8133996569
 10
6935.429616452
 20
5130.0915533742
 10
6935.8079205242
 20
5130.3100926124
  0
LWPOLYLINE
  5
1A7
330
1F
100
AcDbEntity
  8
0
  6
Continuous
 62
     7
100
AcDbPolyline
 90
        3
 70
   128
 43
0.0
 10
6935.8062744141
 20
5130.7240766727
 10
6935.3308155628
 20
5130.9996875438
 10
6934.9559652594
 20
5131.2162396752
  0
LWPOLYLINE
  5
1A8
330
1F
100
AcDbEntity
  8
0
  6
Continuous
 62
     7
100
AcDbPolyline
 90
        3
 70
   128
 43
0.0
 10
6935.8062744141
 20
5132.311579331
 10
6935.3308131762
 20
5132.5871860709
 10
6934.9559652594
 20
5132.8037423335
  0
LWPOLYLINE
  5
1A9
330
1F
100
AcDbEntity
  8
0
  6
Continuous
 62
     7
100
AcDbPolyline
 90
        3
 70
   128
 43
0.0
 10
6935.8062744141
 20
5133.8990745388
 10
6935.3308143585
 20
5134.1746874976
 10
6934.9559652594
 20
5134.3912449919
  0
LWPOLYLINE
  5
1AA
330
1F
100
AcDbEntity
  8
0
  6
Continuous
 62
     7
100
AcDbPolyline
 90
        3
 70
   128
 43
0.0
 10
6935.8062744141
 20
5135.4865771972
 10
6935.3308155628
 20
5135.7621880683
 10
6934.9559652594
 20
5135.9787401997
  0
LWPOLYLINE
  5
1AB
330
1F
100
AcDbEntity
  8
0
  6
Continuous
 62
     7
100
AcDbPolyline
 90
        3
 70
   128
 43
0.0
 10
6910.2401733398
 20
5130.4270220243
 10
6909.759900875
 20
5130.1488690461
 10
6909.3815968347
 20
5129.9303290688
  0
LWPOLYLINE
  5
1AC
330
1F
100
AcDbEntity
  8
0
  6
Continuous
 62
     7
100
AcDbPolyline
 90
        3
 70
   128
 43
0.0
 10
6910.2401733398
 20
5132.0145246826
 10
6909.7598996823
 20
5131.7363695968
 10
6909.3815968347
 20
5131.5178242766
  0
LWPOLYLINE
  5
1AD
330
1F
100
AcDbEntity
  8
0
  6
Continuous
 62
     7
100
AcDbPolyline
 90
        3
 70
   128
 43
0.0
 10
6910.2401733398
 20
5133.6020198904
 10
6909.7598984895
 20
5133.3238710416
 10
6909.3815968347
 20
5133.1053269349
  0
LWPOLYLINE
  5
1AE
330
1F
100
AcDbEntity
  8
0
  6
Continuous
 62
     7
100
AcDbPolyline
 90
        3
 70
   128
 43
0.0
 10
6910.2401733398
 20
5135.1895225488
 10
6909.759900875
 20
5134.9113695706
 10
6909.3815968347
 20
5134.6928295933
  0
LWPOLYLINE
  5
1AF
330
1F
100
AcDbEntity
  8
0
  6
Continuous
 62
     7
100
AcDbPolyline
 90
        3
 70
   128
 43
0.0
 10
6910.2401733398
 20
5136.7770252072
 10
6909.7598996823
 20
5136.4988701213
 10
6909.3815968347
 20
5136.2803248011
  0
LWPOLYLINE
  5
1B0
330
1F
100
AcDbEntity
  8
0
  6
Continuous
 62
     7
100
AcDbPolyline
 90
        3
 70
   128
 43
0.0
 10
6935.489654541
 20
5129.3195900761
 10
6935.191423771
 20
5129.4927126871
 10
6934.9559652594
 20
5129.6287444674
  0
LWPOLYLINE
  5
1B1
330
1F
100
AcDbEntity
  8
0
  6
Continuous
 62
     7
100
AcDbPolyline
 90
        3
 70
   128
 43
0.0
 10
6910.2401733398
 20
5295.2177939259
 10
6909.7589813703
 20
5294.9396809932
 10
6909.3807046277
 20
5294.7211680256
  0
LWPOLYLINE
  5
1B2
330
1F
100
AcDbEntity
  8
0
  6
Continuous
 62
     7
100
AcDbPolyline
 90
        3
 70
   128
 43
0.0
 10
6910.2401733398
 20
5293.6302912675
 10
6909.7589813703
 20
5293.3521783349
 10
6909.3807046277
 20
5293.1336653672
  0
LWPOLYLINE
  5
1B3
330
1F
100
AcDbEntity
  8
0
  6
Continuous
 62
     7
100
AcDbPolyline
 90
        3
 70
   128
 43
0.0
 10
6910.2401733398
 20
5292.0427960597
 10
6909.7589813703
 20
5291.7646831271
 10
6909.3807046277
 20
5291.5461701595
  0
LWPOLYLINE
  5
1B4
330
1F
100
AcDbEntity
  8
0
  6
Continuous
 62
     7
100
AcDbPolyline
 90
        3
 70
   128
 43
0.0
 10
6910.2401733398
 20
5290.4552934014
 10
6909.7589813703
 20
5290.1771804687
 10
6909.3807046277
 20
5289.9586675011
  0
LWPOLYLINE
  5
1B5
330
1F
100
AcDbEntity
  8
0
  6
Continuous
 62
     7
100
AcDbPolyline
 90
        3
 70
   128
 43
0.0
 10
6935.8062744141
 20
5293.9274204217
 10
6935.3312206055
 20
5294.2032925828
 10
6934.9559876112
 20
5294.4200528108
  0
LWPOLYLINE
  5
1B6
330
1F
100
AcDbEntity
  8
0
  6
Continuous
 62
     7
100
AcDbPolyline
 90
        3
 70
   128
 43
0.0
 10
6935.8062744141
 20
5292.3399177633
 10
6935.3312206055
 20
5292.6157899244
 10
6934.9559876112
 20
5292.8325501524
  0
LWPOLYLINE
  5
1B7
330
1F
100
AcDbEntity
  8
0
  6
Continuous
 62
     7
100
AcDbPolyline
 90
        3
 70
   128
 43
0.0
 10
6935.8062744141
 20
5290.752415105
 10
6935.3312206055
 20
5291.0282872661
 10
6934.9559876112
 20
5291.245047494
  0
LWPOLYLINE
  5
1B8
330
1F
100
AcDbEntity
  8
0
  6
Continuous
 62
     7
100
AcDbPolyline
 90
        3
 70
   128
 43
0.0
 10
6935.8062744141
 20
5289.1649198972
 10
6935.3312206055
 20
5289.4407920583
 10
6934.9559876112
 20
5289.6575522863
  0
LWPOLYLINE
  5
1B9
330
1F
100
AcDbEntity
  8
0
  6
Continuous
 62
     7
100
AcDbPolyline
 90
        3
 70
   128
 43
0.0
 10
6935.8062744141
 20
5295.5149156295
 10
6935.3312206055
 20
5295.7907877906
 10
6934.9559876112
 20
5296.0075480186
  0
LWPOLYLINE
  5
1BA
330
1F
100
AcDbEntity
  8
0
  6
Continuous
 62
     7
100
AcDbPolyline
 90
        3
 70
   128
 43
0.0
 10
6910.2401733398
 20
5296.8052965842
 10
6909.7589813703
 20
5296.5271836516
 10
6909.3807046277
 20
5296.308670684
  0
LWPOLYLINE
  5
1BB
330
1F
100
AcDbEntity
  8
0
  6
Continuous
 62
     7
100
AcDbPolyline
 90
        3
 70
   128
 43
0.0
 10
6909.3780517578
 20
5295.8967280828
 10
6909.8582751584
 20
5295.620856381
 10
6910.2335083274
 20
5295.4040956937
  0
LWPOLYLINE
  5
1BC
330
1F
100
AcDbEntity
  8
0
  6
Continuous
 62
     7
100
AcDbPolyline
 90
        3
 70
   128
 43
0.0
 10
6909.3780517578
 20
5294.3092254244
 10
6909.8582751584
 20
5294.0333537226
 10
6910.2335083274
 20
5293.8165930353
  0
LWPOLYLINE
  5
1BD
330
1F
100
AcDbEntity
  8
0
  6
Continuous
 62
     7
100
AcDbPolyline
 90
        3
 70
   128
 43
0.0
 10
6909.3780517578
 20
5292.721722766
 10
6909.8582751584
 20
5292.4458510642
 10
6910.2335083274
 20
5292.229090377
  0
LWPOLYLINE
  5
1BE
330
1F
100
AcDbEntity
  8
0
  6
Continuous
 62
     7
100
AcDbPolyline
 90
        3
 70
   128
 43
0.0
 10
6909.3780517578
 20
5291.1342275583
 10
6909.8582751584
 20
5290.8583558565
 10
6910.2335083274
 20
5290.6415951692
  0
LWPOLYLINE
  5
1BF
330
1F
100
AcDbEntity
  8
0
  6
Continuous
 62
     7
100
AcDbPolyline
 90
        3
 70
   128
 43
0.0
 10
6909.3780517578
 20
5289.5467248999
 10
6909.8331378619
 20
5289.2853736415
 10
6910.1886195106
 20
5289.0800205313
  0
LWPOLYLINE
  5
1C0
330
1F
100
AcDbEntity
  8
0
  6
Continuous
 62
     7
100
AcDbPolyline
 90
        3
 70
   128
 43
0.0
 10
6934.9479675293
 20
5294.606347128
 10
6935.4305150473
 20
5294.8844594775
 10
6935.8087922422
 20
5295.1029730283
  0
LWPOLYLINE
  5
1C1
330
1F
100
AcDbEntity
  8
0
  6
Continuous
 62
     7
100
AcDbPolyline
 90
        3
 70
   128
 43
0.0
 10
6934.9479675293
 20
5293.0188444697
 10
6935.4305138545
 20
5293.2969630562
 10
6935.8087922422
 20
5293.5154778205
  0
LWPOLYLINE
  5
1C2
330
1F
100
AcDbEntity
  8
0
  6
Continuous
 62
     7
100
AcDbPolyline
 90
        3
 70
   128
 43
0.0
 10
6934.9479675293
 20
5291.4313492619
 10
6935.4305150473
 20
5291.7094616113
 10
6935.8087922422
 20
5291.9279751621
  0
LWPOLYLINE
  5
1C3
330
1F
100
AcDbEntity
  8
0
  6
Continuous
 62
     7
100
AcDbPolyline
 90
        3
 70
   128
 43
0.0
 10
6934.9479675293
 20
5289.8438466035
 10
6935.4305150473
 20
5290.1219589529
 10
6935.8087922422
 20
5290.3404725038
  0
LWPOLYLINE
  5
1C4
330
1F
100
AcDbEntity
  8
0
  6
Continuous
 62
     7
100
AcDbPolyline
 90
        3
 70
   128
 43
0.0
 10
6934.9479675293
 20
5296.1938497864
 10
6935.3749483835
 20
5296.4398637864
 10
6935.7095654098
 20
5296.6331583701
  0
LWPOLYLINE
  5
1C5
330
1F
100
AcDbEntity
  8
0
  6
Continuous
 62
     7
100
AcDbPolyline
 90
        3
 70
   128
 43
0.0
 10
6966.625213623
 20
5133.6467904292
 10
6967.4777610437
 20
5131.4090886381
 10
6969.1824461308
 20
5130.5519608103
  0
LWPOLYLINE
  5
1C6
330
1F
100
AcDbEntity
  8
0
  6
Continuous
 62
     7
100
AcDbPolyline
 90
       16
 70
   128
 43
0.0
 10
6935.4858398438
 20
5129.2935055934
 10
6935.4960827955
 20
5129.2895676308
 10
6935.4990379505
 20
5129.2876031337
 10
6935.4996865706
 20
5129.2866227909
 10
6935.4996525199
 20
5129.2856440176
 10
6935.4910344979
 20
5129.2817484268
 10
6935.4684503237
 20
5129.2778849852
 10
6934.5201517131
 20
5129.2327160299
 10
6922.7918889229
 20
5129.0443741163
 10
6911.082212186
 20
5128.8553107343
 10
6910.1887891554
 20
5128.80655494
 10
6910.1682181726
 20
5128.8024566657
 10
6910.1619831852
 20
5128.7993950143
 10
6910.1618442694
 20
5128.7982501049
 10
6910.1629640112
 20
5128.7971071387
 10
6910.1921911327
 20
5128.7902859293
  0
LWPOLYLINE
  5
1C7
330
1F
100
AcDbEntity
  8
0
  6
Continuous
 62
     7
100
AcDbPolyline
 90
        5
 70
   128
 43
0.0
 10
6909.5306396484
 20
5129.4495803558
 10
6909.4995755771
 20
5129.4821564048
 10
6909.4970145397
 20
5129.4943773347
 10
6909.5032052726
 20
5129.5066028202
 10
6909.6736502809
 20
5129.5800251209
  0
LWPOLYLINE
  5
1C8
330
1F
100
AcDbEntity
  8
0
  6
Continuous
 62
     7
100
AcDbPolyline
 90
        5
 70
   128
 43
0.0
 10
6909.6717834473
 20
5129.5800251209
 10
6924.0009013403
 20
5129.9492826855
 10
6934.9408298
 20
5130.2278316592
 10
6935.7235458864
 20
5130.2954153612
 10
6935.7491764215
 20
5130.3188619457
  0
LWPOLYLINE
  5
1C9
330
1F
100
AcDbEntity
  8
0
  6
Continuous
 62
     7
100
AcDbPolyline
 90
       11
 70
   128
 43
0.0
 10
6909.3894958496
 20
5131.1124530874
 10
6909.3592546543
 20
5131.1217619741
 10
6909.3579906439
 20
5131.1233269643
 10
6909.3579245379
 20
5131.1248955109
 10
6909.3689241581
 20
5131.1312015642
 10
6909.3962302495
 20
5131.1375497314
 10
6910.3765780893
 20
5131.2131625025
 10
6922.593846008
 20
5131.5091652915
 10
6934.8074981325
 20
5131.808714595
 10
6935.7191042672
 20
5131.8812173724
 10
6935.7491764215
 20
5131.9063571535
  0
LWPOLYLINE
  5
1CA
330
1F
100
AcDbEntity
  8
0
  6
Continuous
 62
     7
100
AcDbPolyline
 90
       11
 70
   128
 43
0.0
 10
6909.3894958496
 20
5132.6999557458
 10
6909.3592546543
 20
5132.7092646313
 10
6909.357990644
 20
5132.7108296211
 10
6909.357924538
 20
5132.7123981671
 10
6909.3689241581
 20
5132.7187042177
 10
6909.3962302496
 20
5132.7250523821
 10
6910.3765780904
 20
5132.8006650648
 10
6922.5938460422
 20
5133.0966660694
 10
6934.8074981382
 20
5133.3962167599
 10
6935.7191042693
 20
5133.4687198377
 10
6935.7491764215
 20
5133.4938598119
  0
LWPOLYLINE
  5
1CB
330
1F
100
AcDbEntity
  8
0
  6
Continuous
 62
     7
100
AcDbPolyline
 90
       11
 70
   128
 43
0.0
 10
6909.3894958496
 20
5134.2874584042
 10
6909.3592546534
 20
5134.2967674422
 10
6909.3579906426
 20
5134.2983325014
 10
6909.3579245361
 20
5134.2999011259
 10
6909.3689241538
 20
5134.3062075487
 10
6909.3962302429
 20
5134.3125561006
 10
6910.3765781331
 20
5134.3881606096
 10
6922.5938461473
 20
5134.6841633777
 10
6934.8074981382
 20
5134.9837194156
 10
6935.7191042693
 20
5135.0562224951
 10
6935.7491764215
 20
5135.0813624703
  0
LWPOLYLINE
  5
1CC
330
1F
100
AcDbEntity
  8
0
  6
Continuous
 62
     7
100
AcDbPolyline
 90
       11
 70
   128
 43
0.0
 10
6909.3894958496
 20
5135.874953612
 10
6909.3592546543
 20
5135.884262499
 10
6909.3579906439
 20
5135.8858274894
 10
6909.3579245379
 20
5135.8873960362
 10
6909.368924158
 20
5135.8937020904
 10
6909.3962302494
 20
5135.9000502585
 10
6910.3765780884
 20
5135.9756630594
 10
6922.5938459964
 20
5136.2716666364
 10
6934.8074981328
 20
5136.5712151193
 10
6935.7191042672
 20
5136.6437178969
 10
6935.7491764215
 20
5136.6688576781
  0
LWPOLYLINE
  5
1CD
330
1F
100
AcDbEntity
  8
0
  6
Continuous
 62
     7
100
AcDbPolyline
 90
       10
 70
   128
 43
0.0
 10
6909.4047546387
 20
5129.9303886734
 10
6922.8155498107
 20
5130.3228903768
 10
6934.8210035896
 20
5130.6189211699
 10
6935.7916751431
 20
5130.6907564487
 10
6935.8099928329
 20
5130.6968664087
 10
6935.8128473788
 20
5130.6991722919
 10
6935.813390957
 20
5130.7014868961
 10
6935.8097028321
 20
5130.7049761824
 10
6935.8004715807
 20
5130.708487336
 10
6935.7710774032
 20
5130.7155532085
  0
LWPOLYLINE
  5
1CE
330
1F
100
AcDbEntity
  8
0
  6
Continuous
 62
     7
100
AcDbPolyline
 90
       10
 70
   128
 43
0.0
 10
6909.4047546387
 20
5131.5178913318
 10
6922.815549756
 20
5131.910392125
 10
6934.82100359
 20
5132.2064167566
 10
6935.7916751405
 20
5132.278265696
 10
6935.8099928359
 20
5132.284374017
 10
6935.8128473834
 20
5132.286678978
 10
6935.8133909628
 20
5132.2889924772
 10
6935.8097028389
 20
5132.2924797416
 10
6935.8004715872
 20
5132.2959884155
 10
6935.7710774032
 20
5132.3030484163
  0
LWPOLYLINE
  5
1CF
330
1F
100
AcDbEntity
  8
0
  6
Continuous
 62
     7
100
AcDbPolyline
 90
       10
 70
   128
 43
0.0
 10
6909.4047546387
 20
5133.1053865396
 10
6922.815549816
 20
5133.4978880052
 10
6934.8210035733
 20
5133.7939224986
 10
6935.7916751339
 20
5133.8657559628
 10
6935.8099928285
 20
5133.8718650433
 10
6935.812847376
 20
5133.8741706638
 10
6935.8133909553
 20
5133.87648505
 10
6935.8097028318
 20
5133.8799741044
 10
6935.800471581
 20
5133.8834851529
 10
6935.7710774032
 20
5133.8905510746
  0
LWPOLYLINE
  5
1D0
330
1F
100
AcDbEntity
  8
0
  6
Continuous
 62
     7
100
AcDbPolyline
 90
       10
 70
   128
 43
0.0
 10
6909.4047546387
 20
5134.6928891979
 10
6922.815549739
 20
5135.0853908316
 10
6934.8210035893
 20
5135.3814146418
 10
6935.7916751405
 20
5135.4532635602
 10
6935.8099928359
 20
5135.4593718822
 10
6935.8128473835
 20
5135.4616768435
 10
6935.8133909628
 20
5135.4639903429
 10
6935.8097028389
 20
5135.4674776077
 10
6935.8004715872
 20
5135.4709862817
 10
6935.7710774032
 20
5135.4780462824
  0
LWPOLYLINE
  5
1D1
330
1F
100
AcDbEntity
  8
0
  6
Continuous
 62
     7
100
AcDbPolyline
 90
        8
 70
   128
 43
0.0
 10
6909.4047546387
 20
5136.2803844057
 10
6922.8164938998
 20
5136.6729036382
 10
6934.827270625
 20
5136.9689376465
 10
6935.7662567586
 20
5137.0408500052
 10
6935.8057338694
 20
5137.0546366984
 10
6935.8069589148
 20
5137.0569598584
 10
6935.8067249992
 20
5137.0592904293
 10
6935.8019153563
 20
5137.065526589
  0
LWPOLYLINE
  5
1D2
330
1F
100
AcDbEntity
  8
0
  6
Continuous
 62
     7
100
AcDbPolyline
 90
       10
 70
   128
 43
0.0
 10
6910.3088378906
 20
5129.0284660898
 10
6910.2973811257
 20
5129.0377772487
 10
6910.2939071323
 20
5129.0424384568
 10
6910.2937567093
 20
5129.0471064191
 10
6910.3006409581
 20
5129.0533447669
 10
6911.1499871747
 20
5129.1280778861
 10
6922.3621252752
 20
5129.4207549587
 10
6933.8565158709
 20
5129.7172515842
 10
6934.8316478324
 20
5129.7889091409
 10
6934.8733085183
 20
5129.8136976801
  0
LWPOLYLINE
  5
1D3
330
1F
100
AcDbEntity
  8
0
  6
Continuous
 62
     7
100
AcDbPolyline
 90
       10
 70
   128
 43
0.0
 10
6910.3088378906
 20
5130.6159687482
 10
6910.2973811261
 20
5130.6252772417
 10
6910.2939071335
 20
5130.6299371812
 10
6910.2937567121
 20
5130.634603952
 10
6910.3006409644
 20
5130.6408408753
 10
6911.1499872152
 20
5130.7155752282
 10
6922.3621252574
 20
5131.0082583849
 10
6933.8565158903
 20
5131.3047525972
 10
6934.8316478335
 20
5131.3764116989
 10
6934.8733085183
 20
5131.4012003385
  0
LWPOLYLINE
  5
1D4
330
1F
100
AcDbEntity
  8
0
  6
Continuous
 62
     7
100
AcDbPolyline
 90
       10
 70
   128
 43
0.0
 10
6910.3088378906
 20
5132.203463956
 10
6910.2973811257
 20
5132.2127751137
 10
6910.2939071323
 20
5132.2174363213
 10
6910.2937567094
 20
5132.2221042836
 10
6910.3006409583
 20
5132.2283426321
 10
6911.1499871824
 20
5132.3030757287
 10
6922.3621252775
 20
5132.5957564623
 10
6933.856515925
 20
5132.8922498848
 10
6934.8316478442
 20
5132.963908139
 10
6934.8733085183
 20
5132.9887029968
  0
LWPOLYLINE
  5
1D5
330
1F
100
AcDbEntity
  8
0
  6
Continuous
 62
     7
100
AcDbPolyline
 90
       10
 70
   128
 43
0.0
 10
6910.3088378906
 20
5133.7909666144
 10
6910.2973811257
 20
5133.8002777732
 10
6910.2939071323
 20
5133.8049389812
 10
6910.2937567093
 20
5133.8096069436
 10
6910.300640958
 20
5133.8158452914
 10
6911.1499871744
 20
5133.89057841
 10
6922.3621252531
 20
5134.1832564484
 10
6933.8565158706
 20
5134.4797521399
 10
6934.8316478323
 20
5134.5514096674
 10
6934.8733085183
 20
5134.5761982046
  0
LWPOLYLINE
  5
1D6
330
1F
100
AcDbEntity
  8
0
  6
Continuous
 62
     7
100
AcDbPolyline
 90
       10
 70
   128
 43
0.0
 10
6910.3088378906
 20
5135.3784692727
 10
6910.2973811261
 20
5135.3877777662
 10
6910.2939071335
 20
5135.3924377057
 10
6910.2937567121
 20
5135.3971044765
 10
6910.3006409644
 20
5135.4033413999
 10
6911.1499872152
 20
5135.4780757527
 10
6922.3621252574
 20
5135.7707589095
 10
6933.8565158903
 20
5136.0672531218
 10
6934.8316478335
 20
5136.1389122235
 10
6934.8733085183
 20
5136.163700863
  0
LWPOLYLINE
  5
1D7
330
1F
100
AcDbEntity
  8
0
  6
Continuous
 62
     7
100
AcDbPolyline
 90
        5
 70
   128
 43
0.0
 10
6910.3088378906
 20
5136.9659644805
 10
6910.2937265853
 20
5136.9820168421
 10
6910.2960148406
 20
5136.9873817072
 10
6910.3095750249
 20
5136.9945541525
 10
6911.4315477175
 20
5137.0800254189
  0
LINE
  5
1D8
330
1F
100
AcDbEntity
  8
0
  6
Continuous
 62
     7
100
AcDbLine
 10
6933.0596923828
 20
5137.0800254189
 30
0.0
 11
6930.9433321443
 21
5137.0800254189
 31
0.0
  0
LWPOLYLINE
  5
1D9
330
1F
100
AcDbEntity
  8
0
  6
Continuous
 62
     7
100
AcDbPolyline
 90
       10
 70
   128
 43
0.0
 10
6910.3088378906
 20
5128.8300347768
 10
6910.2972829883
 20
5128.8394472544
 10
6910.2938514526
 20
5128.8441592902
 10
6910.2938538779
 20
5128.8488782826
 10
6910.3011772424
 20
5128.8551851016
 10
6911.1700100728
 20
5128.9306907836
 10
6922.5701826111
 20
5129.2266410725
 10
6934.0040831147
 20
5129.5261858909
 10
6934.8642311503
 20
5129.5986777956
 10
6934.8930264798
 20
5129.623812183
  0
LWPOLYLINE
  5
1DA
330
1F
100
AcDbEntity
  8
0
  6
Continuous
 62
     7
100
AcDbPolyline
 90
       10
 70
   128
 43
0.0
 10
6910.3088378906
 20
5130.4272157394
 10
6910.3044079318
 20
5130.4334173973
 10
6910.3025923237
 20
5130.4396282813
 10
6910.3096571277
 20
5130.4458576175
 10
6910.3295522936
 20
5130.4521129629
 10
6911.3341613389
 20
5130.5263692363
 10
6922.8035345417
 20
5130.8190045301
 10
6934.0267699773
 20
5131.1148644806
 10
6934.8650186726
 20
5131.1864797684
 10
6934.8930264798
 20
5131.2113148414
  0
LWPOLYLINE
  5
1DB
330
1F
100
AcDbEntity
  8
0
  6
Continuous
 62
     7
100
AcDbPolyline
 90
       10
 70
   128
 43
0.0
 10
6910.3088378906
 20
5132.0147183977
 10
6910.3044079304
 20
5132.020920237
 10
6910.3025923217
 20
5132.0271311833
 10
6910.3096571271
 20
5132.0333603439
 10
6910.3295522971
 20
5132.0396151761
 10
6911.3341613674
 20
5132.1138672151
 10
6922.8035346696
 20
5132.4065012647
 10
6934.0267699754
 20
5132.7023672477
 10
6934.8650186719
 20
5132.7739824776
 10
6934.8930264798
 20
5132.7988174998
  0
LWPOLYLINE
  5
1DC
330
1F
100
AcDbEntity
  8
0
  6
Continuous
 62
     7
100
AcDbPolyline
 90
       10
 70
   128
 43
0.0
 10
6910.3088378906
 20
5133.6022136055
 10
6910.3044079297
 20
5133.6084180391
 10
6910.3025923192
 20
5133.6146314118
 10
6910.3096571203
 20
5133.6208626628
 10
6910.3295522833
 20
5133.6271191011
 10
6911.3341613379
 20
5133.7013657838
 10
6922.803534509
 20
5133.9940043112
 10
6934.0267699725
 20
5134.2898627533
 10
6934.8650186705
 20
5134.3614778237
 10
6934.8930264798
 20
5134.3863127075
  0
LWPOLYLINE
  5
1DD
330
1F
100
AcDbEntity
  8
0
  6
Continuous
 62
     7
100
AcDbPolyline
 90
       10
 70
   128
 43
0.0
 10
6910.3088378906
 20
5135.1897162639
 10
6910.3044079318
 20
5135.1959179218
 10
6910.3025923237
 20
5135.2021288059
 10
6910.3096571277
 20
5135.208358142
 10
6910.3295522936
 20
5135.2146134875
 10
6911.3341613389
 20
5135.2888697608
 10
6922.8035345417
 20
5135.5815050547
 10
6934.0267699773
 20
5135.8773650051
 10
6934.8650186726
 20
5135.9489802929
 10
6934.8930264798
 20
5135.9738153659
  0
LWPOLYLINE
  5
1DE
330
1F
100
AcDbEntity
  8
0
  6
Continuous
 62
     7
100
AcDbPolyline
 90
        7
 70
   128
 43
0.0
 10
6910.3088378906
 20
5136.7772189223
 10
6910.3037291762
 20
5136.784374053
 10
6910.3023922713
 20
5136.7879560019
 10
6910.3036118224
 20
5136.7915432113
 10
6910.3106874552
 20
5136.7963373705
 10
6910.9167568039
 20
5136.8540334876
 10
6918.4550526527
 20
5137.0800254189
  0
LWPOLYLINE
  5
1DF
330
1F
100
AcDbEntity
  8
0
  6
Continuous
 62
     7
100
AcDbPolyline
 90
        3
 70
   128
 43
0.0
 10
6934.4100952148
 20
5296.5800208293
 10
6935.5062237123
 20
5296.6226077757
 10
6935.7204618839
 20
5296.6547650539
  0
ARC
  5
1E0
330
1F
100
AcDbEntity
  8
0
  6
Continuous
 62
     7
100
AcDbCircle
 10
6918.7363064441
 20
5229.2854055048
 30
0.0
 40
68.43360452313551
100
AcDbArc
 50
84.817737177
 51
97.341023934
  0
LWPOLYLINE
  5
1E1
330
1F
100
AcDbEntity
  8
0
  6
Continuous
 62
     7
100
AcDbPolyline
 90
        3
 70
   128
 43
0.0
 10
6932.8193664551
 20
5297.4392813884
 10
6924.5973043973
 20
5296.9502846801
 10
6916.6669468371
 20
5296.5800208293
  0
LINE
  5
1E2
330
1F
100
AcDbEntity
  8
0
  6
Continuous
 62
     7
100
AcDbLine
 10
6924.9153137207
 20
5297.4392813884
 30
0.0
 11
6932.8222121087
 21
5297.4392813884
 31
0.0
  0
LWPOLYLINE
  5
1E3
330
1F
100
AcDbEntity
  8
0
  6
Continuous
 62
     7
100
AcDbPolyline
 90
        7
 70
   128
 43
0.0
 10
6932.8193664551
 20
5297.4392813884
 10
6919.1638384495
 20
5297.1237512975
 10
6910.9770005257
 20
5296.884698612
 10
6910.3020846387
 20
5296.8245910645
 10
6910.2923176722
 20
5296.8197468016
 10
6910.2906142377
 20
5296.8161350543
 10
6910.3022213069
 20
5296.8053636395
  0
LWPOLYLINE
  5
1E4
330
1F
100
AcDbEntity
  8
0
  6
Continuous
 62
     7
100
AcDbPolyline
 90
       14
 70
   128
 43
0.0
 10
6934.8907470703
 20
5296.0037258707
 10
6934.9251540086
 20
5295.9903590595
 10
6934.9265607362
 20
5295.9881193057
 10
6934.9261038423
 20
5295.9858740432
 10
6934.9152155578
 20
5295.9798580161
 10
6934.0289640209
 20
5295.9053727719
 10
6922.8076194756
 20
5295.6106614226
 10
6911.3266557029
 20
5295.3165804056
 10
6910.3198702698
 20
5295.2417258542
 10
6910.2983240154
 20
5295.2356941343
 10
6910.2906951089
 20
5295.2297155027
 10
6910.2912291017
 20
5295.2267428667
 10
6910.2937752859
 20
5295.2237779498
 10
6910.3022213069
 20
5295.2178609811
  0
LWPOLYLINE
  5
1E5
330
1F
100
AcDbEntity
  8
0
  6
Continuous
 62
     7
100
AcDbPolyline
 90
       14
 70
   128
 43
0.0
 10
6934.8907470703
 20
5294.4162232124
 10
6934.9251540086
 20
5294.4028564012
 10
6934.9265607362
 20
5294.4006166474
 10
6934.9261038423
 20
5294.3983713849
 10
6934.915215558
 20
5294.3923553578
 10
6934.0289640275
 20
5294.3178701136
 10
6922.8076195027
 20
5294.0231608862
 10
6911.3266557693
 20
5293.7290776998
 10
6910.3198702805
 20
5293.6542212428
 10
6910.2983240218
 20
5293.6481909533
 10
6910.2906951114
 20
5293.6422144919
 10
6910.2912291031
 20
5293.6392431784
 10
6910.2937752866
 20
5293.636279694
 10
6910.3022213069
 20
5293.6303657733
  0
LWPOLYLINE
  5
1E6
330
1F
100
AcDbEntity
  8
0
  6
Continuous
 62
     7
100
AcDbPolyline
 90
       14
 70
   128
 43
0.0
 10
6934.8907470703
 20
5292.8287280046
 10
6934.9251540079
 20
5292.8153613134
 10
6934.9265607358
 20
5292.8131214979
 10
6934.9261038425
 20
5292.8108761361
 10
6934.9152155607
 20
5292.804859658
 10
6934.0289640802
 20
5292.7303666588
 10
6922.8076195963
 20
5292.4356575608
 10
6911.3266557814
 20
5292.1415733157
 10
6910.3198702728
 20
5292.0667274801
 10
6910.2983240159
 20
5292.0606961916
 10
6910.2906951082
 20
5292.0547177476
 10
6910.2912291009
 20
5292.0517451265
 10
6910.2937752853
 20
5292.0487801879
 10
6910.3022213069
 20
5292.0428631149
  0
LWPOLYLINE
  5
1E7
330
1F
100
AcDbEntity
  8
0
  6
Continuous
 62
     7
100
AcDbPolyline
 90
       14
 70
   128
 43
0.0
 10
6934.8907470703
 20
5291.2412253462
 10
6934.9251540086
 20
5291.227858535
 10
6934.9265607362
 20
5291.2256187812
 10
6934.9261038423
 20
5291.2233735187
 10
6934.9152155578
 20
5291.2173574915
 10
6934.0289640209
 20
5291.1428722473
 10
6922.8076194756
 20
5290.8481608981
 10
6911.3266557029
 20
5290.5540798811
 10
6910.3198702698
 20
5290.4792253297
 10
6910.2983240154
 20
5290.4731936098
 10
6910.2906951089
 20
5290.4672149782
 10
6910.2912291017
 20
5290.4642423422
 10
6910.2937752859
 20
5290.4612774253
 10
6910.3022213069
 20
5290.4553604566
  0
LWPOLYLINE
  5
1E8
330
1F
100
AcDbEntity
  8
0
  6
Continuous
 62
     7
100
AcDbPolyline
 90
        7
 70
   128
 43
0.0
 10
6934.8907470703
 20
5289.6537226878
 10
6934.9247602989
 20
5289.6407317405
 10
6934.9264264566
 20
5289.6385553294
 10
6934.9263765781
 20
5289.636373725
 10
6934.8613989395
 20
5289.6187244389
 10
6933.0263722214
 20
5289.5094266613
 10
6914.6727970777
 20
5289.0800205313
  0
LWPOLYLINE
  5
1E9
330
1F
100
AcDbEntity
  8
0
  6
Continuous
 62
     7
100
AcDbPolyline
 90
        8
 70
   128
 43
0.0
 10
6916.6641235352
 20
5296.5800208293
 10
6909.8667722113
 20
5296.3702335009
 10
6909.459154703
 20
5296.3307320749
 10
6909.4370601042
 20
5296.3243039817
 10
6909.4295201426
 20
5296.3179282052
 10
6909.4308208691
 20
5296.3137004757
 10
6909.4357661593
 20
5296.3094858724
 10
6909.4517310125
 20
5296.3010785423
  0
LWPOLYLINE
  5
1EA
330
1F
100
AcDbEntity
  8
0
  6
Continuous
 62
     7
100
AcDbPolyline
 90
       14
 70
   128
 43
0.0
 10
6935.7452392578
 20
5295.5075023018
 10
6935.7824906327
 20
5295.4939988648
 10
6935.7838098517
 20
5295.4917356187
 10
6935.7830592844
 20
5295.4894665442
 10
6935.7705082289
 20
5295.483385895
 10
6934.8001143332
 20
5295.4080713091
 10
6922.5927046936
 20
5295.1106269489
 10
6910.3874369677
 20
5294.8128419395
 10
6909.4389085741
 20
5294.7375752313
 10
6909.4299354508
 20
5294.7315315055
 10
6909.4294487066
 20
5294.7292754805
 10
6909.4302464382
 20
5294.7270240844
 10
6909.4349613425
 20
5294.7225325339
 10
6909.4517310125
 20
5294.713575884
  0
LWPOLYLINE
  5
1EB
330
1F
100
AcDbEntity
  8
0
  6
Continuous
 62
     7
100
AcDbPolyline
 90
       14
 70
   128
 43
0.0
 10
6935.7452392578
 20
5293.920007094
 10
6935.7824906325
 20
5293.9064973096
 10
6935.7838098521
 20
5293.9042332966
 10
6935.7830592857
 20
5293.9019635888
 10
6935.7705082321
 20
5293.8958819107
 10
6934.8001143219
 20
5293.8205784873
 10
6922.5927047061
 20
5293.523131138
 10
6910.3874369875
 20
5293.2253445772
 10
6909.4389085742
 20
5293.150080018
 10
6909.4299354513
 20
5293.144036233
 10
6909.4294487073
 20
5293.1417802001
 10
6909.4302464389
 20
5293.1395288026
 10
6909.4349613431
 20
5293.1350372646
 10
6909.4517310125
 20
5293.1260806762
  0
LWPOLYLINE
  5
1EC
330
1F
100
AcDbEntity
  8
0
  6
Continuous
 62
     7
100
AcDbPolyline
 90
       14
 70
   128
 43
0.0
 10
6935.7452392578
 20
5292.3325044357
 10
6935.7824906326
 20
5292.3189946507
 10
6935.7838098521
 20
5292.316730638
 10
6935.7830592857
 20
5292.3144609307
 10
6935.7705082321
 20
5292.3083792547
 10
6934.8001143231
 20
5292.2330757824
 10
6922.5927046828
 20
5291.9356295447
 10
6910.3874369568
 20
5291.6378448287
 10
6909.4389085741
 20
5291.5625773674
 10
6909.4299354504
 20
5291.5565336649
 10
6909.4294487062
 20
5291.554277643
 10
6909.4302464378
 20
5291.5520262475
 10
6909.4349613422
 20
5291.5475346921
 10
6909.4517310125
 20
5291.5385780178
  0
LWPOLYLINE
  5
1ED
330
1F
100
AcDbEntity
  8
0
  6
Continuous
 62
     7
100
AcDbPolyline
 90
       14
 70
   128
 43
0.0
 10
6935.7452392578
 20
5290.7450017773
 10
6935.7824906327
 20
5290.7314983403
 10
6935.7838098517
 20
5290.7292350942
 10
6935.7830592844
 20
5290.7269660197
 10
6935.7705082289
 20
5290.7208853705
 10
6934.8001143334
 20
5290.6455707845
 10
6922.5927046964
 20
5290.348126424
 10
6910.3874369716
 20
5290.0503400609
 10
6909.4389085674
 20
5289.9750821025
 10
6909.4299354461
 20
5289.9690371544
 10
6909.4294487027
 20
5289.966780523
 10
6909.4302464349
 20
5289.9645284544
 10
6909.4349613404
 20
5289.9600353983
 10
6909.4517310125
 20
5289.9510753595
  0
LWPOLYLINE
  5
1EE
330
1F
100
AcDbEntity
  8
0
  6
Continuous
 62
     7
100
AcDbPolyline
 90
        5
 70
   128
 43
0.0
 10
6934.4100952148
 20
5296.5800208293
 10
6925.167119536
 20
5296.3495531116
 10
6917.5309889356
 20
5296.2017839966
 10
6911.602214009
 20
5296.0540493345
 10
6909.4012952385
 20
5295.904379829
  0
LWPOLYLINE
  5
1EF
330
1F
100
AcDbEntity
  8
0
  6
Continuous
 62
     7
100
AcDbPolyline
 90
        3
 70
   128
 43
0.0
 10
6935.7452392578
 20
5295.1025706969
 10
6919.9399338864
 20
5294.663427914
 10
6909.4012952385
 20
5294.3168771707
  0
LWPOLYLINE
  5
1F0
330
1F
100
AcDbEntity
  8
0
  6
Continuous
 62
     7
100
AcDbPolyline
 90
        3
 70
   128
 43
0.0
 10
6935.7452392578
 20
5293.5150680386
 10
6919.9399339719
 20
5293.0759247463
 10
6909.4012952385
 20
5292.7293819629
  0
LWPOLYLINE
  5
1F1
330
1F
100
AcDbEntity
  8
0
  6
Continuous
 62
     7
100
AcDbPolyline
 90
        3
 70
   128
 43
0.0
 10
6935.7452392578
 20
5291.9275728308
 10
6919.9399339335
 20
5291.4884273989
 10
6909.4012952385
 20
5291.1418793045
  0
LWPOLYLINE
  5
1F2
330
1F
100
AcDbEntity
  8
0
  6
Continuous
 62
     7
100
AcDbPolyline
 90
        3
 70
   128
 43
0.0
 10
6935.7452392578
 20
5290.3400701724
 10
6919.9399338898
 20
5289.9009273848
 10
6909.4012952385
 20
5289.5543766462
  0
LWPOLYLINE
  5
1F3
330
1F
100
AcDbEntity
  8
0
  6
Continuous
 62
     7
100
AcDbPolyline
 90
        7
 70
   128
 43
0.0
 10
6924.9153137207
 20
5297.4392813884
 10
6911.4167624213
 20
5297.1071464641
 10
6910.3024172561
 20
5297.0225398842
 10
6910.2873186305
 20
5297.0157468915
 10
6910.2854234633
 20
5297.0132140296
 10
6910.2852179941
 20
5297.0106876786
 10
6910.3059512538
 20
5296.995614215
  0
LWPOLYLINE
  5
1F4
330
1F
100
AcDbEntity
  8
0
  6
Continuous
 62
     7
100
AcDbPolyline
 90
       15
 70
   128
 43
0.0
 10
6934.9060058594
 20
5296.1938274347
 10
6934.9231612531
 20
5296.1878881778
 10
6934.9261087829
 20
5296.1856540507
 10
6934.9269092836
 20
5296.18341353
 10
6934.9238528635
 20
5296.1800400448
 10
6934.9158953685
 20
5296.1766518823
 10
6934.8862224723
 20
5296.1698341148
 10
6933.8626164902
 20
5296.0950006226
 10
6922.3893840718
 20
5295.8008666219
 10
6911.1611106531
 20
5295.5062940343
 10
6910.2933800492
 20
5295.4318588121
 10
6910.285491894
 20
5295.4258812942
 10
6910.2859530493
 20
5295.4214227647
 10
6910.2904030771
 20
5295.4169796275
 10
6910.3059512538
 20
5295.4081190072
  0
LWPOLYLINE
  5
1F5
330
1F
100
AcDbEntity
  8
0
  6
Continuous
 62
     7
100
AcDbPolyline
 90
       15
 70
   128
 43
0.0
 10
6934.9060058594
 20
5294.6063247763
 10
6934.9231612531
 20
5294.6003855202
 10
6934.9261087829
 20
5294.5981513926
 10
6934.9269092836
 20
5294.5959108706
 10
6934.9238528635
 20
5294.5925373819
 10
6934.9158953686
 20
5294.5891492148
 10
6934.8862224726
 20
5294.5823314356
 10
6933.8626164865
 20
5294.5074981667
 10
6922.3893839978
 20
5294.2133677614
 10
6911.1611106241
 20
5293.9187940442
 10
6910.293380049
 20
5293.8443561664
 10
6910.285491893
 20
5293.8383787258
 10
6910.2859530481
 20
5293.8339202077
 10
6910.2904030762
 20
5293.8294770529
 10
6910.3059512538
 20
5293.8206163489
  0
LWPOLYLINE
  5
1F6
330
1F
100
AcDbEntity
  8
0
  6
Continuous
 62
     7
100
AcDbPolyline
 90
       15
 70
   128
 43
0.0
 10
6934.9060058594
 20
5293.0188295685
 10
6934.9231612529
 20
5293.0128903515
 10
6934.9261087829
 20
5293.0106561965
 10
6934.9269092839
 20
5293.0084156082
 10
6934.9238528647
 20
5293.0050419452
 10
6934.9158953711
 20
5293.0016535219
 10
6934.8862224788
 20
5292.9948350213
 10
6933.8626165573
 20
5292.9199937057
 10
6922.389384075
 20
5292.6258650689
 10
6911.1611106442
 20
5292.3312894277
 10
6910.2933800422
 20
5292.2568608624
 10
6910.2854918885
 20
5292.25088217
 10
6910.285953045
 20
5292.2464223738
 10
6910.2904030742
 20
5292.2419777287
 10
6910.3059512538
 20
5292.2331136905
  0
LWPOLYLINE
  5
1F7
330
1F
100
AcDbEntity
  8
0
  6
Continuous
 62
     7
100
AcDbPolyline
 90
       15
 70
   128
 43
0.0
 10
6934.9060058594
 20
5291.4313269101
 10
6934.9231612531
 20
5291.4253876532
 10
6934.9261087829
 20
5291.4231535262
 10
6934.9269092836
 20
5291.4209130055
 10
6934.9238528635
 20
5291.4175395203
 10
6934.9158953685
 20
5291.4141513578
 10
6934.8862224723
 20
5291.4073335903
 10
6933.8626164902
 20
5291.332500098
 10
6922.3893840718
 20
5291.0383660973
 10
6911.1611106531
 20
5290.7437935098
 10
6910.2933800492
 20
5290.6693582875
 10
6910.285491894
 20
5290.6633807697
 10
6910.2859530493
 20
5290.6589222402
 10
6910.2904030771
 20
5290.654479103
 10
6910.3059512538
 20
5290.6456184827
  0
LWPOLYLINE
  5
1F8
330
1F
100
AcDbEntity
  8
0
  6
Continuous
 62
     7
100
AcDbPolyline
 90
       10
 70
   128
 43
0.0
 10
6934.9060058594
 20
5289.8438317023
 10
6934.9228605313
 20
5289.8380590082
 10
6934.9258903744
 20
5289.8358881311
 10
6934.9269358732
 20
5289.8337115393
 10
6934.924476376
 20
5289.8304350236
 10
6934.9173681757
 20
5289.8271450262
 10
6934.8900714748
 20
5289.8205268113
 10
6933.9179106002
 20
5289.7479060582
 10
6922.9436648203
 20
5289.4617900146
 10
6910.2832782058
 20
5289.0800205313
  0
LWPOLYLINE
  5
1F9
330
1F
100
AcDbEntity
  8
0
  6
Continuous
 62
     7
100
AcDbPolyline
 90
        3
 70
   128
 43
0.0
 10
6586.2426757812
 20
4884.3916621147
 10
6584.6076148936
 20
4880.6577905897
 10
6583.1346316083
 20
4877.4218637584
  0
LWPOLYLINE
  5
1FA
330
1F
100
AcDbEntity
  8
0
  6
Continuous
 62
     7
100
AcDbPolyline
 90
        9
 70
   128
 43
0.0
 10
6609.7984313965
 20
4893.498444998
 10
6618.1597056862
 20
4892.427997116
 10
6625.443683402
 20
4896.6649253133
 10
6628.6026467931
 20
4904.4740170058
 10
6626.2708140315
 20
4912.5657654623
 10
6619.417896411
 20
4917.4552306371
 10
6611.0154075288
 20
4916.9799658497
 10
6604.7946798211
 20
4911.315608359
 10
6603.5859314545
 20
4902.9927257537
  0
LWPOLYLINE
  5
1FB
330
1F
100
AcDbEntity
  8
0
  6
Continuous
 62
     7
100
AcDbPolyline
 90
        3
 70
   128
 43
0.0
 10
6608.7837219238
 20
4895.0880359946
 10
6603.0339008386
 20
4903.3129437061
 10
6603.9099218144
 20
4911.2433012663
  0
LWPOLYLINE
  5
1FC
330
1F
100
AcDbEntity
  8
0
  6
Continuous
 62
     7
100
AcDbPolyline
 90
        3
 70
   128
 43
0.0
 10
6603.5842895508
 20
4902.9927257537
 10
6605.7314600844
 20
4898.0453407546
 10
6608.7844101532
 20
4895.0880359946
  0
ARC
  5
1FD
330
1F
100
AcDbEntity
  8
0
  6
Continuous
 62
     7
100
AcDbCircle
 10
6615.7320420461
 20
4905.3646435005
 30
0.0
 40
13.2043116330636
100
AcDbArc
 50
262.4616004336
 51
153.563388585
  0
LWPOLYLINE
  5
1FE
330
1F
100
AcDbEntity
  8
0
  6
Continuous
 62
     7
100
AcDbPolyline
 90
        3
 70
   128
 43
0.0
 10
6608.7837219238
 20
4895.0880359946
 10
6605.4224672676
 20
4898.5071630293
 10
6603.8587810291
 20
4901.9500188618
  0
POINT
  5
1FF
330
1F
100
AcDbEntity
  8
0
  6
Continuous
 62
     7
100
AcDbPoint
 10
6615.748475539
 20
5177.9058132605
 30
0.0
  0
ENDSEC
  0
SECTION
  2
OBJECTS
  0
DICTIONARY
  5
C
330
0
100
AcDbDictionary
281
     1
  3
ACAD_GROUP
350
D
  3
ACAD_LAYOUT
350
1A
  3
ACAD_MLINESTYLE
350
17
  3
ACAD_PLOTSETTINGS
350
19
  3
ACAD_PLOTSTYLENAME
350
E
  3
ACAD_SCALELIST
350
47
  3
DWGPROPS
350
200
  0
DICTIONARY
  5
D
102
{ACAD_REACTORS
330
C
102
}
330
C
100
AcDbDictionary
281
     1
  0
DICTIONARY
  5
1A
102
{ACAD_REACTORS
330
C
102
}
330
C
100
AcDbDictionary
281
     1
  3
Layout1
350
1E
  3
Layout2
350
26
  3
Model
350
22
  0
DICTIONARY
  5
17
102
{ACAD_REACTORS
330
C
102
}
330
C
100
AcDbDictionary
281
     1
  3
Standard
350
18
  0
DICTIONARY
  5
19
102
{ACAD_REACTORS
330
C
102
}
330
C
100
AcDbDictionary
281
     1
  0
ACDBDICTIONARYWDFLT
  5
E
102
{ACAD_REACTORS
330
C
102
}
330
C
100
AcDbDictionary
281
     1
  3
Normal
350
F
100
AcDbDictionaryWithDefault
340
F
  0
DICTIONARY
  5
47
102
{ACAD_REACTORS
330
C
102
}
330
C
100
AcDbDictionary
281
     1
  3
A0
350
48
  3
A1
350
49
  3
A2
350
4A
  3
A3
350
4B
  3
A4
350
4C
  3
A5
350
4D
  3
A6
350
4E
  3
A7
350
4F
  3
A8
350
50
  3
A9
350
51
  3
B0
350
52
  3
B1
350
53
  3
B2
350
54
  3
B3
350
55
  3
B4
350
56
  3
B5
350
57
  3
B6
350
58
  3
B7
350
59
  3
B8
350
5A
  3
B9
350
5B
  3
C0
350
5C
  3
C1
350
5D
  3
C2
350
5E
  3
C3
350
5F
  3
C4
350
60
  3
C5
350
61
  3
C6
350
62
  3
C7
350
63
  3
C8
350
64
  3
C9
350
65
  3
D0
350
66
  3
D1
350
67
  3
D2
350
68
  0
XRECORD
  5
200
102
{ACAD_REACTORS
330
C
102
}
330
C
100
AcDbXrecord
280
     1
  1
DWGPROPS COOKIE
  2

  3

  4

  6

  7

  8
radek.stransky
  9

300
=
301
=
302
=
303
=
304
=
305
=
306
=
307
=
308
=
309
=
 40
0.0
 41
2459095.386607222
 42
2459095.38666125
  1

 90
        0
  0
LAYOUT
  5
1E
102
{ACAD_REACTORS
330
1A
102
}
330
1A
100
AcDbPlotSettings
  1

  2
none_device
  4

  6

 40
0.0
 41
0.0
 42
0.0
 43
0.0
 44
0.0
 45
0.0
 46
0.0
 47
0.0
 48
0.0
 49
0.0
140
0.0
141
0.0
142
1.0
143
1.0
 70
   688
 72
     1
 73
     0
 74
     5
  7

 75
    16
147
1.0
148
0.0
149
0.0
100
AcDbLayout
  1
Layout1
 70
     1
 71
     1
 10
0.0
 20
0.0
 11
420.0
 21
297.0
 12
0.0
 22
0.0
 32
0.0
 14
1.0000000000E+20
 24
1.0000000000E+20
 34
1.0000000000E+20
 15
-1.0000000000E+20
 25
-1.0000000000E+20
 35
-1.0000000000E+20
146
0.0
 13
0.0
 23
0.0
 33
0.0
 16
1.0
 26
0.0
 36
0.0
 17
0.0
 27
1.0
 37
0.0
 76
     0
330
1B
  0
LAYOUT
  5
26
102
{ACAD_REACTORS
330
1A
102
}
330
1A
100
AcDbPlotSettings
  1

  2
none_device
  4

  6

 40
0.0
 41
0.0
 42
0.0
 43
0.0
 44
0.0
 45
0.0
 46
0.0
 47
0.0
 48
0.0
 49
0.0
140
0.0
141
0.0
142
1.0
143
1.0
 70
   688
 72
     1
 73
     0
 74
     5
  7

 75
    16
147
1.0
148
0.0
149
0.0
100
AcDbLayout
  1
Layout2
 70
     1
 71
     2
 10
0.0
 20
0.0
 11
0.0
 21
0.0
 12
0.0
 22
0.0
 32
0.0
 14
0.0
 24
0.0
 34
0.0
 15
0.0
 25
0.0
 35
0.0
146
0.0
 13
0.0
 23
0.0
 33
0.0
 16
1.0
 26
0.0
 36
0.0
 17
0.0
 27
1.0
 37
0.0
 76
     0
330
23
  0
LAYOUT
  5
22
102
{ACAD_REACTORS
330
1A
102
}
330
1A
100
AcDbPlotSettings
  1

  2
none_device
  4
ANSI_A_(11.00_x_8.50_Inches)
  6

 40
6.35
 41
19.05
 42
6.35000508
 43
19.05000254
 44
279.4
 45
215.9
 46
-3063.1623441898
 47
-2310.8825516752
 48
0.0
 49
0.0
140
0.0
141
0.0
142
0.0186269606
143
1.0
 70
  1696
 72
     0
 73
     0
 74
     0
  7

 75
     0
147
0.0179189148
148
-1300.4909072572
149
0.0
100
AcDbLayout
  1
Model
 70
     1
 71
     0
 10
0.0
 20
0.0
 11
420.0
 21
297.0
 12
0.0
 22
0.0
 32
0.0
 14
6530.7484781189
 24
4846.3154997765
 34
0.0
 15
6981.5947483269
 25
5298.0800238692
 35
0.0
146
0.0
 13
0.0
 23
0.0
 33
0.0
 16
1.0
 26
0.0
 36
0.0
 17
0.0
 27
1.0
 37
0.0
 76
     0
330
1F
331
29
  0
MLINESTYLE
  5
18
102
{ACAD_REACTORS
330
17
102
}
330
17
100
AcDbMlineStyle
  2
Standard
 70
     0
  3

 62
   256
 51
90.0
 52
90.0
 71
     2
 49
0.5
 62
   256
  6
BYLAYER
 49
-0.5
 62
   256
  6
BYLAYER
  0
ACDBPLACEHOLDER
  5
F
102
{ACAD_REACTORS
330
E
102
}
330
E
  0
SCALE
  5
48
102
{ACAD_REACTORS
330
47
102
}
330
47
100
AcDbScale
 70
     0
300
1:1
140
1.0
141
1.0
290
     1
  0
SCALE
  5
49
102
{ACAD_REACTORS
330
47
102
}
330
47
100
AcDbScale
 70
     0
300
1:2
140
1.0
141
2.0
290
     0
  0
SCALE
  5
4A
102
{ACAD_REACTORS
330
47
102
}
330
47
100
AcDbScale
 70
     0
300
1:4
140
1.0
141
4.0
290
     0
  0
SCALE
  5
4B
102
{ACAD_REACTORS
330
47
102
}
330
47
100
AcDbScale
 70
     0
300
1:5
140
1.0
141
5.0
290
     0
  0
SCALE
  5
4C
102
{ACAD_REACTORS
330
47
102
}
330
47
100
AcDbScale
 70
     0
300
1:8
140
1.0
141
8.0
290
     0
  0
SCALE
  5
4D
102
{ACAD_REACTORS
330
47
102
}
330
47
100
AcDbScale
 70
     0
300
1:10
140
1.0
141
10.0
290
     0
  0
SCALE
  5
4E
102
{ACAD_REACTORS
330
47
102
}
330
47
100
AcDbScale
 70
     0
300
1:16
140
1.0
141
16.0
290
     0
  0
SCALE
  5
4F
102
{ACAD_REACTORS
330
47
102
}
330
47
100
AcDbScale
 70
     0
300
1:20
140
1.0
141
20.0
290
     0
  0
SCALE
  5
50
102
{ACAD_REACTORS
330
47
102
}
330
47
100
AcDbScale
 70
     0
300
1:30
140
1.0
141
30.0
290
     0
  0
SCALE
  5
51
102
{ACAD_REACTORS
330
47
102
}
330
47
100
AcDbScale
 70
     0
300
1:40
140
1.0
141
40.0
290
     0
  0
SCALE
  5
52
102
{ACAD_REACTORS
330
47
102
}
330
47
100
AcDbScale
 70
     0
300
1:50
140
1.0
141
50.0
290
     0
  0
SCALE
  5
53
102
{ACAD_REACTORS
330
47
102
}
330
47
100
AcDbScale
 70
     0
300
1:100
140
1.0
141
100.0
290
     0
  0
SCALE
  5
54
102
{ACAD_REACTORS
330
47
102
}
330
47
100
AcDbScale
 70
     0
300
2:1
140
2.0
141
1.0
290
     0
  0
SCALE
  5
55
102
{ACAD_REACTORS
330
47
102
}
330
47
100
AcDbScale
 70
     0
300
4:1
140
4.0
141
1.0
290
     0
  0
SCALE
  5
56
102
{ACAD_REACTORS
330
47
102
}
330
47
100
AcDbScale
 70
     0
300
8:1
140
8.0
141
1.0
290
     0
  0
SCALE
  5
57
102
{ACAD_REACTORS
330
47
102
}
330
47
100
AcDbScale
 70
     0
300
10:1
140
10.0
141
1.0
290
     0
  0
SCALE
  5
58
102
{ACAD_REACTORS
330
47
102
}
330
47
100
AcDbScale
 70
     0
300
100:1
140
100.0
141
1.0
290
     0
  0
SCALE
  5
59
102
{ACAD_REACTORS
330
47
102
}
330
47
100
AcDbScale
 70
     0
300
1/128" = 1'-0"
140
0.0078125
141
12.0
290
     0
  0
SCALE
  5
5A
102
{ACAD_REACTORS
330
47
102
}
330
47
100
AcDbScale
 70
     0
300
1/64" = 1'-0"
140
0.015625
141
12.0
290
     0
  0
SCALE
  5
5B
102
{ACAD_REACTORS
330
47
102
}
330
47
100
AcDbScale
 70
     0
300
1/32" = 1'-0"
140
0.03125
141
12.0
290
     0
  0
SCALE
  5
5C
102
{ACAD_REACTORS
330
47
102
}
330
47
100
AcDbScale
 70
     0
300
1/16" = 1'-0"
140
0.0625
141
12.0
290
     0
  0
SCALE
  5
5D
102
{ACAD_REACTORS
330
47
102
}
330
47
100
AcDbScale
 70
     0
300
3/32" = 1'-0"
140
0.09375
141
12.0
290
     0
  0
SCALE
  5
5E
102
{ACAD_REACTORS
330
47
102
}
330
47
100
AcDbScale
 70
     0
300
1/8" = 1'-0"
140
0.125
141
12.0
290
     0
  0
SCALE
  5
5F
102
{ACAD_REACTORS
330
47
102
}
330
47
100
AcDbScale
 70
     0
300
3/16" = 1'-0"
140
0.1875
141
12.0
290
     0
  0
SCALE
  5
60
102
{ACAD_REACTORS
330
47
102
}
330
47
100
AcDbScale
 70
     0
300
1/4" = 1'-0"
140
0.25
141
12.0
290
     0
  0
SCALE
  5
61
102
{ACAD_REACTORS
330
47
102
}
330
47
100
AcDbScale
 70
     0
300
3/8" = 1'-0"
140
0.375
141
12.0
290
     0
  0
SCALE
  5
62
102
{ACAD_REACTORS
330
47
102
}
330
47
100
AcDbScale
 70
     0
300
1/2" = 1'-0"
140
0.5
141
12.0
290
     0
  0
SCALE
  5
63
102
{ACAD_REACTORS
330
47
102
}
330
47
100
AcDbScale
 70
     0
300
3/4" = 1'-0"
140
0.75
141
12.0
290
     0
  0
SCALE
  5
64
102
{ACAD_REACTORS
330
47
102
}
330
47
100
AcDbScale
 70
     0
300
1" = 1'-0"
140
1.0
141
12.0
290
     0
  0
SCALE
  5
65
102
{ACAD_REACTORS
330
47
102
}
330
47
100
AcDbScale
 70
     0
300
1-1/2" = 1'-0"
140
1.5
141
12.0
290
     0
  0
SCALE
  5
66
102
{ACAD_REACTORS
330
47
102
}
330
47
100
AcDbScale
 70
     0
300
3" = 1'-0"
140
3.0
141
12.0
290
     0
  0
SCALE
  5
67
102
{ACAD_REACTORS
330
47
102
}
330
47
100
AcDbScale
 70
     0
300
6" = 1'-0"
140
6.0
141
12.0
290
     0
  0
SCALE
  5
68
102
{ACAD_REACTORS
330
47
102
}
330
47
100
AcDbScale
 70
     0
300
1'-0" = 1'-0"
140
12.0
141
12.0
290
     0
  0
ENDSEC
  0
EOF
