  0
SECTION
  2
HEADER
  9
$ACADVER
  1
AC1015
  9
$ACADMAINTVER
 70
     6
  9
$DWGCODEPAGE
  3
ANSI_1250
  9
$INSBASE
 10
0.0
 20
0.0
 30
0.0
  9
$EXTMIN
 10
7610.7196207132
 20
4744.1861348878
 30
0.0
  9
$EXTMAX
 10
8158.6564029906
 20
5283.2313514784
 30
0.0
  9
$LIMMIN
 10
0.0
 20
0.0
  9
$LIMMAX
 10
420.0
 20
297.0
  9
$ORTHOMODE
 70
     0
  9
$REGENMODE
 70
     1
  9
$FILLMODE
 70
     1
  9
$QTEXTMODE
 70
     0
  9
$MIRRTEXT
 70
     1
  9
$LTSCALE
 40
1.0
  9
$ATTMODE
 70
     1
  9
$TEXTSIZE
 40
3.5
  9
$TRACEWID
 40
1.0
  9
$TEXTSTYLE
  7
Standard
  9
$CLAYER
  8
0
  9
$CELTYPE
  6
ByLayer
  9
$CECOLOR
 62
   256
  9
$CELTSCALE
 40
1.0
  9
$DISPSILH
 70
     0
  9
$DIMSCALE
 40
1.0
  9
$DIMASZ
 40
3.302
  9
$DIMEXO
 40
0.0
  9
$DIMDLI
 40
3.75
  9
$DIMRND
 40
0.0
  9
$DIMDLE
 40
0.0
  9
$DIMEXE
 40
1.0
  9
$DIMTP
 40
0.0
  9
$DIMTM
 40
0.0
  9
$DIMTXT
 40
3.5
  9
$DIMCEN
 40
2.5
  9
$DIMTSZ
 40
0.0
  9
$DIMTOL
 70
     0
  9
$DIMLIM
 70
     0
  9
$DIMTIH
 70
     1
  9
$DIMTOH
 70
     1
  9
$DIMSE1
 70
     0
  9
$DIMSE2
 70
     0
  9
$DIMTAD
 70
     1
  9
$DIMZIN
 70
     0
  9
$DIMBLK
  1

  9
$DIMASO
 70
     1
  9
$DIMSHO
 70
     1
  9
$DIMPOST
  1

  9
$DIMAPOST
  1

  9
$DIMALT
 70
     0
  9
$DIMALTD
 70
     3
  9
$DIMALTF
 40
0.0393700787
  9
$DIMLFAC
 40
1.0
  9
$DIMTOFL
 70
     1
  9
$DIMTVP
 40
0.0
  9
$DIMTIX
 70
     0
  9
$DIMSOXD
 70
     0
  9
$DIMSAH
 70
     0
  9
$DIMBLK1
  1

  9
$DIMBLK2
  1

  9
$DIMSTYLE
  2
ISO-25
  9
$DIMCLRD
 70
     0
  9
$DIMCLRE
 70
     0
  9
$DIMCLRT
 70
     0
  9
$DIMTFAC
 40
1.0
  9
$DIMGAP
 40
1.524
  9
$DIMJUST
 70
     0
  9
$DIMSD1
 70
     0
  9
$DIMSD2
 70
     0
  9
$DIMTOLJ
 70
     0
  9
$DIMTZIN
 70
     0
  9
$DIMALTZ
 70
     0
  9
$DIMALTTZ
 70
     0
  9
$DIMUPT
 70
     0
  9
$DIMDEC
 70
     2
  9
$DIMTDEC
 70
     2
  9
$DIMALTU
 70
     2
  9
$DIMALTTD
 70
     3
  9
$DIMTXSTY
  7
Standard
  9
$DIMAUNIT
 70
     0
  9
$DIMADEC
 70
     2
  9
$DIMALTRND
 40
0.0
  9
$DIMAZIN
 70
     0
  9
$DIMDSEP
 70
    44
  9
$DIMATFIT
 70
     3
  9
$DIMFRAC
 70
     0
  9
$DIMLDRBLK
  1

  9
$DIMLUNIT
 70
     2
  9
$DIMLWD
 70
    -2
  9
$DIMLWE
 70
    -2
  9
$DIMTMOVE
 70
     0
  9
$LUNITS
 70
     2
  9
$LUPREC
 70
     2
  9
$SKETCHINC
 40
1.0
  9
$FILLETRAD
 40
10.0
  9
$AUNITS
 70
     0
  9
$AUPREC
 70
     2
  9
$MENU
  1
.
  9
$ELEVATION
 40
0.0
  9
$PELEVATION
 40
0.0
  9
$THICKNESS
 40
0.0
  9
$LIMCHECK
 70
     0
  9
$CHAMFERA
 40
0.0
  9
$CHAMFERB
 40
0.0
  9
$CHAMFERC
 40
0.0
  9
$CHAMFERD
 40
0.0
  9
$SKPOLY
 70
     0
  9
$TDCREATE
 40
2459095.54991059
  9
$TDUCREATE
 40
2459095.466577257
  9
$TDUPDATE
 40
2459095.550287026
  9
$TDUUPDATE
 40
2459095.466953692
  9
$TDINDWG
 40
0.0000000116
  9
$TDUSRTIMER
 40
0.0000000116
  9
$USRTIMER
 70
     1
  9
$ANGBASE
 50
0.0
  9
$ANGDIR
 70
     0
  9
$PDMODE
 70
     0
  9
$PDSIZE
 40
-1.0
  9
$PLINEWID
 40
0.0
  9
$SPLFRAME
 70
     0
  9
$SPLINETYPE
 70
     6
  9
$SPLINESEGS
 70
     8
  9
$HANDSEED
  5
50B
  9
$SURFTAB1
 70
     6
  9
$SURFTAB2
 70
     6
  9
$SURFTYPE
 70
     6
  9
$SURFU
 70
     6
  9
$SURFV
 70
     6
  9
$UCSBASE
  2

  9
$UCSNAME
  2

  9
$UCSORG
 10
0.0
 20
0.0
 30
0.0
  9
$UCSXDIR
 10
1.0
 20
0.0
 30
0.0
  9
$UCSYDIR
 10
0.0
 20
1.0
 30
0.0
  9
$UCSORTHOREF
  2

  9
$UCSORTHOVIEW
 70
     0
  9
$UCSORGTOP
 10
0.0
 20
0.0
 30
0.0
  9
$UCSORGBOTTOM
 10
0.0
 20
0.0
 30
0.0
  9
$UCSORGLEFT
 10
0.0
 20
0.0
 30
0.0
  9
$UCSORGRIGHT
 10
0.0
 20
0.0
 30
0.0
  9
$UCSORGFRONT
 10
0.0
 20
0.0
 30
0.0
  9
$UCSORGBACK
 10
0.0
 20
0.0
 30
0.0
  9
$PUCSBASE
  2

  9
$PUCSNAME
  2

  9
$PUCSORG
 10
0.0
 20
0.0
 30
0.0
  9
$PUCSXDIR
 10
1.0
 20
0.0
 30
0.0
  9
$PUCSYDIR
 10
0.0
 20
1.0
 30
0.0
  9
$PUCSORTHOREF
  2

  9
$PUCSORTHOVIEW
 70
     0
  9
$PUCSORGTOP
 10
0.0
 20
0.0
 30
0.0
  9
$PUCSORGBOTTOM
 10
0.0
 20
0.0
 30
0.0
  9
$PUCSORGLEFT
 10
0.0
 20
0.0
 30
0.0
  9
$PUCSORGRIGHT
 10
0.0
 20
0.0
 30
0.0
  9
$PUCSORGFRONT
 10
0.0
 20
0.0
 30
0.0
  9
$PUCSORGBACK
 10
0.0
 20
0.0
 30
0.0
  9
$USERI1
 70
     0
  9
$USERI2
 70
     0
  9
$USERI3
 70
     0
  9
$USERI4
 70
     0
  9
$USERI5
 70
     0
  9
$USERR1
 40
0.0
  9
$USERR2
 40
0.0
  9
$USERR3
 40
0.0
  9
$USERR4
 40
0.0
  9
$USERR5
 40
0.0
  9
$WORLDVIEW
 70
     1
  9
$SHADEDGE
 70
     3
  9
$SHADEDIF
 70
    70
  9
$TILEMODE
 70
     1
  9
$MAXACTVP
 70
    64
  9
$PINSBASE
 10
0.0
 20
0.0
 30
0.0
  9
$PLIMCHECK
 70
     0
  9
$PEXTMIN
 10
1.0000000000E+20
 20
1.0000000000E+20
 30
1.0000000000E+20
  9
$PEXTMAX
 10
-1.0000000000E+20
 20
-1.0000000000E+20
 30
-1.0000000000E+20
  9
$PLIMMIN
 10
0.0
 20
0.0
  9
$PLIMMAX
 10
420.0
 20
297.0
  9
$UNITMODE
 70
     0
  9
$VISRETAIN
 70
     1
  9
$PLINEGEN
 70
     0
  9
$PSLTSCALE
 70
     1
  9
$TREEDEPTH
 70
  3020
  9
$CMLSTYLE
  2
Standard
  9
$CMLJUST
 70
     0
  9
$CMLSCALE
 40
20.0
  9
$PROXYGRAPHICS
 70
     1
  9
$MEASUREMENT
 70
     1
  9
$CELWEIGHT
370
    -1
  9
$ENDCAPS
280
     0
  9
$JOINSTYLE
280
     0
  9
$LWDISPLAY
290
     1
  9
$INSUNITS
 70
     4
  9
$HYPERLINKBASE
  1

  9
$STYLESHEET
  1

  9
$XEDIT
290
     1
  9
$CEPSNTYPE
380
     0
  9
$PSTYLEMODE
290
     1
  9
$FINGERPRINTGUID
  2
{4a97e0e6-d104-4756-8dd9-46ca6a351b31}
  9
$VERSIONGUID
  2
{FAEB1C32-E019-11D5-929B-00C0DF256EC4}
  9
$EXTNAMES
290
     1
  9
$PSVPSCALE
 40
0.0
  9
$OLESTARTUP
290
     0
  0
ENDSEC
  0
SECTION
  2
CLASSES
  0
CLASS
  1
ACDBDICTIONARYWDFLT
  2
AcDbDictionaryWithDefault
  3
ObjectDBX Classes
 90
        0
280
     0
281
     0
  0
CLASS
  1
VISUALSTYLE
  2
AcDbVisualStyle
  3
ObjectDBX Classes
 90
     4095
280
     0
281
     0
  0
CLASS
  1
MATERIAL
  2
AcDbMaterial
  3
ObjectDBX Classes
 90
     1153
280
     0
281
     0
  0
CLASS
  1
SCALE
  2
AcDbScale
  3
ObjectDBX Classes
 90
     1153
280
     0
281
     0
  0
CLASS
  1
TABLESTYLE
  2
AcDbTableStyle
  3
ObjectDBX Classes
 90
     4095
280
     0
281
     0
  0
CLASS
  1
MLEADERSTYLE
  2
AcDbMLeaderStyle
  3
ACDB_MLEADERSTYLE_CLASS
 90
     4095
280
     0
281
     0
  0
CLASS
  1
SUN
  2
AcDbSun
  3
SCENEOE
 90
     1153
280
     0
281
     0
  0
CLASS
  1
ACDBPLACEHOLDER
  2
AcDbPlaceHolder
  3
ObjectDBX Classes
 90
        0
280
     0
281
     0
  0
CLASS
  1
LAYOUT
  2
AcDbLayout
  3
ObjectDBX Classes
 90
        0
280
     0
281
     0
  0
ENDSEC
  0
SECTION
  2
TABLES
  0
TABLE
  2
VPORT
  5
8
330
0
100
AcDbSymbolTable
 70
     1
  0
VPORT
  5
29
330
8
100
AcDbSymbolTableRecord
100
AcDbViewportTableRecord
  2
*Active
 70
     0
 10
0.0
 20
0.0
 11
1.0
 21
1.0
 12
7884.6880118519
 22
5013.7087431831
 13
0.0
 23
0.0
 14
10.0
 24
10.0
 15
10.0
 25
10.0
 16
0.0
 26
0.0
 36
1.0
 17
0.0
 27
0.0
 37
0.0
 40
549.8261209223
 41
1.0164950275
 42
50.0
 43
0.0
 44
0.0
 50
0.0
 51
0.0
 71
     0
 72
   100
 73
     1
 74
     3
 75
     0
 76
     0
 77
     0
 78
     0
281
     0
 65
     1
110
0.0
120
0.0
130
0.0
111
1.0
121
0.0
131
0.0
112
0.0
122
1.0
132
0.0
 79
     0
146
0.0
  0
ENDTAB
  0
TABLE
  2
LTYPE
  5
5
330
0
100
AcDbSymbolTable
 70
     6
  0
LTYPE
  5
14
330
5
100
AcDbSymbolTableRecord
100
AcDbLinetypeTableRecord
  2
ByBlock
 70
     0
  3

 72
    65
 73
     0
 40
0.0
  0
LTYPE
  5
15
330
5
100
AcDbSymbolTableRecord
100
AcDbLinetypeTableRecord
  2
ByLayer
 70
     0
  3

 72
    65
 73
     0
 40
0.0
  0
LTYPE
  5
16
330
5
100
AcDbSymbolTableRecord
100
AcDbLinetypeTableRecord
  2
Continuous
 70
     0
  3
Solid line
 72
    65
 73
     0
 40
0.0
  0
LTYPE
  5
6E
330
5
100
AcDbSymbolTableRecord
100
AcDbLinetypeTableRecord
  2
HIDDEN
 70
     0
  3
Hidden __ __ __ __ __ __ __ __ __ __ __ __ __ __
 72
    65
 73
     2
 40
1.905
 49
1.27
 74
     0
 49
-0.635
 74
     0
  0
LTYPE
  5
6F
330
5
100
AcDbSymbolTableRecord
100
AcDbLinetypeTableRecord
  2
PHANTOM
 70
     0
  3
Phantom ______  __  __  ______  __  __  ______
 72
    65
 73
     6
 40
12.7
 49
6.35
 74
     0
 49
-1.27
 74
     0
 49
1.27
 74
     0
 49
-1.27
 74
     0
 49
1.27
 74
     0
 49
-1.27
 74
     0
  0
LTYPE
  5
70
330
5
100
AcDbSymbolTableRecord
100
AcDbLinetypeTableRecord
  2
CENTER
 70
     0
  3
Center ____ _ ____ _ ____ _ ____ _ ____ _ ____
 72
    65
 73
     4
 40
10.16
 49
6.35
 74
     0
 49
-1.27
 74
     0
 49
1.27
 74
     0
 49
-1.27
 74
     0
  0
LTYPE
  5
71
330
5
100
AcDbSymbolTableRecord
100
AcDbLinetypeTableRecord
  2
CENTERX2
 70
     0
  3
Center (2x) ________  __  ________  __  _____
 72
    65
 73
     4
 40
20.32
 49
12.7
 74
     0
 49
-2.54
 74
     0
 49
2.54
 74
     0
 49
-2.54
 74
     0
  0
LTYPE
  5
72
330
5
100
AcDbSymbolTableRecord
100
AcDbLinetypeTableRecord
  2
DOT2
 70
     0
  3
Dot (.5x) ........................................
 72
    65
 73
     2
 40
0.635
 49
0.0
 74
     0
 49
-0.635
 74
     0
  0
ENDTAB
  0
TABLE
  2
LAYER
  5
2
330
0
100
AcDbSymbolTable
 70
     1
  0
LAYER
  5
10
330
2
100
AcDbSymbolTableRecord
100
AcDbLayerTableRecord
  2
0
 70
     0
 62
     7
  6
Continuous
370
    -3
390
F
  0
ENDTAB
  0
TABLE
  2
STYLE
  5
3
330
0
100
AcDbSymbolTable
 70
     1
  0
STYLE
  5
11
330
3
100
AcDbSymbolTableRecord
100
AcDbTextStyleTableRecord
  2
Standard
 70
     0
 40
0.0
 41
1.0
 50
0.0
 71
     0
 42
3.5
  3
txt
  4

  0
ENDTAB
  0
TABLE
  2
VIEW
  5
6
330
0
100
AcDbSymbolTable
 70
     0
  0
ENDTAB
  0
TABLE
  2
UCS
  5
7
330
0
100
AcDbSymbolTable
 70
     0
  0
ENDTAB
  0
TABLE
  2
APPID
  5
9
330
0
100
AcDbSymbolTable
 70
     1
  0
APPID
  5
12
330
9
100
AcDbSymbolTableRecord
100
AcDbRegAppTableRecord
  2
ACAD
 70
     0
  0
ENDTAB
  0
TABLE
  2
DIMSTYLE
  5
A
330
0
100
AcDbSymbolTable
 70
     1
100
AcDbDimStyleTable
  0
DIMSTYLE
105
27
330
A
100
AcDbSymbolTableRecord
100
AcDbDimStyleTableRecord
  2
ISO-25
 70
     0
 41
2.5
 42
0.625
 43
3.75
 44
1.25
 73
     0
 74
     0
 77
     1
 78
     8
140
2.5
141
2.5
143
0.0393700787
147
0.625
171
     3
172
     1
178
     0
271
     2
272
     2
274
     3
278
    44
283
     0
284
     8
340
11
  0
ENDTAB
  0
TABLE
  2
BLOCK_RECORD
  5
1
330
0
100
AcDbSymbolTable
 70
     1
  0
BLOCK_RECORD
  5
1F
330
1
100
AcDbSymbolTableRecord
100
AcDbBlockTableRecord
  2
*Model_Space
340
22
  0
BLOCK_RECORD
  5
1B
330
1
100
AcDbSymbolTableRecord
100
AcDbBlockTableRecord
  2
*Paper_Space
340
1E
  0
BLOCK_RECORD
  5
23
330
1
100
AcDbSymbolTableRecord
100
AcDbBlockTableRecord
  2
*Paper_Space0
340
26
  0
ENDTAB
  0
ENDSEC
  0
SECTION
  2
BLOCKS
  0
BLOCK
  5
20
330
1F
100
AcDbEntity
  8
0
100
AcDbBlockBegin
  2
*Model_Space
 70
     0
 10
0.0
 20
0.0
 30
0.0
  3
*Model_Space
  1

  0
ENDBLK
  5
21
330
1F
100
AcDbEntity
  8
0
100
AcDbBlockEnd
  0
BLOCK
  5
1C
330
1B
100
AcDbEntity
 67
     1
  8
0
100
AcDbBlockBegin
  2
*Paper_Space
 70
     0
 10
0.0
 20
0.0
 30
0.0
  3
*Paper_Space
  1

  0
ENDBLK
  5
1D
330
1B
100
AcDbEntity
 67
     1
  8
0
100
AcDbBlockEnd
  0
BLOCK
  5
24
330
23
100
AcDbEntity
  8
0
100
AcDbBlockBegin
  2
*Paper_Space0
 70
     0
 10
0.0
 20
0.0
 30
0.0
  3
*Paper_Space0
  1

  0
ENDBLK
  5
25
330
23
100
AcDbEntity
  8
0
100
AcDbBlockEnd
  0
ENDSEC
  0
SECTION
  2
ENTITIES
  0
ARC
  5
73
330
1F
100
AcDbEntity
  8
0
  6
Continuous
 62
     7
100
AcDbCircle
 10
7707.4646381759
 20
5117.783774555
 30
0.0
 40
7.311104705564689
100
AcDbArc
 50
273.1513857932
 51
304.7726165219
  0
ARC
  5
74
330
1F
100
AcDbEntity
  8
0
  6
Continuous
 62
     7
100
AcDbCircle
 10
7708.4647036288
 20
5117.7703216919
 30
0.0
 40
7.311104705565943
100
AcDbArc
 50
233.6859913296
 51
265.3072235108
  0
CIRCLE
  5
75
330
1F
100
AcDbEntity
  8
0
  6
Continuous
 62
     7
100
AcDbCircle
 10
7767.6395647383
 20
5124.9177875425
 30
0.0
 40
0.5814415000004374
  0
CIRCLE
  5
76
330
1F
100
AcDbEntity
  8
0
  6
Continuous
 62
     7
100
AcDbCircle
 10
7767.6395647383
 20
5124.9177875425
 30
0.0
 40
0.505037099999754
  0
ARC
  5
77
330
1F
100
AcDbEntity
  8
0
  6
Continuous
 62
     7
100
AcDbCircle
 10
7783.2196273442
 20
5108.7313529014
 30
0.0
 40
10.0
100
AcDbArc
 50
270.0000012805
 51
0.0000307363
  0
ARC
  5
78
330
1F
100
AcDbEntity
  8
0
  6
Continuous
 62
     7
100
AcDbCircle
 10
7783.2196273442
 20
5258.7313509643
 30
0.0
 40
10.00000000000022
100
AcDbArc
 50
0.000011953
 51
89.9999987194
  0
ARC
  5
79
330
1F
100
AcDbEntity
  8
0
  6
Continuous
 62
     7
100
AcDbCircle
 10
7633.2196236934
 20
5258.7313509643
 30
0.0
 40
10.00000000000022
100
AcDbArc
 50
89.9999692642
 51
179.999988047
  0
ARC
  5
7A
330
1F
100
AcDbEntity
  8
0
  6
Continuous
 62
     7
100
AcDbCircle
 10
7633.2196236934
 20
5108.7313529014
 30
0.0
 40
10.00000000000053
100
AcDbArc
 50
179.9999692637
 51
270.0000307358
  0
CIRCLE
  5
7B
330
1F
100
AcDbEntity
  8
0
  6
Continuous
 62
     7
100
AcDbCircle
 10
7708.2196267383
 20
5215.2313514425
 30
0.0
 40
12.5
  0
CIRCLE
  5
7C
330
1F
100
AcDbEntity
  8
0
  6
Continuous
 62
     7
100
AcDbCircle
 10
7708.2196267383
 20
5215.2313514425
 30
0.0
 40
14.0
  0
ARC
  5
7D
330
1F
100
AcDbEntity
  8
0
  6
Continuous
 62
     7
100
AcDbCircle
 10
7706.2126579669
 20
5223.9734669685
 30
0.0
 40
1.617040694900425
100
AcDbArc
 50
0.0
 51
180.0
  0
ARC
  5
7E
330
1F
100
AcDbEntity
  8
0
  6
Continuous
 62
     7
100
AcDbCircle
 10
7702.7505687571
 20
5214.6473836174
 30
0.0
 40
2.56901288587282
100
AcDbArc
 50
44.0944617505
 51
105.4943265024
  0
ARC
  5
7F
330
1F
100
AcDbEntity
  8
0
  6
Continuous
 62
     7
100
AcDbCircle
 10
7708.3868053445
 20
5211.7019183721
 30
0.0
 40
6.32253028090842
100
AcDbArc
 50
179.9999749075
 51
270.0000232396
  0
ARC
  5
80
330
1F
100
AcDbEntity
  8
0
  6
Continuous
 62
     7
100
AcDbCircle
 10
7710.7540335292
 20
5209.934988595
 30
0.0
 40
4.555600503813227
100
AcDbArc
 50
270.0000333207
 51
359.9999666806
  0
ARC
  5
81
330
1F
100
AcDbEntity
  8
0
  6
Continuous
 62
     7
100
AcDbCircle
 10
7713.9560227868
 20
5217.7717629278
 30
0.0
 40
1.353611246209856
100
AcDbArc
 50
359.9998734155
 51
90.0000962051
  0
ARC
  5
82
330
1F
100
AcDbEntity
  8
0
  6
Continuous
 62
     7
100
AcDbCircle
 10
7713.4618028646
 20
5217.7717629279
 30
0.0
 40
1.353611246208955
100
AcDbArc
 50
90.0003878974
 51
118.7368274802
  0
ARC
  5
83
330
1F
100
AcDbEntity
  8
0
  6
Continuous
 62
     7
100
AcDbCircle
 10
7711.4785371818
 20
5218.7203410471
 30
0.0
 40
1.353611246208798
100
AcDbArc
 50
10.1404325983
 51
89.9999419722
  0
ARC
  5
84
330
1F
100
AcDbEntity
  8
0
  6
Continuous
 62
     7
100
AcDbCircle
 10
7708.4593463207
 20
5219.2294913733
 30
0.0
 40
1.353611246209161
100
AcDbArc
 50
89.9999615966
 51
117.7206660028
  0
ARC
  5
85
330
1F
100
AcDbEntity
  8
0
  6
Continuous
 62
     7
100
AcDbCircle
 10
7708.9159615738
 20
5219.2294913733
 30
0.0
 40
1.353611246208423
100
AcDbArc
 50
26.4593944197
 51
89.9999180237
  0
ARC
  5
86
330
1F
100
AcDbEntity
  8
0
  6
Continuous
 62
     7
100
AcDbCircle
 10
7710.8992219412
 20
5218.7203410471
 30
0.0
 40
1.353611246208915
100
AcDbArc
 50
90.0001389567
 51
124.7440957863
  0
ARC
  5
87
330
1F
100
AcDbEntity
  8
0
  6
Continuous
 62
     7
100
AcDbCircle
 10
7712.4701659169
 20
5216.3026248574
 30
0.0
 40
0.6676167249497666
100
AcDbArc
 50
180.0
 51
0.0
  0
ARC
  5
88
330
1F
100
AcDbEntity
  8
0
  6
Continuous
 62
     7
100
AcDbCircle
 10
7704.9575964894
 20
5212.6929601192
 30
0.0
 40
0.6676167250006984
100
AcDbArc
 50
180.0
 51
0.0
  0
ARC
  5
89
330
1F
100
AcDbEntity
  8
0
  6
Continuous
 62
     7
100
AcDbCircle
 10
7707.4677194443
 20
5216.3026248574
 30
0.0
 40
0.6676167249497666
100
AcDbArc
 50
180.0
 51
0.0
  0
ARC
  5
8A
330
1F
100
AcDbEntity
  8
0
  6
Continuous
 62
     7
100
AcDbCircle
 10
7706.2126579669
 20
5223.9734669685
 30
0.0
 40
0.5874447524502102
100
AcDbArc
 50
0.0
 51
180.0
  0
ARC
  5
8B
330
1F
100
AcDbEntity
  8
0
  6
Continuous
 62
     7
100
AcDbCircle
 10
7708.3868053445
 20
5211.7019183721
 30
0.0
 40
5.292927144485187
100
AcDbArc
 50
179.9999722397
 51
270.0000277603
  0
ARC
  5
8C
330
1F
100
AcDbEntity
  8
0
  6
Continuous
 62
     7
100
AcDbCircle
 10
7710.7540335292
 20
5209.934988595
 30
0.0
 40
3.525997367389295
100
AcDbArc
 50
270.0000430505
 51
359.9999569511
  0
ARC
  5
8D
330
1F
100
AcDbEntity
  8
0
  6
Continuous
 62
     7
100
AcDbCircle
 10
7702.7505687571
 20
5214.6473836174
 30
0.0
 40
1.539411007311741
100
AcDbArc
 50
359.9999219468
 51
77.1139074998
  0
ARC
  5
8E
330
1F
100
AcDbEntity
  8
0
  6
Continuous
 62
     7
100
AcDbCircle
 10
7710.8153177159
 20
5218.7345015594
 30
0.0
 40
0.2401101162869503
100
AcDbArc
 50
90.000060941
 51
179.999939059
  0
ARC
  5
8F
330
1F
100
AcDbEntity
  8
0
  6
Continuous
 62
     7
100
AcDbCircle
 10
7709.9075908747
 20
5216.3026248574
 30
0.0
 40
0.6676167249506761
100
AcDbArc
 50
180.0
 51
0.0
  0
ARC
  5
90
330
1F
100
AcDbEntity
  8
0
  6
Continuous
 62
     7
100
AcDbCircle
 10
7714.0399207803
 20
5217.8181546518
 30
0.0
 40
0.2401101162873604
100
AcDbArc
 50
0.0000121511
 51
89.9998778224
  0
ARC
  5
91
330
1F
100
AcDbEntity
  8
0
  6
Continuous
 62
     7
100
AcDbCircle
 10
7713.3778927581
 20
5217.8181546518
 30
0.0
 40
0.2401101162869503
100
AcDbArc
 50
90.0000609412
 51
179.9999390588
  0
ARC
  5
92
330
1F
100
AcDbEntity
  8
0
  6
Continuous
 62
     7
100
AcDbCircle
 10
7711.5624390756
 20
5218.7345015594
 30
0.0
 40
0.2401101162878597
100
AcDbArc
 50
0.000060941
 51
89.9999390588
  0
ARC
  5
93
330
1F
100
AcDbEntity
  8
0
  6
Continuous
 62
     7
100
AcDbCircle
 10
7708.3754462855
 20
5219.2436593363
 30
0.0
 40
0.2401101162869503
100
AcDbArc
 50
90.000060941
 51
179.9999390588
  0
ARC
  5
94
330
1F
100
AcDbEntity
  8
0
  6
Continuous
 62
     7
100
AcDbCircle
 10
7708.9998640334
 20
5219.2436593363
 30
0.0
 40
0.2401101162869503
100
AcDbArc
 50
0.0000609412
 51
89.9999390588
  0
CIRCLE
  5
95
330
1F
100
AcDbEntity
  8
0
  6
Continuous
 62
     7
100
AcDbCircle
 10
7708.2196267383
 20
5136.7313514425
 30
0.0
 40
24.54999999999927
  0
CIRCLE
  5
96
330
1F
100
AcDbEntity
  8
0
  6
Continuous
 62
     7
100
AcDbCircle
 10
7708.2196267383
 20
5136.7313514425
 30
0.0
 40
26.94999999999982
  0
CIRCLE
  5
97
330
1F
100
AcDbEntity
  8
0
  6
Continuous
 62
     7
100
AcDbCircle
 10
7708.2196267383
 20
5136.7313514425
 30
0.0
 40
28.44999999999891
  0
ARC
  5
98
330
1F
100
AcDbEntity
  8
0
  6
Continuous
 62
     7
100
AcDbCircle
 10
8064.4063980429
 20
5101.8313471317
 30
0.0
 40
0.8000000000013362
100
AcDbArc
 50
180.0000973313
 51
269.9999026688
  0
ARC
  5
99
330
1F
100
AcDbEntity
  8
0
  6
Continuous
 62
     7
100
AcDbCircle
 10
8076.0063979714
 20
5101.8313471317
 30
0.0
 40
0.8000000000022457
100
AcDbArc
 50
270.0000973311
 51
359.9999026687
  0
ARC
  5
9A
330
1F
100
AcDbEntity
  8
0
  6
Continuous
 62
     7
100
AcDbCircle
 10
8127.5759581645
 20
5135.7711156823
 30
0.0
 40
31.09527461368608
100
AcDbArc
 50
1.7696002031
 51
55.1237833147
  0
ARC
  5
9B
330
1F
100
AcDbEntity
  8
0
  6
Continuous
 62
     7
100
AcDbCircle
 10
8127.5759579442
 20
5137.6915800727
 30
0.0
 40
31.09527461368439
100
AcDbArc
 50
304.8762171801
 51
358.2304129408
  0
ARC
  5
9C
330
1F
100
AcDbEntity
  8
0
  6
Continuous
 62
     7
100
AcDbCircle
 10
8115.7563897936
 20
5109.7813580988
 30
0.0
 40
1.499999999999716
100
AcDbArc
 50
270.00073766
 51
359.9998315246
  0
ARC
  5
9D
330
1F
100
AcDbEntity
  8
0
  6
Continuous
 62
     7
100
AcDbCircle
 10
8115.7563897936
 20
5163.6813527108
 30
0.0
 40
1.500000000000625
100
AcDbArc
 50
0.0001684754
 51
89.99926234
  0
ARC
  5
9E
330
1F
100
AcDbEntity
  8
0
  6
Continuous
 62
     7
100
AcDbCircle
 10
8104.9563955634
 20
5108.7313529013
 30
0.0
 40
10.00000000000091
100
AcDbArc
 50
270.0000546413
 51
0.0000307363
  0
ARC
  5
9F
330
1F
100
AcDbEntity
  8
0
  6
Continuous
 62
     7
100
AcDbCircle
 10
8104.9563955634
 20
5258.7313509643
 30
0.0
 40
10.00000000000204
100
AcDbArc
 50
0.000011953
 51
89.9999453587
  0
ARC
  5
A0
330
1F
100
AcDbEntity
  8
0
  6
Continuous
 62
     7
100
AcDbCircle
 10
8057.4837568493
 20
5131.3534534836
 30
0.0
 40
0.8500000000016112
100
AcDbArc
 50
84.045024391
 51
153.6031564101
  0
ARC
  5
A1
330
1F
100
AcDbEntity
  8
0
  6
Continuous
 62
     7
100
AcDbCircle
 10
8050.510371524
 20
5131.9863020742
 30
0.0
 40
0.8500000000002798
100
AcDbArc
 50
14.9215149176
 51
85.583973245
  0
ARC
  5
A2
330
1F
100
AcDbEntity
  8
0
  6
Continuous
 62
     7
100
AcDbCircle
 10
8138.6584853033
 20
5011.8588461341
 30
0.0
 40
100.0391673163492
100
AcDbArc
 50
87.8532882077
 51
92.1489889495
  0
ARC
  5
A3
330
1F
100
AcDbEntity
  8
0
  6
Continuous
 62
     7
100
AcDbCircle
 10
8138.656394419
 20
5009.5037218105
 30
0.0
 40
102.7483025340421
100
AcDbArc
 50
87.9084160889
 51
92.0915839111
  0
CIRCLE
  5
A4
330
1F
100
AcDbEntity
  8
0
  6
Continuous
 62
     7
100
AcDbCircle
 10
8054.4564026079
 20
5136.7313517848
 30
0.0
 40
5.500000000000195
  0
CIRCLE
  5
A5
330
1F
100
AcDbEntity
  8
0
  6
Continuous
 62
     7
100
AcDbCircle
 10
8054.4564026079
 20
5136.7313517848
 30
0.0
 40
9.499999999999156
  0
ARC
  5
A6
330
1F
100
AcDbEntity
  8
0
  6
Continuous
 62
     7
100
AcDbCircle
 10
8054.4564026079
 20
5136.7313517848
 30
0.0
 40
13.22049963695613
100
AcDbArc
 50
3.1797354543
 51
93.1797353334
  0
CIRCLE
  5
A7
330
1F
100
AcDbEntity
  8
0
  6
Continuous
 62
     7
100
AcDbCircle
 10
8054.4564026079
 20
5136.7313517848
 30
0.0
 40
11.72049999999941
  0
CIRCLE
  5
A8
330
1F
100
AcDbEntity
  8
0
  6
Continuous
 62
     7
100
AcDbCircle
 10
8054.4564026079
 20
5136.7313517848
 30
0.0
 40
9.749999999999451
  0
ARC
  5
A9
330
1F
100
AcDbEntity
  8
0
  6
Continuous
 62
     7
100
AcDbCircle
 10
8037.4564058154
 20
5104.7313461064
 30
0.0
 40
2.000000000000469
100
AcDbArc
 50
179.9998838872
 51
270.0001161129
  0
ARC
  5
AA
330
1F
100
AcDbEntity
  8
0
  6
Continuous
 62
     7
100
AcDbCircle
 10
8037.4564058154
 20
5104.7313461064
 30
0.0
 40
0.9999987444549816
100
AcDbArc
 50
179.9996942704
 51
269.9998381447
  0
ARC
  5
AB
330
1F
100
AcDbEntity
  8
0
  6
Continuous
 62
     7
100
AcDbCircle
 10
8037.4564029905
 20
5261.7313514425
 30
0.0
 40
1.000000000000909
100
AcDbArc
 50
90.0
 51
180.0
  0
ARC
  5
AC
330
1F
100
AcDbEntity
  8
0
  6
Continuous
 62
     7
100
AcDbCircle
 10
8037.4564029905
 20
5261.7313514425
 30
0.0
 40
1.999997175101285
100
AcDbArc
 50
89.9998029599
 51
179.9999932104
  0
ARC
  5
AD
330
1F
100
AcDbEntity
  8
0
  6
Continuous
 62
     7
100
AcDbCircle
 10
8103.4564115374
 20
5104.7313514424
 30
0.0
 40
1.000000000000145
100
AcDbArc
 50
269.9995102986
 51
359.9999264972
  0
ARC
  5
AE
330
1F
100
AcDbEntity
  8
0
  6
Continuous
 62
     7
100
AcDbCircle
 10
8103.4563982846
 20
5104.7313461064
 30
0.0
 40
2.000000000000121
100
AcDbArc
 50
269.9998947217
 51
318.5905817108
  0
ARC
  5
AF
330
1F
100
AcDbEntity
  8
0
  6
Continuous
 62
     7
100
AcDbCircle
 10
8103.4564024923
 20
5261.7313517704
 30
0.0
 40
1.999996847188948
100
AcDbArc
 50
41.409600531
 51
90.0002258196
  0
ARC
  5
B0
330
1F
100
AcDbEntity
  8
0
  6
Continuous
 62
     7
100
AcDbCircle
 10
8103.4564024923
 20
5261.7313517704
 30
0.0
 40
1.000004240097095
100
AcDbArc
 50
359.999981212
 51
89.9999714548
  0
ARC
  5
B1
330
1F
100
AcDbEntity
  8
0
  6
Continuous
 62
     7
100
AcDbCircle
 10
7707.2593999597
 20
4775.2665799914
 30
0.0
 40
31.09527461368367
100
AcDbArc
 50
271.769583646
 51
325.1237826912
  0
ARC
  5
B2
330
1F
100
AcDbEntity
  8
0
  6
Continuous
 62
     7
100
AcDbCircle
 10
7709.1798567353
 20
4775.2665798919
 30
0.0
 40
31.09527461368286
100
AcDbArc
 50
214.8762170855
 51
268.2304104212
  0
ARC
  5
B3
330
1F
100
AcDbEntity
  8
0
  6
Continuous
 62
     7
100
AcDbCircle
 10
7681.2696198309
 20
4787.0861480846
 30
0.0
 40
1.500000000000305
100
AcDbArc
 50
180.0007376589
 51
270.0004007124
  0
ARC
  5
B4
330
1F
100
AcDbEntity
  8
0
  6
Continuous
 62
     7
100
AcDbCircle
 10
7735.1696293441
 20
4787.0861480847
 30
0.0
 40
1.500000000001261
100
AcDbArc
 50
269.9998838835
 51
359.9992623398
  0
ARC
  5
B5
330
1F
100
AcDbEntity
  8
0
  6
Continuous
 62
     7
100
AcDbCircle
 10
7783.2196273442
 20
4797.886142315
 30
0.0
 40
10.00000000000091
100
AcDbArc
 50
270.0000012805
 51
359.9999453587
  0
ARC
  5
B6
330
1F
100
AcDbEntity
  8
0
  6
Continuous
 62
     7
100
AcDbCircle
 10
7633.2196236934
 20
4797.886142315
 30
0.0
 40
10.00000000000091
100
AcDbArc
 50
180.0000546413
 51
270.0000307358
  0
ARC
  5
B7
330
1F
100
AcDbEntity
  8
0
  6
Continuous
 62
     7
100
AcDbCircle
 10
7784.9463511967
 20
4830.1828269711
 30
0.0
 40
1.661463792286778
100
AcDbArc
 50
321.708021856
 51
39.97209991
  0
CIRCLE
  5
B8
330
1F
100
AcDbEntity
  8
0
  6
Continuous
 62
     7
100
AcDbCircle
 10
7708.2196264655
 20
4848.386134945
 30
0.0
 40
4.000000000000434
  0
CIRCLE
  5
B9
330
1F
100
AcDbEntity
  8
0
  6
Continuous
 62
     7
100
AcDbCircle
 10
7708.2196264655
 20
4848.386134945
 30
0.0
 40
6.999999999999087
  0
CIRCLE
  5
BA
330
1F
100
AcDbEntity
  8
0
  6
Continuous
 62
     7
100
AcDbCircle
 10
7708.2196264655
 20
4848.386134945
 30
0.0
 40
9.299999999999844
  0
CIRCLE
  5
BB
330
1F
100
AcDbEntity
  8
0
  6
Continuous
 62
     7
100
AcDbCircle
 10
7708.2196264655
 20
4848.386134945
 30
0.0
 40
7.800000000000952
  0
ARC
  5
BC
330
1F
100
AcDbEntity
  8
0
  6
Continuous
 62
     7
100
AcDbCircle
 10
7708.2196264655
 20
4848.386134945
 30
0.0
 40
13.2204998028739
100
AcDbArc
 50
33.1797172689
 51
123.1797360525
  0
CIRCLE
  5
BD
330
1F
100
AcDbEntity
  8
0
  6
Continuous
 62
     7
100
AcDbCircle
 10
7708.2196264655
 20
4848.386134945
 30
0.0
 40
11.72049999999941
  0
CIRCLE
  5
BE
330
1F
100
AcDbEntity
  8
0
  6
Continuous
 62
     7
100
AcDbCircle
 10
7708.2196264655
 20
4848.386134945
 30
0.0
 40
9.749999999999451
  0
ARC
  5
BF
330
1F
100
AcDbEntity
  8
0
  6
Continuous
 62
     7
100
AcDbCircle
 10
7632.2196250047
 20
4865.3861300364
 30
0.0
 40
1.000000000000234
100
AcDbArc
 50
89.9998838842
 51
180.00011611
  0
ARC
  5
C0
330
1F
100
AcDbEntity
  8
0
  6
Continuous
 62
     7
100
AcDbCircle
 10
7632.2196250047
 20
4865.3861300364
 30
0.0
 40
2.000002026498013
100
AcDbArc
 50
89.9999419422
 51
180.0000580549
  0
ARC
  5
C1
330
1F
100
AcDbEntity
  8
0
  6
Continuous
 62
     7
100
AcDbCircle
 10
7784.2196260329
 20
4865.3861300363
 30
0.0
 40
1.000000000000234
100
AcDbArc
 50
359.9998838901
 51
90.0000093909
  0
ARC
  5
C2
330
1F
100
AcDbEntity
  8
0
  6
Continuous
 62
     7
100
AcDbCircle
 10
7784.2196260329
 20
4865.3861300363
 30
0.0
 40
2.000002026600786
100
AcDbArc
 50
359.9999419451
 51
90.0000046954
  0
LINE
  5
C3
330
1F
100
AcDbEntity
  8
0
  6
Continuous
 62
     7
100
AcDbLine
 10
7704.6925346341
 20
5112.4360402584
 30
0.0
 11
7704.6924601283
 21
5112.4308099508
 31
0.0
  0
LINE
  5
C4
330
1F
100
AcDbEntity
  8
0
  6
Continuous
 62
     7
100
AcDbLine
 10
7704.139768609
 20
5112.2340103149
 30
0.0
 11
7704.1349927868
 21
5111.8791540623
 31
0.0
  0
LINE
  5
C5
330
1F
100
AcDbEntity
  8
0
  6
Continuous
 62
     7
100
AcDbLine
 10
7711.634315082
 20
5111.778273201
 30
0.0
 11
7711.6390909042
 21
5112.1331294536
 31
0.0
  0
LINE
  5
C6
330
1F
100
AcDbEntity
  8
0
  6
Continuous
 62
     7
100
AcDbLine
 10
7612.2196312036
 20
5149.95184443
 30
0.0
 11
7610.7196207132
 21
5148.4518488407
 31
0.0
  0
LINE
  5
C7
330
1F
100
AcDbEntity
  8
0
  6
Continuous
 62
     7
100
AcDbLine
 10
7610.7196207132
 20
5125.0108470678
 30
0.0
 11
7611.7037679042
 21
5124.0267147779
 31
0.0
  0
LINE
  5
C8
330
1F
100
AcDbEntity
  8
0
  6
Continuous
 62
     7
100
AcDbLine
 10
7613.8213868227
 20
5149.95184443
 30
0.0
 11
7613.4245241966
 21
5149.95184443
 31
0.0
  0
LINE
  5
C9
330
1F
100
AcDbEntity
  8
0
  6
Continuous
 62
     7
100
AcDbLine
 10
7615.4088969316
 20
5149.95184443
 30
0.0
 11
7615.0120194044
 21
5149.95184443
 31
0.0
  0
LINE
  5
CA
330
1F
100
AcDbEntity
  8
0
  6
Continuous
 62
     7
100
AcDbLine
 10
7616.9963921394
 20
5149.95184443
 30
0.0
 11
7616.5995146122
 21
5149.95184443
 31
0.0
  0
LINE
  5
CB
330
1F
100
AcDbEntity
  8
0
  6
Continuous
 62
     7
100
AcDbLine
 10
7618.5838873472
 20
5149.95184443
 30
0.0
 11
7618.1870247211
 21
5149.95184443
 31
0.0
  0
LINE
  5
CC
330
1F
100
AcDbEntity
  8
0
  6
Continuous
 62
     7
100
AcDbLine
 10
7618.9807499733
 20
5123.5108514786
 30
0.0
 11
7619.3774635877
 21
5123.5108514786
 31
0.0
  0
LINE
  5
CD
330
1F
100
AcDbEntity
  8
0
  6
Continuous
 62
     7
100
AcDbLine
 10
7617.3932547655
 20
5123.5108514786
 30
0.0
 11
7617.7899683799
 21
5123.5108514786
 31
0.0
  0
LINE
  5
CE
330
1F
100
AcDbEntity
  8
0
  6
Continuous
 62
     7
100
AcDbLine
 10
7615.8057446565
 20
5123.5108514786
 30
0.0
 11
7616.202458271
 21
5123.5108514786
 31
0.0
  0
LINE
  5
CF
330
1F
100
AcDbEntity
  8
0
  6
Continuous
 62
     7
100
AcDbLine
 10
7614.2182494487
 20
5123.5108514786
 30
0.0
 11
7614.6149630632
 21
5123.5108514786
 31
0.0
  0
LINE
  5
D0
330
1F
100
AcDbEntity
  8
0
  6
Continuous
 62
     7
100
AcDbLine
 10
7612.6307542409
 20
5123.5108514786
 30
0.0
 11
7613.0274678554
 21
5123.5108514786
 31
0.0
  0
LINE
  5
D1
330
1F
100
AcDbEntity
  8
0
  6
Continuous
 62
     7
100
AcDbLine
 10
7611.7417658653
 20
5124.0254481792
 30
0.0
 11
7611.9454200353
 21
5124.3779500484
 31
0.0
  0
LINE
  5
D2
330
1F
100
AcDbEntity
  8
0
  6
Continuous
 62
     7
100
AcDbLine
 10
7613.5242874708
 20
5124.37014184
 30
0.0
 11
7613.7175555315
 21
5124.37014184
 31
0.0
  0
LINE
  5
D3
330
1F
100
AcDbEntity
  8
0
  6
Continuous
 62
     7
100
AcDbLine
 10
7615.1117826786
 20
5124.37014184
 30
0.0
 11
7615.3050656404
 21
5124.37014184
 31
0.0
  0
LINE
  5
D4
330
1F
100
AcDbEntity
  8
0
  6
Continuous
 62
     7
100
AcDbLine
 10
7616.6992927875
 20
5124.37014184
 30
0.0
 11
7616.8925608482
 21
5124.37014184
 31
0.0
  0
LINE
  5
D5
330
1F
100
AcDbEntity
  8
0
  6
Continuous
 62
     7
100
AcDbLine
 10
7618.2867879953
 20
5124.37014184
 30
0.0
 11
7618.480056056
 21
5124.37014184
 31
0.0
  0
LINE
  5
D6
330
1F
100
AcDbEntity
  8
0
  6
Continuous
 62
     7
100
AcDbLine
 10
7612.9599059906
 20
5148.9982893228
 30
0.0
 11
7612.7614672269
 21
5148.9982893228
 31
0.0
  0
LINE
  5
D7
330
1F
100
AcDbEntity
  8
0
  6
Continuous
 62
     7
100
AcDbLine
 10
7614.5474011983
 20
5148.9982893228
 30
0.0
 11
7614.3489624347
 21
5148.9982893228
 31
0.0
  0
LINE
  5
D8
330
1F
100
AcDbEntity
  8
0
  6
Continuous
 62
     7
100
AcDbLine
 10
7616.1348964061
 20
5148.9982893228
 30
0.0
 11
7615.9364576425
 21
5148.9982893228
 31
0.0
  0
LINE
  5
D9
330
1F
100
AcDbEntity
  8
0
  6
Continuous
 62
     7
100
AcDbLine
 10
7617.7224065151
 20
5148.9982893228
 30
0.0
 11
7617.5239677515
 21
5148.9982893228
 31
0.0
  0
LINE
  5
DA
330
1F
100
AcDbEntity
  8
0
  6
Continuous
 62
     7
100
AcDbLine
 10
7619.3099017229
 20
5148.9982893228
 30
0.0
 11
7619.1114629592
 21
5148.9982893228
 31
0.0
  0
LINE
  5
DB
330
1F
100
AcDbEntity
  8
0
  6
Continuous
 62
     7
100
AcDbLine
 10
7611.936792263
 20
5124.37014184
 30
0.0
 11
7612.1300603237
 21
5124.37014184
 31
0.0
  0
LINE
  5
DC
330
1F
100
AcDbEntity
  8
0
  6
Continuous
 62
     7
100
AcDbLine
 10
7804.735489187
 20
5124.0267147779
 30
0.0
 11
7805.7196265991
 21
5125.0108470678
 31
0.0
  0
LINE
  5
DD
330
1F
100
AcDbEntity
  8
0
  6
Continuous
 62
     7
100
AcDbLine
 10
7805.7196265991
 20
5148.4518488407
 30
0.0
 11
7804.2196268189
 21
5149.95184443
 31
0.0
  0
LINE
  5
DE
330
1F
100
AcDbEntity
  8
0
  6
Continuous
 62
     7
100
AcDbLine
 10
7803.4117887702
 20
5123.5108514786
 30
0.0
 11
7803.8085033159
 21
5123.5108514786
 31
0.0
  0
LINE
  5
DF
330
1F
100
AcDbEntity
  8
0
  6
Continuous
 62
     7
100
AcDbLine
 10
7801.8242889058
 20
5123.5108514786
 30
0.0
 11
7802.2210034515
 21
5123.5108514786
 31
0.0
  0
LINE
  5
E0
330
1F
100
AcDbEntity
  8
0
  6
Continuous
 62
     7
100
AcDbLine
 10
7800.23678811
 20
5123.5108514786
 30
0.0
 11
7800.6335035871
 21
5123.5108514786
 31
0.0
  0
LINE
  5
E1
330
1F
100
AcDbEntity
  8
0
  6
Continuous
 62
     7
100
AcDbLine
 10
7798.6492882456
 20
5123.5108514786
 30
0.0
 11
7799.0460027914
 21
5123.5108514786
 31
0.0
  0
LINE
  5
E2
330
1F
100
AcDbEntity
  8
0
  6
Continuous
 62
     7
100
AcDbLine
 10
7797.0617883812
 20
5123.5108514786
 30
0.0
 11
7797.458502927
 21
5123.5108514786
 31
0.0
  0
LINE
  5
E3
330
1F
100
AcDbEntity
  8
0
  6
Continuous
 62
     7
100
AcDbLine
 10
7798.2522346984
 20
5149.95184443
 30
0.0
 11
7797.8553599652
 21
5149.95184443
 31
0.0
  0
LINE
  5
E4
330
1F
100
AcDbEntity
  8
0
  6
Continuous
 62
     7
100
AcDbLine
 10
7799.8397345628
 20
5149.95184443
 30
0.0
 11
7799.4428598296
 21
5149.95184443
 31
0.0
  0
LINE
  5
E5
330
1F
100
AcDbEntity
  8
0
  6
Continuous
 62
     7
100
AcDbLine
 10
7801.4272344272
 20
5149.95184443
 30
0.0
 11
7801.030359694
 21
5149.95184443
 31
0.0
  0
LINE
  5
E6
330
1F
100
AcDbEntity
  8
0
  6
Continuous
 62
     7
100
AcDbLine
 10
7803.0147347573
 20
5149.95184443
 30
0.0
 11
7802.6178595584
 21
5149.95184443
 31
0.0
  0
LINE
  5
E7
330
1F
100
AcDbEntity
  8
0
  6
Continuous
 62
     7
100
AcDbLine
 10
7804.4938403155
 20
5124.3779500484
 30
0.0
 11
7804.697487035
 21
5124.0254481792
 31
0.0
  0
LINE
  5
E8
330
1F
100
AcDbEntity
  8
0
  6
Continuous
 62
     7
100
AcDbLine
 10
7803.6777893986
 20
5148.9982893228
 30
0.0
 11
7803.479352032
 21
5148.9982893228
 31
0.0
  0
LINE
  5
E9
330
1F
100
AcDbEntity
  8
0
  6
Continuous
 62
     7
100
AcDbLine
 10
7802.0902895342
 20
5148.9982893228
 30
0.0
 11
7801.8918517019
 21
5148.9982893228
 31
0.0
  0
LINE
  5
EA
330
1F
100
AcDbEntity
  8
0
  6
Continuous
 62
     7
100
AcDbLine
 10
7800.5027896698
 20
5148.9982893228
 30
0.0
 11
7800.3043518375
 21
5148.9982893228
 31
0.0
  0
LINE
  5
EB
330
1F
100
AcDbEntity
  8
0
  6
Continuous
 62
     7
100
AcDbLine
 10
7798.9152898054
 20
5148.9982893228
 30
0.0
 11
7798.7168519731
 21
5148.9982893228
 31
0.0
  0
LINE
  5
EC
330
1F
100
AcDbEntity
  8
0
  6
Continuous
 62
     7
100
AcDbLine
 10
7797.3277890097
 20
5148.9982893228
 30
0.0
 11
7797.1293521087
 21
5148.9982893228
 31
0.0
  0
LINE
  5
ED
330
1F
100
AcDbEntity
  8
0
  6
Continuous
 62
     7
100
AcDbLine
 10
7802.7165266659
 20
5124.37014184
 30
0.0
 11
7802.910855503
 21
5124.37014184
 31
0.0
  0
LINE
  5
EE
330
1F
100
AcDbEntity
  8
0
  6
Continuous
 62
     7
100
AcDbLine
 10
7801.1290268015
 20
5124.37014184
 30
0.0
 11
7801.3233556386
 21
5124.37014184
 31
0.0
  0
LINE
  5
EF
330
1F
100
AcDbEntity
  8
0
  6
Continuous
 62
     7
100
AcDbLine
 10
7799.5415269371
 20
5124.37014184
 30
0.0
 11
7799.7358557742
 21
5124.37014184
 31
0.0
  0
LINE
  5
F0
330
1F
100
AcDbEntity
  8
0
  6
Continuous
 62
     7
100
AcDbLine
 10
7797.9540270727
 20
5124.37014184
 30
0.0
 11
7798.1483559098
 21
5124.37014184
 31
0.0
  0
LINE
  5
F1
330
1F
100
AcDbEntity
  8
0
  6
Continuous
 62
     7
100
AcDbLine
 10
7804.3040269959
 20
5124.37014184
 30
0.0
 11
7804.498355833
 21
5124.37014184
 31
0.0
  0
LINE
  5
F2
330
1F
100
AcDbEntity
  8
0
  6
Continuous
 62
     7
100
AcDbLine
 10
7720.7542951192
 20
5282.417184627
 30
0.0
 11
7719.9401254739
 21
5283.2313514784
 31
0.0
  0
LINE
  5
F3
330
1F
100
AcDbEntity
  8
0
  6
Continuous
 62
     7
100
AcDbLine
 10
7696.4991237011
 20
5283.2313514784
 30
0.0
 11
7695.1590175714
 21
5281.8912462801
 31
0.0
  0
LINE
  5
F4
330
1F
100
AcDbEntity
  8
0
  6
Continuous
 62
     7
100
AcDbLine
 10
7721.4401285138
 20
5281.1891948342
 30
0.0
 11
7721.4401285138
 21
5281.5862698018
 31
0.0
  0
LINE
  5
F5
330
1F
100
AcDbEntity
  8
0
  6
Continuous
 62
     7
100
AcDbLine
 10
7721.4401285138
 20
5279.6016940385
 30
0.0
 11
7721.4401285138
 21
5279.9987690061
 31
0.0
  0
LINE
  5
F6
330
1F
100
AcDbEntity
  8
0
  6
Continuous
 62
     7
100
AcDbLine
 10
7721.4401285138
 20
5278.0141951054
 30
0.0
 11
7721.4401285138
 21
5278.4112682104
 31
0.0
  0
LINE
  5
F7
330
1F
100
AcDbEntity
  8
0
  6
Continuous
 62
     7
100
AcDbLine
 10
7721.4401285138
 20
5276.4266943097
 30
0.0
 11
7721.4401285138
 21
5276.8237692773
 31
0.0
  0
LINE
  5
F8
330
1F
100
AcDbEntity
  8
0
  6
Continuous
 62
     7
100
AcDbLine
 10
7721.4401285138
 20
5274.8391953766
 30
0.0
 11
7721.4401285138
 21
5275.2362684816
 31
0.0
  0
LINE
  5
F9
330
1F
100
AcDbEntity
  8
0
  6
Continuous
 62
     7
100
AcDbLine
 10
7694.9991281118
 20
5274.4424184322
 30
0.0
 11
7694.9991281118
 21
5274.2313509345
 31
0.0
  0
LINE
  5
FA
330
1F
100
AcDbEntity
  8
0
  6
Continuous
 62
     7
100
AcDbLine
 10
7694.9991281118
 20
5276.0299192279
 30
0.0
 11
7694.9991281118
 21
5275.6329392552
 31
0.0
  0
LINE
  5
FB
330
1F
100
AcDbEntity
  8
0
  6
Continuous
 62
     7
100
AcDbLine
 10
7694.9991281118
 20
5277.6174200237
 30
0.0
 11
7694.9991281118
 21
5277.2204400509
 31
0.0
  0
LINE
  5
FC
330
1F
100
AcDbEntity
  8
0
  6
Continuous
 62
     7
100
AcDbLine
 10
7694.9991281118
 20
5279.2049189567
 30
0.0
 11
7694.9991281118
 21
5278.807938984
 31
0.0
  0
LINE
  5
FD
330
1F
100
AcDbEntity
  8
0
  6
Continuous
 62
     7
100
AcDbLine
 10
7694.9991281118
 20
5280.7924197525
 30
0.0
 11
7694.9991281118
 21
5280.3954397797
 31
0.0
  0
LINE
  5
FE
330
1F
100
AcDbEntity
  8
0
  6
Continuous
 62
     7
100
AcDbLine
 10
7720.5730001416
 20
5282.2716300845
 30
0.0
 11
7720.7445795621
 21
5282.3707526088
 31
0.0
  0
LINE
  5
FF
330
1F
100
AcDbEntity
  8
0
  6
Continuous
 62
     7
100
AcDbLine
 10
7695.8584110226
 20
5279.9000786155
 30
0.0
 11
7695.8584110226
 21
5279.7057469845
 31
0.0
  0
LINE
  5
100
330
1F
100
AcDbEntity
  8
0
  6
Continuous
 62
     7
100
AcDbLine
 10
7695.8584110226
 20
5278.3125778198
 30
0.0
 11
7695.8584110226
 21
5278.1182480514
 31
0.0
  0
LINE
  5
101
330
1F
100
AcDbEntity
  8
0
  6
Continuous
 62
     7
100
AcDbLine
 10
7695.8584110226
 20
5276.7250788867
 30
0.0
 11
7695.8584110226
 21
5276.5307472557
 31
0.0
  0
LINE
  5
102
330
1F
100
AcDbEntity
  8
0
  6
Continuous
 62
     7
100
AcDbLine
 10
7695.8584110226
 20
5275.137578091
 30
0.0
 11
7695.8584110226
 21
5274.9432483226
 31
0.0
  0
LINE
  5
103
330
1F
100
AcDbEntity
  8
0
  6
Continuous
 62
     7
100
AcDbLine
 10
7720.5808456029
 20
5280.4953911811
 30
0.0
 11
7720.5808456029
 21
5280.6886573791
 31
0.0
  0
LINE
  5
104
330
1F
100
AcDbEntity
  8
0
  6
Continuous
 62
     7
100
AcDbLine
 10
7720.5808456029
 20
5278.9078903854
 30
0.0
 11
7720.5808456029
 21
5279.1011584461
 31
0.0
  0
LINE
  5
105
330
1F
100
AcDbEntity
  8
0
  6
Continuous
 62
     7
100
AcDbLine
 10
7720.5808456029
 20
5277.3203914523
 30
0.0
 11
7720.5808456029
 21
5277.5136576503
 31
0.0
  0
LINE
  5
106
330
1F
100
AcDbEntity
  8
0
  6
Continuous
 62
     7
100
AcDbLine
 10
7720.5808456029
 20
5275.7328906566
 30
0.0
 11
7720.5808456029
 21
5275.9261587173
 31
0.0
  0
LINE
  5
107
330
1F
100
AcDbEntity
  8
0
  6
Continuous
 62
     7
100
AcDbLine
 10
7720.5808456029
 20
5274.2313509345
 30
0.0
 11
7720.5808456029
 21
5274.3386579215
 31
0.0
  0
LINE
  5
108
330
1F
100
AcDbEntity
  8
0
  6
Continuous
 62
     7
100
AcDbLine
 10
7720.5808456029
 20
5282.0828901142
 30
0.0
 11
7720.5808456029
 21
5282.2761581749
 31
0.0
  0
LINE
  5
109
330
1F
100
AcDbEntity
  8
0
  6
Continuous
 62
     7
100
AcDbLine
 10
7695.8584110226
 20
5281.4875775486
 30
0.0
 11
7695.8584110226
 21
5281.2932477802
 31
0.0
  0
LINE
  5
10A
330
1F
100
AcDbEntity
  8
0
  6
Continuous
 62
     7
100
AcDbLine
 10
7746.4753235664
 20
5120.6584414005
 30
0.0
 11
7746.2331275429
 21
5121.3907291651
 31
0.0
  0
LINE
  5
10B
330
1F
100
AcDbEntity
  8
0
  6
Continuous
 62
     7
100
AcDbLine
 10
7746.2331275429
 20
5121.3907291651
 30
0.0
 11
7746.7758427348
 21
5121.3907291651
 31
0.0
  0
LINE
  5
10C
330
1F
100
AcDbEntity
  8
0
  6
Continuous
 62
     7
100
AcDbLine
 10
7746.7758427348
 20
5121.3907291651
 30
0.0
 11
7746.7758427348
 21
5122.2861995458
 31
0.0
  0
LINE
  5
10D
330
1F
100
AcDbEntity
  8
0
  6
Continuous
 62
     7
100
AcDbLine
 10
7747.8853384938
 20
5123.5733320474
 30
0.0
 11
7748.1558690753
 21
5123.5733320474
 31
0.0
  0
LINE
  5
10E
330
1F
100
AcDbEntity
  8
0
  6
Continuous
 62
     7
100
AcDbLine
 10
7747.4618251409
 20
5121.6586818457
 30
0.0
 11
7747.4618251409
 21
5121.390907979
 31
0.0
  0
LINE
  5
10F
330
1F
100
AcDbEntity
  8
0
  6
Continuous
 62
     7
100
AcDbLine
 10
7747.4618251409
 20
5121.390907979
 30
0.0
 11
7748.5799039688
 21
5121.390907979
 31
0.0
  0
LINE
  5
110
330
1F
100
AcDbEntity
  8
0
  6
Continuous
 62
     7
100
AcDbLine
 10
7748.5799039688
 20
5121.390907979
 30
0.0
 11
7748.5799039688
 21
5121.6652234554
 31
0.0
  0
LINE
  5
111
330
1F
100
AcDbEntity
  8
0
  6
Continuous
 62
     7
100
AcDbLine
 10
7748.1558690753
 20
5122.8687753439
 30
0.0
 11
7747.8853384938
 21
5122.8687753439
 31
0.0
  0
LINE
  5
112
330
1F
100
AcDbEntity
  8
0
  6
Continuous
 62
     7
100
AcDbLine
 10
7749.2795172121
 20
5122.2767373085
 30
0.0
 11
7749.2795172121
 21
5118.3513542175
 31
0.0
  0
LINE
  5
113
330
1F
100
AcDbEntity
  8
0
  6
Continuous
 62
     7
100
AcDbLine
 10
7749.2795172121
 20
5118.3513542175
 30
0.0
 11
7748.5799039688
 21
5118.3513542175
 31
0.0
  0
LINE
  5
114
330
1F
100
AcDbEntity
  8
0
  6
Continuous
 62
     7
100
AcDbLine
 10
7748.5799039688
 20
5118.3513542175
 30
0.0
 11
7748.5799039688
 21
5120.6584414005
 31
0.0
  0
LINE
  5
115
330
1F
100
AcDbEntity
  8
0
  6
Continuous
 62
     7
100
AcDbLine
 10
7748.5799039688
 20
5120.6584414005
 30
0.0
 11
7747.4620784606
 21
5120.6584414005
 31
0.0
  0
LINE
  5
116
330
1F
100
AcDbEntity
  8
0
  6
Continuous
 62
     7
100
AcDbLine
 10
7747.4620784606
 20
5120.6584414005
 30
0.0
 11
7747.4618251409
 21
5118.3513542175
 31
0.0
  0
LINE
  5
117
330
1F
100
AcDbEntity
  8
0
  6
Continuous
 62
     7
100
AcDbLine
 10
7747.4618251409
 20
5118.3513542175
 30
0.0
 11
7746.7758427348
 21
5118.3513542175
 31
0.0
  0
LINE
  5
118
330
1F
100
AcDbEntity
  8
0
  6
Continuous
 62
     7
100
AcDbLine
 10
7746.7758427348
 20
5118.3513542175
 30
0.0
 11
7746.7758427348
 21
5120.6584414005
 31
0.0
  0
LINE
  5
119
330
1F
100
AcDbEntity
  8
0
  6
Continuous
 62
     7
100
AcDbLine
 10
7746.7758427348
 20
5120.6584414005
 30
0.0
 11
7746.4753235664
 21
5120.6584414005
 31
0.0
  0
LINE
  5
11A
330
1F
100
AcDbEntity
  8
0
  6
Continuous
 62
     7
100
AcDbLine
 10
7745.7299525823
 20
5121.0769405126
 30
0.0
 11
7745.0373168077
 21
5121.8678345442
 31
0.0
  0
LINE
  5
11B
330
1F
100
AcDbEntity
  8
0
  6
Continuous
 62
     7
100
AcDbLine
 10
7743.2266990628
 20
5118.3513542175
 30
0.0
 11
7744.7888473954
 21
5118.3513542175
 31
0.0
  0
LINE
  5
11C
330
1F
100
AcDbEntity
  8
0
  6
Continuous
 62
     7
100
AcDbLine
 10
7743.2266990628
 20
5119.1291501284
 30
0.0
 11
7743.2266990628
 21
5118.3513542175
 31
0.0
  0
LINE
  5
11D
330
1F
100
AcDbEntity
  8
0
  6
Continuous
 62
     7
100
AcDbLine
 10
7744.7235132541
 20
5119.1291501284
 30
0.0
 11
7743.2266990628
 21
5119.1291501284
 31
0.0
  0
LINE
  5
11E
330
1F
100
AcDbEntity
  8
0
  6
Continuous
 62
     7
100
AcDbLine
 10
7744.0468440737
 20
5121.8019416094
 30
0.0
 11
7744.9911828126
 21
5120.733364439
 31
0.0
  0
LINE
  5
11F
330
1F
100
AcDbEntity
  8
0
  6
Continuous
 62
     7
100
AcDbLine
 10
7761.5148383166
 20
5124.7504641771
 30
0.0
 11
7745.15669001
 21
5124.7503896713
 31
0.0
  0
LINE
  5
120
330
1F
100
AcDbEntity
  8
0
  6
Continuous
 62
     7
100
AcDbLine
 10
7761.5148383166
 20
5123.9855279684
 30
0.0
 11
7761.5148383166
 21
5124.7504641771
 31
0.0
  0
LINE
  5
121
330
1F
100
AcDbEntity
  8
0
  6
Continuous
 62
     7
100
AcDbLine
 10
7745.2072421994
 20
5123.9855279684
 30
0.0
 11
7761.5148383166
 21
5123.9855279684
 31
0.0
  0
LINE
  5
122
330
1F
100
AcDbEntity
  8
0
  6
Continuous
 62
     7
100
AcDbLine
 10
7749.8742858853
 20
5123.5733320474
 30
0.0
 11
7752.1554487731
 21
5121.7305948496
 31
0.0
  0
LINE
  5
123
330
1F
100
AcDbEntity
  8
0
  6
Continuous
 62
     7
100
AcDbLine
 10
7752.1554487731
 20
5121.7305948496
 30
0.0
 11
7752.1554487731
 21
5123.4823902607
 31
0.0
  0
LINE
  5
124
330
1F
100
AcDbEntity
  8
0
  6
Continuous
 62
     7
100
AcDbLine
 10
7752.1554487731
 20
5123.4823902607
 30
0.0
 11
7752.9465253438
 21
5123.4824945688
 31
0.0
  0
LINE
  5
125
330
1F
100
AcDbEntity
  8
0
  6
Continuous
 62
     7
100
AcDbLine
 10
7752.9465253438
 20
5123.4824945688
 30
0.0
 11
7752.9465253438
 21
5121.390907979
 31
0.0
  0
LINE
  5
126
330
1F
100
AcDbEntity
  8
0
  6
Continuous
 62
     7
100
AcDbLine
 10
7752.9465253438
 20
5121.390907979
 30
0.0
 11
7753.5410444226
 21
5121.390907979
 31
0.0
  0
LINE
  5
127
330
1F
100
AcDbEntity
  8
0
  6
Continuous
 62
     7
100
AcDbLine
 10
7753.5410444226
 20
5121.390907979
 30
0.0
 11
7753.5410444226
 21
5123.4824945688
 31
0.0
  0
LINE
  5
128
330
1F
100
AcDbEntity
  8
0
  6
Continuous
 62
     7
100
AcDbLine
 10
7753.5410444226
 20
5123.4824945688
 30
0.0
 11
7755.5021080162
 21
5123.4824945688
 31
0.0
  0
LINE
  5
129
330
1F
100
AcDbEntity
  8
0
  6
Continuous
 62
     7
100
AcDbLine
 10
7755.5021080162
 20
5123.4824945688
 30
0.0
 11
7755.5021080162
 21
5122.8687753439
 31
0.0
  0
LINE
  5
12A
330
1F
100
AcDbEntity
  8
0
  6
Continuous
 62
     7
100
AcDbLine
 10
7755.5021080162
 20
5122.8687753439
 30
0.0
 11
7754.1820476737
 21
5122.8687753439
 31
0.0
  0
LINE
  5
12B
330
1F
100
AcDbEntity
  8
0
  6
Continuous
 62
     7
100
AcDbLine
 10
7754.1820476737
 20
5122.8687753439
 30
0.0
 11
7754.1820476737
 21
5121.390907979
 31
0.0
  0
LINE
  5
12C
330
1F
100
AcDbEntity
  8
0
  6
Continuous
 62
     7
100
AcDbLine
 10
7754.1820476737
 20
5121.390907979
 30
0.0
 11
7755.5122221794
 21
5121.390907979
 31
0.0
  0
LINE
  5
12D
330
1F
100
AcDbEntity
  8
0
  6
Continuous
 62
     7
100
AcDbLine
 10
7755.5122221794
 20
5121.390907979
 30
0.0
 11
7755.7539376404
 21
5120.6584414005
 31
0.0
  0
LINE
  5
12E
330
1F
100
AcDbEntity
  8
0
  6
Continuous
 62
     7
100
AcDbLine
 10
7755.7539376404
 20
5120.6584414005
 30
0.0
 11
7754.1817980792
 21
5120.6584414005
 31
0.0
  0
LINE
  5
12F
330
1F
100
AcDbEntity
  8
0
  6
Continuous
 62
     7
100
AcDbLine
 10
7754.1817980792
 20
5120.6584414005
 30
0.0
 11
7754.1820476737
 21
5119.0116544723
 31
0.0
  0
LINE
  5
130
330
1F
100
AcDbEntity
  8
0
  6
Continuous
 62
     7
100
AcDbLine
 10
7754.1820476737
 20
5119.0116544723
 30
0.0
 11
7755.5021080162
 21
5119.0116544723
 31
0.0
  0
LINE
  5
131
330
1F
100
AcDbEntity
  8
0
  6
Continuous
 62
     7
100
AcDbLine
 10
7755.5021080162
 20
5119.0116544723
 30
0.0
 11
7755.5021080162
 21
5118.3513542175
 31
0.0
  0
LINE
  5
132
330
1F
100
AcDbEntity
  8
0
  6
Continuous
 62
     7
100
AcDbLine
 10
7755.5021080162
 20
5118.3513542175
 30
0.0
 11
7753.5410444226
 21
5118.3513542175
 31
0.0
  0
LINE
  5
133
330
1F
100
AcDbEntity
  8
0
  6
Continuous
 62
     7
100
AcDbLine
 10
7753.5410444226
 20
5118.3513542175
 30
0.0
 11
7753.5411189284
 21
5120.6584414005
 31
0.0
  0
LINE
  5
134
330
1F
100
AcDbEntity
  8
0
  6
Continuous
 62
     7
100
AcDbLine
 10
7753.5411189284
 20
5120.6584414005
 30
0.0
 11
7752.9465253438
 21
5120.6584414005
 31
0.0
  0
LINE
  5
135
330
1F
100
AcDbEntity
  8
0
  6
Continuous
 62
     7
100
AcDbLine
 10
7752.9465253438
 20
5120.6584414005
 30
0.0
 11
7752.9465253438
 21
5118.3513542175
 31
0.0
  0
LINE
  5
136
330
1F
100
AcDbEntity
  8
0
  6
Continuous
 62
     7
100
AcDbLine
 10
7752.9465253438
 20
5118.3513542175
 30
0.0
 11
7752.1554487731
 21
5118.3513542175
 31
0.0
  0
LINE
  5
137
330
1F
100
AcDbEntity
  8
0
  6
Continuous
 62
     7
100
AcDbLine
 10
7752.1554487731
 20
5118.3513542175
 30
0.0
 11
7752.1554487731
 21
5120.6584414005
 31
0.0
  0
LINE
  5
138
330
1F
100
AcDbEntity
  8
0
  6
Continuous
 62
     7
100
AcDbLine
 10
7752.1554487731
 20
5120.6584414005
 30
0.0
 11
7750.6060521092
 21
5121.8351562977
 31
0.0
  0
LINE
  5
139
330
1F
100
AcDbEntity
  8
0
  6
Continuous
 62
     7
100
AcDbLine
 10
7750.6060521092
 20
5121.8351562977
 30
0.0
 11
7750.6063277807
 21
5118.3513542175
 31
0.0
  0
LINE
  5
13A
330
1F
100
AcDbEntity
  8
0
  6
Continuous
 62
     7
100
AcDbLine
 10
7750.6063277807
 20
5118.3513542175
 30
0.0
 11
7749.8742113795
 21
5118.3513542175
 31
0.0
  0
LINE
  5
13B
330
1F
100
AcDbEntity
  8
0
  6
Continuous
 62
     7
100
AcDbLine
 10
7749.8742113795
 20
5118.3513542175
 30
0.0
 11
7749.8742858853
 21
5123.5733320474
 31
0.0
  0
LINE
  5
13C
330
1F
100
AcDbEntity
  8
0
  6
Continuous
 62
     7
100
AcDbLine
 10
7764.2618077781
 20
5122.5949516058
 30
0.0
 11
7764.3593954827
 21
5122.5949516058
 31
0.0
  0
LINE
  5
13D
330
1F
100
AcDbEntity
  8
0
  6
Continuous
 62
     7
100
AcDbLine
 10
7762.749533632
 20
5123.8944669723
 30
0.0
 11
7762.8027456786
 21
5123.9699115515
 31
0.0
  0
LINE
  5
13E
330
1F
100
AcDbEntity
  8
0
  6
Continuous
 62
     7
100
AcDbLine
 10
7764.6699319567
 20
5122.701375699
 30
0.0
 11
7764.2618077781
 21
5122.701375699
 31
0.0
  0
LINE
  5
13F
330
1F
100
AcDbEntity
  8
0
  6
Continuous
 62
     7
100
AcDbLine
 10
7764.5679260578
 20
5122.5949516058
 30
0.0
 11
7764.6699319567
 21
5122.5949516058
 31
0.0
  0
LINE
  5
140
330
1F
100
AcDbEntity
  8
0
  6
Continuous
 62
     7
100
AcDbLine
 10
7767.6156940844
 20
5124.9178191185
 30
0.0
 11
7767.5296249773
 21
5124.9178191185
 31
0.0
  0
LINE
  5
141
330
1F
100
AcDbEntity
  8
0
  6
Continuous
 62
     7
100
AcDbLine
 10
7767.9132814493
 20
5124.5791902304
 30
0.0
 11
7767.7311557319
 21
5124.8815943956
 31
0.0
  0
LINE
  5
142
330
1F
100
AcDbEntity
  8
0
  6
Continuous
 62
     7
100
AcDbLine
 10
7767.5296249773
 20
5125.1902421474
 30
0.0
 11
7767.6140884842
 21
5125.1902421474
 31
0.0
  0
LINE
  5
143
330
1F
100
AcDbEntity
  8
0
  6
Continuous
 62
     7
100
AcDbLine
 10
7767.8203354563
 20
5124.5791902304
 30
0.0
 11
7767.9132814493
 21
5124.5791902304
 31
0.0
  0
LINE
  5
144
330
1F
100
AcDbEntity
  8
0
  6
Continuous
 62
     7
100
AcDbLine
 10
7767.5296249773
 20
5124.8564412355
 30
0.0
 11
7767.6587398138
 21
5124.8564412355
 31
0.0
  0
LINE
  5
145
330
1F
100
AcDbEntity
  8
0
  6
Continuous
 62
     7
100
AcDbLine
 10
7767.5296249773
 20
5124.5791902304
 30
0.0
 11
7767.5296249773
 21
5124.8564412355
 31
0.0
  0
LINE
  5
146
330
1F
100
AcDbEntity
  8
0
  6
Continuous
 62
     7
100
AcDbLine
 10
7767.4519936528
 20
5124.5791902304
 30
0.0
 11
7767.5296249773
 21
5124.5791902304
 31
0.0
  0
LINE
  5
147
330
1F
100
AcDbEntity
  8
0
  6
Continuous
 62
     7
100
AcDbLine
 10
7767.4519936528
 20
5125.2564182043
 30
0.0
 11
7767.4519936528
 21
5124.5791902304
 31
0.0
  0
LINE
  5
148
330
1F
100
AcDbEntity
  8
0
  6
Continuous
 62
     7
100
AcDbLine
 10
7767.6140884842
 20
5125.2564182043
 30
0.0
 11
7767.4519936528
 21
5125.2564182043
 31
0.0
  0
LINE
  5
149
330
1F
100
AcDbEntity
  8
0
  6
Continuous
 62
     7
100
AcDbLine
 10
7767.5296249773
 20
5124.9178191185
 30
0.0
 11
7767.5296249773
 21
5125.1902421474
 31
0.0
  0
LINE
  5
14A
330
1F
100
AcDbEntity
  8
0
  6
Continuous
 62
     7
100
AcDbLine
 10
7767.6587398138
 20
5124.8564412355
 30
0.0
 11
7767.8203354563
 21
5124.5791902304
 31
0.0
  0
LINE
  5
14B
330
1F
100
AcDbEntity
  8
0
  6
Continuous
 62
     7
100
AcDbLine
 10
7756.0964259293
 20
5123.4824945688
 30
0.0
 11
7756.8412679221
 21
5123.4824945688
 31
0.0
  0
LINE
  5
14C
330
1F
100
AcDbEntity
  8
0
  6
Continuous
 62
     7
100
AcDbLine
 10
7756.8412679221
 20
5123.4824945688
 30
0.0
 11
7756.8412679221
 21
5119.0116544723
 31
0.0
  0
LINE
  5
14D
330
1F
100
AcDbEntity
  8
0
  6
Continuous
 62
     7
100
AcDbLine
 10
7756.8412679221
 20
5119.0116544723
 30
0.0
 11
7758.4164435949
 21
5119.0116544723
 31
0.0
  0
LINE
  5
14E
330
1F
100
AcDbEntity
  8
0
  6
Continuous
 62
     7
100
AcDbLine
 10
7758.4164435949
 20
5119.0116544723
 30
0.0
 11
7758.4164435949
 21
5118.3513542175
 31
0.0
  0
LINE
  5
14F
330
1F
100
AcDbEntity
  8
0
  6
Continuous
 62
     7
100
AcDbLine
 10
7758.4164435949
 20
5118.3513542175
 30
0.0
 11
7756.0964259293
 21
5118.3513542175
 31
0.0
  0
LINE
  5
150
330
1F
100
AcDbEntity
  8
0
  6
Continuous
 62
     7
100
AcDbLine
 10
7756.0964259293
 20
5118.3513542175
 30
0.0
 11
7756.0964259293
 21
5123.4824945688
 31
0.0
  0
LINE
  5
151
330
1F
100
AcDbEntity
  8
0
  6
Continuous
 62
     7
100
AcDbLine
 10
7760.1205590155
 20
5123.5733320474
 30
0.0
 11
7760.3910597946
 21
5123.5733320474
 31
0.0
  0
LINE
  5
152
330
1F
100
AcDbEntity
  8
0
  6
Continuous
 62
     7
100
AcDbLine
 10
7761.5148122396
 20
5122.2767373085
 30
0.0
 11
7761.5148122396
 21
5118.3513542175
 31
0.0
  0
LINE
  5
153
330
1F
100
AcDbEntity
  8
0
  6
Continuous
 62
     7
100
AcDbLine
 10
7761.5148122396
 20
5118.3513542175
 30
0.0
 11
7760.8151021387
 21
5118.3513542175
 31
0.0
  0
LINE
  5
154
330
1F
100
AcDbEntity
  8
0
  6
Continuous
 62
     7
100
AcDbLine
 10
7760.8151021387
 20
5118.3513542175
 30
0.0
 11
7760.8151021387
 21
5120.6584414005
 31
0.0
  0
LINE
  5
155
330
1F
100
AcDbEntity
  8
0
  6
Continuous
 62
     7
100
AcDbLine
 10
7760.8151021387
 20
5120.6584414005
 30
0.0
 11
7759.6972989823
 21
5120.6584414005
 31
0.0
  0
LINE
  5
156
330
1F
100
AcDbEntity
  8
0
  6
Continuous
 62
     7
100
AcDbLine
 10
7759.6972989823
 20
5120.6584414005
 30
0.0
 11
7759.6970456626
 21
5118.3513542175
 31
0.0
  0
LINE
  5
157
330
1F
100
AcDbEntity
  8
0
  6
Continuous
 62
     7
100
AcDbLine
 10
7759.6970456626
 20
5118.3513542175
 30
0.0
 11
7759.0110632565
 21
5118.3513542175
 31
0.0
  0
LINE
  5
158
330
1F
100
AcDbEntity
  8
0
  6
Continuous
 62
     7
100
AcDbLine
 10
7758.4684523727
 20
5121.3907291651
 30
0.0
 11
7759.0110632565
 21
5121.3907291651
 31
0.0
  0
LINE
  5
159
330
1F
100
AcDbEntity
  8
0
  6
Continuous
 62
     7
100
AcDbLine
 10
7759.0110632565
 20
5121.3907291651
 30
0.0
 11
7759.0110632565
 21
5122.2861995458
 31
0.0
  0
LINE
  5
15A
330
1F
100
AcDbEntity
  8
0
  6
Continuous
 62
     7
100
AcDbLine
 10
7759.6970456626
 20
5121.6586818457
 30
0.0
 11
7759.6970456626
 21
5121.390907979
 31
0.0
  0
LINE
  5
15B
330
1F
100
AcDbEntity
  8
0
  6
Continuous
 62
     7
100
AcDbLine
 10
7759.6970456626
 20
5121.390907979
 30
0.0
 11
7760.8151021387
 21
5121.390907979
 31
0.0
  0
LINE
  5
15C
330
1F
100
AcDbEntity
  8
0
  6
Continuous
 62
     7
100
AcDbLine
 10
7760.8151021387
 20
5121.390907979
 30
0.0
 11
7760.8151021387
 21
5121.6652234554
 31
0.0
  0
LINE
  5
15D
330
1F
100
AcDbEntity
  8
0
  6
Continuous
 62
     7
100
AcDbLine
 10
7760.3910597946
 20
5122.8687753439
 30
0.0
 11
7760.1205590155
 21
5122.8687753439
 31
0.0
  0
LINE
  5
15E
330
1F
100
AcDbEntity
  8
0
  6
Continuous
 62
     7
100
AcDbLine
 10
7759.0110632565
 20
5118.3513542175
 30
0.0
 11
7759.0110632565
 21
5120.6584414005
 31
0.0
  0
LINE
  5
15F
330
1F
100
AcDbEntity
  8
0
  6
Continuous
 62
     7
100
AcDbLine
 10
7759.0110632565
 20
5120.6584414005
 30
0.0
 11
7758.7106148686
 21
5120.6584414005
 31
0.0
  0
LINE
  5
160
330
1F
100
AcDbEntity
  8
0
  6
Continuous
 62
     7
100
AcDbLine
 10
7758.7106148686
 20
5120.6584414005
 30
0.0
 11
7758.4684523727
 21
5121.3907291651
 31
0.0
  0
LINE
  5
161
330
1F
100
AcDbEntity
  8
0
  6
Continuous
 62
     7
100
AcDbLine
 10
7623.2196236934
 20
5258.7313530505
 30
0.0
 11
7623.2196236934
 21
5108.7313582659
 31
0.0
  0
LINE
  5
162
330
1F
100
AcDbEntity
  8
0
  6
Continuous
 62
     7
100
AcDbLine
 10
7623.2196236934
 20
5258.7313530505
 30
0.0
 11
7633.2196236934
 21
5258.7313509643
 31
0.0
  0
LINE
  5
163
330
1F
100
AcDbEntity
  8
0
  6
Continuous
 62
     7
100
AcDbLine
 10
7633.2196236934
 20
5258.7313509643
 30
0.0
 11
7633.2196236934
 21
5108.7313529014
 31
0.0
  0
LINE
  5
164
330
1F
100
AcDbEntity
  8
0
  6
Continuous
 62
     7
100
AcDbLine
 10
7623.2196236934
 20
5108.7313582659
 30
0.0
 11
7633.2196236934
 21
5108.7313529014
 31
0.0
  0
LINE
  5
165
330
1F
100
AcDbEntity
  8
0
  6
Continuous
 62
     7
100
AcDbLine
 10
7783.2196275677
 20
5268.7313509643
 30
0.0
 11
7633.2196290578
 21
5268.7313509643
 31
0.0
  0
LINE
  5
166
330
1F
100
AcDbEntity
  8
0
  6
Continuous
 62
     7
100
AcDbLine
 10
7783.2196275677
 20
5268.7313509643
 30
0.0
 11
7783.2196273442
 21
5258.7313509643
 31
0.0
  0
LINE
  5
167
330
1F
100
AcDbEntity
  8
0
  6
Continuous
 62
     7
100
AcDbLine
 10
7783.2196273442
 20
5258.7313509643
 30
0.0
 11
7633.2196236934
 21
5258.7313509643
 31
0.0
  0
LINE
  5
168
330
1F
100
AcDbEntity
  8
0
  6
Continuous
 62
     7
100
AcDbLine
 10
7633.2196290578
 20
5268.7313509643
 30
0.0
 11
7633.2196236934
 21
5258.7313509643
 31
0.0
  0
LINE
  5
169
330
1F
100
AcDbEntity
  8
0
  6
Continuous
 62
     7
100
AcDbLine
 10
7783.2196273442
 20
5108.7313529014
 30
0.0
 11
7783.2196275677
 21
5098.7313529014
 31
0.0
  0
LINE
  5
16A
330
1F
100
AcDbEntity
  8
0
  6
Continuous
 62
     7
100
AcDbLine
 10
7633.2196290578
 20
5098.7313529014
 30
0.0
 11
7783.2196275677
 21
5098.7313529014
 31
0.0
  0
LINE
  5
16B
330
1F
100
AcDbEntity
  8
0
  6
Continuous
 62
     7
100
AcDbLine
 10
7633.2196236934
 20
5108.7313529014
 30
0.0
 11
7633.2196290578
 21
5098.7313529014
 31
0.0
  0
LINE
  5
16C
330
1F
100
AcDbEntity
  8
0
  6
Continuous
 62
     7
100
AcDbLine
 10
7783.2196273442
 20
5108.7313529014
 30
0.0
 11
7793.2196273442
 21
5108.7313582659
 31
0.0
  0
LINE
  5
16D
330
1F
100
AcDbEntity
  8
0
  6
Continuous
 62
     7
100
AcDbLine
 10
7783.2196273442
 20
5108.7313529014
 30
0.0
 11
7783.2196273442
 21
5258.7313509643
 31
0.0
  0
LINE
  5
16E
330
1F
100
AcDbEntity
  8
0
  6
Continuous
 62
     7
100
AcDbLine
 10
7783.2196273442
 20
5258.7313509643
 30
0.0
 11
7793.2196273442
 21
5258.7313530505
 31
0.0
  0
LINE
  5
16F
330
1F
100
AcDbEntity
  8
0
  6
Continuous
 62
     7
100
AcDbLine
 10
7793.2196273442
 20
5108.7313582659
 30
0.0
 11
7793.2196273442
 21
5258.7313530505
 31
0.0
  0
LINE
  5
170
330
1F
100
AcDbEntity
  8
0
  6
Continuous
 62
     7
100
AcDbLine
 10
7707.8296986618
 20
5220.427743113
 30
0.0
 11
7707.8296986618
 21
5223.9734669685
 31
0.0
  0
LINE
  5
171
330
1F
100
AcDbEntity
  8
0
  6
Continuous
 62
     7
100
AcDbLine
 10
7704.595617272
 20
5223.9734669685
 30
0.0
 11
7704.595617272
 21
5216.435014224
 31
0.0
  0
LINE
  5
172
330
1F
100
AcDbEntity
  8
0
  6
Continuous
 62
     7
100
AcDbLine
 10
7702.0642750636
 20
5217.1230306387
 30
0.0
 11
7702.0642750636
 21
5211.7019211411
 31
0.0
  0
LINE
  5
173
330
1F
100
AcDbEntity
  8
0
  6
Continuous
 62
     7
100
AcDbLine
 10
7708.386807909
 20
5205.3793880912
 30
0.0
 11
7710.7540361786
 21
5205.3793880912
 31
0.0
  0
LINE
  5
174
330
1F
100
AcDbEntity
  8
0
  6
Continuous
 62
     7
100
AcDbLine
 10
7715.309634033
 20
5209.9349859458
 30
0.0
 11
7715.309634033
 21
5217.7717599373
 31
0.0
  0
LINE
  5
175
330
1F
100
AcDbEntity
  8
0
  6
Continuous
 62
     7
100
AcDbLine
 10
7713.956020514
 20
5219.1253741741
 30
0.0
 11
7713.4617937006
 21
5219.1253741741
 31
0.0
  0
LINE
  5
176
330
1F
100
AcDbEntity
  8
0
  6
Continuous
 62
     7
100
AcDbLine
 10
7711.4785385527
 20
5220.0739522934
 30
0.0
 11
7710.8992186584
 21
5220.0739522934
 31
0.0
  0
LINE
  5
177
330
1F
100
AcDbEntity
  8
0
  6
Continuous
 62
     7
100
AcDbLine
 10
7708.9159635105
 20
5220.5831026196
 30
0.0
 11
7708.459347228
 21
5220.5831026196
 31
0.0
  0
LINE
  5
178
330
1F
100
AcDbEntity
  8
0
  6
Continuous
 62
     7
100
AcDbLine
 10
7706.8001027193
 20
5216.3026248574
 30
0.0
 11
7706.8001027193
 21
5223.9734669685
 31
0.0
  0
LINE
  5
179
330
1F
100
AcDbEntity
  8
0
  6
Continuous
 62
     7
100
AcDbLine
 10
7704.2899797644
 20
5212.6929601192
 30
0.0
 11
7704.2899797644
 21
5214.6473815203
 31
0.0
  0
LINE
  5
17A
330
1F
100
AcDbEntity
  8
0
  6
Continuous
 62
     7
100
AcDbLine
 10
7713.1377826418
 20
5217.8181549072
 30
0.0
 11
7713.1377826418
 21
5216.3026248574
 31
0.0
  0
LINE
  5
17B
330
1F
100
AcDbEntity
  8
0
  6
Continuous
 62
     7
100
AcDbLine
 10
7703.0938782
 20
5216.1480251055
 30
0.0
 11
7703.0938782
 21
5211.7019209366
 31
0.0
  0
LINE
  5
17C
330
1F
100
AcDbEntity
  8
0
  6
Continuous
 62
     7
100
AcDbLine
 10
7708.386807909
 20
5206.4089912276
 30
0.0
 11
7710.7540361786
 21
5206.4089912276
 31
0.0
  0
LINE
  5
17D
330
1F
100
AcDbEntity
  8
0
  6
Continuous
 62
     7
100
AcDbLine
 10
7708.1353361692
 20
5219.2436595917
 30
0.0
 11
7708.1353361692
 21
5216.3026248574
 31
0.0
  0
LINE
  5
17E
330
1F
100
AcDbEntity
  8
0
  6
Continuous
 62
     7
100
AcDbLine
 10
7705.6252132144
 20
5223.9734669685
 30
0.0
 11
7705.6252132144
 21
5212.6929601192
 31
0.0
  0
LINE
  5
17F
330
1F
100
AcDbEntity
  8
0
  6
Continuous
 62
     7
100
AcDbLine
 10
7711.8025491919
 20
5216.3026248574
 30
0.0
 11
7711.8025491919
 21
5218.7345018148
 31
0.0
  0
LINE
  5
180
330
1F
100
AcDbEntity
  8
0
  6
Continuous
 62
     7
100
AcDbLine
 10
7711.562439331
 20
5218.9746116757
 30
0.0
 11
7710.8153174605
 21
5218.9746116757
 31
0.0
  0
LINE
  5
181
330
1F
100
AcDbEntity
  8
0
  6
Continuous
 62
     7
100
AcDbLine
 10
7710.5752075996
 20
5218.7345018148
 30
0.0
 11
7710.5752075996
 21
5216.3026248574
 31
0.0
  0
LINE
  5
182
330
1F
100
AcDbEntity
  8
0
  6
Continuous
 62
     7
100
AcDbLine
 10
7714.2800308966
 20
5209.9349859458
 30
0.0
 11
7714.2800308966
 21
5217.8181547027
 31
0.0
  0
LINE
  5
183
330
1F
100
AcDbEntity
  8
0
  6
Continuous
 62
     7
100
AcDbLine
 10
7714.0399212923
 20
5218.0582647681
 30
0.0
 11
7713.3778925027
 21
5218.0582647681
 31
0.0
  0
LINE
  5
184
330
1F
100
AcDbEntity
  8
0
  6
Continuous
 62
     7
100
AcDbLine
 10
7708.9998642888
 20
5219.4837694526
 30
0.0
 11
7708.3754460301
 21
5219.4837694526
 31
0.0
  0
LINE
  5
185
330
1F
100
AcDbEntity
  8
0
  6
Continuous
 62
     7
100
AcDbLine
 10
7709.2399741497
 20
5216.3026248574
 30
0.0
 11
7709.2399741497
 21
5219.2436595917
 31
0.0
  0
LINE
  5
186
330
1F
100
AcDbEntity
  8
0
  6
Continuous
 62
     7
100
AcDbLine
 10
7704.1349927868
 20
5111.8791540623
 30
0.0
 11
7704.1360582199
 21
5111.8791391611
 31
0.0
  0
LINE
  5
187
330
1F
100
AcDbEntity
  8
0
  6
Continuous
 62
     7
100
AcDbLine
 10
7704.1360582199
 20
5111.8791391611
 30
0.0
 11
7704.2869697299
 21
5111.877097702
 31
0.0
  0
LINE
  5
188
330
1F
100
AcDbEntity
  8
0
  6
Continuous
 62
     7
100
AcDbLine
 10
7704.2869697299
 20
5111.877097702
 30
0.0
 11
7704.6830574955
 21
5111.8717779875
 31
0.0
  0
LINE
  5
189
330
1F
100
AcDbEntity
  8
0
  6
Continuous
 62
     7
100
AcDbLine
 10
7704.6830574955
 20
5111.8717779875
 30
0.0
 11
7705.2973206129
 21
5111.863507843
 31
0.0
  0
LINE
  5
18A
330
1F
100
AcDbEntity
  8
0
  6
Continuous
 62
     7
100
AcDbLine
 10
7705.2973206129
 20
5111.863507843
 30
0.0
 11
7706.0879166212
 21
5111.8528833151
 31
0.0
  0
LINE
  5
18B
330
1F
100
AcDbEntity
  8
0
  6
Continuous
 62
     7
100
AcDbLine
 10
7706.0879166212
 20
5111.8528833151
 30
0.0
 11
7707.0009480204
 21
5111.8405898571
 31
0.0
  0
LINE
  5
18C
330
1F
100
AcDbEntity
  8
0
  6
Continuous
 62
     7
100
AcDbLine
 10
7707.0009480204
 20
5111.8405898571
 30
0.0
 11
7707.9742099132
 21
5111.8275066376
 31
0.0
  0
LINE
  5
18D
330
1F
100
AcDbEntity
  8
0
  6
Continuous
 62
     7
100
AcDbLine
 10
7707.9742099132
 20
5111.8275066376
 30
0.0
 11
7708.9413623299
 21
5111.8144979238
 31
0.0
  0
LINE
  5
18E
330
1F
100
AcDbEntity
  8
0
  6
Continuous
 62
     7
100
AcDbLine
 10
7708.9413623299
 20
5111.8144979238
 30
0.0
 11
7709.8365048852
 21
5111.8024577856
 31
0.0
  0
LINE
  5
18F
330
1F
100
AcDbEntity
  8
0
  6
Continuous
 62
     7
100
AcDbLine
 10
7709.8365048852
 20
5111.8024577856
 30
0.0
 11
7710.598632225
 21
5111.7922057867
 31
0.0
  0
LINE
  5
190
330
1F
100
AcDbEntity
  8
0
  6
Continuous
 62
     7
100
AcDbLine
 10
7710.598632225
 20
5111.7922057867
 30
0.0
 11
7711.1758063521
 21
5111.7844422817
 31
0.0
  0
LINE
  5
191
330
1F
100
AcDbEntity
  8
0
  6
Continuous
 62
     7
100
AcDbLine
 10
7711.1758063521
 20
5111.7844422817
 30
0.0
 11
7711.5286956515
 21
5111.7796888113
 31
0.0
  0
LINE
  5
192
330
1F
100
AcDbEntity
  8
0
  6
Continuous
 62
     7
100
AcDbLine
 10
7711.5286956515
 20
5111.7796888113
 30
0.0
 11
7711.634315082
 21
5111.778273201
 31
0.0
  0
LINE
  5
193
330
1F
100
AcDbEntity
  8
0
  6
Continuous
 62
     7
100
AcDbLine
 10
7704.139768609
 20
5112.2340103149
 30
0.0
 11
7704.140834042
 21
5112.2339954138
 31
0.0
  0
LINE
  5
194
330
1F
100
AcDbEntity
  8
0
  6
Continuous
 62
     7
100
AcDbLine
 10
7704.140834042
 20
5112.2339954138
 30
0.0
 11
7704.291745552
 21
5112.2319688558
 31
0.0
  0
LINE
  5
195
330
1F
100
AcDbEntity
  8
0
  6
Continuous
 62
     7
100
AcDbLine
 10
7704.291745552
 20
5112.2319688558
 30
0.0
 11
7704.6878258671
 21
5112.2266342401
 31
0.0
  0
LINE
  5
196
330
1F
100
AcDbEntity
  8
0
  6
Continuous
 62
     7
100
AcDbLine
 10
7704.6878258671
 20
5112.2266342401
 30
0.0
 11
7705.302096435
 21
5112.2183789968
 31
0.0
  0
LINE
  5
197
330
1F
100
AcDbEntity
  8
0
  6
Continuous
 62
     7
100
AcDbLine
 10
7705.302096435
 20
5112.2183789968
 30
0.0
 11
7706.0926849927
 21
5112.2077395677
 31
0.0
  0
LINE
  5
198
330
1F
100
AcDbEntity
  8
0
  6
Continuous
 62
     7
100
AcDbLine
 10
7706.0926849927
 20
5112.2077395677
 30
0.0
 11
7707.0057238426
 21
5112.1954610109
 31
0.0
  0
LINE
  5
199
330
1F
100
AcDbEntity
  8
0
  6
Continuous
 62
     7
100
AcDbLine
 10
7707.0057238426
 20
5112.1954610109
 30
0.0
 11
7707.9789782848
 21
5112.1823628902
 31
0.0
  0
LINE
  5
19A
330
1F
100
AcDbEntity
  8
0
  6
Continuous
 62
     7
100
AcDbLine
 10
7707.9789782848
 20
5112.1823628902
 30
0.0
 11
7708.9461381521
 21
5112.1693541765
 31
0.0
  0
LINE
  5
19B
330
1F
100
AcDbEntity
  8
0
  6
Continuous
 62
     7
100
AcDbLine
 10
7708.9461381521
 20
5112.1693541765
 30
0.0
 11
7709.8412807073
 21
5112.1573140383
 31
0.0
  0
LINE
  5
19C
330
1F
100
AcDbEntity
  8
0
  6
Continuous
 62
     7
100
AcDbLine
 10
7709.8412807073
 20
5112.1573140383
 30
0.0
 11
7710.6034080472
 21
5112.1470620394
 31
0.0
  0
LINE
  5
19D
330
1F
100
AcDbEntity
  8
0
  6
Continuous
 62
     7
100
AcDbLine
 10
7710.6034080472
 20
5112.1470620394
 30
0.0
 11
7711.1805747237
 21
5112.1392985344
 31
0.0
  0
LINE
  5
19E
330
1F
100
AcDbEntity
  8
0
  6
Continuous
 62
     7
100
AcDbLine
 10
7711.1805747237
 20
5112.1392985344
 30
0.0
 11
7711.5334640231
 21
5112.1345599651
 31
0.0
  0
LINE
  5
19F
330
1F
100
AcDbEntity
  8
0
  6
Continuous
 62
     7
100
AcDbLine
 10
7711.5334640231
 20
5112.1345599651
 30
0.0
 11
7711.6390909042
 21
5112.1331294536
 31
0.0
  0
LINE
  5
1A0
330
1F
100
AcDbEntity
  8
0
  6
Continuous
 62
     7
100
AcDbLine
 10
7704.9539680566
 20
5112.3995175123
 30
0.0
 11
7704.9515913214
 21
5112.2230877638
 31
0.0
  0
LINE
  5
1A1
330
1F
100
AcDbEntity
  8
0
  6
Continuous
 62
     7
100
AcDbLine
 10
7710.8629937257
 20
5112.1435751676
 30
0.0
 11
7710.8654300656
 21
5112.3243411541
 31
0.0
  0
LINE
  5
1A2
330
1F
100
AcDbEntity
  8
0
  6
Continuous
 62
     7
100
AcDbLine
 10
7704.9158583369
 20
5112.2235646009
 30
0.0
 11
7704.9182872262
 21
5112.4043305874
 31
0.0
  0
LINE
  5
1A3
330
1F
100
AcDbEntity
  8
0
  6
Continuous
 62
     7
100
AcDbLine
 10
7619.719624051
 20
5144.5255865812
 30
0.0
 11
7623.2196236934
 21
5144.5255865812
 31
0.0
  0
LINE
  5
1A4
330
1F
100
AcDbEntity
  8
0
  6
Continuous
 62
     7
100
AcDbLine
 10
7619.719624051
 20
5128.9371242285
 30
0.0
 11
7623.2196236934
 21
5128.9371242285
 31
0.0
  0
LINE
  5
1A5
330
1F
100
AcDbEntity
  8
0
  6
Continuous
 62
     7
100
AcDbLine
 10
7619.719624051
 20
5128.9371242285
 30
0.0
 11
7619.719624051
 21
5144.5255865812
 31
0.0
  0
LINE
  5
1A6
330
1F
100
AcDbEntity
  8
0
  6
Continuous
 62
     7
100
AcDbLine
 10
7612.2196312036
 20
5149.9315043449
 30
0.0
 11
7612.2196312036
 21
5137.4646713495
 31
0.0
  0
LINE
  5
1A7
330
1F
100
AcDbEntity
  8
0
  6
Continuous
 62
     7
100
AcDbLine
 10
7610.7196207132
 20
5125.0108470678
 30
0.0
 11
7610.7196207132
 21
5148.4518488407
 31
0.0
  0
LINE
  5
1A8
330
1F
100
AcDbEntity
  8
0
  6
Continuous
 62
     7
100
AcDbLine
 10
7619.719624051
 20
5121.1428930521
 30
0.0
 11
7623.2196236934
 21
5121.1428930521
 31
0.0
  0
LINE
  5
1A9
330
1F
100
AcDbEntity
  8
0
  6
Continuous
 62
     7
100
AcDbLine
 10
7619.719624051
 20
5121.1428930521
 30
0.0
 11
7619.719624051
 21
5128.9371242285
 31
0.0
  0
LINE
  5
1AA
330
1F
100
AcDbEntity
  8
0
  6
Continuous
 62
     7
100
AcDbLine
 10
7619.719624051
 20
5152.3198028564
 30
0.0
 11
7623.2196236934
 21
5152.3198028564
 31
0.0
  0
LINE
  5
1AB
330
1F
100
AcDbEntity
  8
0
  6
Continuous
 62
     7
100
AcDbLine
 10
7619.719624051
 20
5144.5255865812
 30
0.0
 11
7619.719624051
 21
5152.3198028564
 31
0.0
  0
LINE
  5
1AC
330
1F
100
AcDbEntity
  8
0
  6
Continuous
 62
     7
100
AcDbLine
 10
7796.7196269866
 20
5144.5255865812
 30
0.0
 11
7796.7196269866
 21
5128.9371242285
 31
0.0
  0
LINE
  5
1AD
330
1F
100
AcDbEntity
  8
0
  6
Continuous
 62
     7
100
AcDbLine
 10
7796.7196269866
 20
5128.9371242285
 30
0.0
 11
7793.2196273442
 21
5128.9371242285
 31
0.0
  0
LINE
  5
1AE
330
1F
100
AcDbEntity
  8
0
  6
Continuous
 62
     7
100
AcDbLine
 10
7796.7196269866
 20
5144.5255865812
 30
0.0
 11
7793.2196273442
 21
5144.5255865812
 31
0.0
  0
LINE
  5
1AF
330
1F
100
AcDbEntity
  8
0
  6
Continuous
 62
     7
100
AcDbLine
 10
7804.219626819
 20
5149.9315043449
 30
0.0
 11
7804.2196268189
 21
5149.95184443
 31
0.0
  0
LINE
  5
1B0
330
1F
100
AcDbEntity
  8
0
  6
Continuous
 62
     7
100
AcDbLine
 10
7805.7196265991
 20
5146.8816091776
 30
0.0
 11
7805.7196265991
 21
5125.0108470678
 31
0.0
  0
LINE
  5
1B1
330
1F
100
AcDbEntity
  8
0
  6
Continuous
 62
     7
100
AcDbLine
 10
7805.7196265991
 20
5148.4518488407
 30
0.0
 11
7805.7196265991
 21
5146.8816091776
 31
0.0
  0
LINE
  5
1B2
330
1F
100
AcDbEntity
  8
0
  6
Continuous
 62
     7
100
AcDbLine
 10
7796.7196269866
 20
5152.3198028564
 30
0.0
 11
7793.2196273442
 21
5152.3198028564
 31
0.0
  0
LINE
  5
1B3
330
1F
100
AcDbEntity
  8
0
  6
Continuous
 62
     7
100
AcDbLine
 10
7796.7196269866
 20
5152.3198028564
 30
0.0
 11
7796.7196269866
 21
5144.5255865812
 31
0.0
  0
LINE
  5
1B4
330
1F
100
AcDbEntity
  8
0
  6
Continuous
 62
     7
100
AcDbLine
 10
7796.7196269866
 20
5121.1428930521
 30
0.0
 11
7793.2196273442
 21
5121.1428930521
 31
0.0
  0
LINE
  5
1B5
330
1F
100
AcDbEntity
  8
0
  6
Continuous
 62
     7
100
AcDbLine
 10
7796.7196269866
 20
5128.9371242285
 30
0.0
 11
7796.7196269866
 21
5121.1428930521
 31
0.0
  0
LINE
  5
1B6
330
1F
100
AcDbEntity
  8
0
  6
Continuous
 62
     7
100
AcDbLine
 10
7700.4254008617
 20
5274.2313509345
 30
0.0
 11
7716.0138557639
 21
5274.2313509345
 31
0.0
  0
LINE
  5
1B7
330
1F
100
AcDbEntity
  8
0
  6
Continuous
 62
     7
100
AcDbLine
 10
7716.0138557639
 20
5274.2313509345
 30
0.0
 11
7716.0138557639
 21
5268.7313509643
 31
0.0
  0
LINE
  5
1B8
330
1F
100
AcDbEntity
  8
0
  6
Continuous
 62
     7
100
AcDbLine
 10
7700.4254008617
 20
5274.2313509345
 30
0.0
 11
7700.4254008617
 21
5268.7313509643
 31
0.0
  0
LINE
  5
1B9
330
1F
100
AcDbEntity
  8
0
  6
Continuous
 62
     7
100
AcDbLine
 10
7696.4991237011
 20
5283.2313514784
 30
0.0
 11
7719.9401254739
 21
5283.2313514784
 31
0.0
  0
LINE
  5
1BA
330
1F
100
AcDbEntity
  8
0
  6
Continuous
 62
     7
100
AcDbLine
 10
7723.8080869402
 20
5274.2313509345
 30
0.0
 11
7723.8080869402
 21
5268.7313509643
 31
0.0
  0
LINE
  5
1BB
330
1F
100
AcDbEntity
  8
0
  6
Continuous
 62
     7
100
AcDbLine
 10
7716.0138557639
 20
5274.2313509345
 30
0.0
 11
7723.8080869402
 21
5274.2313509345
 31
0.0
  0
LINE
  5
1BC
330
1F
100
AcDbEntity
  8
0
  6
Continuous
 62
     7
100
AcDbLine
 10
7692.6311696853
 20
5274.2313509345
 30
0.0
 11
7692.6311696853
 21
5268.7313509643
 31
0.0
  0
LINE
  5
1BD
330
1F
100
AcDbEntity
  8
0
  6
Continuous
 62
     7
100
AcDbLine
 10
7692.6311696853
 20
5274.2313509345
 30
0.0
 11
7700.4254008617
 21
5274.2313509345
 31
0.0
  0
LINE
  5
1BE
330
1F
100
AcDbEntity
  8
0
  6
Continuous
 62
     7
100
AcDbLine
 10
7633.2196236934
 20
5108.7313529014
 30
0.0
 11
7703.1795377817
 21
5108.7313582659
 31
0.0
  0
LINE
  5
1BF
330
1F
100
AcDbEntity
  8
0
  6
Continuous
 62
     7
100
AcDbLine
 10
7713.2597188439
 20
5108.7313582659
 30
0.0
 11
7783.2196273442
 21
5108.7313529014
 31
0.0
  0
LINE
  5
1C0
330
1F
100
AcDbEntity
  8
0
  6
Continuous
 62
     7
100
AcDbLine
 10
8115.4563891261
 20
5201.2313520074
 30
0.0
 11
8116.9563996165
 21
5202.7313550472
 31
0.0
  0
LINE
  5
1C1
330
1F
100
AcDbEntity
  8
0
  6
Continuous
 62
     7
100
AcDbLine
 10
8116.9563996165
 20
5227.7313535571
 30
0.0
 11
8115.4563891261
 21
5229.2313491464
 31
0.0
  0
LINE
  5
1C2
330
1F
100
AcDbEntity
  8
0
  6
Continuous
 62
     7
100
AcDbLine
 10
8114.9563955634
 20
5201.2313520074
 30
0.0
 11
8115.4563891261
 21
5201.2313520074
 31
0.0
  0
LINE
  5
1C3
330
1F
100
AcDbEntity
  8
0
  6
Continuous
 62
     7
100
AcDbLine
 10
8115.4563891261
 20
5229.2313491464
 30
0.0
 11
8114.9563955634
 21
5229.2313491464
 31
0.0
  0
LINE
  5
1C4
330
1F
100
AcDbEntity
  8
0
  6
Continuous
 62
     7
100
AcDbLine
 10
8104.8571037619
 20
5204.1004960894
 30
0.0
 11
8104.9564051001
 21
5204.2716433763
 31
0.0
  0
LINE
  5
1C5
330
1F
100
AcDbEntity
  8
0
  6
Continuous
 62
     7
100
AcDbLine
 10
8104.4564115374
 20
5204.0313547015
 30
0.0
 11
8104.83141416
 21
5204.0313547015
 31
0.0
  0
LINE
  5
1C6
330
1F
100
AcDbEntity
  8
0
  6
Continuous
 62
     7
100
AcDbLine
 10
8101.4563905566
 20
5204.8313533425
 30
0.0
 11
8103.7933396666
 21
5204.8313533425
 31
0.0
  0
LINE
  5
1C7
330
1F
100
AcDbEntity
  8
0
  6
Continuous
 62
     7
100
AcDbLine
 10
8103.8001643984
 20
5204.8432519197
 30
0.0
 11
8103.9876508086
 21
5204.8432519197
 31
0.0
  0
LINE
  5
1C8
330
1F
100
AcDbEntity
  8
0
  6
Continuous
 62
     7
100
AcDbLine
 10
8103.8001643984
 20
5204.8432519197
 30
0.0
 11
8103.9876508086
 21
5204.8432519197
 31
0.0
  0
LINE
  5
1C9
330
1F
100
AcDbEntity
  8
0
  6
Continuous
 62
     7
100
AcDbLine
 10
8063.6063980429
 20
5102.7313461065
 30
0.0
 11
8063.6063980429
 21
5101.8313457727
 31
0.0
  0
LINE
  5
1CA
330
1F
100
AcDbEntity
  8
0
  6
Continuous
 62
     7
100
AcDbLine
 10
8076.8063979714
 20
5101.8313457727
 30
0.0
 11
8076.8063979714
 21
5102.7313461065
 31
0.0
  0
LINE
  5
1CB
330
1F
100
AcDbEntity
  8
0
  6
Continuous
 62
     7
100
AcDbLine
 10
8142.4063908427
 20
5112.1813496113
 30
0.0
 11
8145.3564035265
 21
5112.1813496113
 31
0.0
  0
LINE
  5
1CC
330
1F
100
AcDbEntity
  8
0
  6
Continuous
 62
     7
100
AcDbLine
 10
8123.1564151614
 20
5112.1813496113
 30
0.0
 11
8134.9063979952
 21
5112.1813496113
 31
0.0
  0
LINE
  5
1CD
330
1F
100
AcDbEntity
  8
0
  6
Continuous
 62
     7
100
AcDbLine
 10
8145.3564035265
 20
5161.2813462973
 30
0.0
 11
8123.1564151614
 21
5161.2813462973
 31
0.0
  0
LINE
  5
1CE
330
1F
100
AcDbEntity
  8
0
  6
Continuous
 62
     7
100
AcDbLine
 10
8114.9563955634
 20
5108.281358099
 30
0.0
 11
8115.7564091055
 21
5108.281358099
 31
0.0
  0
LINE
  5
1CF
330
1F
100
AcDbEntity
  8
0
  6
Continuous
 62
     7
100
AcDbLine
 10
8115.7564091055
 20
5165.1813527107
 30
0.0
 11
8114.9563955634
 21
5165.1813527107
 31
0.0
  0
LINE
  5
1D0
330
1F
100
AcDbEntity
  8
0
  6
Continuous
 62
     7
100
AcDbLine
 10
8134.9063979952
 20
5112.1835698843
 30
0.0
 11
8134.9063979952
 21
5111.8287136316
 31
0.0
  0
LINE
  5
1D1
330
1F
100
AcDbEntity
  8
0
  6
Continuous
 62
     7
100
AcDbLine
 10
8142.4057947962
 20
5111.8278046608
 30
0.0
 11
8142.4063908427
 21
5112.1835698843
 31
0.0
  0
LINE
  5
1D2
330
1F
100
AcDbEntity
  8
0
  6
Continuous
 62
     7
100
AcDbLine
 10
8117.2563897936
 20
5113.3313467264
 30
0.0
 11
8123.1564151614
 21
5113.3313467264
 31
0.0
  0
LINE
  5
1D3
330
1F
100
AcDbEntity
  8
0
  6
Continuous
 62
     7
100
AcDbLine
 10
8123.1564151614
 20
5160.1313491821
 30
0.0
 11
8117.2563897936
 21
5160.1313491821
 31
0.0
  0
LINE
  5
1D4
330
1F
100
AcDbEntity
  8
0
  6
Continuous
 62
     7
100
AcDbLine
 10
8104.9564051001
 20
5160.1313491821
 30
0.0
 11
8101.4563905566
 21
5160.1313491821
 31
0.0
  0
LINE
  5
1D5
330
1F
100
AcDbEntity
  8
0
  6
Continuous
 62
     7
100
AcDbLine
 10
8067.2482120364
 20
5282.1600446015
 30
0.0
 11
8066.1769079535
 21
5283.2313514784
 31
0.0
  0
LINE
  5
1D6
330
1F
100
AcDbEntity
  8
0
  6
Continuous
 62
     7
100
AcDbLine
 10
8041.8527292578
 20
5282.3481773496
 30
0.0
 11
8041.2358956902
 21
5281.7313512325
 31
0.0
  0
LINE
  5
1D7
330
1F
100
AcDbEntity
  8
0
  6
Continuous
 62
     7
100
AcDbLine
 10
8042.7359061806
 20
5283.2313514784
 30
0.0
 11
8042.0997905104
 21
5282.5952348769
 31
0.0
  0
LINE
  5
1D8
330
1F
100
AcDbEntity
  8
0
  6
Continuous
 62
     7
100
AcDbLine
 10
8067.3188584416
 20
5274.2313509345
 30
0.0
 11
8067.6695572703
 21
5274.4339508474
 31
0.0
  0
LINE
  5
1D9
330
1F
100
AcDbEntity
  8
0
  6
Continuous
 62
     7
100
AcDbLine
 10
8067.6769035428
 20
5280.7923005432
 30
0.0
 11
8067.6769035428
 21
5281.1893494338
 31
0.0
  0
LINE
  5
1DA
330
1F
100
AcDbEntity
  8
0
  6
Continuous
 62
     7
100
AcDbLine
 10
8067.6769035428
 20
5279.2047997475
 30
0.0
 11
8067.6769035428
 21
5279.6018505007
 31
0.0
  0
LINE
  5
1DB
330
1F
100
AcDbEntity
  8
0
  6
Continuous
 62
     7
100
AcDbLine
 10
8067.6769035428
 20
5277.6172989517
 30
0.0
 11
8067.6769035428
 21
5278.014349705
 31
0.0
  0
LINE
  5
1DC
330
1F
100
AcDbEntity
  8
0
  6
Continuous
 62
     7
100
AcDbLine
 10
8067.6769035428
 20
5276.0298000187
 30
0.0
 11
8067.6769035428
 21
5276.4268507719
 31
0.0
  0
LINE
  5
1DD
330
1F
100
AcDbEntity
  8
0
  6
Continuous
 62
     7
100
AcDbLine
 10
8067.6769035428
 20
5274.4422992229
 30
0.0
 11
8067.6769035428
 21
5274.8393499762
 31
0.0
  0
LINE
  5
1DE
330
1F
100
AcDbEntity
  8
0
  6
Continuous
 62
     7
100
AcDbLine
 10
8041.2358956902
 20
5275.632987684
 30
0.0
 11
8041.2358956902
 21
5275.2361138821
 31
0.0
  0
LINE
  5
1DF
330
1F
100
AcDbEntity
  8
0
  6
Continuous
 62
     7
100
AcDbLine
 10
8041.2358956902
 20
5277.2204884797
 30
0.0
 11
8041.2358956902
 21
5276.8236128151
 31
0.0
  0
LINE
  5
1E0
330
1F
100
AcDbEntity
  8
0
  6
Continuous
 62
     7
100
AcDbLine
 10
8041.2358956902
 20
5278.8079892754
 30
0.0
 11
8041.2358956902
 21
5278.4111136108
 31
0.0
  0
LINE
  5
1E1
330
1F
100
AcDbEntity
  8
0
  6
Continuous
 62
     7
100
AcDbLine
 10
8041.2358956902
 20
5280.3954882085
 30
0.0
 11
8041.2358956902
 21
5279.9986144066
 31
0.0
  0
LINE
  5
1E2
330
1F
100
AcDbEntity
  8
0
  6
Continuous
 62
     7
100
AcDbLine
 10
8041.2358956902
 20
5281.7313512325
 30
0.0
 11
8041.2358956902
 21
5281.5861133396
 31
0.0
  0
LINE
  5
1E3
330
1F
100
AcDbEntity
  8
0
  6
Continuous
 62
     7
100
AcDbLine
 10
8042.1030091612
 20
5282.4883898258
 30
0.0
 11
8041.8939011662
 21
5282.367586112
 31
0.0
  0
LINE
  5
1E4
330
1F
100
AcDbEntity
  8
0
  6
Continuous
 62
     7
100
AcDbLine
 10
8042.0951860516
 20
5281.0907037467
 30
0.0
 11
8042.0951860516
 21
5280.8963721156
 31
0.0
  0
LINE
  5
1E5
330
1F
100
AcDbEntity
  8
0
  6
Continuous
 62
     7
100
AcDbLine
 10
8042.0951860516
 20
5279.5032029509
 30
0.0
 11
8042.0951860516
 21
5279.3088731825
 31
0.0
  0
LINE
  5
1E6
330
1F
100
AcDbEntity
  8
0
  6
Continuous
 62
     7
100
AcDbLine
 10
8042.0951860516
 20
5277.9157040179
 30
0.0
 11
8042.0951860516
 21
5277.7213723868
 31
0.0
  0
LINE
  5
1E7
330
1F
100
AcDbEntity
  8
0
  6
Continuous
 62
     7
100
AcDbLine
 10
8042.0951860516
 20
5276.3282032221
 30
0.0
 11
8042.0951860516
 21
5276.1338734537
 31
0.0
  0
LINE
  5
1E8
330
1F
100
AcDbEntity
  8
0
  6
Continuous
 62
     7
100
AcDbLine
 10
8042.0951860516
 20
5274.7407024264
 30
0.0
 11
8042.0951860516
 21
5274.546372658
 31
0.0
  0
LINE
  5
1E9
330
1F
100
AcDbEntity
  8
0
  6
Continuous
 62
     7
100
AcDbLine
 10
8066.8176131814
 20
5280.0985155165
 30
0.0
 11
8066.8176131814
 21
5280.2917835772
 31
0.0
  0
LINE
  5
1EA
330
1F
100
AcDbEntity
  8
0
  6
Continuous
 62
     7
100
AcDbLine
 10
8066.8176131814
 20
5278.5110165834
 30
0.0
 11
8066.8176131814
 21
5278.7042827815
 31
0.0
  0
LINE
  5
1EB
330
1F
100
AcDbEntity
  8
0
  6
Continuous
 62
     7
100
AcDbLine
 10
8066.8176131814
 20
5276.9235157877
 30
0.0
 11
8066.8176131814
 21
5277.1167838484
 31
0.0
  0
LINE
  5
1EC
330
1F
100
AcDbEntity
  8
0
  6
Continuous
 62
     7
100
AcDbLine
 10
8066.8176131814
 20
5275.336014992
 30
0.0
 11
8066.8176131814
 21
5275.5292830527
 31
0.0
  0
LINE
  5
1ED
330
1F
100
AcDbEntity
  8
0
  6
Continuous
 62
     7
100
AcDbLine
 10
8066.8176131814
 20
5281.6860163122
 30
0.0
 11
8066.8176131814
 21
5281.8792825103
 31
0.0
  0
LINE
  5
1EE
330
1F
100
AcDbEntity
  8
0
  6
Continuous
 62
     7
100
AcDbLine
 10
8042.0951860516
 20
5282.6782026797
 30
0.0
 11
8042.0951860516
 21
5282.4838729113
 31
0.0
  0
LINE
  5
1EF
330
1F
100
AcDbEntity
  8
0
  6
Continuous
 62
     7
100
AcDbLine
 10
8104.9563955634
 20
5108.7313529013
 30
0.0
 11
8104.9564051001
 21
5098.7313529014
 31
0.0
  0
LINE
  5
1F0
330
1F
100
AcDbEntity
  8
0
  6
Continuous
 62
     7
100
AcDbLine
 10
8104.9563955634
 20
5108.7313529013
 30
0.0
 11
8114.9563955634
 21
5108.7313582659
 31
0.0
  0
LINE
  5
1F1
330
1F
100
AcDbEntity
  8
0
  6
Continuous
 62
     7
100
AcDbLine
 10
8104.9563955634
 20
5258.7313509643
 30
0.0
 11
8114.9563955634
 21
5258.7313530505
 31
0.0
  0
LINE
  5
1F2
330
1F
100
AcDbEntity
  8
0
  6
Continuous
 62
     7
100
AcDbLine
 10
8104.9564051001
 20
5268.7313509643
 30
0.0
 11
8104.9563955634
 21
5258.7313509643
 31
0.0
  0
LINE
  5
1F3
330
1F
100
AcDbEntity
  8
0
  6
Continuous
 62
     7
100
AcDbLine
 10
8114.9563955634
 20
5258.7313530505
 30
0.0
 11
8114.9563955634
 21
5108.7313582659
 31
0.0
  0
LINE
  5
1F4
330
1F
100
AcDbEntity
  8
0
  6
Continuous
 62
     7
100
AcDbLine
 10
8104.9563955634
 20
5258.7313509643
 30
0.0
 11
8104.9563955634
 21
5108.7313529013
 31
0.0
  0
LINE
  5
1F5
330
1F
100
AcDbEntity
  8
0
  6
Continuous
 62
     7
100
AcDbLine
 10
8116.9563996165
 20
5227.7313535571
 30
0.0
 11
8116.9563996165
 21
5202.7313550472
 31
0.0
  0
LINE
  5
1F6
330
1F
100
AcDbEntity
  8
0
  6
Continuous
 62
     7
100
AcDbLine
 10
8115.4563891261
 20
5201.2313520074
 30
0.0
 11
8115.4563891261
 21
5229.2313491464
 31
0.0
  0
LINE
  5
1F7
330
1F
100
AcDbEntity
  8
0
  6
Continuous
 62
     7
100
AcDbLine
 10
8103.9563881724
 20
5208.4853490352
 30
0.0
 11
8103.9563881724
 21
5215.7313515901
 31
0.0
  0
LINE
  5
1F8
330
1F
100
AcDbEntity
  8
0
  6
Continuous
 62
     7
100
AcDbLine
 10
8104.4564115374
 20
5215.2313505769
 30
0.0
 11
8104.4497358172
 21
5215.7313515901
 31
0.0
  0
LINE
  5
1F9
330
1F
100
AcDbEntity
  8
0
  6
Continuous
 62
     7
100
AcDbLine
 10
8104.4564115374
 20
5215.2313505769
 30
0.0
 11
8104.4564115374
 21
5204.0313547015
 31
0.0
  0
LINE
  5
1FA
330
1F
100
AcDbEntity
  8
0
  6
Continuous
 62
     7
100
AcDbLine
 10
8103.770451483
 20
5209.1184025168
 30
0.0
 11
8103.5692262023
 21
5209.1184025168
 31
0.0
  0
LINE
  5
1FB
330
1F
100
AcDbEntity
  8
0
  6
Continuous
 62
     7
100
AcDbLine
 10
8064.4063966839
 20
5101.0313471317
 30
0.0
 11
8076.0063993304
 21
5101.0313471317
 31
0.0
  0
LINE
  5
1FC
330
1F
100
AcDbEntity
  8
0
  6
Continuous
 62
     7
100
AcDbLine
 10
8058.3843606083
 20
5138.3542110681
 30
0.0
 11
8058.4328936904
 21
5138.2313509941
 31
0.0
  0
LINE
  5
1FD
330
1F
100
AcDbEntity
  8
0
  6
Continuous
 62
     7
100
AcDbLine
 10
8058.6768853037
 20
5137.2313489675
 30
0.0
 11
8058.6803125708
 21
5136.2611641645
 31
0.0
  0
LINE
  5
1FE
330
1F
100
AcDbEntity
  8
0
  6
Continuous
 62
     7
100
AcDbLine
 10
8058.6803125708
 20
5136.2611641645
 30
0.0
 11
8058.6768853037
 21
5136.231346941
 31
0.0
  0
LINE
  5
1FF
330
1F
100
AcDbEntity
  8
0
  6
Continuous
 62
     7
100
AcDbLine
 10
8058.4328936904
 20
5135.2313449144
 30
0.0
 11
8058.4306883185
 21
5135.2254887581
 31
0.0
  0
LINE
  5
200
330
1F
100
AcDbEntity
  8
0
  6
Continuous
 62
     7
100
AcDbLine
 10
8058.4306883185
 20
5135.2254887581
 30
0.0
 11
8057.9563992589
 21
5134.3204369306
 31
0.0
  0
LINE
  5
201
330
1F
100
AcDbEntity
  8
0
  6
Continuous
 62
     7
100
AcDbLine
 10
8056.8673180907
 20
5133.2313557625
 30
0.0
 11
8056.3226955502
 21
5132.9130520582
 31
0.0
  0
LINE
  5
202
330
1F
100
AcDbEntity
  8
0
  6
Continuous
 62
     7
100
AcDbLine
 10
8056.3226955502
 20
5132.9130520582
 30
0.0
 11
8055.9564101069
 21
5132.754861331
 31
0.0
  0
LINE
  5
203
330
1F
100
AcDbEntity
  8
0
  6
Continuous
 62
     7
100
AcDbLine
 10
8054.9564080803
 20
5132.5108697176
 30
0.0
 11
8054.2523729174
 21
5132.4862529993
 31
0.0
  0
LINE
  5
204
330
1F
100
AcDbEntity
  8
0
  6
Continuous
 62
     7
100
AcDbLine
 10
8054.2523729174
 20
5132.4862529993
 30
0.0
 11
8053.9564060538
 21
5132.5108697176
 31
0.0
  0
LINE
  5
205
330
1F
100
AcDbEntity
  8
0
  6
Continuous
 62
     7
100
AcDbLine
 10
8052.9564040272
 20
5132.754861331
 30
0.0
 11
8052.2325205176
 21
5133.1096430778
 31
0.0
  0
LINE
  5
206
330
1F
100
AcDbEntity
  8
0
  6
Continuous
 62
     7
100
AcDbLine
 10
8052.2325205176
 20
5133.1096430778
 30
0.0
 11
8052.0454960434
 21
5133.2313557625
 31
0.0
  0
LINE
  5
207
330
1F
100
AcDbEntity
  8
0
  6
Continuous
 62
     7
100
AcDbLine
 10
8050.9563999741
 20
5134.3204369306
 30
0.0
 11
8050.762818989
 21
5134.6289803743
 31
0.0
  0
LINE
  5
208
330
1F
100
AcDbEntity
  8
0
  6
Continuous
 62
     7
100
AcDbLine
 10
8050.762818989
 20
5134.6289803743
 30
0.0
 11
8050.4799055426
 21
5135.2313449144
 31
0.0
  0
LINE
  5
209
330
1F
100
AcDbEntity
  8
0
  6
Continuous
 62
     7
100
AcDbLine
 10
8050.2359139292
 20
5136.231346941
 30
0.0
 11
8050.2068715661
 21
5136.6684278011
 31
0.0
  0
LINE
  5
20A
330
1F
100
AcDbEntity
  8
0
  6
Continuous
 62
     7
100
AcDbLine
 10
8050.2068715661
 20
5136.6684278011
 30
0.0
 11
8050.2359139292
 21
5137.2313489675
 31
0.0
  0
LINE
  5
20B
330
1F
100
AcDbEntity
  8
0
  6
Continuous
 62
     7
100
AcDbLine
 10
8050.4799055426
 20
5138.2313509941
 30
0.0
 11
8050.7022010653
 21
5138.7234469414
 31
0.0
  0
LINE
  5
20C
330
1F
100
AcDbEntity
  8
0
  6
Continuous
 62
     7
100
AcDbLine
 10
8050.7022010653
 20
5138.7234469414
 30
0.0
 11
8050.9563999741
 21
5139.1422589779
 31
0.0
  0
LINE
  5
20D
330
1F
100
AcDbEntity
  8
0
  6
Continuous
 62
     7
100
AcDbLine
 10
8052.0454960434
 20
5140.2313550472
 30
0.0
 11
8052.1262603371
 21
5140.2856399774
 31
0.0
  0
LINE
  5
20E
330
1F
100
AcDbEntity
  8
0
  6
Continuous
 62
     7
100
AcDbLine
 10
8052.1262603371
 20
5140.2856399774
 30
0.0
 11
8052.9564040272
 21
5140.7078494787
 31
0.0
  0
LINE
  5
20F
330
1F
100
AcDbEntity
  8
0
  6
Continuous
 62
     7
100
AcDbLine
 10
8053.9564060538
 20
5140.9518410921
 30
0.0
 11
8054.1267710297
 21
5140.9685452938
 31
0.0
  0
LINE
  5
210
330
1F
100
AcDbEntity
  8
0
  6
Continuous
 62
     7
100
AcDbLine
 10
8054.1267710297
 20
5140.9685452938
 30
0.0
 11
8054.9564080803
 21
5140.9518410921
 31
0.0
  0
LINE
  5
211
330
1F
100
AcDbEntity
  8
0
  6
Continuous
 62
     7
100
AcDbLine
 10
8055.9564101069
 20
5140.7078494787
 30
0.0
 11
8056.2088357775
 21
5140.603228426
 31
0.0
  0
LINE
  5
212
330
1F
100
AcDbEntity
  8
0
  6
Continuous
 62
     7
100
AcDbLine
 10
8056.2088357775
 20
5140.603228426
 30
0.0
 11
8056.8673180907
 21
5140.2313550472
 31
0.0
  0
LINE
  5
213
330
1F
100
AcDbEntity
  8
0
  6
Continuous
 62
     7
100
AcDbLine
 10
8057.9563992589
 20
5139.1422589779
 30
0.0
 11
8058.3843606083
 21
5138.3542110681
 31
0.0
  0
LINE
  5
214
330
1F
100
AcDbEntity
  8
0
  6
Continuous
 62
     7
100
AcDbLine
 10
8056.133450803
 20
5137.2313489675
 30
0.0
 11
8056.2064068883
 21
5136.7297758818
 31
0.0
  0
LINE
  5
215
330
1F
100
AcDbEntity
  8
0
  6
Continuous
 62
     7
100
AcDbLine
 10
8056.2064068883
 20
5136.7297758818
 30
0.0
 11
8056.133450803
 21
5136.231346941
 31
0.0
  0
LINE
  5
216
330
1F
100
AcDbEntity
  8
0
  6
Continuous
 62
     7
100
AcDbLine
 10
8054.9564080803
 20
5135.0543042183
 30
0.0
 11
8054.4548200934
 21
5134.9813481331
 31
0.0
  0
LINE
  5
217
330
1F
100
AcDbEntity
  8
0
  6
Continuous
 62
     7
100
AcDbLine
 10
8054.4548200934
 20
5134.9813481331
 30
0.0
 11
8053.9564060538
 21
5135.0543042183
 31
0.0
  0
LINE
  5
218
330
1F
100
AcDbEntity
  8
0
  6
Continuous
 62
     7
100
AcDbLine
 10
8052.7793484299
 20
5136.231346941
 30
0.0
 11
8052.7064072459
 21
5136.7329349279
 31
0.0
  0
LINE
  5
219
330
1F
100
AcDbEntity
  8
0
  6
Continuous
 62
     7
100
AcDbLine
 10
8052.7064072459
 20
5136.7329349279
 30
0.0
 11
8052.7793484299
 21
5137.2313489675
 31
0.0
  0
LINE
  5
21A
330
1F
100
AcDbEntity
  8
0
  6
Continuous
 62
     7
100
AcDbLine
 10
8053.9564060538
 20
5138.4084065914
 30
0.0
 11
8054.4579791396
 21
5138.4813477754
 31
0.0
  0
LINE
  5
21B
330
1F
100
AcDbEntity
  8
0
  6
Continuous
 62
     7
100
AcDbLine
 10
8054.4579791396
 20
5138.4813477754
 30
0.0
 11
8054.9564080803
 21
5138.4084065914
 31
0.0
  0
LINE
  5
21C
330
1F
100
AcDbEntity
  8
0
  6
Continuous
 62
     7
100
AcDbLine
 10
8145.3564035265
 20
5112.1813496113
 30
0.0
 11
8145.3564035265
 21
5161.2813462973
 31
0.0
  0
LINE
  5
21D
330
1F
100
AcDbEntity
  8
0
  6
Continuous
 62
     7
100
AcDbLine
 10
8123.1564151614
 20
5112.1813496113
 30
0.0
 11
8123.1564151614
 21
5161.2813462973
 31
0.0
  0
LINE
  5
21E
330
1F
100
AcDbEntity
  8
0
  6
Continuous
 62
     7
100
AcDbLine
 10
8114.9563955634
 20
5108.281358099
 30
0.0
 11
8114.9563955634
 21
5108.7313582659
 31
0.0
  0
LINE
  5
21F
330
1F
100
AcDbEntity
  8
0
  6
Continuous
 62
     7
100
AcDbLine
 10
8117.2563897936
 20
5116.6208823681
 30
0.0
 11
8117.2563897936
 21
5163.6813571215
 31
0.0
  0
LINE
  5
220
330
1F
100
AcDbEntity
  8
0
  6
Continuous
 62
     7
100
AcDbLine
 10
8117.2563897936
 20
5109.7813536882
 30
0.0
 11
8117.2563897936
 21
5116.6208823681
 31
0.0
  0
LINE
  5
221
330
1F
100
AcDbEntity
  8
0
  6
Continuous
 62
     7
100
AcDbLine
 10
8137.9790770381
 20
5112.2331758499
 30
0.0
 11
8137.9790770381
 21
5112.4204685449
 31
0.0
  0
LINE
  5
222
330
1F
100
AcDbEntity
  8
0
  6
Continuous
 62
     7
100
AcDbLine
 10
8139.474974808
 20
5112.4185760975
 30
0.0
 11
8139.474974808
 21
5112.2327884197
 31
0.0
  0
LINE
  5
223
330
1F
100
AcDbEntity
  8
0
  6
Continuous
 62
     7
100
AcDbLine
 10
8139.4499408572
 20
5112.4199470043
 30
0.0
 11
8139.4499408572
 21
5112.2328629255
 31
0.0
  0
LINE
  5
224
330
1F
100
AcDbEntity
  8
0
  6
Continuous
 62
     7
100
AcDbLine
 10
8139.3337416022
 20
5112.2331758499
 30
0.0
 11
8139.3337416022
 21
5112.4249835968
 31
0.0
  0
LINE
  5
225
330
1F
100
AcDbEntity
  8
0
  6
Continuous
 62
     7
100
AcDbLine
 10
8139.358775553
 20
5112.2331162453
 30
0.0
 11
8139.358775553
 21
5112.4247898817
 31
0.0
  0
LINE
  5
226
330
1F
100
AcDbEntity
  8
0
  6
Continuous
 62
     7
100
AcDbLine
 10
8057.9563992589
 20
5136.231346941
 30
0.0
 11
8057.9563992589
 21
5137.2313489675
 31
0.0
  0
LINE
  5
227
330
1F
100
AcDbEntity
  8
0
  6
Continuous
 62
     7
100
AcDbLine
 10
8058.9564012854
 20
5136.231346941
 30
0.0
 11
8057.9563992589
 21
5136.231346941
 31
0.0
  0
LINE
  5
228
330
1F
100
AcDbEntity
  8
0
  6
Continuous
 62
     7
100
AcDbLine
 10
8058.9564012854
 20
5137.2313489675
 30
0.0
 11
8058.9564012854
 21
5136.231346941
 31
0.0
  0
LINE
  5
229
330
1F
100
AcDbEntity
  8
0
  6
Continuous
 62
     7
100
AcDbLine
 10
8057.9563992589
 20
5137.2313489675
 30
0.0
 11
8058.9564012854
 21
5137.2313489675
 31
0.0
  0
LINE
  5
22A
330
1F
100
AcDbEntity
  8
0
  6
Continuous
 62
     7
100
AcDbLine
 10
8057.9563992589
 20
5134.231357789
 30
0.0
 11
8057.9563992589
 21
5135.2313449144
 31
0.0
  0
LINE
  5
22B
330
1F
100
AcDbEntity
  8
0
  6
Continuous
 62
     7
100
AcDbLine
 10
8058.9564012854
 20
5134.231357789
 30
0.0
 11
8057.9563992589
 21
5134.231357789
 31
0.0
  0
LINE
  5
22C
330
1F
100
AcDbEntity
  8
0
  6
Continuous
 62
     7
100
AcDbLine
 10
8058.9564012854
 20
5135.2313449144
 30
0.0
 11
8058.9564012854
 21
5134.231357789
 31
0.0
  0
LINE
  5
22D
330
1F
100
AcDbEntity
  8
0
  6
Continuous
 62
     7
100
AcDbLine
 10
8057.9563992589
 20
5135.2313449144
 30
0.0
 11
8058.9564012854
 21
5135.2313449144
 31
0.0
  0
LINE
  5
22E
330
1F
100
AcDbEntity
  8
0
  6
Continuous
 62
     7
100
AcDbLine
 10
8057.9563992589
 20
5132.737575984
 30
0.0
 11
8057.9563992589
 21
5133.2313557625
 31
0.0
  0
LINE
  5
22F
330
1F
100
AcDbEntity
  8
0
  6
Continuous
 62
     7
100
AcDbLine
 10
8057.9563992589
 20
5133.2313557625
 30
0.0
 11
8058.6990433304
 21
5133.2313557625
 31
0.0
  0
LINE
  5
230
330
1F
100
AcDbEntity
  8
0
  6
Continuous
 62
     7
100
AcDbLine
 10
8057.9563992589
 20
5140.2313550472
 30
0.0
 11
8057.9563992589
 21
5140.9739991188
 31
0.0
  0
LINE
  5
231
330
1F
100
AcDbEntity
  8
0
  6
Continuous
 62
     7
100
AcDbLine
 10
8058.6990433304
 20
5140.2313550472
 30
0.0
 11
8057.9563992589
 21
5140.2313550472
 31
0.0
  0
LINE
  5
232
330
1F
100
AcDbEntity
  8
0
  6
Continuous
 62
     7
100
AcDbLine
 10
8057.9563992589
 20
5139.2313530207
 30
0.0
 11
8058.9564012854
 21
5139.2313530207
 31
0.0
  0
LINE
  5
233
330
1F
100
AcDbEntity
  8
0
  6
Continuous
 62
     7
100
AcDbLine
 10
8057.9563992589
 20
5138.2313509941
 30
0.0
 11
8057.9563992589
 21
5139.2313530207
 31
0.0
  0
LINE
  5
234
330
1F
100
AcDbEntity
  8
0
  6
Continuous
 62
     7
100
AcDbLine
 10
8058.9564012854
 20
5138.2313509941
 30
0.0
 11
8057.9563992589
 21
5138.2313509941
 31
0.0
  0
LINE
  5
235
330
1F
100
AcDbEntity
  8
0
  6
Continuous
 62
     7
100
AcDbLine
 10
8058.9564012854
 20
5139.2313530207
 30
0.0
 11
8058.9564012854
 21
5138.2313509941
 31
0.0
  0
LINE
  5
236
330
1F
100
AcDbEntity
  8
0
  6
Continuous
 62
     7
100
AcDbLine
 10
8053.9564060538
 20
5132.2313537359
 30
0.0
 11
8053.9564060538
 21
5133.2313557625
 31
0.0
  0
LINE
  5
237
330
1F
100
AcDbEntity
  8
0
  6
Continuous
 62
     7
100
AcDbLine
 10
8054.9564080803
 20
5132.2313537359
 30
0.0
 11
8053.9564060538
 21
5132.2313537359
 31
0.0
  0
LINE
  5
238
330
1F
100
AcDbEntity
  8
0
  6
Continuous
 62
     7
100
AcDbLine
 10
8054.9564080803
 20
5133.2313557625
 30
0.0
 11
8054.9564080803
 21
5132.2313537359
 31
0.0
  0
LINE
  5
239
330
1F
100
AcDbEntity
  8
0
  6
Continuous
 62
     7
100
AcDbLine
 10
8053.9564060538
 20
5133.2313557625
 30
0.0
 11
8054.9564080803
 21
5133.2313557625
 31
0.0
  0
LINE
  5
23A
330
1F
100
AcDbEntity
  8
0
  6
Continuous
 62
     7
100
AcDbLine
 10
8053.9564060538
 20
5134.231357789
 30
0.0
 11
8053.9564060538
 21
5135.2313449144
 31
0.0
  0
LINE
  5
23B
330
1F
100
AcDbEntity
  8
0
  6
Continuous
 62
     7
100
AcDbLine
 10
8054.9564080803
 20
5134.231357789
 30
0.0
 11
8053.9564060538
 21
5134.231357789
 31
0.0
  0
LINE
  5
23C
330
1F
100
AcDbEntity
  8
0
  6
Continuous
 62
     7
100
AcDbLine
 10
8054.9564080803
 20
5135.2313449144
 30
0.0
 11
8054.9564080803
 21
5134.231357789
 31
0.0
  0
LINE
  5
23D
330
1F
100
AcDbEntity
  8
0
  6
Continuous
 62
     7
100
AcDbLine
 10
8053.9564060538
 20
5135.2313449144
 30
0.0
 11
8054.9564080803
 21
5135.2313449144
 31
0.0
  0
LINE
  5
23E
330
1F
100
AcDbEntity
  8
0
  6
Continuous
 62
     7
100
AcDbLine
 10
8053.9564060538
 20
5136.231346941
 30
0.0
 11
8053.9564060538
 21
5137.2313489675
 31
0.0
  0
LINE
  5
23F
330
1F
100
AcDbEntity
  8
0
  6
Continuous
 62
     7
100
AcDbLine
 10
8054.9564080803
 20
5136.231346941
 30
0.0
 11
8053.9564060538
 21
5136.231346941
 31
0.0
  0
LINE
  5
240
330
1F
100
AcDbEntity
  8
0
  6
Continuous
 62
     7
100
AcDbLine
 10
8054.9564080803
 20
5137.2313489675
 30
0.0
 11
8054.9564080803
 21
5136.231346941
 31
0.0
  0
LINE
  5
241
330
1F
100
AcDbEntity
  8
0
  6
Continuous
 62
     7
100
AcDbLine
 10
8053.9564060538
 20
5137.2313489675
 30
0.0
 11
8054.9564080803
 21
5137.2313489675
 31
0.0
  0
LINE
  5
242
330
1F
100
AcDbEntity
  8
0
  6
Continuous
 62
     7
100
AcDbLine
 10
8053.9564060538
 20
5138.2313509941
 30
0.0
 11
8053.9564060538
 21
5139.2313530207
 31
0.0
  0
LINE
  5
243
330
1F
100
AcDbEntity
  8
0
  6
Continuous
 62
     7
100
AcDbLine
 10
8054.9564080803
 20
5138.2313509941
 30
0.0
 11
8053.9564060538
 21
5138.2313509941
 31
0.0
  0
LINE
  5
244
330
1F
100
AcDbEntity
  8
0
  6
Continuous
 62
     7
100
AcDbLine
 10
8054.9564080803
 20
5139.2313530207
 30
0.0
 11
8054.9564080803
 21
5138.2313509941
 31
0.0
  0
LINE
  5
245
330
1F
100
AcDbEntity
  8
0
  6
Continuous
 62
     7
100
AcDbLine
 10
8053.9564060538
 20
5139.2313530207
 30
0.0
 11
8054.9564080803
 21
5139.2313530207
 31
0.0
  0
LINE
  5
246
330
1F
100
AcDbEntity
  8
0
  6
Continuous
 62
     7
100
AcDbLine
 10
8053.9564060538
 20
5140.2313550472
 30
0.0
 11
8053.9564060538
 21
5141.2313570738
 31
0.0
  0
LINE
  5
247
330
1F
100
AcDbEntity
  8
0
  6
Continuous
 62
     7
100
AcDbLine
 10
8054.9564080803
 20
5140.2313550472
 30
0.0
 11
8053.9564060538
 21
5140.2313550472
 31
0.0
  0
LINE
  5
248
330
1F
100
AcDbEntity
  8
0
  6
Continuous
 62
     7
100
AcDbLine
 10
8054.9564080803
 20
5141.2313570738
 30
0.0
 11
8054.9564080803
 21
5140.2313550472
 31
0.0
  0
LINE
  5
249
330
1F
100
AcDbEntity
  8
0
  6
Continuous
 62
     7
100
AcDbLine
 10
8053.9564060538
 20
5141.2313570738
 30
0.0
 11
8054.9564080803
 21
5141.2313570738
 31
0.0
  0
LINE
  5
24A
330
1F
100
AcDbEntity
  8
0
  6
Continuous
 62
     7
100
AcDbLine
 10
8056.9563972323
 20
5141.2313570738
 30
0.0
 11
8056.9563972323
 21
5140.2313550472
 31
0.0
  0
LINE
  5
24B
330
1F
100
AcDbEntity
  8
0
  6
Continuous
 62
     7
100
AcDbLine
 10
8055.9564101069
 20
5141.2313570738
 30
0.0
 11
8056.9563972323
 21
5141.2313570738
 31
0.0
  0
LINE
  5
24C
330
1F
100
AcDbEntity
  8
0
  6
Continuous
 62
     7
100
AcDbLine
 10
8055.9564101069
 20
5140.2313550472
 30
0.0
 11
8055.9564101069
 21
5141.2313570738
 31
0.0
  0
LINE
  5
24D
330
1F
100
AcDbEntity
  8
0
  6
Continuous
 62
     7
100
AcDbLine
 10
8056.9563972323
 20
5140.2313550472
 30
0.0
 11
8055.9564101069
 21
5140.2313550472
 31
0.0
  0
LINE
  5
24E
330
1F
100
AcDbEntity
  8
0
  6
Continuous
 62
     7
100
AcDbLine
 10
8056.9563972323
 20
5139.2313530207
 30
0.0
 11
8056.9563972323
 21
5138.2313509941
 31
0.0
  0
LINE
  5
24F
330
1F
100
AcDbEntity
  8
0
  6
Continuous
 62
     7
100
AcDbLine
 10
8055.9564101069
 20
5139.2313530207
 30
0.0
 11
8056.9563972323
 21
5139.2313530207
 31
0.0
  0
LINE
  5
250
330
1F
100
AcDbEntity
  8
0
  6
Continuous
 62
     7
100
AcDbLine
 10
8055.9564101069
 20
5138.2313509941
 30
0.0
 11
8055.9564101069
 21
5139.2313530207
 31
0.0
  0
LINE
  5
251
330
1F
100
AcDbEntity
  8
0
  6
Continuous
 62
     7
100
AcDbLine
 10
8056.9563972323
 20
5138.2313509941
 30
0.0
 11
8055.9564101069
 21
5138.2313509941
 31
0.0
  0
LINE
  5
252
330
1F
100
AcDbEntity
  8
0
  6
Continuous
 62
     7
100
AcDbLine
 10
8056.9563972323
 20
5137.2313489675
 30
0.0
 11
8056.9563972323
 21
5136.231346941
 31
0.0
  0
LINE
  5
253
330
1F
100
AcDbEntity
  8
0
  6
Continuous
 62
     7
100
AcDbLine
 10
8055.9564101069
 20
5137.2313489675
 30
0.0
 11
8056.9563972323
 21
5137.2313489675
 31
0.0
  0
LINE
  5
254
330
1F
100
AcDbEntity
  8
0
  6
Continuous
 62
     7
100
AcDbLine
 10
8055.9564101069
 20
5136.231346941
 30
0.0
 11
8055.9564101069
 21
5137.2313489675
 31
0.0
  0
LINE
  5
255
330
1F
100
AcDbEntity
  8
0
  6
Continuous
 62
     7
100
AcDbLine
 10
8056.9563972323
 20
5136.231346941
 30
0.0
 11
8055.9564101069
 21
5136.231346941
 31
0.0
  0
LINE
  5
256
330
1F
100
AcDbEntity
  8
0
  6
Continuous
 62
     7
100
AcDbLine
 10
8056.9563972323
 20
5135.2313449144
 30
0.0
 11
8056.9563972323
 21
5134.231357789
 31
0.0
  0
LINE
  5
257
330
1F
100
AcDbEntity
  8
0
  6
Continuous
 62
     7
100
AcDbLine
 10
8055.9564101069
 20
5135.2313449144
 30
0.0
 11
8056.9563972323
 21
5135.2313449144
 31
0.0
  0
LINE
  5
258
330
1F
100
AcDbEntity
  8
0
  6
Continuous
 62
     7
100
AcDbLine
 10
8055.9564101069
 20
5134.231357789
 30
0.0
 11
8055.9564101069
 21
5135.2313449144
 31
0.0
  0
LINE
  5
259
330
1F
100
AcDbEntity
  8
0
  6
Continuous
 62
     7
100
AcDbLine
 10
8056.9563972323
 20
5134.231357789
 30
0.0
 11
8055.9564101069
 21
5134.231357789
 31
0.0
  0
LINE
  5
25A
330
1F
100
AcDbEntity
  8
0
  6
Continuous
 62
     7
100
AcDbLine
 10
8056.9563972323
 20
5133.2313557625
 30
0.0
 11
8056.9563972323
 21
5132.7094872951
 31
0.0
  0
LINE
  5
25B
330
1F
100
AcDbEntity
  8
0
  6
Continuous
 62
     7
100
AcDbLine
 10
8055.9564101069
 20
5133.2313557625
 30
0.0
 11
8056.9563972323
 21
5133.2313557625
 31
0.0
  0
LINE
  5
25C
330
1F
100
AcDbEntity
  8
0
  6
Continuous
 62
     7
100
AcDbLine
 10
8055.9564101069
 20
5132.2313537359
 30
0.0
 11
8055.9564101069
 21
5133.2313557625
 31
0.0
  0
LINE
  5
25D
330
1F
100
AcDbEntity
  8
0
  6
Continuous
 62
     7
100
AcDbLine
 10
8056.1982708542
 20
5132.2313537359
 30
0.0
 11
8055.9564101069
 21
5132.2313537359
 31
0.0
  0
LINE
  5
25E
330
1F
100
AcDbEntity
  8
0
  6
Continuous
 62
     7
100
AcDbLine
 10
8052.9564040272
 20
5141.2313570738
 30
0.0
 11
8052.9564040272
 21
5140.2313550472
 31
0.0
  0
LINE
  5
25F
330
1F
100
AcDbEntity
  8
0
  6
Continuous
 62
     7
100
AcDbLine
 10
8051.9564020007
 20
5141.2313570738
 30
0.0
 11
8052.9564040272
 21
5141.2313570738
 31
0.0
  0
LINE
  5
260
330
1F
100
AcDbEntity
  8
0
  6
Continuous
 62
     7
100
AcDbLine
 10
8051.9564020007
 20
5140.2313550472
 30
0.0
 11
8051.9564020007
 21
5141.2313570738
 31
0.0
  0
LINE
  5
261
330
1F
100
AcDbEntity
  8
0
  6
Continuous
 62
     7
100
AcDbLine
 10
8052.9564040272
 20
5140.2313550472
 30
0.0
 11
8051.9564020007
 21
5140.2313550472
 31
0.0
  0
LINE
  5
262
330
1F
100
AcDbEntity
  8
0
  6
Continuous
 62
     7
100
AcDbLine
 10
8052.9564040272
 20
5139.2313530207
 30
0.0
 11
8052.9564040272
 21
5138.2313509941
 31
0.0
  0
LINE
  5
263
330
1F
100
AcDbEntity
  8
0
  6
Continuous
 62
     7
100
AcDbLine
 10
8051.9564020007
 20
5139.2313530207
 30
0.0
 11
8052.9564040272
 21
5139.2313530207
 31
0.0
  0
LINE
  5
264
330
1F
100
AcDbEntity
  8
0
  6
Continuous
 62
     7
100
AcDbLine
 10
8051.9564020007
 20
5138.2313509941
 30
0.0
 11
8051.9564020007
 21
5139.2313530207
 31
0.0
  0
LINE
  5
265
330
1F
100
AcDbEntity
  8
0
  6
Continuous
 62
     7
100
AcDbLine
 10
8052.9564040272
 20
5138.2313509941
 30
0.0
 11
8051.9564020007
 21
5138.2313509941
 31
0.0
  0
LINE
  5
266
330
1F
100
AcDbEntity
  8
0
  6
Continuous
 62
     7
100
AcDbLine
 10
8052.9564040272
 20
5137.2313489675
 30
0.0
 11
8052.9564040272
 21
5136.231346941
 31
0.0
  0
LINE
  5
267
330
1F
100
AcDbEntity
  8
0
  6
Continuous
 62
     7
100
AcDbLine
 10
8051.9564020007
 20
5137.2313489675
 30
0.0
 11
8052.9564040272
 21
5137.2313489675
 31
0.0
  0
LINE
  5
268
330
1F
100
AcDbEntity
  8
0
  6
Continuous
 62
     7
100
AcDbLine
 10
8051.9564020007
 20
5136.231346941
 30
0.0
 11
8051.9564020007
 21
5137.2313489675
 31
0.0
  0
LINE
  5
269
330
1F
100
AcDbEntity
  8
0
  6
Continuous
 62
     7
100
AcDbLine
 10
8052.9564040272
 20
5136.231346941
 30
0.0
 11
8051.9564020007
 21
5136.231346941
 31
0.0
  0
LINE
  5
26A
330
1F
100
AcDbEntity
  8
0
  6
Continuous
 62
     7
100
AcDbLine
 10
8052.9564040272
 20
5135.2313449144
 30
0.0
 11
8052.9564040272
 21
5134.231357789
 31
0.0
  0
LINE
  5
26B
330
1F
100
AcDbEntity
  8
0
  6
Continuous
 62
     7
100
AcDbLine
 10
8051.9564020007
 20
5135.2313449144
 30
0.0
 11
8052.9564040272
 21
5135.2313449144
 31
0.0
  0
LINE
  5
26C
330
1F
100
AcDbEntity
  8
0
  6
Continuous
 62
     7
100
AcDbLine
 10
8051.9564020007
 20
5134.231357789
 30
0.0
 11
8051.9564020007
 21
5135.2313449144
 31
0.0
  0
LINE
  5
26D
330
1F
100
AcDbEntity
  8
0
  6
Continuous
 62
     7
100
AcDbLine
 10
8052.9564040272
 20
5134.231357789
 30
0.0
 11
8051.9564020007
 21
5134.231357789
 31
0.0
  0
LINE
  5
26E
330
1F
100
AcDbEntity
  8
0
  6
Continuous
 62
     7
100
AcDbLine
 10
8052.9564040272
 20
5133.2313557625
 30
0.0
 11
8052.9564040272
 21
5132.2313537359
 31
0.0
  0
LINE
  5
26F
330
1F
100
AcDbEntity
  8
0
  6
Continuous
 62
     7
100
AcDbLine
 10
8051.9564020007
 20
5133.2313557625
 30
0.0
 11
8052.9564040272
 21
5133.2313557625
 31
0.0
  0
LINE
  5
270
330
1F
100
AcDbEntity
  8
0
  6
Continuous
 62
     7
100
AcDbLine
 10
8051.9564020007
 20
5132.632835722
 30
0.0
 11
8051.9564020007
 21
5133.2313557625
 31
0.0
  0
LINE
  5
271
330
1F
100
AcDbEntity
  8
0
  6
Continuous
 62
     7
100
AcDbLine
 10
8052.9564040272
 20
5132.2313537359
 30
0.0
 11
8051.9564020007
 21
5132.2313537359
 31
0.0
  0
LINE
  5
272
330
1F
100
AcDbEntity
  8
0
  6
Continuous
 62
     7
100
AcDbLine
 10
8050.9563999741
 20
5140.9739991188
 30
0.0
 11
8050.9563999741
 21
5140.2313550472
 31
0.0
  0
LINE
  5
273
330
1F
100
AcDbEntity
  8
0
  6
Continuous
 62
     7
100
AcDbLine
 10
8050.9563999741
 20
5140.2313550472
 30
0.0
 11
8050.2137559025
 21
5140.2313550472
 31
0.0
  0
LINE
  5
274
330
1F
100
AcDbEntity
  8
0
  6
Continuous
 62
     7
100
AcDbLine
 10
8050.9563999741
 20
5139.2313530207
 30
0.0
 11
8050.9563999741
 21
5138.2313509941
 31
0.0
  0
LINE
  5
275
330
1F
100
AcDbEntity
  8
0
  6
Continuous
 62
     7
100
AcDbLine
 10
8049.9563979476
 20
5139.2313530207
 30
0.0
 11
8050.9563999741
 21
5139.2313530207
 31
0.0
  0
LINE
  5
276
330
1F
100
AcDbEntity
  8
0
  6
Continuous
 62
     7
100
AcDbLine
 10
8049.9563979476
 20
5138.2313509941
 30
0.0
 11
8049.9563979476
 21
5139.2313530207
 31
0.0
  0
LINE
  5
277
330
1F
100
AcDbEntity
  8
0
  6
Continuous
 62
     7
100
AcDbLine
 10
8050.9563999741
 20
5138.2313509941
 30
0.0
 11
8049.9563979476
 21
5138.2313509941
 31
0.0
  0
LINE
  5
278
330
1F
100
AcDbEntity
  8
0
  6
Continuous
 62
     7
100
AcDbLine
 10
8050.9563999741
 20
5137.2313489675
 30
0.0
 11
8050.9563999741
 21
5136.231346941
 31
0.0
  0
LINE
  5
279
330
1F
100
AcDbEntity
  8
0
  6
Continuous
 62
     7
100
AcDbLine
 10
8049.9563979476
 20
5137.2313489675
 30
0.0
 11
8050.9563999741
 21
5137.2313489675
 31
0.0
  0
LINE
  5
27A
330
1F
100
AcDbEntity
  8
0
  6
Continuous
 62
     7
100
AcDbLine
 10
8049.9563979476
 20
5136.231346941
 30
0.0
 11
8049.9563979476
 21
5137.2313489675
 31
0.0
  0
LINE
  5
27B
330
1F
100
AcDbEntity
  8
0
  6
Continuous
 62
     7
100
AcDbLine
 10
8050.9563999741
 20
5136.231346941
 30
0.0
 11
8049.9563979476
 21
5136.231346941
 31
0.0
  0
LINE
  5
27C
330
1F
100
AcDbEntity
  8
0
  6
Continuous
 62
     7
100
AcDbLine
 10
8050.9563999741
 20
5135.2313449144
 30
0.0
 11
8050.9563999741
 21
5134.231357789
 31
0.0
  0
LINE
  5
27D
330
1F
100
AcDbEntity
  8
0
  6
Continuous
 62
     7
100
AcDbLine
 10
8049.9563979476
 20
5135.2313449144
 30
0.0
 11
8050.9563999741
 21
5135.2313449144
 31
0.0
  0
LINE
  5
27E
330
1F
100
AcDbEntity
  8
0
  6
Continuous
 62
     7
100
AcDbLine
 10
8049.9563979476
 20
5134.231357789
 30
0.0
 11
8049.9563979476
 21
5135.2313449144
 31
0.0
  0
LINE
  5
27F
330
1F
100
AcDbEntity
  8
0
  6
Continuous
 62
     7
100
AcDbLine
 10
8050.9563999741
 20
5134.231357789
 30
0.0
 11
8049.9563979476
 21
5134.231357789
 31
0.0
  0
LINE
  5
280
330
1F
100
AcDbEntity
  8
0
  6
Continuous
 62
     7
100
AcDbLine
 10
8050.9563999741
 20
5132.7098747253
 30
0.0
 11
8050.9563999741
 21
5132.4887116909
 31
0.0
  0
LINE
  5
281
330
1F
100
AcDbEntity
  8
0
  6
Continuous
 62
     7
100
AcDbLine
 10
8067.9564046233
 20
5128.9371242285
 30
0.0
 11
8067.9564046233
 21
5144.5255865812
 31
0.0
  0
LINE
  5
282
330
1F
100
AcDbEntity
  8
0
  6
Continuous
 62
     7
100
AcDbLine
 10
8054.4563996165
 20
5121.1428930521
 30
0.0
 11
8067.9564046233
 21
5128.9371242285
 31
0.0
  0
LINE
  5
283
330
1F
100
AcDbEntity
  8
0
  6
Continuous
 62
     7
100
AcDbLine
 10
8040.9564095109
 20
5128.9371242285
 30
0.0
 11
8054.4563996165
 21
5121.1428930521
 31
0.0
  0
LINE
  5
284
330
1F
100
AcDbEntity
  8
0
  6
Continuous
 62
     7
100
AcDbLine
 10
8040.9564095109
 20
5144.5255865812
 30
0.0
 11
8040.9564095109
 21
5128.9371242285
 31
0.0
  0
LINE
  5
285
330
1F
100
AcDbEntity
  8
0
  6
Continuous
 62
     7
100
AcDbLine
 10
8054.4563996165
 20
5152.3198028564
 30
0.0
 11
8040.9564095109
 21
5144.5255865812
 31
0.0
  0
LINE
  5
286
330
1F
100
AcDbEntity
  8
0
  6
Continuous
 62
     7
100
AcDbLine
 10
8067.9564046233
 20
5144.5255865812
 30
0.0
 11
8054.4563996165
 21
5152.3198028564
 31
0.0
  0
LINE
  5
287
330
1F
100
AcDbEntity
  8
0
  6
Continuous
 62
     7
100
AcDbLine
 10
8054.4563996165
 20
5274.2313509345
 30
0.0
 11
8067.9564046233
 21
5274.2313509345
 31
0.0
  0
LINE
  5
288
330
1F
100
AcDbEntity
  8
0
  6
Continuous
 62
     7
100
AcDbLine
 10
8067.9564046233
 20
5274.2313509345
 30
0.0
 11
8067.9564046233
 21
5263.7313520074
 31
0.0
  0
LINE
  5
289
330
1F
100
AcDbEntity
  8
0
  6
Continuous
 62
     7
100
AcDbLine
 10
8054.4563996165
 20
5274.2313509345
 30
0.0
 11
8054.4563996165
 21
5263.7313520074
 31
0.0
  0
LINE
  5
28A
330
1F
100
AcDbEntity
  8
0
  6
Continuous
 62
     7
100
AcDbLine
 10
8043.3914082616
 20
5281.7313512325
 30
0.0
 11
8041.2358956902
 21
5281.7313512325
 31
0.0
  0
LINE
  5
28B
330
1F
100
AcDbEntity
  8
0
  6
Continuous
 62
     7
100
AcDbLine
 10
8048.5961603491
 20
5283.2313514784
 30
0.0
 11
8066.1769079535
 21
5283.2313514784
 31
0.0
  0
LINE
  5
28C
330
1F
100
AcDbEntity
  8
0
  6
Continuous
 62
     7
100
AcDbLine
 10
8042.7359061806
 20
5283.2313514784
 30
0.0
 11
8048.5961603491
 21
5283.2313514784
 31
0.0
  0
LINE
  5
28D
330
1F
100
AcDbEntity
  8
0
  6
Continuous
 62
     7
100
AcDbLine
 10
8040.9564095109
 20
5274.2313509345
 30
0.0
 11
8040.9564095109
 21
5263.7313520074
 31
0.0
  0
LINE
  5
28E
330
1F
100
AcDbEntity
  8
0
  6
Continuous
 62
     7
100
AcDbLine
 10
8040.9564095109
 20
5274.2313509345
 30
0.0
 11
8054.4563996165
 21
5274.2313509345
 31
0.0
  0
LINE
  5
28F
330
1F
100
AcDbEntity
  8
0
  6
Continuous
 62
     7
100
AcDbLine
 10
8035.4564058154
 20
5261.7313516795
 30
0.0
 11
8035.4564058154
 21
5104.7313501596
 31
0.0
  0
LINE
  5
290
330
1F
100
AcDbEntity
  8
0
  6
Continuous
 62
     7
100
AcDbLine
 10
8035.4564058154
 20
5261.7313516795
 30
0.0
 11
8037.4564029905
 21
5261.7313514425
 31
0.0
  0
LINE
  5
291
330
1F
100
AcDbEntity
  8
0
  6
Continuous
 62
     7
100
AcDbLine
 10
8037.4564029905
 20
5261.7313514425
 30
0.0
 11
8037.4564058154
 21
5104.7313461064
 31
0.0
  0
LINE
  5
292
330
1F
100
AcDbEntity
  8
0
  6
Continuous
 62
     7
100
AcDbLine
 10
8035.4564058154
 20
5104.7313501596
 30
0.0
 11
8037.4564058154
 21
5104.7313461064
 31
0.0
  0
LINE
  5
293
330
1F
100
AcDbEntity
  8
0
  6
Continuous
 62
     7
100
AcDbLine
 10
8037.4564029905
 20
5261.7313514425
 30
0.0
 11
8101.4563905566
 21
5261.7313514425
 31
0.0
  0
LINE
  5
294
330
1F
100
AcDbEntity
  8
0
  6
Continuous
 62
     7
100
AcDbLine
 10
8101.4563905566
 20
5261.7313514425
 30
0.0
 11
8101.4563905566
 21
5104.7313501596
 31
0.0
  0
LINE
  5
295
330
1F
100
AcDbEntity
  8
0
  6
Continuous
 62
     7
100
AcDbLine
 10
8037.4564058154
 20
5104.7313461064
 30
0.0
 11
8101.4563905566
 21
5104.7313501596
 31
0.0
  0
LINE
  5
296
330
1F
100
AcDbEntity
  8
0
  6
Continuous
 62
     7
100
AcDbLine
 10
8103.4563982846
 20
5104.7313461064
 30
0.0
 11
8101.4563905566
 21
5106.7313542127
 31
0.0
  0
LINE
  5
297
330
1F
100
AcDbEntity
  8
0
  6
Continuous
 62
     7
100
AcDbLine
 10
8103.4563982846
 20
5104.7313461064
 30
0.0
 11
8103.4563946097
 21
5102.7313461065
 31
0.0
  0
LINE
  5
298
330
1F
100
AcDbEntity
  8
0
  6
Continuous
 62
     7
100
AcDbLine
 10
8037.4564098685
 20
5102.7313461065
 30
0.0
 11
8103.4563946097
 21
5102.7313461065
 31
0.0
  0
LINE
  5
299
330
1F
100
AcDbEntity
  8
0
  6
Continuous
 62
     7
100
AcDbLine
 10
8037.4564098685
 20
5102.7313461065
 30
0.0
 11
8037.4564058154
 21
5104.7313461064
 31
0.0
  0
LINE
  5
29A
330
1F
100
AcDbEntity
  8
0
  6
Continuous
 62
     7
100
AcDbLine
 10
8103.4563946097
 20
5263.7313486175
 30
0.0
 11
8103.4564024923
 21
5261.7313517704
 31
0.0
  0
LINE
  5
29B
330
1F
100
AcDbEntity
  8
0
  6
Continuous
 62
     7
100
AcDbLine
 10
8037.4564029905
 20
5261.7313514425
 30
0.0
 11
8037.4564098685
 21
5263.7313486175
 31
0.0
  0
LINE
  5
29C
330
1F
100
AcDbEntity
  8
0
  6
Continuous
 62
     7
100
AcDbLine
 10
8037.4564098685
 20
5263.7313486175
 30
0.0
 11
8103.4563946097
 21
5263.7313486175
 31
0.0
  0
LINE
  5
29D
330
1F
100
AcDbEntity
  8
0
  6
Continuous
 62
     7
100
AcDbLine
 10
8103.4564024923
 20
5261.7313517704
 30
0.0
 11
8101.4563905566
 21
5259.7313511147
 31
0.0
  0
LINE
  5
29E
330
1F
100
AcDbEntity
  8
0
  6
Continuous
 62
     7
100
AcDbLine
 10
8101.4563905566
 20
5150.7313539743
 30
0.0
 11
8103.4563946097
 21
5150.7313539743
 31
0.0
  0
LINE
  5
29F
330
1F
100
AcDbEntity
  8
0
  6
Continuous
 62
     7
100
AcDbLine
 10
8103.4563946097
 20
5104.7413488388
 30
0.0
 11
8103.4563946097
 21
5150.7313539743
 31
0.0
  0
LINE
  5
2A0
330
1F
100
AcDbEntity
  8
0
  6
Continuous
 62
     7
100
AcDbLine
 10
8103.4563946097
 20
5104.7413488388
 30
0.0
 11
8101.4563905566
 21
5106.7413528919
 31
0.0
  0
LINE
  5
2A1
330
1F
100
AcDbEntity
  8
0
  6
Continuous
 62
     7
100
AcDbLine
 10
8103.4563946097
 20
5150.7313539743
 30
0.0
 11
8104.9564051001
 21
5150.7313539743
 31
0.0
  0
LINE
  5
2A2
330
1F
100
AcDbEntity
  8
0
  6
Continuous
 62
     7
100
AcDbLine
 10
8104.4564115374
 20
5104.7313501596
 30
0.0
 11
8104.9564051001
 21
5104.7313501596
 31
0.0
  0
LINE
  5
2A3
330
1F
100
AcDbEntity
  8
0
  6
Continuous
 62
     7
100
AcDbLine
 10
8103.4563946097
 20
5215.7313515901
 30
0.0
 11
8103.4563946097
 21
5261.7213530004
 31
0.0
  0
LINE
  5
2A4
330
1F
100
AcDbEntity
  8
0
  6
Continuous
 62
     7
100
AcDbLine
 10
8101.4563905566
 20
5215.7313515901
 30
0.0
 11
8103.4563946097
 21
5215.7313515901
 31
0.0
  0
LINE
  5
2A5
330
1F
100
AcDbEntity
  8
0
  6
Continuous
 62
     7
100
AcDbLine
 10
8103.4563946097
 20
5261.7213530004
 30
0.0
 11
8101.4563905566
 21
5259.7213526726
 31
0.0
  0
LINE
  5
2A6
330
1F
100
AcDbEntity
  8
0
  6
Continuous
 62
     7
100
AcDbLine
 10
8104.9296426146
 20
5215.7313515901
 30
0.0
 11
8103.4563946097
 21
5215.7313515901
 31
0.0
  0
LINE
  5
2A7
330
1F
100
AcDbEntity
  8
0
  6
Continuous
 62
     7
100
AcDbLine
 10
8104.4564067324
 20
5261.7313514425
 30
0.0
 11
8104.9564002951
 21
5261.7313514425
 31
0.0
  0
LINE
  5
2A8
330
1F
100
AcDbEntity
  8
0
  6
Continuous
 62
     7
100
AcDbLine
 10
8063.6063980429
 20
5101.8313457727
 30
0.0
 11
8076.8063979714
 21
5101.8313457727
 31
0.0
  0
LINE
  5
2A9
330
1F
100
AcDbEntity
  8
0
  6
Continuous
 62
     7
100
AcDbLine
 10
8058.3695190518
 20
5133.2313557625
 30
0.0
 11
8058.3678650229
 21
5133.2294931173
 31
0.0
  0
LINE
  5
2AA
330
1F
100
AcDbEntity
  8
0
  6
Continuous
 62
     7
100
AcDbLine
 10
8058.3678650229
 20
5133.2294931173
 30
0.0
 11
8057.9563992589
 21
5132.8182359695
 31
0.0
  0
LINE
  5
2AB
330
1F
100
AcDbEntity
  8
0
  6
Continuous
 62
     7
100
AcDbLine
 10
8050.5432801812
 20
5140.2313550472
 30
0.0
 11
8050.5449342101
 21
5140.2332027912
 31
0.0
  0
LINE
  5
2AC
330
1F
100
AcDbEntity
  8
0
  6
Continuous
 62
     7
100
AcDbLine
 10
8050.5449342101
 20
5140.2332027912
 30
0.0
 11
8050.9563999741
 21
5140.6444748402
 31
0.0
  0
LINE
  5
2AD
330
1F
100
AcDbEntity
  8
0
  6
Continuous
 62
     7
100
AcDbLine
 10
8057.9563992589
 20
5140.6444748402
 30
0.0
 11
8057.958261904
 21
5140.6428208113
 31
0.0
  0
LINE
  5
2AE
330
1F
100
AcDbEntity
  8
0
  6
Continuous
 62
     7
100
AcDbLine
 10
8057.958261904
 20
5140.6428208113
 30
0.0
 11
8058.3695190518
 21
5140.2313550472
 31
0.0
  0
LINE
  5
2AF
330
1F
100
AcDbEntity
  8
0
  6
Continuous
 62
     7
100
AcDbLine
 10
8115.7564091055
 20
5115.5015667438
 30
0.0
 11
8115.7564091055
 21
5165.1813527107
 31
0.0
  0
LINE
  5
2B0
330
1F
100
AcDbEntity
  8
0
  6
Continuous
 62
     7
100
AcDbLine
 10
8115.7564091055
 20
5108.281358099
 30
0.0
 11
8115.7564091055
 21
5115.5015667438
 31
0.0
  0
LINE
  5
2B1
330
1F
100
AcDbEntity
  8
0
  6
Continuous
 62
     7
100
AcDbLine
 10
8103.4563982846
 20
5104.7313461064
 30
0.0
 11
8101.4563905566
 21
5104.7313501596
 31
0.0
  0
LINE
  5
2B2
330
1F
100
AcDbEntity
  8
0
  6
Continuous
 62
     7
100
AcDbLine
 10
8101.4563905566
 20
5261.7313514425
 30
0.0
 11
8103.4564024923
 21
5261.7313517704
 31
0.0
  0
LINE
  5
2B3
330
1F
100
AcDbEntity
  8
0
  6
Continuous
 62
     7
100
AcDbLine
 10
7694.219626018
 20
4787.886142315
 30
0.0
 11
7694.219626018
 21
4787.3861487523
 31
0.0
  0
LINE
  5
2B4
330
1F
100
AcDbEntity
  8
0
  6
Continuous
 62
     7
100
AcDbLine
 10
7722.219623157
 20
4787.3861487523
 30
0.0
 11
7722.219623157
 21
4787.886142315
 31
0.0
  0
LINE
  5
2B5
330
1F
100
AcDbEntity
  8
0
  6
Continuous
 62
     7
100
AcDbLine
 10
7694.219626018
 20
4787.3861487523
 30
0.0
 11
7695.7196290578
 21
4785.8861382619
 31
0.0
  0
LINE
  5
2B6
330
1F
100
AcDbEntity
  8
0
  6
Continuous
 62
     7
100
AcDbLine
 10
7720.7196275677
 20
4785.8861382619
 30
0.0
 11
7722.219623157
 21
4787.3861487523
 31
0.0
  0
LINE
  5
2B7
330
1F
100
AcDbEntity
  8
0
  6
Continuous
 62
     7
100
AcDbLine
 10
7718.9242984142
 20
4798.8814707414
 30
0.0
 11
7718.9196269002
 21
4798.886149706
 31
0.0
  0
LINE
  5
2B8
330
1F
100
AcDbEntity
  8
0
  6
Continuous
 62
     7
100
AcDbLine
 10
7697.5196297254
 20
4798.886149706
 30
0.0
 11
7697.0196287121
 21
4798.386126341
 31
0.0
  0
LINE
  5
2B9
330
1F
100
AcDbEntity
  8
0
  6
Continuous
 62
     7
100
AcDbLine
 10
7718.6003918733
 20
4798.6588175908
 30
0.0
 11
7718.9179430689
 21
4798.8422806874
 31
0.0
  0
LINE
  5
2BA
330
1F
100
AcDbEntity
  8
0
  6
Continuous
 62
     7
100
AcDbLine
 10
7719.4196279134
 20
4797.8861327783
 30
0.0
 11
7719.4196279134
 21
4798.0109747067
 31
0.0
  0
LINE
  5
2BB
330
1F
100
AcDbEntity
  8
0
  6
Continuous
 62
     7
100
AcDbLine
 10
7718.6196292724
 20
4798.886149706
 30
0.0
 11
7718.6196292724
 21
4799.3861432687
 31
0.0
  0
LINE
  5
2BC
330
1F
100
AcDbEntity
  8
0
  6
Continuous
 62
     7
100
AcDbLine
 10
7697.8196273531
 20
4799.3861432687
 30
0.0
 11
7697.8196273531
 21
4798.886149706
 31
0.0
  0
LINE
  5
2BD
330
1F
100
AcDbEntity
  8
0
  6
Continuous
 62
     7
100
AcDbLine
 10
7718.6077306952
 20
4798.4798844472
 30
0.0
 11
7718.6077306952
 21
4798.6630495206
 31
0.0
  0
LINE
  5
2BE
330
1F
100
AcDbEntity
  8
0
  6
Continuous
 62
     7
100
AcDbLine
 10
7697.8315259304
 20
4797.9173954144
 30
0.0
 11
7697.8315259304
 21
4797.8861327783
 31
0.0
  0
LINE
  5
2BF
330
1F
100
AcDbEntity
  8
0
  6
Continuous
 62
     7
100
AcDbLine
 10
7705.6696261253
 20
4849.0361418143
 30
0.0
 11
7704.272791275
 21
4849.0361418143
 31
0.0
  0
LINE
  5
2C0
330
1F
100
AcDbEntity
  8
0
  6
Continuous
 62
     7
100
AcDbLine
 10
7704.272791275
 20
4847.7361347095
 30
0.0
 11
7705.6696261253
 21
4847.7361347095
 31
0.0
  0
LINE
  5
2C1
330
1F
100
AcDbEntity
  8
0
  6
Continuous
 62
     7
100
AcDbLine
 10
7683.6696262445
 20
4779.686122717
 30
0.0
 11
7683.6696262445
 21
4757.4861343518
 31
0.0
  0
LINE
  5
2C2
330
1F
100
AcDbEntity
  8
0
  6
Continuous
 62
     7
100
AcDbLine
 10
7732.7696303811
 20
4757.4861343518
 30
0.0
 11
7732.7696303811
 21
4779.686122717
 31
0.0
  0
LINE
  5
2C3
330
1F
100
AcDbEntity
  8
0
  6
Continuous
 62
     7
100
AcDbLine
 10
7679.769619831
 20
4787.886142315
 30
0.0
 11
7679.769619831
 21
4787.0861287728
 31
0.0
  0
LINE
  5
2C4
330
1F
100
AcDbEntity
  8
0
  6
Continuous
 62
     7
100
AcDbLine
 10
7736.6696293439
 20
4787.0861287728
 30
0.0
 11
7736.6696293439
 21
4787.886142315
 31
0.0
  0
LINE
  5
2C5
330
1F
100
AcDbEntity
  8
0
  6
Continuous
 62
     7
100
AcDbLine
 10
7684.8196233596
 20
4799.3861432687
 30
0.0
 11
7684.8196233596
 21
4797.8861327783
 31
0.0
  0
LINE
  5
2C6
330
1F
100
AcDbEntity
  8
0
  6
Continuous
 62
     7
100
AcDbLine
 10
7684.8196233596
 20
4785.5861480847
 30
0.0
 11
7684.8196233596
 21
4779.686122717
 31
0.0
  0
LINE
  5
2C7
330
1F
100
AcDbEntity
  8
0
  6
Continuous
 62
     7
100
AcDbLine
 10
7731.6196258153
 20
4779.686122717
 30
0.0
 11
7731.6196258153
 21
4785.5861480847
 31
0.0
  0
LINE
  5
2C8
330
1F
100
AcDbEntity
  8
0
  6
Continuous
 62
     7
100
AcDbLine
 10
7731.6196258153
 20
4797.8861327783
 30
0.0
 11
7731.6196258153
 21
4799.3861432687
 31
0.0
  0
LINE
  5
2C9
330
1F
100
AcDbEntity
  8
0
  6
Continuous
 62
     7
100
AcDbLine
 10
7631.2296236839
 20
4860.6461282388
 30
0.0
 11
7631.2196250047
 21
4860.6361295596
 31
0.0
  0
LINE
  5
2CA
330
1F
100
AcDbEntity
  8
0
  6
Continuous
 62
     7
100
AcDbLine
 10
7631.2196250047
 20
4836.136132063
 30
0.0
 11
7631.2296236839
 21
4836.1261333838
 31
0.0
  0
LINE
  5
2CB
330
1F
100
AcDbEntity
  8
0
  6
Continuous
 62
     7
100
AcDbLine
 10
7785.2096273537
 20
4836.1261333838
 30
0.0
 11
7785.2196260329
 21
4836.136132063
 31
0.0
  0
LINE
  5
2CC
330
1F
100
AcDbEntity
  8
0
  6
Continuous
 62
     7
100
AcDbLine
 10
7785.2196260329
 20
4860.6361295596
 30
0.0
 11
7785.2096273537
 21
4860.6461282388
 31
0.0
  0
LINE
  5
2CD
330
1F
100
AcDbEntity
  8
0
  6
Continuous
 62
     7
100
AcDbLine
 10
7611.9709755268
 20
4861.3579716102
 30
0.0
 11
7610.7196207132
 21
4860.1066316977
 31
0.0
  0
LINE
  5
2CE
330
1F
100
AcDbEntity
  8
0
  6
Continuous
 62
     7
100
AcDbLine
 10
7610.7196207132
 20
4836.6656299249
 30
0.0
 11
7611.4534880008
 21
4835.9317775384
 31
0.0
  0
LINE
  5
2CF
330
1F
100
AcDbEntity
  8
0
  6
Continuous
 62
     7
100
AcDbLine
 10
7613.4243304815
 20
4861.6066421882
 30
0.0
 11
7613.0276764717
 21
4861.6066421882
 31
0.0
  0
LINE
  5
2D0
330
1F
100
AcDbEntity
  8
0
  6
Continuous
 62
     7
100
AcDbLine
 10
7615.0118256893
 20
4861.6066421882
 30
0.0
 11
7614.6151716795
 21
4861.6066421882
 31
0.0
  0
LINE
  5
2D1
330
1F
100
AcDbEntity
  8
0
  6
Continuous
 62
     7
100
AcDbLine
 10
7616.5993208971
 20
4861.6066421882
 30
0.0
 11
7616.2026668872
 21
4861.6066421882
 31
0.0
  0
LINE
  5
2D2
330
1F
100
AcDbEntity
  8
0
  6
Continuous
 62
     7
100
AcDbLine
 10
7618.186831006
 20
4861.6066421882
 30
0.0
 11
7617.790162095
 21
4861.6066421882
 31
0.0
  0
LINE
  5
2D3
330
1F
100
AcDbEntity
  8
0
  6
Continuous
 62
     7
100
AcDbLine
 10
7619.719624051
 20
4861.6066421882
 30
0.0
 11
7619.377672204
 21
4861.6066421882
 31
0.0
  0
LINE
  5
2D4
330
1F
100
AcDbEntity
  8
0
  6
Continuous
 62
     7
100
AcDbLine
 10
7618.583872446
 20
4835.1656343356
 30
0.0
 11
7618.9806456651
 21
4835.1656343356
 31
0.0
  0
LINE
  5
2D5
330
1F
100
AcDbEntity
  8
0
  6
Continuous
 62
     7
100
AcDbLine
 10
7616.9963772382
 20
4835.1656343356
 30
0.0
 11
7617.3931504573
 21
4835.1656343356
 31
0.0
  0
LINE
  5
2D6
330
1F
100
AcDbEntity
  8
0
  6
Continuous
 62
     7
100
AcDbLine
 10
7615.4088671293
 20
4835.1656343356
 30
0.0
 11
7615.8056552496
 21
4835.1656343356
 31
0.0
  0
LINE
  5
2D7
330
1F
100
AcDbEntity
  8
0
  6
Continuous
 62
     7
100
AcDbLine
 10
7613.8213719215
 20
4835.1656343356
 30
0.0
 11
7614.2181451406
 21
4835.1656343356
 31
0.0
  0
LINE
  5
2D8
330
1F
100
AcDbEntity
  8
0
  6
Continuous
 62
     7
100
AcDbLine
 10
7612.2196312036
 20
4835.1656343356
 30
0.0
 11
7612.6306499328
 21
4835.1656343356
 31
0.0
  0
LINE
  5
2D9
330
1F
100
AcDbEntity
  8
0
  6
Continuous
 62
     7
100
AcDbLine
 10
7613.1274099435
 20
4836.024924697
 30
0.0
 11
7613.3206780042
 21
4836.024924697
 31
0.0
  0
LINE
  5
2DA
330
1F
100
AcDbEntity
  8
0
  6
Continuous
 62
     7
100
AcDbLine
 10
7614.7149200525
 20
4836.024924697
 30
0.0
 11
7614.9081881132
 21
4836.024924697
 31
0.0
  0
LINE
  5
2DB
330
1F
100
AcDbEntity
  8
0
  6
Continuous
 62
     7
100
AcDbLine
 10
7616.3024152603
 20
4836.024924697
 30
0.0
 11
7616.495683321
 21
4836.024924697
 31
0.0
  0
LINE
  5
2DC
330
1F
100
AcDbEntity
  8
0
  6
Continuous
 62
     7
100
AcDbLine
 10
7617.8899104681
 20
4836.024924697
 30
0.0
 11
7618.0831785287
 21
4836.024924697
 31
0.0
  0
LINE
  5
2DD
330
1F
100
AcDbEntity
  8
0
  6
Continuous
 62
     7
100
AcDbLine
 10
7619.477420577
 20
4836.024924697
 30
0.0
 11
7619.6758444395
 21
4836.024924697
 31
0.0
  0
LINE
  5
2DE
330
1F
100
AcDbEntity
  8
0
  6
Continuous
 62
     7
100
AcDbLine
 10
7614.1196037616
 20
4860.7473518268
 30
0.0
 11
7613.9252777185
 21
4860.7473518268
 31
0.0
  0
LINE
  5
2DF
330
1F
100
AcDbEntity
  8
0
  6
Continuous
 62
     7
100
AcDbLine
 10
7615.7070989694
 20
4860.7473518268
 30
0.0
 11
7615.5127729263
 21
4860.7473518268
 31
0.0
  0
LINE
  5
2E0
330
1F
100
AcDbEntity
  8
0
  6
Continuous
 62
     7
100
AcDbLine
 10
7617.2946090784
 20
4860.7473518268
 30
0.0
 11
7617.1002681341
 21
4860.7473518268
 31
0.0
  0
LINE
  5
2E1
330
1F
100
AcDbEntity
  8
0
  6
Continuous
 62
     7
100
AcDbLine
 10
7618.8821042861
 20
4860.7473518268
 30
0.0
 11
7618.687778243
 21
4860.7473518268
 31
0.0
  0
LINE
  5
2E2
330
1F
100
AcDbEntity
  8
0
  6
Continuous
 62
     7
100
AcDbLine
 10
7612.5321085538
 20
4860.7473518268
 30
0.0
 11
7612.3377676096
 21
4860.7473518268
 31
0.0
  0
LINE
  5
2E3
330
1F
100
AcDbEntity
  8
0
  6
Continuous
 62
     7
100
AcDbLine
 10
7611.5399147357
 20
4836.024924697
 30
0.0
 11
7611.7331827964
 21
4836.024924697
 31
0.0
  0
LINE
  5
2E4
330
1F
100
AcDbEntity
  8
0
  6
Continuous
 62
     7
100
AcDbLine
 10
7804.4682838928
 20
4835.4142900125
 30
0.0
 11
7805.7196265991
 21
4836.6656299249
 31
0.0
  0
LINE
  5
2E5
330
1F
100
AcDbEntity
  8
0
  6
Continuous
 62
     7
100
AcDbLine
 10
7805.7196265991
 20
4860.1066316977
 30
0.0
 11
7804.9857662964
 21
4860.8404989854
 31
0.0
  0
LINE
  5
2E6
330
1F
100
AcDbEntity
  8
0
  6
Continuous
 62
     7
100
AcDbLine
 10
7803.0149284724
 20
4835.1656343356
 30
0.0
 11
7803.4115838792
 21
4835.1656343356
 31
0.0
  0
LINE
  5
2E7
330
1F
100
AcDbEntity
  8
0
  6
Continuous
 62
     7
100
AcDbLine
 10
7801.4274281423
 20
4835.1656343356
 30
0.0
 11
7801.8240840148
 21
4835.1656343356
 31
0.0
  0
LINE
  5
2E8
330
1F
100
AcDbEntity
  8
0
  6
Continuous
 62
     7
100
AcDbLine
 10
7799.8399282779
 20
4835.1656343356
 30
0.0
 11
7800.2365841504
 21
4835.1656343356
 31
0.0
  0
LINE
  5
2E9
330
1F
100
AcDbEntity
  8
0
  6
Continuous
 62
     7
100
AcDbLine
 10
7798.2524284135
 20
4835.1656343356
 30
0.0
 11
7798.649084286
 21
4835.1656343356
 31
0.0
  0
LINE
  5
2EA
330
1F
100
AcDbEntity
  8
0
  6
Continuous
 62
     7
100
AcDbLine
 10
7796.7196269866
 20
4835.1656343356
 30
0.0
 11
7797.0615844216
 21
4835.1656343356
 31
0.0
  0
LINE
  5
2EB
330
1F
100
AcDbEntity
  8
0
  6
Continuous
 62
     7
100
AcDbLine
 10
7797.8553823169
 20
4861.6066421882
 30
0.0
 11
7797.4586025785
 21
4861.6066421882
 31
0.0
  0
LINE
  5
2EC
330
1F
100
AcDbEntity
  8
0
  6
Continuous
 62
     7
100
AcDbLine
 10
7799.4428821813
 20
4861.6066421882
 30
0.0
 11
7799.0461024429
 21
4861.6066421882
 31
0.0
  0
LINE
  5
2ED
330
1F
100
AcDbEntity
  8
0
  6
Continuous
 62
     7
100
AcDbLine
 10
7801.0303820457
 20
4861.6066421882
 30
0.0
 11
7800.6336023073
 21
4861.6066421882
 31
0.0
  0
LINE
  5
2EE
330
1F
100
AcDbEntity
  8
0
  6
Continuous
 62
     7
100
AcDbLine
 10
7802.6178828414
 20
4861.6066421882
 30
0.0
 11
7802.2211021717
 21
4861.6066421882
 31
0.0
  0
LINE
  5
2EF
330
1F
100
AcDbEntity
  8
0
  6
Continuous
 62
     7
100
AcDbLine
 10
7804.2196268189
 20
4861.6066421882
 30
0.0
 11
7803.8086025018
 21
4861.6066421882
 31
0.0
  0
LINE
  5
2F0
330
1F
100
AcDbEntity
  8
0
  6
Continuous
 62
     7
100
AcDbLine
 10
7803.3118392314
 20
4860.7473518268
 30
0.0
 11
7803.1185702394
 21
4860.7473518268
 31
0.0
  0
LINE
  5
2F1
330
1F
100
AcDbEntity
  8
0
  6
Continuous
 62
     7
100
AcDbLine
 10
7801.724339367
 20
4860.7473518268
 30
0.0
 11
7801.531070375
 21
4860.7473518268
 31
0.0
  0
LINE
  5
2F2
330
1F
100
AcDbEntity
  8
0
  6
Continuous
 62
     7
100
AcDbLine
 10
7800.1368395026
 20
4860.7473518268
 30
0.0
 11
7799.9435705106
 21
4860.7473518268
 31
0.0
  0
LINE
  5
2F3
330
1F
100
AcDbEntity
  8
0
  6
Continuous
 62
     7
100
AcDbLine
 10
7798.5493396382
 20
4860.7473518268
 30
0.0
 11
7798.3560697149
 21
4860.7473518268
 31
0.0
  0
LINE
  5
2F4
330
1F
100
AcDbEntity
  8
0
  6
Continuous
 62
     7
100
AcDbLine
 10
7796.9618388425
 20
4860.7473518268
 30
0.0
 11
7796.7634019416
 21
4860.7473518268
 31
0.0
  0
LINE
  5
2F5
330
1F
100
AcDbEntity
  8
0
  6
Continuous
 62
     7
100
AcDbLine
 10
7802.3196519326
 20
4836.024924697
 30
0.0
 11
7802.5139807697
 21
4836.024924697
 31
0.0
  0
LINE
  5
2F6
330
1F
100
AcDbEntity
  8
0
  6
Continuous
 62
     7
100
AcDbLine
 10
7800.7321520682
 20
4836.024924697
 30
0.0
 11
7800.9264809053
 21
4836.024924697
 31
0.0
  0
LINE
  5
2F7
330
1F
100
AcDbEntity
  8
0
  6
Continuous
 62
     7
100
AcDbLine
 10
7799.1446522038
 20
4836.024924697
 30
0.0
 11
7799.3389810409
 21
4836.024924697
 31
0.0
  0
LINE
  5
2F8
330
1F
100
AcDbEntity
  8
0
  6
Continuous
 62
     7
100
AcDbLine
 10
7797.5571514081
 20
4836.024924697
 30
0.0
 11
7797.7514802452
 21
4836.024924697
 31
0.0
  0
LINE
  5
2F9
330
1F
100
AcDbEntity
  8
0
  6
Continuous
 62
     7
100
AcDbLine
 10
7803.907151797
 20
4836.024924697
 30
0.0
 11
7804.1014806341
 21
4836.024924697
 31
0.0
  0
LINE
  5
2FA
330
1F
100
AcDbEntity
  8
0
  6
Continuous
 62
     7
100
AcDbLine
 10
7804.8993390958
 20
4860.7473518268
 30
0.0
 11
7804.7060701038
 21
4860.7473518268
 31
0.0
  0
LINE
  5
2FB
330
1F
100
AcDbEntity
  8
0
  6
Continuous
 62
     7
100
AcDbLine
 10
7761.5148383166
 20
4787.8611381665
 30
0.0
 11
7761.5148383166
 21
4787.886142315
 31
0.0
  0
LINE
  5
2FC
330
1F
100
AcDbEntity
  8
0
  6
Continuous
 62
     7
100
AcDbLine
 10
7761.5148383166
 20
4787.8611381665
 30
0.0
 11
7745.15669001
 21
4787.8611381665
 31
0.0
  0
LINE
  5
2FD
330
1F
100
AcDbEntity
  8
0
  6
Continuous
 62
     7
100
AcDbLine
 10
7745.15669001
 20
4787.8611381665
 30
0.0
 11
7745.15669001
 21
4787.886142315
 31
0.0
  0
LINE
  5
2FE
330
1F
100
AcDbEntity
  8
0
  6
Continuous
 62
     7
100
AcDbLine
 10
7743.4946442928
 20
4787.8611381665
 30
0.0
 11
7743.4946442928
 21
4787.886142315
 31
0.0
  0
LINE
  5
2FF
330
1F
100
AcDbEntity
  8
0
  6
Continuous
 62
     7
100
AcDbLine
 10
7743.2266990628
 20
4787.8611381665
 30
0.0
 11
7743.2266990628
 21
4787.886142315
 31
0.0
  0
LINE
  5
300
330
1F
100
AcDbEntity
  8
0
  6
Continuous
 62
     7
100
AcDbLine
 10
7743.370234498
 20
4787.8611381665
 30
0.0
 11
7743.2266990628
 21
4787.8611381665
 31
0.0
  0
LINE
  5
301
330
1F
100
AcDbEntity
  8
0
  6
Continuous
 62
     7
100
AcDbLine
 10
7766.6080291357
 20
4787.8611381665
 30
0.0
 11
7766.6080291357
 21
4787.886142315
 31
0.0
  0
LINE
  5
302
330
1F
100
AcDbEntity
  8
0
  6
Continuous
 62
     7
100
AcDbLine
 10
7764.7364991691
 20
4787.8611381665
 30
0.0
 11
7764.7364991691
 21
4787.886142315
 31
0.0
  0
LINE
  5
303
330
1F
100
AcDbEntity
  8
0
  6
Continuous
 62
     7
100
AcDbLine
 10
7762.2661064353
 20
4787.8611381665
 30
0.0
 11
7762.2661064353
 21
4787.886142315
 31
0.0
  0
LINE
  5
304
330
1F
100
AcDbEntity
  8
0
  6
Continuous
 62
     7
100
AcDbLine
 10
7764.0312123086
 20
4787.8611381665
 30
0.0
 11
7764.0312123086
 21
4787.886142315
 31
0.0
  0
LINE
  5
305
330
1F
100
AcDbEntity
  8
0
  6
Continuous
 62
     7
100
AcDbLine
 10
7767.7850197043
 20
4787.8611381665
 30
0.0
 11
7767.7850197043
 21
4787.886142315
 31
0.0
  0
LINE
  5
306
330
1F
100
AcDbEntity
  8
0
  6
Continuous
 62
     7
100
AcDbLine
 10
7767.6140884842
 20
4787.8611381665
 30
0.0
 11
7767.6140884842
 21
4787.886142315
 31
0.0
  0
LINE
  5
307
330
1F
100
AcDbEntity
  8
0
  6
Continuous
 62
     7
100
AcDbLine
 10
7767.4519936528
 20
4787.8611381665
 30
0.0
 11
7767.4519936528
 21
4787.886142315
 31
0.0
  0
LINE
  5
308
330
1F
100
AcDbEntity
  8
0
  6
Continuous
 62
     7
100
AcDbLine
 10
7767.8454848911
 20
4787.8611381665
 30
0.0
 11
7767.8454848911
 21
4787.886142315
 31
0.0
  0
LINE
  5
309
330
1F
100
AcDbEntity
  8
0
  6
Continuous
 62
     7
100
AcDbLine
 10
7767.9132814493
 20
4787.8611381665
 30
0.0
 11
7767.9132814493
 21
4787.886142315
 31
0.0
  0
LINE
  5
30A
330
1F
100
AcDbEntity
  8
0
  6
Continuous
 62
     7
100
AcDbLine
 10
7767.6395657446
 20
4787.8611381665
 30
0.0
 11
7767.0581224348
 21
4787.8611381665
 31
0.0
  0
LINE
  5
30B
330
1F
100
AcDbEntity
  8
0
  6
Continuous
 62
     7
100
AcDbLine
 10
7767.6395657446
 20
4787.8611381665
 30
0.0
 11
7768.2210053291
 21
4787.8611381665
 31
0.0
  0
LINE
  5
30C
330
1F
100
AcDbEntity
  8
0
  6
Continuous
 62
     7
100
AcDbLine
 10
7783.2196273442
 20
4797.886142315
 30
0.0
 11
7633.2196236934
 21
4797.886142315
 31
0.0
  0
LINE
  5
30D
330
1F
100
AcDbEntity
  8
0
  6
Continuous
 62
     7
100
AcDbLine
 10
7783.2196273442
 20
4797.886142315
 30
0.0
 11
7783.2196275677
 21
4787.886142315
 31
0.0
  0
LINE
  5
30E
330
1F
100
AcDbEntity
  8
0
  6
Continuous
 62
     7
100
AcDbLine
 10
7783.2196275677
 20
4787.886142315
 30
0.0
 11
7633.2196290578
 21
4787.886142315
 31
0.0
  0
LINE
  5
30F
330
1F
100
AcDbEntity
  8
0
  6
Continuous
 62
     7
100
AcDbLine
 10
7633.2196236934
 20
4797.886142315
 30
0.0
 11
7633.2196290578
 21
4787.886142315
 31
0.0
  0
LINE
  5
310
330
1F
100
AcDbEntity
  8
0
  6
Continuous
 62
     7
100
AcDbLine
 10
7793.2196273442
 20
4797.8861327783
 30
0.0
 11
7783.2196273442
 21
4797.886142315
 31
0.0
  0
LINE
  5
311
330
1F
100
AcDbEntity
  8
0
  6
Continuous
 62
     7
100
AcDbLine
 10
7633.2196236934
 20
4797.886142315
 30
0.0
 11
7623.2196236934
 21
4797.8861327783
 31
0.0
  0
LINE
  5
312
330
1F
100
AcDbEntity
  8
0
  6
Continuous
 62
     7
100
AcDbLine
 10
7694.219626018
 20
4787.3861487523
 30
0.0
 11
7722.219623157
 21
4787.3861487523
 31
0.0
  0
LINE
  5
313
330
1F
100
AcDbEntity
  8
0
  6
Continuous
 62
     7
100
AcDbLine
 10
7720.7196275677
 20
4785.8861382619
 30
0.0
 11
7695.7196290578
 21
4785.8861382619
 31
0.0
  0
LINE
  5
314
330
1F
100
AcDbEntity
  8
0
  6
Continuous
 62
     7
100
AcDbLine
 10
7697.5196297254
 20
4798.886149706
 30
0.0
 11
7718.9196269002
 21
4798.886149706
 31
0.0
  0
LINE
  5
315
330
1F
100
AcDbEntity
  8
0
  6
Continuous
 62
     7
100
AcDbLine
 10
7697.0691303696
 20
4798.3778412953
 30
0.0
 11
7697.0196287121
 21
4798.386126341
 31
0.0
  0
LINE
  5
316
330
1F
100
AcDbEntity
  8
0
  6
Continuous
 62
     7
100
AcDbLine
 10
7705.6696261253
 20
4849.0361418143
 30
0.0
 11
7705.6696261253
 21
4847.7361347095
 31
0.0
  0
LINE
  5
317
330
1F
100
AcDbEntity
  8
0
  6
Continuous
 62
     7
100
AcDbLine
 10
7708.549826869
 20
4757.4861343518
 30
0.0
 11
7732.7696303811
 21
4757.4861343518
 31
0.0
  0
LINE
  5
318
330
1F
100
AcDbEntity
  8
0
  6
Continuous
 62
     7
100
AcDbLine
 10
7683.6696262445
 20
4757.4861343518
 30
0.0
 11
7708.549826869
 21
4757.4861343518
 31
0.0
  0
LINE
  5
319
330
1F
100
AcDbEntity
  8
0
  6
Continuous
 62
     7
100
AcDbLine
 10
7708.549826869
 20
4779.686122717
 30
0.0
 11
7732.7696303811
 21
4779.686122717
 31
0.0
  0
LINE
  5
31A
330
1F
100
AcDbEntity
  8
0
  6
Continuous
 62
     7
100
AcDbLine
 10
7683.6696262445
 20
4779.686122717
 30
0.0
 11
7708.549826869
 21
4779.686122717
 31
0.0
  0
LINE
  5
31B
330
1F
100
AcDbEntity
  8
0
  6
Continuous
 62
     7
100
AcDbLine
 10
7681.2696303215
 20
4785.5861480847
 30
0.0
 11
7735.1696263041
 21
4785.5861480847
 31
0.0
  0
LINE
  5
31C
330
1F
100
AcDbEntity
  8
0
  6
Continuous
 62
     7
100
AcDbLine
 10
7619.719624051
 20
4848.3861382619
 30
0.0
 11
7630.2196229782
 21
4848.3861382619
 31
0.0
  0
LINE
  5
31D
330
1F
100
AcDbEntity
  8
0
  6
Continuous
 62
     7
100
AcDbLine
 10
7619.719624051
 20
4834.8861332551
 30
0.0
 11
7630.2196229782
 21
4834.8861332551
 31
0.0
  0
LINE
  5
31E
330
1F
100
AcDbEntity
  8
0
  6
Continuous
 62
     7
100
AcDbLine
 10
7619.719624051
 20
4834.8861332551
 30
0.0
 11
7619.719624051
 21
4848.3861382619
 31
0.0
  0
LINE
  5
31F
330
1F
100
AcDbEntity
  8
0
  6
Continuous
 62
     7
100
AcDbLine
 10
7612.2196312036
 20
4849.1194542065
 30
0.0
 11
7612.2196312036
 21
4835.1859893218
 31
0.0
  0
LINE
  5
320
330
1F
100
AcDbEntity
  8
0
  6
Continuous
 62
     7
100
AcDbLine
 10
7610.7196207132
 20
4854.2463775292
 30
0.0
 11
7610.7196207132
 21
4860.1066316977
 31
0.0
  0
LINE
  5
321
330
1F
100
AcDbEntity
  8
0
  6
Continuous
 62
     7
100
AcDbLine
 10
7610.7196207132
 20
4836.6656299249
 30
0.0
 11
7610.7196207132
 21
4854.2463775292
 31
0.0
  0
LINE
  5
322
330
1F
100
AcDbEntity
  8
0
  6
Continuous
 62
     7
100
AcDbLine
 10
7612.2196312036
 20
4835.1859893218
 30
0.0
 11
7612.2338767137
 21
4835.1903404609
 31
0.0
  0
LINE
  5
323
330
1F
100
AcDbEntity
  8
0
  6
Continuous
 62
     7
100
AcDbLine
 10
7619.719624051
 20
4861.8861283675
 30
0.0
 11
7630.2196229782
 21
4861.8861283675
 31
0.0
  0
LINE
  5
324
330
1F
100
AcDbEntity
  8
0
  6
Continuous
 62
     7
100
AcDbLine
 10
7619.719624051
 20
4848.3861382619
 30
0.0
 11
7619.719624051
 21
4861.8861283675
 31
0.0
  0
LINE
  5
325
330
1F
100
AcDbEntity
  8
0
  6
Continuous
 62
     7
100
AcDbLine
 10
7796.7196269866
 20
4848.3861382619
 30
0.0
 11
7786.2196261968
 21
4848.3861382619
 31
0.0
  0
LINE
  5
326
330
1F
100
AcDbEntity
  8
0
  6
Continuous
 62
     7
100
AcDbLine
 10
7796.7196269866
 20
4861.8861283675
 30
0.0
 11
7786.2196261968
 21
4861.8861283675
 31
0.0
  0
LINE
  5
327
330
1F
100
AcDbEntity
  8
0
  6
Continuous
 62
     7
100
AcDbLine
 10
7796.7196269866
 20
4861.8861283675
 30
0.0
 11
7796.7196269866
 21
4848.3861382619
 31
0.0
  0
LINE
  5
328
330
1F
100
AcDbEntity
  8
0
  6
Continuous
 62
     7
100
AcDbLine
 10
7804.219626819
 20
4847.6528223172
 30
0.0
 11
7804.2196268189
 21
4861.586287202
 31
0.0
  0
LINE
  5
329
330
1F
100
AcDbEntity
  8
0
  6
Continuous
 62
     7
100
AcDbLine
 10
7805.7196265991
 20
4842.5258840934
 30
0.0
 11
7805.7196265991
 21
4836.6656299249
 31
0.0
  0
LINE
  5
32A
330
1F
100
AcDbEntity
  8
0
  6
Continuous
 62
     7
100
AcDbLine
 10
7805.7196265991
 20
4860.1066316977
 30
0.0
 11
7805.7196265991
 21
4842.5258840934
 31
0.0
  0
LINE
  5
32B
330
1F
100
AcDbEntity
  8
0
  6
Continuous
 62
     7
100
AcDbLine
 10
7804.2196268189
 20
4861.586287202
 30
0.0
 11
7804.2053822402
 21
4861.5819360629
 31
0.0
  0
LINE
  5
32C
330
1F
100
AcDbEntity
  8
0
  6
Continuous
 62
     7
100
AcDbLine
 10
7796.7196269866
 20
4834.8861332551
 30
0.0
 11
7786.2196261968
 21
4834.8861332551
 31
0.0
  0
LINE
  5
32D
330
1F
100
AcDbEntity
  8
0
  6
Continuous
 62
     7
100
AcDbLine
 10
7796.7196269866
 20
4848.3861382619
 30
0.0
 11
7796.7196269866
 21
4834.8861332551
 31
0.0
  0
LINE
  5
32E
330
1F
100
AcDbEntity
  8
0
  6
Continuous
 62
     7
100
AcDbLine
 10
7723.8080869402
 20
4848.3861382619
 30
0.0
 11
7716.0138557639
 21
4861.8861283675
 31
0.0
  0
LINE
  5
32F
330
1F
100
AcDbEntity
  8
0
  6
Continuous
 62
     7
100
AcDbLine
 10
7716.0138557639
 20
4834.8861332551
 30
0.0
 11
7723.8080869402
 21
4848.3861382619
 31
0.0
  0
LINE
  5
330
330
1F
100
AcDbEntity
  8
0
  6
Continuous
 62
     7
100
AcDbLine
 10
7700.4254008617
 20
4834.8861332551
 30
0.0
 11
7716.0138557639
 21
4834.8861332551
 31
0.0
  0
LINE
  5
331
330
1F
100
AcDbEntity
  8
0
  6
Continuous
 62
     7
100
AcDbLine
 10
7692.6311696853
 20
4848.3861382619
 30
0.0
 11
7700.4254008617
 21
4834.8861332551
 31
0.0
  0
LINE
  5
332
330
1F
100
AcDbEntity
  8
0
  6
Continuous
 62
     7
100
AcDbLine
 10
7700.4254008617
 20
4861.8861283675
 30
0.0
 11
7692.6311696853
 21
4848.3861382619
 31
0.0
  0
LINE
  5
333
330
1F
100
AcDbEntity
  8
0
  6
Continuous
 62
     7
100
AcDbLine
 10
7716.0138557639
 20
4861.8861283675
 30
0.0
 11
7700.4254008617
 21
4861.8861283675
 31
0.0
  0
LINE
  5
334
330
1F
100
AcDbEntity
  8
0
  6
Continuous
 62
     7
100
AcDbLine
 10
7783.2096270259
 20
4799.3861432687
 30
0.0
 11
7783.2096270259
 21
4865.3861280099
 31
0.0
  0
LINE
  5
335
330
1F
100
AcDbEntity
  8
0
  6
Continuous
 62
     7
100
AcDbLine
 10
7755.2196267035
 20
4799.3861432687
 30
0.0
 11
7783.2096270259
 21
4799.3861432687
 31
0.0
  0
LINE
  5
336
330
1F
100
AcDbEntity
  8
0
  6
Continuous
 62
     7
100
AcDbLine
 10
7755.2196267035
 20
4799.3861432687
 30
0.0
 11
7661.2196261968
 21
4799.3861432687
 31
0.0
  0
LINE
  5
337
330
1F
100
AcDbEntity
  8
0
  6
Continuous
 62
     7
100
AcDbLine
 10
7633.229627737
 20
4799.3861432687
 30
0.0
 11
7661.2196261968
 21
4799.3861432687
 31
0.0
  0
LINE
  5
338
330
1F
100
AcDbEntity
  8
0
  6
Continuous
 62
     7
100
AcDbLine
 10
7633.229627737
 20
4865.3861280099
 30
0.0
 11
7633.229627737
 21
4799.3861432687
 31
0.0
  0
LINE
  5
339
330
1F
100
AcDbEntity
  8
0
  6
Continuous
 62
     7
100
AcDbLine
 10
7633.229627737
 20
4865.3861280099
 30
0.0
 11
7783.2096270259
 21
4865.3861280099
 31
0.0
  0
LINE
  5
33A
330
1F
100
AcDbEntity
  8
0
  6
Continuous
 62
     7
100
AcDbLine
 10
7783.2096270259
 20
4867.3861320629
 30
0.0
 11
7783.2096270259
 21
4865.3861280099
 31
0.0
  0
LINE
  5
33B
330
1F
100
AcDbEntity
  8
0
  6
Continuous
 62
     7
100
AcDbLine
 10
7633.229627737
 20
4865.3861280099
 30
0.0
 11
7633.229627737
 21
4867.3861320629
 31
0.0
  0
LINE
  5
33C
330
1F
100
AcDbEntity
  8
0
  6
Continuous
 62
     7
100
AcDbLine
 10
7633.229627737
 20
4867.3861320629
 30
0.0
 11
7783.2096270259
 21
4867.3861320629
 31
0.0
  0
LINE
  5
33D
330
1F
100
AcDbEntity
  8
0
  6
Continuous
 62
     7
100
AcDbLine
 10
7633.229627737
 20
4799.3861432687
 30
0.0
 11
7631.2296236839
 21
4799.3861432687
 31
0.0
  0
LINE
  5
33E
330
1F
100
AcDbEntity
  8
0
  6
Continuous
 62
     7
100
AcDbLine
 10
7631.2296236839
 20
4865.3861280099
 30
0.0
 11
7631.2296236839
 21
4799.3861432687
 31
0.0
  0
LINE
  5
33F
330
1F
100
AcDbEntity
  8
0
  6
Continuous
 62
     7
100
AcDbLine
 10
7631.2296236839
 20
4865.3861280099
 30
0.0
 11
7633.229627737
 21
4865.3861280099
 31
0.0
  0
LINE
  5
340
330
1F
100
AcDbEntity
  8
0
  6
Continuous
 62
     7
100
AcDbLine
 10
7785.2096273537
 20
4865.3861280099
 30
0.0
 11
7785.2096273537
 21
4799.3861432687
 31
0.0
  0
LINE
  5
341
330
1F
100
AcDbEntity
  8
0
  6
Continuous
 62
     7
100
AcDbLine
 10
7785.2096273537
 20
4799.3861432687
 30
0.0
 11
7783.2096270259
 21
4799.3861432687
 31
0.0
  0
LINE
  5
342
330
1F
100
AcDbEntity
  8
0
  6
Continuous
 62
     7
100
AcDbLine
 10
7783.2096270259
 20
4865.3861280099
 30
0.0
 11
7785.2096273537
 21
4865.3861280099
 31
0.0
  0
LINE
  5
343
330
1F
100
AcDbEntity
  8
0
  6
Continuous
 62
     7
100
AcDbLine
 10
7633.229627737
 20
4797.8861327783
 30
0.0
 11
7633.229627737
 21
4799.3861432687
 31
0.0
  0
LINE
  5
344
330
1F
100
AcDbEntity
  8
0
  6
Continuous
 62
     7
100
AcDbLine
 10
7661.2196261968
 20
4799.3861432687
 30
0.0
 11
7661.2196261968
 21
4797.8861327783
 31
0.0
  0
LINE
  5
345
330
1F
100
AcDbEntity
  8
0
  6
Continuous
 62
     7
100
AcDbLine
 10
7783.2096270259
 20
4799.3861432687
 30
0.0
 11
7783.2096270259
 21
4797.8861327783
 31
0.0
  0
LINE
  5
346
330
1F
100
AcDbEntity
  8
0
  6
Continuous
 62
     7
100
AcDbLine
 10
7755.2196267035
 20
4797.8861327783
 30
0.0
 11
7755.2196267035
 21
4799.3861432687
 31
0.0
  0
LINE
  5
347
330
1F
100
AcDbEntity
  8
0
  6
Continuous
 62
     7
100
AcDbLine
 10
7632.2196270313
 20
4867.3861320629
 30
0.0
 11
7632.2196270313
 21
4866.3861300364
 31
0.0
  0
LINE
  5
348
330
1F
100
AcDbEntity
  8
0
  6
Continuous
 62
     7
100
AcDbLine
 10
7631.2196250047
 20
4865.3861280099
 30
0.0
 11
7630.2196229782
 21
4865.3861280099
 31
0.0
  0
LINE
  5
349
330
1F
100
AcDbEntity
  8
0
  6
Continuous
 62
     7
100
AcDbLine
 10
7631.2196250047
 20
4801.3861473218
 30
0.0
 11
7630.2196229782
 21
4801.3861473218
 31
0.0
  0
LINE
  5
34A
330
1F
100
AcDbEntity
  8
0
  6
Continuous
 62
     7
100
AcDbLine
 10
7631.2196250047
 20
4865.3861280099
 30
0.0
 11
7631.2196250047
 21
4801.3861473218
 31
0.0
  0
LINE
  5
34B
330
1F
100
AcDbEntity
  8
0
  6
Continuous
 62
     7
100
AcDbLine
 10
7630.2196229782
 20
4865.3861280099
 30
0.0
 11
7630.2196229782
 21
4801.3861473218
 31
0.0
  0
LINE
  5
34C
330
1F
100
AcDbEntity
  8
0
  6
Continuous
 62
     7
100
AcDbLine
 10
7633.229627737
 20
4867.3861320629
 30
0.0
 11
7632.2196270313
 21
4867.3861320629
 31
0.0
  0
LINE
  5
34D
330
1F
100
AcDbEntity
  8
0
  6
Continuous
 62
     7
100
AcDbLine
 10
7633.229627737
 20
4866.3861300364
 30
0.0
 11
7632.2196270313
 21
4866.3861300364
 31
0.0
  0
LINE
  5
34E
330
1F
100
AcDbEntity
  8
0
  6
Continuous
 62
     7
100
AcDbLine
 10
7784.219625869
 20
4866.3861300363
 30
0.0
 11
7784.219625869
 21
4867.3861320629
 31
0.0
  0
LINE
  5
34F
330
1F
100
AcDbEntity
  8
0
  6
Continuous
 62
     7
100
AcDbLine
 10
7784.219625869
 20
4866.3861300363
 30
0.0
 11
7783.2096270259
 21
4866.3861300363
 31
0.0
  0
LINE
  5
350
330
1F
100
AcDbEntity
  8
0
  6
Continuous
 62
     7
100
AcDbLine
 10
7784.219625869
 20
4867.3861320629
 30
0.0
 11
7783.2096270259
 21
4867.3861320629
 31
0.0
  0
LINE
  5
351
330
1F
100
AcDbEntity
  8
0
  6
Continuous
 62
     7
100
AcDbLine
 10
7786.2196280595
 20
4865.3861280098
 30
0.0
 11
7785.2196260329
 21
4865.3861280098
 31
0.0
  0
LINE
  5
352
330
1F
100
AcDbEntity
  8
0
  6
Continuous
 62
     7
100
AcDbLine
 10
7786.2196280595
 20
4801.3861473217
 30
0.0
 11
7785.2196260329
 21
4801.3861473217
 31
0.0
  0
LINE
  5
353
330
1F
100
AcDbEntity
  8
0
  6
Continuous
 62
     7
100
AcDbLine
 10
7786.2196280595
 20
4801.3861473217
 30
0.0
 11
7786.2196280595
 21
4865.3861280098
 31
0.0
  0
LINE
  5
354
330
1F
100
AcDbEntity
  8
0
  6
Continuous
 62
     7
100
AcDbLine
 10
7785.2196260329
 20
4801.3861473217
 30
0.0
 11
7785.2196260329
 21
4865.3861280098
 31
0.0
  0
LINE
  5
355
330
1F
100
AcDbEntity
  8
0
  6
Continuous
 62
     7
100
AcDbLine
 10
7679.769619831
 20
4787.0861287728
 30
0.0
 11
7694.5196236457
 21
4787.0861287728
 31
0.0
  0
LINE
  5
356
330
1F
100
AcDbEntity
  8
0
  6
Continuous
 62
     7
100
AcDbLine
 10
7721.9196255292
 20
4787.0861287728
 30
0.0
 11
7736.6696293439
 21
4787.0861287728
 31
0.0
  0
LWPOLYLINE
  5
357
330
1F
100
AcDbEntity
  8
0
  6
Continuous
 62
     7
100
AcDbPolyline
 90
        3
 70
   128
 43
0.0
 10
7613.712310791
 20
5124.3779798507
 10
7613.9911864989
 20
5123.8965067528
 10
7614.2097259846
 20
5123.518197751
  0
LWPOLYLINE
  5
358
330
1F
100
AcDbEntity
  8
0
  6
Continuous
 62
     7
100
AcDbPolyline
 90
        3
 70
   128
 43
0.0
 10
7615.2992248535
 20
5124.3779798507
 10
7615.5786820028
 20
5123.8965031714
 10
7615.7972211923
 20
5123.518197751
  0
LWPOLYLINE
  5
359
330
1F
100
AcDbEntity
  8
0
  6
Continuous
 62
     7
100
AcDbPolyline
 90
        3
 70
   128
 43
0.0
 10
7616.886138916
 20
5124.3779798507
 10
7617.1661814259
 20
5123.896500786
 10
7617.3847313013
 20
5123.518197751
  0
LWPOLYLINE
  5
35A
330
1F
100
AcDbEntity
  8
0
  6
Continuous
 62
     7
100
AcDbPolyline
 90
        3
 70
   128
 43
0.0
 10
7618.4730529785
 20
5124.3779798507
 10
7618.7536870234
 20
5123.8965067528
 10
7618.9722265091
 20
5123.518197751
  0
LWPOLYLINE
  5
35B
330
1F
100
AcDbEntity
  8
0
  6
Continuous
 62
     7
100
AcDbPolyline
 90
        3
 70
   128
 43
0.0
 10
7613.4262084961
 20
5149.9505331277
 10
7613.1502194024
 20
5149.4695037741
 10
7612.9318173017
 20
5149.0915407895
  0
LWPOLYLINE
  5
35C
330
1F
100
AcDbEntity
  8
0
  6
Continuous
 62
     7
100
AcDbPolyline
 90
        3
 70
   128
 43
0.0
 10
7615.0131225586
 20
5149.9505331277
 10
7614.7377228697
 20
5149.4694990057
 10
7614.5193125095
 20
5149.0915407895
  0
LWPOLYLINE
  5
35D
330
1F
100
AcDbEntity
  8
0
  6
Continuous
 62
     7
100
AcDbPolyline
 90
        3
 70
   128
 43
0.0
 10
7616.6000366211
 20
5149.9505331277
 10
7616.3252205043
 20
5149.4695013898
 10
7616.1068077173
 20
5149.0915407895
  0
LWPOLYLINE
  5
35E
330
1F
100
AcDbEntity
  8
0
  6
Continuous
 62
     7
100
AcDbPolyline
 90
        3
 70
   128
 43
0.0
 10
7618.1869506836
 20
5149.9505331277
 10
7617.9127199269
 20
5149.4695037741
 10
7617.6943178263
 20
5149.0915407895
  0
LWPOLYLINE
  5
35F
330
1F
100
AcDbEntity
  8
0
  6
Continuous
 62
     7
100
AcDbPolyline
 90
        3
 70
   128
 43
0.0
 10
7619.6975708008
 20
5149.8173763513
 10
7619.4663683849
 20
5149.4109114865
 10
7619.281813034
 20
5149.0915407895
  0
LWPOLYLINE
  5
360
330
1F
100
AcDbEntity
  8
0
  6
Continuous
 62
     7
100
AcDbPolyline
 90
        3
 70
   128
 43
0.0
 10
7612.1253967285
 20
5124.3779798507
 10
7612.4036809014
 20
5123.896500786
 10
7612.6222307768
 20
5123.518197751
  0
LWPOLYLINE
  5
361
330
1F
100
AcDbEntity
  8
0
  6
Continuous
 62
     7
100
AcDbPolyline
 90
        3
 70
   128
 43
0.0
 10
7613.0332946777
 20
5123.5181828498
 10
7613.3143735991
 20
5123.9996524432
 10
7613.5329152431
 20
5124.3779500484
  0
LWPOLYLINE
  5
362
330
1F
100
AcDbEntity
  8
0
  6
Continuous
 62
     7
100
AcDbPolyline
 90
        3
 70
   128
 43
0.0
 10
7614.6202087402
 20
5123.5181828498
 10
7614.9018688069
 20
5123.9996524432
 10
7615.1204104509
 20
5124.3779500484
  0
LWPOLYLINE
  5
363
330
1F
100
AcDbEntity
  8
0
  6
Continuous
 62
     7
100
AcDbPolyline
 90
        3
 70
   128
 43
0.0
 10
7616.2109375
 20
5123.5181828498
 10
7616.4893682301
 20
5123.9996548288
 10
7616.7079205599
 20
5124.3779500484
  0
LWPOLYLINE
  5
364
330
1F
100
AcDbEntity
  8
0
  6
Continuous
 62
     7
100
AcDbPolyline
 90
        3
 70
   128
 43
0.0
 10
7617.7978515625
 20
5123.5181828498
 10
7618.0768741237
 20
5123.9996524432
 10
7618.2954157677
 20
5124.3779500484
  0
LWPOLYLINE
  5
365
330
1F
100
AcDbEntity
  8
0
  6
Continuous
 62
     7
100
AcDbPolyline
 90
        3
 70
   128
 43
0.0
 10
7619.384765625
 20
5123.5181828498
 10
7619.5729305642
 20
5123.84137003
 10
7619.7196240511
 20
5124.0953048229
  0
LWPOLYLINE
  5
366
330
1F
100
AcDbEntity
  8
0
  6
Continuous
 62
     7
100
AcDbPolyline
 90
        3
 70
   128
 43
0.0
 10
7614.3264770508
 20
5149.08474586
 10
7614.0485094139
 20
5149.5662188944
 10
7613.8299698915
 20
5149.9445279598
  0
LWPOLYLINE
  5
367
330
1F
100
AcDbEntity
  8
0
  6
Continuous
 62
     7
100
AcDbPolyline
 90
        3
 70
   128
 43
0.0
 10
7615.9133911133
 20
5149.08474586
 10
7615.6360192178
 20
5149.5662224914
 10
7615.4174800005
 20
5149.9445279598
  0
LWPOLYLINE
  5
368
330
1F
100
AcDbEntity
  8
0
  6
Continuous
 62
     7
100
AcDbPolyline
 90
        3
 70
   128
 43
0.0
 10
7617.5003051758
 20
5149.08474586
 10
7617.2235144255
 20
5149.5662224914
 10
7617.0049752083
 20
5149.9445279598
  0
LWPOLYLINE
  5
369
330
1F
100
AcDbEntity
  8
0
  6
Continuous
 62
     7
100
AcDbPolyline
 90
        3
 70
   128
 43
0.0
 10
7619.0872192383
 20
5149.08474586
 10
7618.8110096333
 20
5149.5662224914
 10
7618.5924704161
 20
5149.9445279598
  0
LWPOLYLINE
  5
36A
330
1F
100
AcDbEntity
  8
0
  6
Continuous
 62
     7
100
AcDbPolyline
 90
        3
 70
   128
 43
0.0
 10
7612.735748291
 20
5149.08474586
 10
7612.461013901
 20
5149.5662224914
 10
7612.2424746837
 20
5149.9445279598
  0
LWPOLYLINE
  5
36B
330
1F
100
AcDbEntity
  8
0
  6
Continuous
 62
     7
100
AcDbPolyline
 90
        3
 70
   128
 43
0.0
 10
7802.6084899902
 20
5149.9445279598
 10
7802.3311355702
 20
5149.4630484945
 10
7802.1125900533
 20
5149.08474586
  0
LWPOLYLINE
  5
36C
330
1F
100
AcDbEntity
  8
0
  6
Continuous
 62
     7
100
AcDbPolyline
 90
        3
 70
   128
 43
0.0
 10
7801.0215759277
 20
5149.9445279598
 10
7800.7436351897
 20
5149.4630487927
 10
7800.5250901889
 20
5149.08474586
  0
LWPOLYLINE
  5
36D
330
1F
100
AcDbEntity
  8
0
  6
Continuous
 62
     7
100
AcDbPolyline
 90
        3
 70
   128
 43
0.0
 10
7799.430847168
 20
5149.9445279598
 10
7799.1561353253
 20
5149.4630487927
 10
7798.9375903245
 20
5149.08474586
  0
LWPOLYLINE
  5
36E
330
1F
100
AcDbEntity
  8
0
  6
Continuous
 62
     7
100
AcDbPolyline
 90
        3
 70
   128
 43
0.0
 10
7797.8439331055
 20
5149.9445279598
 10
7797.5686354609
 20
5149.4630487927
 10
7797.3500904601
 20
5149.08474586
  0
LWPOLYLINE
  5
36F
330
1F
100
AcDbEntity
  8
0
  6
Continuous
 62
     7
100
AcDbPolyline
 90
        3
 70
   128
 43
0.0
 10
7802.906036377
 20
5124.3779500484
 10
7803.1844854523
 20
5123.8964803836
 10
7803.4030282844
 20
5123.5181828498
  0
LWPOLYLINE
  5
370
330
1F
100
AcDbEntity
  8
0
  6
Continuous
 62
     7
100
AcDbPolyline
 90
        3
 70
   128
 43
0.0
 10
7801.3153076172
 20
5124.3779500484
 10
7801.596985532
 20
5123.8964803836
 10
7801.8155279543
 20
5123.5181828498
  0
LWPOLYLINE
  5
371
330
1F
100
AcDbEntity
  8
0
  6
Continuous
 62
     7
100
AcDbPolyline
 90
        3
 70
   128
 43
0.0
 10
7799.7283935547
 20
5124.3779500484
 10
7800.0094855159
 20
5123.8964805327
 10
7800.2280280899
 20
5123.5181828498
  0
LWPOLYLINE
  5
372
330
1F
100
AcDbEntity
  8
0
  6
Continuous
 62
     7
100
AcDbPolyline
 90
        3
 70
   128
 43
0.0
 10
7798.1414794922
 20
5124.3779500484
 10
7798.4219856515
 20
5123.8964805327
 10
7798.6405282255
 20
5123.5181828498
  0
LWPOLYLINE
  5
373
330
1F
100
AcDbEntity
  8
0
  6
Continuous
 62
     7
100
AcDbPolyline
 90
        3
 70
   128
 43
0.0
 10
7796.7185974121
 20
5124.0953048229
 10
7796.9063307623
 20
5123.7721159113
 10
7797.0530283611
 20
5123.5181828498
  0
LWPOLYLINE
  5
374
330
1F
100
AcDbEntity
  8
0
  6
Continuous
 62
     7
100
AcDbPolyline
 90
        3
 70
   128
 43
0.0
 10
7804.1954040527
 20
5149.9445279598
 10
7803.9186353083
 20
5149.4630487182
 10
7803.7000903834
 20
5149.08474586
  0
LWPOLYLINE
  5
375
330
1F
100
AcDbEntity
  8
0
  6
Continuous
 62
     7
100
AcDbPolyline
 90
        3
 70
   128
 43
0.0
 10
7803.5049438477
 20
5149.0915407895
 10
7803.2294652546
 20
5149.5725804704
 10
7803.0110611554
 20
5149.9505331277
  0
LWPOLYLINE
  5
376
330
1F
100
AcDbEntity
  8
0
  6
Continuous
 62
     7
100
AcDbPolyline
 90
        3
 70
   128
 43
0.0
 10
7801.9180297852
 20
5149.0915407895
 10
7801.6419653902
 20
5149.5725804704
 10
7801.423561291
 20
5149.9505331277
  0
LWPOLYLINE
  5
377
330
1F
100
AcDbEntity
  8
0
  6
Continuous
 62
     7
100
AcDbPolyline
 90
        3
 70
   128
 43
0.0
 10
7800.3311157227
 20
5149.0915407895
 10
7800.0544655258
 20
5149.5725804704
 10
7799.8360614266
 20
5149.9505331277
  0
LWPOLYLINE
  5
378
330
1F
100
AcDbEntity
  8
0
  6
Continuous
 62
     7
100
AcDbPolyline
 90
        3
 70
   128
 43
0.0
 10
7798.7442016602
 20
5149.0915407895
 10
7798.4669649935
 20
5149.5725803214
 10
7798.2485615622
 20
5149.9505331277
  0
LWPOLYLINE
  5
379
330
1F
100
AcDbEntity
  8
0
  6
Continuous
 62
     7
100
AcDbPolyline
 90
        3
 70
   128
 43
0.0
 10
7797.1572875977
 20
5149.0915407895
 10
7796.9225545915
 20
5149.498012461
 10
7796.738004775
 20
5149.8173763513
  0
LWPOLYLINE
  5
37A
330
1F
100
AcDbEntity
  8
0
  6
Continuous
 62
     7
100
AcDbPolyline
 90
        3
 70
   128
 43
0.0
 10
7802.2270202637
 20
5123.518197751
 10
7802.5076736896
 20
5123.9996770174
 10
7802.7262226652
 20
5124.3779798507
  0
LWPOLYLINE
  5
37B
330
1F
100
AcDbEntity
  8
0
  6
Continuous
 62
     7
100
AcDbPolyline
 90
        3
 70
   128
 43
0.0
 10
7800.6401062012
 20
5123.518197751
 10
7800.9201736735
 20
5123.9996768683
 10
7801.1387228008
 20
5124.3779798507
  0
LWPOLYLINE
  5
37C
330
1F
100
AcDbEntity
  8
0
  6
Continuous
 62
     7
100
AcDbPolyline
 90
        3
 70
   128
 43
0.0
 10
7799.0531921387
 20
5123.518197751
 10
7799.3326738091
 20
5123.9996768683
 10
7799.5512229364
 20
5124.3779798507
  0
LWPOLYLINE
  5
37D
330
1F
100
AcDbEntity
  8
0
  6
Continuous
 62
     7
100
AcDbPolyline
 90
        3
 70
   128
 43
0.0
 10
7797.4662780762
 20
5123.518197751
 10
7797.7451734285
 20
5123.9996771665
 10
7797.963723072
 20
5124.3779798507
  0
LWPOLYLINE
  5
37E
330
1F
100
AcDbEntity
  8
0
  6
Continuous
 62
     7
100
AcDbPolyline
 90
        3
 70
   128
 43
0.0
 10
7803.8139343262
 20
5123.518197751
 10
7804.0951736098
 20
5123.9996770174
 10
7804.3137229953
 20
5124.3779798507
  0
LWPOLYLINE
  5
37F
330
1F
100
AcDbEntity
  8
0
  6
Continuous
 62
     7
100
AcDbPolyline
 90
        3
 70
   128
 43
0.0
 10
7695.0035095215
 20
5280.387076503
 10
7695.4835595076
 20
5280.1114633238
 10
7695.8584110227
 20
5279.8949079126
  0
LWPOLYLINE
  5
380
330
1F
100
AcDbEntity
  8
0
  6
Continuous
 62
     7
100
AcDbPolyline
 90
        3
 70
   128
 43
0.0
 10
7695.0035095215
 20
5278.7995757073
 10
7695.4835595076
 20
5278.523962528
 10
7695.8584110227
 20
5278.3074071168
  0
LWPOLYLINE
  5
381
330
1F
100
AcDbEntity
  8
0
  6
Continuous
 62
     7
100
AcDbPolyline
 90
        3
 70
   128
 43
0.0
 10
7695.0035095215
 20
5277.2120767742
 10
7695.4835595076
 20
5276.936463595
 10
7695.8584110227
 20
5276.7199081838
  0
LWPOLYLINE
  5
382
330
1F
100
AcDbEntity
  8
0
  6
Continuous
 62
     7
100
AcDbPolyline
 90
        3
 70
   128
 43
0.0
 10
7695.0035095215
 20
5275.6245759785
 10
7695.4835595076
 20
5275.3489627992
 10
7695.8584110227
 20
5275.132407388
  0
LWPOLYLINE
  5
383
330
1F
100
AcDbEntity
  8
0
  6
Continuous
 62
     7
100
AcDbPolyline
 90
        3
 70
   128
 43
0.0
 10
7720.5696105957
 20
5280.6841292887
 10
7721.0544768208
 20
5280.9622818626
 10
7721.4327822413
 20
5281.1808259695
  0
LWPOLYLINE
  5
384
330
1F
100
AcDbEntity
  8
0
  6
Continuous
 62
     7
100
AcDbPolyline
 90
        3
 70
   128
 43
0.0
 10
7720.5696105957
 20
5279.096628493
 10
7721.054477119
 20
5279.3747815938
 10
7721.4327822413
 20
5279.5933270364
  0
LWPOLYLINE
  5
385
330
1F
100
AcDbEntity
  8
0
  6
Continuous
 62
     7
100
AcDbPolyline
 90
        3
 70
   128
 43
0.0
 10
7720.5696105957
 20
5277.5091295599
 10
7721.0544768208
 20
5277.7872821338
 10
7721.4327822413
 20
5278.0058262407
  0
LWPOLYLINE
  5
386
330
1F
100
AcDbEntity
  8
0
  6
Continuous
 62
     7
100
AcDbPolyline
 90
        3
 70
   128
 43
0.0
 10
7720.5696105957
 20
5275.9216287642
 10
7721.0544768208
 20
5276.1997813381
 10
7721.4327822413
 20
5276.418325445
  0
LWPOLYLINE
  5
387
330
1F
100
AcDbEntity
  8
0
  6
Continuous
 62
     7
100
AcDbPolyline
 90
        3
 70
   128
 43
0.0
 10
7720.5696105957
 20
5274.3341298311
 10
7721.0544768208
 20
5274.612282405
 10
7721.4327822413
 20
5274.8308265119
  0
LWPOLYLINE
  5
388
330
1F
100
AcDbEntity
  8
0
  6
Continuous
 62
     7
100
AcDbPolyline
 90
        3
 70
   128
 43
0.0
 10
7695.182800293
 20
5281.8726738452
 10
7695.5611717381
 20
5281.6541257555
 10
7695.8584110227
 20
5281.4824087083
  0
LWPOLYLINE
  5
389
330
1F
100
AcDbEntity
  8
0
  6
Continuous
 62
     7
100
AcDbPolyline
 90
        3
 70
   128
 43
0.0
 10
7695.8656311035
 20
5279.7102638989
 10
7695.38475521
 20
5279.4321148592
 10
7695.0064520326
 20
5279.2135765314
  0
LWPOLYLINE
  5
38A
330
1F
100
AcDbEntity
  8
0
  6
Continuous
 62
     7
100
AcDbPolyline
 90
        3
 70
   128
 43
0.0
 10
7695.8656311035
 20
5278.1227649658
 10
7695.3847549118
 20
5277.8446153993
 10
7695.0064520326
 20
5277.6260757356
  0
LWPOLYLINE
  5
38B
330
1F
100
AcDbEntity
  8
0
  6
Continuous
 62
     7
100
AcDbPolyline
 90
        3
 70
   128
 43
0.0
 10
7695.8656311035
 20
5276.5352641701
 10
7695.38475521
 20
5276.2571151304
 10
7695.0064520326
 20
5276.0385768026
  0
LWPOLYLINE
  5
38C
330
1F
100
AcDbEntity
  8
0
  6
Continuous
 62
     7
100
AcDbPolyline
 90
        3
 70
   128
 43
0.0
 10
7695.8656311035
 20
5274.9477633744
 10
7695.3847546136
 20
5274.6696153671
 10
7695.0064520326
 20
5274.4510760068
  0
LWPOLYLINE
  5
38D
330
1F
100
AcDbEntity
  8
0
  6
Continuous
 62
     7
100
AcDbPolyline
 90
        3
 70
   128
 43
0.0
 10
7721.4317321777
 20
5280.0073259979
 10
7720.9557032276
 20
5280.2829405887
 10
7720.580845603
 20
5280.4994983136
  0
LWPOLYLINE
  5
38E
330
1F
100
AcDbEntity
  8
0
  6
Continuous
 62
     7
100
AcDbPolyline
 90
        3
 70
   128
 43
0.0
 10
7721.4317321777
 20
5278.4198252022
 10
7720.9557032276
 20
5278.695439793
 10
7720.580845603
 20
5278.9119975179
  0
LWPOLYLINE
  5
38F
330
1F
100
AcDbEntity
  8
0
  6
Continuous
 62
     7
100
AcDbPolyline
 90
        3
 70
   128
 43
0.0
 10
7721.4317321777
 20
5276.8323262691
 10
7720.9557032276
 20
5277.1079408599
 10
7720.580845603
 20
5277.3244985848
  0
LWPOLYLINE
  5
390
330
1F
100
AcDbEntity
  8
0
  6
Continuous
 62
     7
100
AcDbPolyline
 90
        3
 70
   128
 43
0.0
 10
7721.4317321777
 20
5275.2448254734
 10
7720.9557032276
 20
5275.5204400642
 10
7720.580845603
 20
5275.7369977891
  0
LWPOLYLINE
  5
391
330
1F
100
AcDbEntity
  8
0
  6
Continuous
 62
     7
100
AcDbPolyline
 90
        3
 70
   128
 43
0.0
 10
7721.4317321777
 20
5281.5948267936
 10
7720.955702932
 20
5281.8704398297
 10
7720.580845603
 20
5282.0869972467
  0
LWPOLYLINE
  5
392
330
1F
100
AcDbEntity
  8
0
  6
Continuous
 62
     7
100
AcDbPolyline
 90
        3
 70
   128
 43
0.0
 10
7695.8656311035
 20
5281.2977646946
 10
7695.3847549118
 20
5281.0196151281
 10
7695.0064520326
 20
5280.8010754644
  0
LWPOLYLINE
  5
393
330
1F
100
AcDbEntity
  8
0
  6
Continuous
 62
     7
100
AcDbPolyline
 90
        3
 70
   128
 43
0.0
 10
7746.7727661133
 20
5122.2861995458
 10
7747.1398011686
 20
5123.2549813317
 10
7747.8853384938
 20
5123.5733320474
  0
LWPOLYLINE
  5
394
330
1F
100
AcDbEntity
  8
0
  6
Continuous
 62
     7
100
AcDbPolyline
 90
        4
 70
   128
 43
0.0
 10
7748.5771179199
 20
5121.6652234554
 10
7748.5526462471
 20
5122.3690320455
 10
7748.4483039503
 20
5122.7026082701
 10
7748.1558690753
 20
5122.8687753439
  0
LWPOLYLINE
  5
395
330
1F
100
AcDbEntity
  8
0
  6
Continuous
 62
     7
100
AcDbPolyline
 90
        4
 70
   128
 43
0.0
 10
7747.8828430176
 20
5122.8687753439
 10
7747.5930053001
 20
5122.7001538086
 10
7747.4891428394
 20
5122.3650419165
 10
7747.4618251409
 20
5121.6586818457
  0
LWPOLYLINE
  5
396
330
1F
100
AcDbEntity
  8
0
  6
Continuous
 62
     7
100
AcDbPolyline
 90
        3
 70
   128
 43
0.0
 10
7748.1536865234
 20
5123.5733320474
 10
7749.0533888833
 20
5123.0714209427
 10
7749.2795172121
 20
5122.2767373085
  0
LWPOLYLINE
  5
397
330
1F
100
AcDbEntity
  8
0
  6
Continuous
 62
     7
100
AcDbPolyline
 90
        3
 70
   128
 43
0.0
 10
7746.2005615234
 20
5119.5539971351
 10
7746.1175859
 20
5120.4667279343
 10
7745.7299525823
 20
5121.0769405126
  0
LWPOLYLINE
  5
398
330
1F
100
AcDbEntity
  8
0
  6
Continuous
 62
     7
100
AcDbPolyline
 90
        3
 70
   128
 43
0.0
 10
7744.7853088379
 20
5118.3513542175
 10
7745.8534420079
 20
5118.7238118029
 10
7746.200777122
 20
5119.5539971351
  0
LWPOLYLINE
  5
399
330
1F
100
AcDbEntity
  8
0
  6
Continuous
 62
     7
100
AcDbPolyline
 90
        3
 70
   128
 43
0.0
 10
7745.3994750977
 20
5119.7057654619
 10
7745.1463621701
 20
5119.2276106055
 10
7744.7235132541
 20
5119.1291501284
  0
LWPOLYLINE
  5
39A
330
1F
100
AcDbEntity
  8
0
  6
Continuous
 62
     7
100
AcDbPolyline
 90
        3
 70
   128
 43
0.0
 10
7744.987487793
 20
5120.733364439
 10
7745.3645427483
 20
5120.2074490513
 10
7745.4016949024
 20
5119.7057654619
  0
LWPOLYLINE
  5
39B
330
1F
100
AcDbEntity
  8
0
  6
Continuous
 62
     7
100
AcDbPolyline
 90
        3
 70
   128
 43
0.0
 10
7743.4921264648
 20
5123.3189394235
 10
7743.6231693951
 20
5122.400467362
 10
7744.0468440737
 20
5121.8019416094
  0
LWPOLYLINE
  5
39C
330
1F
100
AcDbEntity
  8
0
  6
Continuous
 62
     7
100
AcDbPolyline
 90
        3
 70
   128
 43
0.0
 10
7745.1553344727
 20
5124.7503896713
 10
7743.9087818727
 20
5124.2826529091
 10
7743.4946442928
 20
5123.3189394235
  0
LWPOLYLINE
  5
39D
330
1F
100
AcDbEntity
  8
0
  6
Continuous
 62
     7
100
AcDbPolyline
 90
        3
 70
   128
 43
0.0
 10
7744.2970275879
 20
5123.2666810512
 10
7744.6476661899
 20
5123.8672731484
 10
7745.2072421994
 20
5123.9855279684
  0
LWPOLYLINE
  5
39E
330
1F
100
AcDbEntity
  8
0
  6
Continuous
 62
     7
100
AcDbPolyline
 90
        3
 70
   128
 43
0.0
 10
7745.0370788574
 20
5121.8678345442
 10
7744.4567961198
 20
5122.5741985965
 10
7744.2986736979
 20
5123.2666810512
  0
LWPOLYLINE
  5
39F
330
1F
100
AcDbEntity
  8
0
  6
Continuous
 62
     7
100
AcDbPolyline
 90
        3
 70
   128
 43
0.0
 10
7764.3585205078
 20
5122.4353005647
 10
7763.8417028128
 20
5122.6029742597
 10
7763.463552573
 20
5122.8077997922
  0
LWPOLYLINE
  5
3A0
330
1F
100
AcDbEntity
  8
0
  6
Continuous
 62
     7
100
AcDbPolyline
 90
        7
 70
   128
 43
0.0
 10
7764.3585205078
 20
5122.5949516058
 10
7764.3825370507
 20
5122.5857946965
 10
7764.3967939074
 20
5122.5647983577
 10
7764.4059504356
 20
5122.5151260852
 10
7764.3967939074
 20
5122.4654538128
 10
7764.3825370507
 20
5122.444457474
 10
7764.3593954828
 20
5122.4353005647
  0
LWPOLYLINE
  5
3A1
330
1F
100
AcDbEntity
  8
0
  6
Continuous
 62
     7
100
AcDbPolyline
 90
        3
 70
   128
 43
0.0
 10
7764.1983032227
 20
5122.6481636524
 10
7764.2236911106
 20
5122.6053155407
 10
7764.2618077781
 20
5122.5949516058
  0
LWPOLYLINE
  5
3A2
330
1F
100
AcDbEntity
  8
0
  6
Continuous
 62
     7
100
AcDbPolyline
 90
        3
 70
   128
 43
0.0
 10
7764.7285461426
 20
5122.6481636524
 10
7764.7068391203
 20
5122.689410849
 10
7764.6699319567
 20
5122.701375699
  0
LWPOLYLINE
  5
3A3
330
1F
100
AcDbEntity
  8
0
  6
Continuous
 62
     7
100
AcDbPolyline
 90
        3
 70
   128
 43
0.0
 10
7764.6675109863
 20
5122.5949516058
 10
7764.715396837
 20
5122.6136144207
 10
7764.7320809748
 20
5122.6481636524
  0
LWPOLYLINE
  5
3A4
330
1F
100
AcDbEntity
  8
0
  6
Continuous
 62
     7
100
AcDbPolyline
 90
        3
 70
   128
 43
0.0
 10
7766.2696838379
 20
5123.0296333789
 10
7765.5240908818
 20
5122.8650632651
 10
7765.0026860621
 20
5122.5683083295
  0
LWPOLYLINE
  5
3A5
330
1F
100
AcDbEntity
  8
0
  6
Continuous
 62
     7
100
AcDbPolyline
 90
        3
 70
   128
 43
0.0
 10
7764.2593383789
 20
5122.701375699
 10
7764.2180680389
 20
5122.681101256
 10
7764.1997369912
 20
5122.6481636524
  0
LWPOLYLINE
  5
3A6
330
1F
100
AcDbEntity
  8
0
  6
Continuous
 62
     7
100
AcDbPolyline
 90
        3
 70
   128
 43
0.0
 10
7765.1176452637
 20
5124.6395995378
 10
7765.1953536809
 20
5124.605903788
 10
7765.2553650524
 20
5124.5774616956
  0
LWPOLYLINE
  5
3A7
330
1F
100
AcDbEntity
  8
0
  6
Continuous
 62
     7
100
AcDbPolyline
 90
        3
 70
   128
 43
0.0
 10
7764.9955749512
 20
5123.2158829927
 10
7765.1147972634
 20
5123.2703505105
 10
7765.1488925304
 20
5123.366682744
  0
LWPOLYLINE
  5
3A8
330
1F
100
AcDbEntity
  8
0
  6
Continuous
 62
     7
100
AcDbPolyline
 90
        3
 70
   128
 43
0.0
 10
7763.9923095703
 20
5123.2158829927
 10
7764.1107306168
 20
5123.271876705
 10
7764.1465249445
 20
5123.366682744
  0
LWPOLYLINE
  5
3A9
330
1F
100
AcDbEntity
  8
0
  6
Continuous
 62
     7
100
AcDbPolyline
 90
        3
 70
   128
 43
0.0
 10
7763.9999389648
 20
5117.8626259326
 10
7763.9899064538
 20
5120.3797664585
 10
7763.6808934595
 20
5122.3332872152
  0
LWPOLYLINE
  5
3AA
330
1F
100
AcDbEntity
  8
0
  6
Continuous
 62
     7
100
AcDbPolyline
 90
        3
 70
   128
 43
0.0
 10
7763.5536193848
 20
5122.6747771263
 10
7764.0908060808
 20
5120.0130477752
 10
7764.0756401207
 20
5117.8492297887
  0
LWPOLYLINE
  5
3AB
330
1F
100
AcDbEntity
  8
0
  6
Continuous
 62
     7
100
AcDbPolyline
 90
        3
 70
   128
 43
0.0
 10
7765.2397155762
 20
5122.4731495141
 10
7765.0495010475
 20
5122.1495976622
 10
7764.9581837442
 20
5121.8675663232
  0
LWPOLYLINE
  5
3AC
330
1F
100
AcDbEntity
  8
0
  6
Continuous
 62
     7
100
AcDbPolyline
 90
        3
 70
   128
 43
0.0
 10
7766.4260864258
 20
5120.9750016689
 10
7766.5088737737
 20
5120.6580993178
 10
7766.5470126059
 20
5120.4038848638
  0
LWPOLYLINE
  5
3AD
330
1F
100
AcDbEntity
  8
0
  6
Continuous
 62
     7
100
AcDbPolyline
 90
        3
 70
   128
 43
0.0
 10
7765.8615112305
 20
5122.0239093065
 10
7766.0337767789
 20
5121.7886850232
 10
7766.1543968108
 20
5121.5940257072
  0
LWPOLYLINE
  5
3AE
330
1F
100
AcDbEntity
  8
0
  6
Continuous
 62
     7
100
AcDbPolyline
 90
        3
 70
   128
 43
0.0
 10
7765.9797668457
 20
5124.0541478156
 10
7766.0358206126
 20
5123.9818469674
 10
7766.0713936176
 20
5123.9210357427
  0
LWPOLYLINE
  5
3AF
330
1F
100
AcDbEntity
  8
0
  6
Continuous
 62
     7
100
AcDbPolyline
 90
        3
 70
   128
 43
0.0
 10
7766.0713195801
 20
5123.9210357427
 10
7766.4499736424
 20
5124.7266072769
 10
7766.5593097892
 20
5125.4157265186
  0
LWPOLYLINE
  5
3B0
330
1F
100
AcDbEntity
  8
0
  6
Continuous
 62
     7
100
AcDbPolyline
 90
        3
 70
   128
 43
0.0
 10
7766.5557861328
 20
5125.4157265186
 10
7765.6885609539
 20
5125.0932269774
 10
7765.1178422358
 20
5124.6395995378
  0
ARC
  5
3B1
330
1F
100
AcDbEntity
  8
0
  6
Continuous
 62
     7
100
AcDbCircle
 10
7764.8733391447
 20
5122.4789773451
 30
0.0
 40
1.582934630473304
100
AcDbArc
 50
19.9549274675
 51
78.8307810227
  0
LWPOLYLINE
  5
3B2
330
1F
100
AcDbEntity
  8
0
  6
Continuous
 62
     7
100
AcDbPolyline
 90
        3
 70
   128
 43
0.0
 10
7762.4130249023
 20
5123.0739941358
 10
7762.5545548921
 20
5123.5114537493
 10
7762.709572443
 20
5123.8368292808
  0
LWPOLYLINE
  5
3B3
330
1F
100
AcDbEntity
  8
0
  6
Continuous
 62
     7
100
AcDbPolyline
 90
        3
 70
   128
 43
0.0
 10
7762.7067565918
 20
5123.8368292808
 10
7762.3390233618
 20
5124.7284765155
 10
7762.2661064353
 20
5125.4867305517
  0
LWPOLYLINE
  5
3B4
330
1F
100
AcDbEntity
  8
0
  6
Continuous
 62
     7
100
AcDbPolyline
 90
        3
 70
   128
 43
0.0
 10
7762.264251709
 20
5125.4867305517
 10
7763.3022317909
 20
5125.181643264
 10
7764.0312123086
 20
5124.746023631
  0
LWPOLYLINE
  5
3B5
330
1F
100
AcDbEntity
  8
0
  6
Continuous
 62
     7
100
AcDbPolyline
 90
        3
 70
   128
 43
0.0
 10
7764.030456543
 20
5124.746023631
 10
7764.4262035702
 20
5124.7801481277
 10
7764.7364991691
 20
5124.7504492759
  0
LWPOLYLINE
  5
3B6
330
1F
100
AcDbEntity
  8
0
  6
Continuous
 62
     7
100
AcDbPolyline
 90
        3
 70
   128
 43
0.0
 10
7764.7361755371
 20
5124.7504492759
 10
7765.7268064784
 20
5125.3116432922
 10
7766.6080291357
 20
5125.4955967426
  0
LWPOLYLINE
  5
3B7
330
1F
100
AcDbEntity
  8
0
  6
Continuous
 62
     7
100
AcDbPolyline
 90
        3
 70
   128
 43
0.0
 10
7766.6053771973
 20
5125.4955967426
 10
7766.4457761864
 20
5124.5325383326
 10
7766.1114516642
 20
5123.8412549257
  0
LWPOLYLINE
  5
3B8
330
1F
100
AcDbEntity
  8
0
  6
Continuous
 62
     7
100
AcDbPolyline
 90
        3
 70
   128
 43
0.0
 10
7766.1094665527
 20
5123.8412549257
 10
7766.359827006
 20
5123.3704135328
 10
7766.4053472664
 20
5122.9605664968
  0
LWPOLYLINE
  5
3B9
330
1F
100
AcDbEntity
  8
0
  6
Continuous
 62
     7
100
AcDbPolyline
 90
        3
 70
   128
 43
0.0
 10
7765.0756835938
 20
5120.9209104537
 10
7765.8416142237
 20
5120.8310767466
 10
7766.4275611725
 20
5120.9750016689
  0
LWPOLYLINE
  5
3BA
330
1F
100
AcDbEntity
  8
0
  6
Continuous
 62
     7
100
AcDbPolyline
 90
        3
 70
   128
 43
0.0
 10
7765.0108337402
 20
5120.365633583
 10
7765.0445905372
 20
5120.6771704353
 10
7765.077832618
 20
5120.9209104537
  0
LWPOLYLINE
  5
3BB
330
1F
100
AcDbEntity
  8
0
  6
Continuous
 62
     7
100
AcDbPolyline
 90
        3
 70
   128
 43
0.0
 10
7766.544342041
 20
5120.4038848638
 10
7765.6869435094
 20
5120.2358436474
 10
7765.013452151
 20
5120.365633583
  0
LWPOLYLINE
  5
3BC
330
1F
100
AcDbEntity
  8
0
  6
Continuous
 62
     7
100
AcDbPolyline
 90
        3
 70
   128
 43
0.0
 10
7765.3312683105
 20
5121.9753911256
 10
7765.63300896
 20
5121.9721056161
 10
7765.8616821256
 20
5122.0239093065
  0
LWPOLYLINE
  5
3BD
330
1F
100
AcDbEntity
  8
0
  6
Continuous
 62
     7
100
AcDbPolyline
 90
        3
 70
   128
 43
0.0
 10
7765.193939209
 20
5121.5141554832
 10
7765.2687724093
 20
5121.7740128542
 10
7765.3346578565
 20
5121.9753911256
  0
LWPOLYLINE
  5
3BE
330
1F
100
AcDbEntity
  8
0
  6
Continuous
 62
     7
100
AcDbPolyline
 90
        3
 70
   128
 43
0.0
 10
7766.1514282227
 20
5121.5940257072
 10
7765.6228232427
 20
5121.4632245838
 10
7765.1966805544
 20
5121.5141554832
  0
LWPOLYLINE
  5
3BF
330
1F
100
AcDbEntity
  8
0
  6
Continuous
 62
     7
100
AcDbPolyline
 90
        3
 70
   128
 43
0.0
 10
7763.6871337891
 20
5124.6484359264
 10
7763.2169736467
 20
5125.0897083666
 10
7762.7672287609
 20
5125.3270646095
  0
LWPOLYLINE
  5
3C0
330
1F
100
AcDbEntity
  8
0
  6
Continuous
 62
     7
100
AcDbPolyline
 90
        3
 70
   128
 43
0.0
 10
7762.565612793
 20
5123.3400990724
 10
7763.3721926515
 20
5124.4285074144
 10
7764.4081893351
 20
5124.7061183214
  0
LWPOLYLINE
  5
3C1
330
1F
100
AcDbEntity
  8
0
  6
Continuous
 62
     7
100
AcDbPolyline
 90
        3
 70
   128
 43
0.0
 10
7763.7672424316
 20
5124.156146264
 10
7763.0641167971
 20
5123.7466778576
 10
7762.5675569262
 20
5123.3400990724
  0
LWPOLYLINE
  5
3C2
330
1F
100
AcDbEntity
  8
0
  6
Continuous
 62
     7
100
AcDbPolyline
 90
        3
 70
   128
 43
0.0
 10
7765.1672363281
 20
5124.1118004083
 10
7764.364519804
 20
5123.8301496422
 10
7763.769495764
 20
5124.156146264
  0
LWPOLYLINE
  5
3C3
330
1F
100
AcDbEntity
  8
0
  6
Continuous
 62
     7
100
AcDbPolyline
 90
        3
 70
   128
 43
0.0
 10
7766.2200927734
 20
5123.4553893566
 10
7765.6645399636
 20
5123.871729524
 10
7765.1710282054
 20
5124.1118004083
  0
LWPOLYLINE
  5
3C4
330
1F
100
AcDbEntity
  8
0
  6
Continuous
 62
     7
100
AcDbPolyline
 90
        3
 70
   128
 43
0.0
 10
7765.064239502
 20
5124.6618469715
 10
7764.9236524778
 20
5124.7060418151
 10
7764.8118245389
 20
5124.7371872424
  0
LWPOLYLINE
  5
3C5
330
1F
100
AcDbEntity
  8
0
  6
Continuous
 62
     7
100
AcDbPolyline
 90
        3
 70
   128
 43
0.0
 10
7765.8576965332
 20
5125.2738823652
 10
7765.3842095195
 20
5124.9685045856
 10
7765.0646301892
 20
5124.6618469715
  0
LWPOLYLINE
  5
3C6
330
1F
100
AcDbEntity
  8
0
  6
Continuous
 62
     7
100
AcDbPolyline
 90
        3
 70
   128
 43
0.0
 10
7765.0718688965
 20
5122.8521903514
 10
7765.730749918
 20
5123.0553521571
 10
7766.2711362328
 20
5123.0296333789
  0
LWPOLYLINE
  5
3C7
330
1F
100
AcDbEntity
  8
0
  6
Continuous
 62
     7
100
AcDbPolyline
 90
        3
 70
   128
 43
0.0
 10
7763.8854980469
 20
5122.7989783048
 10
7764.5515956432
 20
5123.2528075444
 10
7765.0734405007
 20
5122.8521903514
  0
LWPOLYLINE
  5
3C8
330
1F
100
AcDbEntity
  8
0
  6
Continuous
 62
     7
100
AcDbPolyline
 90
        3
 70
   128
 43
0.0
 10
7762.5579833984
 20
5123.0917116165
 10
7763.3216052496
 20
5123.016654521
 10
7763.889275023
 20
5122.7989783048
  0
LWPOLYLINE
  5
3C9
330
1F
100
AcDbEntity
  8
0
  6
Continuous
 62
     7
100
AcDbPolyline
 90
        3
 70
   128
 43
0.0
 10
7763.4620666504
 20
5122.8077997922
 10
7762.9717022448
 20
5123.0166484852
 10
7762.5588732746
 20
5123.0917116165
  0
LWPOLYLINE
  5
3CA
330
1F
100
AcDbEntity
  8
0
  6
Continuous
 62
     7
100
AcDbPolyline
 90
        3
 70
   128
 43
0.0
 10
7764.3852233887
 20
5117.8138097286
 10
7764.3527591913
 20
5118.8188127568
 10
7764.4215184238
 20
5119.6056445598
  0
LWPOLYLINE
  5
3CB
330
1F
100
AcDbEntity
  8
0
  6
Continuous
 62
     7
100
AcDbPolyline
 90
        3
 70
   128
 43
0.0
 10
7764.4195556641
 20
5119.6056445598
 10
7764.4383433335
 20
5118.5996198842
 10
7764.4614535358
 20
5117.8093989848
  0
LWPOLYLINE
  5
3CC
330
1F
100
AcDbEntity
  8
0
  6
Continuous
 62
     7
100
AcDbPolyline
 90
        6
 70
   128
 43
0.0
 10
7764.5492553711
 20
5122.4308749198
 10
7764.5287006817
 20
5122.4438372168
 10
7764.5179196822
 20
5122.4673057975
 10
7764.5127262102
 20
5122.5187222874
 10
7764.5259979025
 20
5122.5685253039
 10
7764.5679260578
 20
5122.5949516058
  0
LWPOLYLINE
  5
3CD
330
1F
100
AcDbEntity
  8
0
  6
Continuous
 62
     7
100
AcDbPolyline
 90
        3
 70
   128
 43
0.0
 10
7764.9993896484
 20
5122.5683083295
 10
7764.7624562075
 20
5122.4428026628
 10
7764.550130346
 20
5122.4308749198
  0
LWPOLYLINE
  5
3CE
330
1F
100
AcDbEntity
  8
0
  6
Continuous
 62
     7
100
AcDbPolyline
 90
        3
 70
   128
 43
0.0
 10
7763.9770507812
 20
5124.7283061504
 10
7763.8142765624
 20
5124.6917641871
 10
7763.6897298481
 20
5124.6484359264
  0
LWPOLYLINE
  5
3CF
330
1F
100
AcDbEntity
  8
0
  6
Continuous
 62
     7
100
AcDbPolyline
 90
        3
 70
   128
 43
0.0
 10
7764.1448974609
 20
5123.366682744
 10
7764.0901050435
 20
5123.4794114491
 10
7763.995747545
 20
5123.5130419492
  0
LWPOLYLINE
  5
3D0
330
1F
100
AcDbEntity
  8
0
  6
Continuous
 62
     7
100
AcDbPolyline
 90
        3
 70
   128
 43
0.0
 10
7763.9923095703
 20
5123.5130419492
 10
7763.8809930307
 20
5123.4599334295
 10
7763.8449477937
 20
5123.366682744
  0
LWPOLYLINE
  5
3D1
330
1F
100
AcDbEntity
  8
0
  6
Continuous
 62
     7
100
AcDbPolyline
 90
        3
 70
   128
 43
0.0
 10
7763.843536377
 20
5123.366682744
 10
7763.9009435686
 20
5123.2516937868
 10
7763.995747545
 20
5123.2158829927
  0
LWPOLYLINE
  5
3D2
330
1F
100
AcDbEntity
  8
0
  6
Continuous
 62
     7
100
AcDbPolyline
 90
        3
 70
   128
 43
0.0
 10
7763.6795043945
 20
5122.3332872152
 10
7763.6155661309
 20
5121.9552351359
 10
7763.4945767906
 20
5121.6768761634
  0
LWPOLYLINE
  5
3D3
330
1F
100
AcDbEntity
  8
0
  6
Continuous
 62
     7
100
AcDbPolyline
 90
        4
 70
   128
 43
0.0
 10
7763.4925842285
 20
5121.6768761634
 10
7762.739594437
 20
5119.5505393354
 10
7763.0607882197
 20
5118.480724826
 10
7764.0001918163
 20
5117.8626259326
  0
LWPOLYLINE
  5
3D4
330
1F
100
AcDbEntity
  8
0
  6
Continuous
 62
     7
100
AcDbPolyline
 90
        3
 70
   128
 43
0.0
 10
7764.0724182129
 20
5117.8492297887
 10
7764.2487406563
 20
5117.8218433411
 10
7764.3861765947
 20
5117.8138097286
  0
LWPOLYLINE
  5
3D5
330
1F
100
AcDbEntity
  8
0
  6
Continuous
 62
     7
100
AcDbPolyline
 90
        3
 70
   128
 43
0.0
 10
7764.4081115723
 20
5124.7061183214
 10
7765.6293586242
 20
5124.2840851384
 10
7766.2221412148
 20
5123.4553893566
  0
LWPOLYLINE
  5
3D6
330
1F
100
AcDbEntity
  8
0
  6
Continuous
 62
     7
100
AcDbPolyline
 90
        3
 70
   128
 43
0.0
 10
7764.4577026367
 20
5117.8093989848
 10
7764.6414283559
 20
5117.8199938342
 10
7764.7807518926
 20
5117.8448786497
  0
LWPOLYLINE
  5
3D7
330
1F
100
AcDbEntity
  8
0
  6
Continuous
 62
     7
100
AcDbPolyline
 90
        3
 70
   128
 43
0.0
 10
7764.778137207
 20
5117.8448786497
 10
7764.7180049205
 20
5120.607751629
 10
7765.2953001644
 20
5122.6570745468
  0
LWPOLYLINE
  5
3D8
330
1F
100
AcDbEntity
  8
0
  6
Continuous
 62
     7
100
AcDbPolyline
 90
        3
 70
   128
 43
0.0
 10
7765.2931213379
 20
5122.6570745468
 10
7764.8430886638
 20
5122.3700988758
 10
7764.4481766012
 20
5122.2356697082
  0
LWPOLYLINE
  5
3D9
330
1F
100
AcDbEntity
  8
0
  6
Continuous
 62
     7
100
AcDbPolyline
 90
        3
 70
   128
 43
0.0
 10
7764.4462585449
 20
5122.2356697082
 10
7763.936221297
 20
5122.4518963508
 10
7763.5566736545
 20
5122.6747771263
  0
LWPOLYLINE
  5
3DA
330
1F
100
AcDbEntity
  8
0
  6
Continuous
 62
     7
100
AcDbPolyline
 90
        3
 70
   128
 43
0.0
 10
7764.9574279785
 20
5121.8675663232
 10
7764.7737363972
 20
5119.6250709963
 10
7764.8382778253
 20
5117.858319497
  0
LWPOLYLINE
  5
3DB
330
1F
100
AcDbEntity
  8
0
  6
Continuous
 62
     7
100
AcDbPolyline
 90
        3
 70
   128
 43
0.0
 10
7764.835357666
 20
5117.858319497
 10
7764.8538221673
 20
5117.8598619681
 10
7764.8660163369
 20
5117.8612550258
  0
LWPOLYLINE
  5
3DC
330
1F
100
AcDbEntity
  8
0
  6
Continuous
 62
     7
100
AcDbPolyline
 90
        3
 70
   128
 43
0.0
 10
7764.8658752441
 20
5117.8612550258
 10
7766.0859276319
 20
5118.65649185
 10
7766.5290157285
 20
5119.7261502504
  0
LWPOLYLINE
  5
3DD
330
1F
100
AcDbEntity
  8
0
  6
Continuous
 62
     7
100
AcDbPolyline
 90
        3
 70
   128
 43
0.0
 10
7766.5252685547
 20
5119.7261502504
 10
7765.6621628683
 20
5119.5972813286
 10
7764.9844097879
 20
5119.7135736703
  0
LWPOLYLINE
  5
3DE
330
1F
100
AcDbEntity
  8
0
  6
Continuous
 62
     7
100
AcDbPolyline
 90
        3
 70
   128
 43
0.0
 10
7764.9841308594
 20
5119.7135736703
 10
7765.0117607508
 20
5118.9872896487
 10
7765.0423939314
 20
5118.4170683383
  0
LWPOLYLINE
  5
3DF
330
1F
100
AcDbEntity
  8
0
  6
Continuous
 62
     7
100
AcDbPolyline
 90
        3
 70
   128
 43
0.0
 10
7765.0413513184
 20
5118.4170683383
 10
7764.9344770495
 20
5120.6541890413
 10
7765.3796593633
 20
5122.3552813291
  0
LWPOLYLINE
  5
3E0
330
1F
100
AcDbEntity
  8
0
  6
Continuous
 62
     7
100
AcDbPolyline
 90
        3
 70
   128
 43
0.0
 10
7765.3770446777
 20
5122.3552813291
 10
7765.3029755903
 20
5122.4207906156
 10
7765.2434925523
 20
5122.4731495141
  0
LWPOLYLINE
  5
3E1
330
1F
100
AcDbEntity
  8
0
  6
Continuous
 62
     7
100
AcDbPolyline
 90
        3
 70
   128
 43
0.0
 10
7765.2778625488
 20
5122.5171973466
 10
7765.3515927541
 20
5122.4548142687
 10
7765.4077741291
 20
5122.4065264224
  0
LWPOLYLINE
  5
3E2
330
1F
100
AcDbEntity
  8
0
  6
Continuous
 62
     7
100
AcDbPolyline
 90
        3
 70
   128
 43
0.0
 10
7765.4075622559
 20
5122.4065264224
 10
7765.4548950917
 20
5122.485771625
 10
7765.4948937681
 20
5122.546165204
  0
LWPOLYLINE
  5
3E3
330
1F
100
AcDbEntity
  8
0
  6
Continuous
 62
     7
100
AcDbPolyline
 90
        3
 70
   128
 43
0.0
 10
7762.6953125
 20
5119.9826290368
 10
7763.1180015152
 20
5121.1353554816
 10
7763.53011606
 20
5122.0095743894
  0
LWPOLYLINE
  5
3E4
330
1F
100
AcDbEntity
  8
0
  6
Continuous
 62
     7
100
AcDbPolyline
 90
        4
 70
   128
 43
0.0
 10
7763.5269165039
 20
5122.0095743894
 10
7763.5569655744
 20
5122.4544617128
 10
7763.2776543241
 20
5122.8003283106
 10
7762.4168316808
 20
5123.0739941358
  0
LWPOLYLINE
  5
3E5
330
1F
100
AcDbEntity
  8
0
  6
Continuous
 62
     7
100
AcDbPolyline
 90
        3
 70
   128
 43
0.0
 10
7766.4031982422
 20
5125.2516498327
 10
7766.2461744619
 20
5124.5526571088
 10
7765.9827652361
 20
5124.0541478156
  0
LWPOLYLINE
  5
3E6
330
1F
100
AcDbEntity
  8
0
  6
Continuous
 62
     7
100
AcDbPolyline
 90
        3
 70
   128
 43
0.0
 10
7766.4031982422
 20
5122.9605664968
 10
7765.7233740948
 20
5122.8367904388
 10
7765.2808944669
 20
5122.5171973466
  0
LWPOLYLINE
  5
3E7
330
1F
100
AcDbEntity
  8
0
  6
Continuous
 62
     7
100
AcDbPolyline
 90
        3
 70
   128
 43
0.0
 10
7763.7405395508
 20
5124.080805993
 10
7762.9797211891
 20
5123.6003003465
 10
7762.4837974992
 20
5123.1075068473
  0
LWPOLYLINE
  5
3E8
330
1F
100
AcDbEntity
  8
0
  6
Continuous
 62
     7
100
AcDbPolyline
 90
        3
 70
   128
 43
0.0
 10
7762.4816894531
 20
5123.1075068473
 10
7763.5577054359
 20
5123.5439774424
 10
7764.465845653
 20
5123.6328472852
  0
LWPOLYLINE
  5
3E9
330
1F
100
AcDbEntity
  8
0
  6
Continuous
 62
     7
100
AcDbPolyline
 90
        3
 70
   128
 43
0.0
 10
7762.7639770508
 20
5125.3270646095
 10
7763.469691836
 20
5125.0420209165
 10
7763.9781269219
 20
5124.7283061504
  0
LWPOLYLINE
  5
3EA
330
1F
100
AcDbEntity
  8
0
  6
Continuous
 62
     7
100
AcDbPolyline
 90
        3
 70
   128
 43
0.0
 10
7762.4588012695
 20
5125.2782782077
 10
7763.0814487305
 20
5124.9309961269
 10
7763.4989689078
 20
5124.5597144126
  0
LWPOLYLINE
  5
3EB
330
1F
100
AcDbEntity
  8
0
  6
Continuous
 62
     7
100
AcDbPolyline
 90
        3
 70
   128
 43
0.0
 10
7764.8086547852
 20
5124.7371872424
 10
7765.3661616085
 20
5125.1032512564
 10
7765.8585454311
 20
5125.2738823652
  0
LWPOLYLINE
  5
3EC
330
1F
100
AcDbEntity
  8
0
  6
Continuous
 62
     7
100
AcDbPolyline
 90
       11
 70
   128
 43
0.0
 10
7765.1786804199
 20
5124.0319301843
 10
7764.6499277474
 20
5123.7681563954
 10
7764.0661635725
 20
5123.8527204642
 10
7763.8934317618
 20
5123.9515632931
 10
7763.8142657788
 20
5124.0116343635
 10
7763.7761455139
 20
5124.0441441609
 10
7763.7576286247
 20
5124.0611633563
 10
7763.7493132631
 20
5124.0704153935
 10
7763.7456255008
 20
5124.0753864257
 10
7763.7439286837
 20
5124.0779783346
 10
7763.7429418948
 20
5124.080805993
  0
LWPOLYLINE
  5
3ED
330
1F
100
AcDbEntity
  8
0
  6
Continuous
 62
     7
100
AcDbPolyline
 90
        3
 70
   128
 43
0.0
 10
7762.3443603516
 20
5125.4024197816
 10
7762.470878022
 20
5124.5301292933
 10
7762.749533632
 20
5123.8944669723
  0
LWPOLYLINE
  5
3EE
330
1F
100
AcDbEntity
  8
0
  6
Continuous
 62
     7
100
AcDbPolyline
 90
        3
 70
   128
 43
0.0
 10
7765.1481628418
 20
5123.366682744
 10
7765.0944182533
 20
5123.4833653755
 10
7764.9980927791
 20
5123.5174526929
  0
LWPOLYLINE
  5
3EF
330
1F
100
AcDbEntity
  8
0
  6
Continuous
 62
     7
100
AcDbPolyline
 90
        3
 70
   128
 43
0.0
 10
7764.4653320312
 20
5123.6328472852
 10
7765.5876965998
 20
5123.4449287669
 10
7766.3646596458
 20
5123.0192025661
  0
LWPOLYLINE
  5
3F0
330
1F
100
AcDbEntity
  8
0
  6
Continuous
 62
     7
100
AcDbPolyline
 90
        3
 70
   128
 43
0.0
 10
7765.2549743652
 20
5124.5774616956
 10
7765.8531271372
 20
5125.0361720609
 10
7766.4041663494
 20
5125.2516498327
  0
LWPOLYLINE
  5
3F1
330
1F
100
AcDbEntity
  8
0
  6
Continuous
 62
     7
100
AcDbPolyline
 90
        3
 70
   128
 43
0.0
 10
7763.4963989258
 20
5124.5597144126
 10
7763.5800073514
 20
5124.599080354
 10
7763.6453504648
 20
5124.626307702
  0
LWPOLYLINE
  5
3F2
330
1F
100
AcDbEntity
  8
0
  6
Continuous
 62
     7
100
AcDbPolyline
 90
        3
 70
   128
 43
0.0
 10
7763.6451721191
 20
5124.626307702
 10
7762.9821845839
 20
5125.1770035742
 10
7762.3458499994
 20
5125.4024197816
  0
LWPOLYLINE
  5
3F3
330
1F
100
AcDbEntity
  8
0
  6
Continuous
 62
     7
100
AcDbPolyline
 90
        3
 70
   128
 43
0.0
 10
7764.8506164551
 20
5123.366682744
 10
7764.9040674319
 20
5123.2511159482
 10
7764.9980927791
 20
5123.2158829927
  0
LWPOLYLINE
  5
3F4
330
1F
100
AcDbEntity
  8
0
  6
Continuous
 62
     7
100
AcDbPolyline
 90
        3
 70
   128
 43
0.0
 10
7765.4914855957
 20
5122.546165204
 10
7766.477336994
 20
5121.169086398
 10
7766.6461835589
 20
5119.8488464116
  0
LWPOLYLINE
  5
3F5
330
1F
100
AcDbEntity
  8
0
  6
Continuous
 62
     7
100
AcDbPolyline
 90
        3
 70
   128
 43
0.0
 10
7762.8021240234
 20
5123.9699115515
 10
7762.5251714048
 20
5124.6816001755
 10
7762.4612073388
 20
5125.2782782077
  0
LWPOLYLINE
  5
3F6
330
1F
100
AcDbEntity
  8
0
  6
Continuous
 62
     7
100
AcDbPolyline
 90
        3
 70
   128
 43
0.0
 10
7764.4653320312
 20
5117.7266081333
 10
7762.8869035022
 20
5118.5596173193
 10
7762.6961949255
 20
5119.9826290368
  0
LWPOLYLINE
  5
3F7
330
1F
100
AcDbEntity
  8
0
  6
Continuous
 62
     7
100
AcDbPolyline
 90
        3
 70
   128
 43
0.0
 10
7764.9955749512
 20
5123.5174526929
 10
7764.8844802828
 20
5123.461778414
 10
7764.8517335739
 20
5123.366682744
  0
LWPOLYLINE
  5
3F8
330
1F
100
AcDbEntity
  8
0
  6
Continuous
 62
     7
100
AcDbPolyline
 90
        3
 70
   128
 43
0.0
 10
7766.6435241699
 20
5119.8488464116
 10
7765.8228352763
 20
5118.2170364241
 10
7764.4658940818
 20
5117.7266081333
  0
LWPOLYLINE
  5
3F9
330
1F
100
AcDbEntity
  8
0
  6
Continuous
 62
     7
100
AcDbPolyline
 90
        3
 70
   128
 43
0.0
 10
7764.9993896484
 20
5123.3063628435
 10
7765.0460843081
 20
5123.3281539371
 10
7765.0596867289
 20
5123.3666529416
  0
LWPOLYLINE
  5
3FA
330
1F
100
AcDbEntity
  8
0
  6
Continuous
 62
     7
100
AcDbPolyline
 90
        3
 70
   128
 43
0.0
 10
7764.9993896484
 20
5123.4269430398
 10
7764.9539695194
 20
5123.4047053542
 10
7764.9408387925
 20
5123.3666529416
  0
LWPOLYLINE
  5
3FB
330
1F
100
AcDbEntity
  8
0
  6
Continuous
 62
     7
100
AcDbPolyline
 90
        3
 70
   128
 43
0.0
 10
7765.0566101074
 20
5123.3666529416
 10
7765.0379727344
 20
5123.413322129
 10
7764.9994711366
 20
5123.4269430398
  0
LWPOLYLINE
  5
3FC
330
1F
100
AcDbEntity
  8
0
  6
Continuous
 62
     7
100
AcDbPolyline
 90
        3
 70
   128
 43
0.0
 10
7764.9383544922
 20
5123.3666529416
 10
7764.9618396555
 20
5123.3204440354
 10
7764.9994711366
 20
5123.3063628435
  0
LWPOLYLINE
  5
3FD
330
1F
100
AcDbEntity
  8
0
  6
Continuous
 62
     7
100
AcDbPolyline
 90
        3
 70
   128
 43
0.0
 10
7767.7230834961
 20
5124.9534775972
 10
7767.6672559021
 20
5124.9234745078
 10
7767.6156940844
 20
5124.9178191185
  0
LWPOLYLINE
  5
3FE
330
1F
100
AcDbEntity
  8
0
  6
Continuous
 62
     7
100
AcDbPolyline
 90
        3
 70
   128
 43
0.0
 10
7767.765045166
 20
5125.0579645395
 10
7767.7545540942
 20
5124.9945842516
 10
7767.7256832805
 20
5124.9534775972
  0
LWPOLYLINE
  5
3FF
330
1F
100
AcDbEntity
  8
0
  6
Continuous
 62
     7
100
AcDbPolyline
 90
        3
 70
   128
 43
0.0
 10
7767.6124572754
 20
5125.1902421474
 10
7767.733545624
 20
5125.1516312133
 10
7767.7655178096
 20
5125.0579645395
  0
LWPOLYLINE
  5
400
330
1F
100
AcDbEntity
  8
0
  6
Continuous
 62
     7
100
AcDbPolyline
 90
        3
 70
   128
 43
0.0
 10
7767.8146362305
 20
5124.9542822599
 10
7767.8401601527
 20
5125.0123846155
 10
7767.8454848912
 20
5125.061615324
  0
LWPOLYLINE
  5
401
330
1F
100
AcDbEntity
  8
0
  6
Continuous
 62
     7
100
AcDbPolyline
 90
        3
 70
   128
 43
0.0
 10
7767.7307128906
 20
5124.8815943956
 10
7767.7839255459
 20
5124.9163712816
 10
7767.8159172621
 20
5124.9542822599
  0
LWPOLYLINE
  5
402
330
1F
100
AcDbEntity
  8
0
  6
Continuous
 62
     7
100
AcDbPolyline
 90
        3
 70
   128
 43
0.0
 10
7767.7841186523
 20
5125.2086748838
 10
7767.6930935729
 20
5125.2492074803
 10
7767.6140884842
 20
5125.2564182043
  0
LWPOLYLINE
  5
403
330
1F
100
AcDbEntity
  8
0
  6
Continuous
 62
     7
100
AcDbPolyline
 90
        3
 70
   128
 43
0.0
 10
7767.8451538086
 20
5125.061615324
 10
7767.8290085787
 20
5125.1516213857
 10
7767.7850197043
 20
5125.2086748838
  0
LWPOLYLINE
  5
404
330
1F
100
AcDbEntity
  8
0
  6
Continuous
 62
     7
100
AcDbPolyline
 90
        3
 70
   128
 43
0.0
 10
7760.3874206543
 20
5123.5733320474
 10
7761.2886319341
 20
5123.0714307609
 10
7761.5148122396
 20
5122.2767373085
  0
LWPOLYLINE
  5
405
330
1F
100
AcDbEntity
  8
0
  6
Continuous
 62
     7
100
AcDbPolyline
 90
        3
 70
   128
 43
0.0
 10
7759.0103149414
 20
5122.2861995458
 10
7759.3750381957
 20
5123.2549641876
 10
7760.1205590155
 20
5123.5733320474
  0
LWPOLYLINE
  5
406
330
1F
100
AcDbEntity
  8
0
  6
Continuous
 62
     7
100
AcDbPolyline
 90
        4
 70
   128
 43
0.0
 10
7760.814666748
 20
5121.6652234554
 10
7760.7878382413
 20
5122.3690339974
 10
7760.68349976
 20
5122.7026130133
 10
7760.3910597946
 20
5122.8687753439
  0
LWPOLYLINE
  5
407
330
1F
100
AcDbEntity
  8
0
  6
Continuous
 62
     7
100
AcDbPolyline
 90
        4
 70
   128
 43
0.0
 10
7760.1203918457
 20
5122.8687753439
 10
7759.8282225782
 20
5122.7001562514
 10
7759.7243712947
 20
5122.3650405429
 10
7759.6970456626
 20
5121.6586818457
  0
LWPOLYLINE
  5
408
330
1F
100
AcDbEntity
  8
0
  6
Continuous
 62
     7
100
AcDbPolyline
 90
        3
 70
   128
 43
0.0
 10
7764.0533447266
 20
5123.3653565406
 10
7764.0335038544
 20
5123.410429375
 10
7763.995747545
 20
5123.4238883018
  0
LWPOLYLINE
  5
409
330
1F
100
AcDbEntity
  8
0
  6
Continuous
 62
     7
100
AcDbPolyline
 90
        3
 70
   128
 43
0.0
 10
7763.9923095703
 20
5123.3050664424
 10
7764.0417908072
 20
5123.327429336
 10
7764.056138226
 20
5123.3653565406
  0
LWPOLYLINE
  5
40A
330
1F
100
AcDbEntity
  8
0
  6
Continuous
 62
     7
100
AcDbPolyline
 90
        3
 70
   128
 43
0.0
 10
7763.9350891113
 20
5123.3653565406
 10
7763.9578191355
 20
5123.319360924
 10
7763.995747545
 20
5123.3050664424
  0
LWPOLYLINE
  5
40B
330
1F
100
AcDbEntity
  8
0
  6
Continuous
 62
     7
100
AcDbPolyline
 90
        3
 70
   128
 43
0.0
 10
7763.9923095703
 20
5123.4238883018
 10
7763.9498589297
 20
5123.4026451327
 10
7763.9354313698
 20
5123.3653565406
  0
LWPOLYLINE
  5
40C
330
1F
100
AcDbEntity
  8
0
  6
Continuous
 62
     7
100
AcDbPolyline
 90
        6
 70
   128
 43
0.0
 10
7663.932800293
 20
5099.0043123721
 10
7665.5412725263
 20
5099.1310626422
 10
7666.0384966118
 20
5099.3520755826
 10
7666.2189239625
 20
5099.6780684587
 10
7665.6914692058
 20
5100.48275357
 10
7664.2196322765
 20
5100.9653945922
  0
LWPOLYLINE
  5
40D
330
1F
100
AcDbEntity
  8
0
  6
Continuous
 62
     7
100
AcDbPolyline
 90
        6
 70
   128
 43
0.0
 10
7664.2189025879
 20
5100.9653945922
 10
7662.7156134391
 20
5100.4588528227
 10
7662.3240474937
 20
5100.0354608428
 10
7662.2255427819
 20
5099.6321189902
 10
7662.6143291558
 20
5099.2264195979
 10
7663.9338280048
 20
5099.0043123721
  0
LWPOLYLINE
  5
40E
330
1F
100
AcDbEntity
  8
0
  6
Continuous
 62
     7
100
AcDbPolyline
 90
        6
 70
   128
 43
0.0
 10
7751.9302368164
 20
5099.0043123721
 10
7753.5412780765
 20
5099.131062829
 10
7754.0384949987
 20
5099.3520776589
 10
7754.2189288475
 20
5099.6780707281
 10
7753.6914687127
 20
5100.4827561223
 10
7752.2196280744
 20
5100.9653945922
  0
LWPOLYLINE
  5
40F
330
1F
100
AcDbEntity
  8
0
  6
Continuous
 62
     7
100
AcDbPolyline
 90
        6
 70
   128
 43
0.0
 10
7752.2163391113
 20
5100.9653945922
 10
7750.7156163193
 20
5100.458849618
 10
7750.3240492695
 20
5100.0354591465
 10
7750.2255461961
 20
5099.6321178489
 10
7750.6143346522
 20
5099.226419725
 10
7751.9338312533
 20
5099.0043123721
  0
LWPOLYLINE
  5
410
330
1F
100
AcDbEntity
  8
0
  6
Continuous
 62
     7
100
AcDbPolyline
 90
        3
 70
   128
 43
0.0
 10
7662.5823974609
 20
5100.3253152131
 10
7664.471905646
 20
5100.0340268926
 10
7665.8739144888
 20
5100.3289212942
  0
LWPOLYLINE
  5
411
330
1F
100
AcDbEntity
  8
0
  6
Continuous
 62
     7
100
AcDbPolyline
 90
        3
 70
   128
 43
0.0
 10
7750.5836486816
 20
5100.3253152131
 10
7752.4719049402
 20
5100.0340272138
 10
7753.8739140119
 20
5100.3289212942
  0
LWPOLYLINE
  5
412
330
1F
100
AcDbEntity
  8
0
  6
Continuous
 62
     7
100
AcDbPolyline
 90
        5
 70
   128
 43
0.0
 10
7721.8322753906
 20
5125.7742931604
 10
7719.9499885858
 20
5125.0751352366
 10
7718.2749589103
 20
5125.8595083378
 10
7717.5988390687
 20
5127.6536168588
 10
7718.5367713656
 20
5129.5237531423
  0
LWPOLYLINE
  5
413
330
1F
100
AcDbEntity
  8
0
  6
Continuous
 62
     7
100
AcDbPolyline
 90
        5
 70
   128
 43
0.0
 10
7718.5363769531
 20
5129.5237531423
 10
7720.3662688371
 20
5130.0554880167
 10
7721.9350866981
 20
5129.2659646352
 10
7722.59744835
 20
5127.5949379563
 10
7721.8360747185
 20
5125.7742931604
  0
LWPOLYLINE
  5
414
330
1F
100
AcDbEntity
  8
0
  6
Continuous
 62
     7
100
AcDbPolyline
 90
        5
 70
   128
 43
0.0
 10
7698.0972290039
 20
5126.3914247512
 10
7696.5615866891
 20
5125.4365996651
 10
7694.6712218178
 20
5125.8420542035
 10
7693.6159767629
 20
5127.608555662
 10
7694.1233570661
 20
5129.4246604204
  0
LWPOLYLINE
  5
415
330
1F
100
AcDbEntity
  8
0
  6
Continuous
 62
     7
100
AcDbPolyline
 90
        5
 70
   128
 43
0.0
 10
7694.1223144531
 20
5129.4246604204
 10
7695.6481007344
 20
5130.3548250984
 10
7697.5285362625
 20
5129.9448756852
 10
7698.5799427967
 20
5128.2064567589
 10
7698.0980480995
 20
5126.3914247512
  0
LWPOLYLINE
  5
416
330
1F
100
AcDbEntity
  8
0
  6
Continuous
 62
     7
100
AcDbPolyline
 90
        5
 70
   128
 43
0.0
 10
7611.7248535156
 20
5124.0483512639
 10
7611.6025196429
 20
5127.66525737
 10
7611.5215146047
 20
5133.0071166545
 10
7611.4407197335
 20
5139.229259938
 10
7611.3603706446
 20
5144.7839578151
  0
LWPOLYLINE
  5
417
330
1F
100
AcDbEntity
  8
0
  6
Continuous
 62
     7
100
AcDbPolyline
 90
        3
 70
   128
 43
0.0
 10
7611.3586425781
 20
5149.0569849967
 10
7611.8492191988
 20
5144.784054205
 10
7612.2196312036
 20
5137.4646713495
  0
LWPOLYLINE
  5
418
330
1F
100
AcDbEntity
  8
0
  6
Continuous
 62
     7
100
AcDbPolyline
 90
        3
 70
   128
 43
0.0
 10
7611.3586425781
 20
5144.7839578151
 10
7611.3603706446
 20
5148.0096592715
 10
7611.3603706446
 20
5149.0569849967
  0
LWPOLYLINE
  5
419
330
1F
100
AcDbEntity
  8
0
  6
Continuous
 62
     7
100
AcDbPolyline
 90
        5
 70
   128
 43
0.0
 10
7611.3586425781
 20
5149.0569849967
 10
7611.6192870482
 20
5142.2694027203
 10
7611.7884542667
 20
5134.2503676032
 10
7611.9575950443
 20
5127.2923291253
 10
7612.1254856672
 20
5124.4478066921
  0
LWPOLYLINE
  5
41A
330
1F
100
AcDbEntity
  8
0
  6
Continuous
 62
     7
100
AcDbPolyline
 90
        5
 70
   128
 43
0.0
 10
7612.9302978516
 20
5149.0838517904
 10
7612.9801422049
 20
5148.836850524
 10
7613.0277844188
 20
5148.1165964226
 10
7613.3225519432
 20
5136.8699460009
 10
7613.712980875
 20
5124.4478066921
  0
LWPOLYLINE
  5
41B
330
1F
100
AcDbEntity
  8
0
  6
Continuous
 62
     7
100
AcDbPolyline
 90
        5
 70
   128
 43
0.0
 10
7614.5172119141
 20
5149.0838517904
 10
7614.5676360045
 20
5148.8368505113
 10
7614.6152851136
 20
5148.1165964737
 10
7614.9100531032
 20
5136.869946123
 10
7615.3004760828
 20
5124.4478066921
  0
LWPOLYLINE
  5
41C
330
1F
100
AcDbEntity
  8
0
  6
Continuous
 62
     7
100
AcDbPolyline
 90
        5
 70
   128
 43
0.0
 10
7616.1041259766
 20
5149.0838517904
 10
7616.1551443111
 20
5148.8368505262
 10
7616.2027773205
 20
5148.116596463
 10
7616.4975602491
 20
5136.8699462165
 10
7616.8879861917
 20
5124.4478066921
  0
LWPOLYLINE
  5
41D
330
1F
100
AcDbEntity
  8
0
  6
Continuous
 62
     7
100
AcDbPolyline
 90
        5
 70
   128
 43
0.0
 10
7617.6910400391
 20
5149.0838517904
 10
7617.7426395555
 20
5148.8368505272
 10
7617.7902724116
 20
5148.1165964622
 10
7618.0850524738
 20
5136.8699461585
 10
7618.4754813995
 20
5124.4478066921
  0
LWPOLYLINE
  5
41E
330
1F
100
AcDbEntity
  8
0
  6
Continuous
 62
     7
100
AcDbPolyline
 90
        3
 70
   128
 43
0.0
 10
7619.2817687988
 20
5149.0838517904
 10
7619.5268511939
 20
5143.5802040092
 10
7619.7196240511
 20
5134.5769306182
  0
ARC
  5
41F
330
1F
100
AcDbEntity
  8
0
  6
Continuous
 62
     7
100
AcDbCircle
 10
7664.9867560578
 20
5132.0776247161
 30
0.0
 40
53.04406431917047
100
AcDbArc
 50
174.1711085522
 51
189.2385487459
  0
LWPOLYLINE
  5
420
330
1F
100
AcDbEntity
  8
0
  6
Continuous
 62
     7
100
AcDbPolyline
 90
        5
 70
   128
 43
0.0
 10
7613.4223937988
 20
5149.9423970937
 10
7613.8214663703
 20
5136.7314031947
 10
7614.1173662106
 20
5124.516049117
 10
7614.1929005647
 20
5123.6122878187
 10
7614.2182494488
 20
5123.561649537
  0
LWPOLYLINE
  5
421
330
1F
100
AcDbEntity
  8
0
  6
Continuous
 62
     7
100
AcDbPolyline
 90
        5
 70
   128
 43
0.0
 10
7615.0093078613
 20
5149.9423970937
 10
7615.4089687333
 20
5136.7314033271
 10
7615.70486213
 20
5124.5160491228
 10
7615.7804065513
 20
5123.6122878463
 10
7615.8057446565
 20
5123.561649537
  0
LWPOLYLINE
  5
422
330
1F
100
AcDbEntity
  8
0
  6
Continuous
 62
     7
100
AcDbPolyline
 90
        5
 70
   128
 43
0.0
 10
7616.5962219238
 20
5149.9423970937
 10
7616.9964724643
 20
5136.7314033522
 10
7617.2923571965
 20
5124.5160490217
 10
7617.3679072076
 20
5123.612287828
 10
7617.3932547655
 20
5123.561649537
  0
LWPOLYLINE
  5
423
330
1F
100
AcDbEntity
  8
0
  6
Continuous
 62
     7
100
AcDbPolyline
 90
        5
 70
   128
 43
0.0
 10
7618.1869506836
 20
5149.9423970937
 10
7618.5839678544
 20
5136.7314032169
 10
7618.8798667353
 20
5124.5160491174
 10
7618.955401089
 20
5123.6122878187
 10
7618.9807499733
 20
5123.561649537
  0
LWPOLYLINE
  5
424
330
1F
100
AcDbEntity
  8
0
  6
Continuous
 62
     7
100
AcDbPolyline
 90
        8
 70
   128
 43
0.0
 10
7612.2398376465
 20
5149.89666543
 10
7612.63510098
 20
5136.5103092501
 10
7612.9278767668
 20
5124.5053578229
 10
7613.0026592751
 20
5123.5461127205
 10
7613.008912189
 20
5123.5323477
 10
7613.0112478829
 20
5123.5311393155
 10
7613.0135778328
 20
5123.5321870176
 10
7613.0274678554
 20
5123.5722442626
  0
LWPOLYLINE
  5
425
330
1F
100
AcDbEntity
  8
0
  6
Continuous
 62
     7
100
AcDbPolyline
 90
        8
 70
   128
 43
0.0
 10
7613.826751709
 20
5149.89666543
 10
7614.222595641
 20
5136.5103092506
 10
7614.5153899064
 20
5124.5053579506
 10
7614.590155925
 20
5123.5461127279
 10
7614.5964078174
 20
5123.5323477021
 10
7614.59874325
 20
5123.5311393163
 10
7614.6010730129
 20
5123.5321870174
 10
7614.6149630632
 20
5123.5722442626
  0
LWPOLYLINE
  5
426
330
1F
100
AcDbEntity
  8
0
  6
Continuous
 62
     7
100
AcDbPolyline
 90
        8
 70
   128
 43
0.0
 10
7615.4136657715
 20
5149.89666543
 10
7615.8101029071
 20
5136.5103094823
 10
7616.1028855982
 20
5124.505357958
 10
7616.1776510979
 20
5123.5461127274
 10
7616.1839030145
 20
5123.532347702
 10
7616.1862384536
 20
5123.5311393162
 10
7616.1885682214
 20
5123.5321870174
 10
7616.202458271
 20
5123.5722442626
  0
LWPOLYLINE
  5
427
330
1F
100
AcDbEntity
  8
0
  6
Continuous
 62
     7
100
AcDbPolyline
 90
        8
 70
   128
 43
0.0
 10
7617.0043945312
 20
5149.89666543
 10
7617.3976015045
 20
5136.5103092501
 10
7617.6903772913
 20
5124.5053578229
 10
7617.7651597997
 20
5123.5461127205
 10
7617.7714127135
 20
5123.5323477
 10
7617.7737484074
 20
5123.5311393155
 10
7617.7760783573
 20
5123.5321870176
 10
7617.78996838
 20
5123.5722442626
  0
LWPOLYLINE
  5
428
330
1F
100
AcDbEntity
  8
0
  6
Continuous
 62
     7
100
AcDbPolyline
 90
        8
 70
   128
 43
0.0
 10
7618.5913085938
 20
5149.89666543
 10
7618.9850961656
 20
5136.5103092506
 10
7619.277890431
 20
5124.5053579506
 10
7619.3526564495
 20
5123.5461127279
 10
7619.358908342
 20
5123.5323477021
 10
7619.3612437745
 20
5123.5311393163
 10
7619.3635735374
 20
5123.5321870174
 10
7619.3774635877
 20
5123.5722442626
  0
LWPOLYLINE
  5
429
330
1F
100
AcDbEntity
  8
0
  6
Continuous
 62
     7
100
AcDbPolyline
 90
        5
 70
   128
 43
0.0
 10
7611.3586425781
 20
5144.7839578151
 10
7611.5564004245
 20
5135.9107505557
 10
7611.6817109178
 20
5130.0756191372
 10
7611.8089822294
 20
5125.8866502123
 10
7611.9367475595
 20
5124.4158586025
  0
LWPOLYLINE
  5
42A
330
1F
100
AcDbEntity
  8
0
  6
Continuous
 62
     7
100
AcDbPolyline
 90
        5
 70
   128
 43
0.0
 10
7612.735748291
 20
5149.0388502836
 10
7613.1317491576
 20
5136.5019033397
 10
7613.4243743213
 20
5125.2802183816
 10
7613.4991756176
 20
5124.4618483809
 10
7613.5242576685
 20
5124.4158586025
  0
LWPOLYLINE
  5
42B
330
1F
100
AcDbEntity
  8
0
  6
Continuous
 62
     7
100
AcDbPolyline
 90
        5
 70
   128
 43
0.0
 10
7614.3226623535
 20
5149.0388502836
 10
7614.7192444118
 20
5136.5019031903
 10
7615.0118844632
 20
5125.2802184845
 10
7615.0866802317
 20
5124.4618484018
 10
7615.1117528763
 20
5124.4158586025
  0
LWPOLYLINE
  5
42C
330
1F
100
AcDbEntity
  8
0
  6
Continuous
 62
     7
100
AcDbPolyline
 90
        5
 70
   128
 43
0.0
 10
7615.9133911133
 20
5149.0388502836
 10
7616.3067532597
 20
5136.501903476
 10
7616.5993798725
 20
5125.2802184896
 10
7616.6741753106
 20
5124.4618483999
 10
7616.6992480841
 20
5124.4158586025
  0
LWPOLYLINE
  5
42D
330
1F
100
AcDbEntity
  8
0
  6
Continuous
 62
     7
100
AcDbPolyline
 90
        5
 70
   128
 43
0.0
 10
7617.5003051758
 20
5149.0388502836
 10
7617.8942496822
 20
5136.5019033397
 10
7618.1868748458
 20
5125.2802183816
 10
7618.2616761421
 20
5124.4618483809
 10
7618.286758193
 20
5124.4158586025
  0
LWPOLYLINE
  5
42E
330
1F
100
AcDbEntity
  8
0
  6
Continuous
 62
     7
100
AcDbPolyline
 90
        5
 70
   128
 43
0.0
 10
7619.0872192383
 20
5149.0388502836
 10
7619.3035716377
 20
5144.5701019063
 10
7619.4412892372
 20
5138.4297265877
 10
7619.579221282
 20
5131.7883875767
 10
7619.7196240511
 20
5126.6010095834
  0
LWPOLYLINE
  5
42F
330
1F
100
AcDbEntity
  8
0
  6
Continuous
 62
     7
100
AcDbPolyline
 90
        9
 70
   128
 43
0.0
 10
7804.2182922363
 20
5149.9315043449
 10
7804.4642943758
 20
5136.5618862231
 10
7804.6520287925
 20
5124.9147979603
 10
7804.6978868427
 20
5124.0362370927
 10
7804.701831643
 20
5124.0211173744
 10
7804.7033202577
 20
5124.0190747369
 10
7804.7040665583
 20
5124.0188334447
 10
7804.7048141749
 20
5124.0191079815
 10
7804.7138517696
 20
5124.0483512639
  0
LWPOLYLINE
  5
430
330
1F
100
AcDbEntity
  8
0
  6
Continuous
 62
     7
100
AcDbPolyline
 90
       14
 70
   128
 43
0.0
 10
7803.8063049316
 20
5123.561649537
 10
7803.7942726812
 20
5123.5191335614
 10
7803.7919290901
 20
5123.5192601629
 10
7803.7895943759
 20
5123.5217343357
 10
7803.783408335
 20
5123.5392280099
 10
7803.7107648465
 20
5124.5259494598
 10
7803.4115395691
 20
5136.7317834242
 10
7803.1156493911
 20
5148.9380728682
 10
7803.0398556607
 20
5149.9400521396
 10
7803.0291599813
 20
5149.9751109609
 10
7803.0273892075
 20
5149.9764438057
 10
7803.0256224786
 20
5149.9763804454
 10
7803.0209328654
 20
5149.9690788762
 10
7803.0147347573
 20
5149.9423970937
  0
LWPOLYLINE
  5
431
330
1F
100
AcDbEntity
  8
0
  6
Continuous
 62
     7
100
AcDbPolyline
 90
       14
 70
   128
 43
0.0
 10
7802.2193908691
 20
5123.561649537
 10
7802.2067722483
 20
5123.5191335616
 10
7802.2044285946
 20
5123.5192601631
 10
7802.202093828
 20
5123.5217343358
 10
7802.1959076922
 20
5123.5392280097
 10
7802.12326481
 20
5124.525949458
 10
7801.8240401566
 20
5136.7317834367
 10
7801.5281482439
 20
5148.9380728686
 10
7801.4523610636
 20
5149.9400521296
 10
7801.4416648391
 20
5149.9751109518
 10
7801.4398937419
 20
5149.9764437971
 10
7801.4381266122
 20
5149.9763804375
 10
7801.4334355216
 20
5149.9690788709
 10
7801.4272344273
 20
5149.9423970937
  0
LWPOLYLINE
  5
432
330
1F
100
AcDbEntity
  8
0
  6
Continuous
 62
     7
100
AcDbPolyline
 90
       14
 70
   128
 43
0.0
 10
7800.6324768066
 20
5123.561649537
 10
7800.6192723823
 20
5123.5191335616
 10
7800.616928727
 20
5123.5192601631
 10
7800.6145939583
 20
5123.5217343357
 10
7800.6084078161
 20
5123.5392280096
 10
7800.5357650688
 20
5124.5259494597
 10
7800.2365393741
 20
5136.7317834191
 10
7799.9406491542
 20
5148.9380728674
 10
7799.8648554733
 20
5149.9400521397
 10
7799.8541597897
 20
5149.9751109609
 10
7799.8523890153
 20
5149.9764438057
 10
7799.8506222858
 20
5149.9763804454
 10
7799.8459326714
 20
5149.9690788762
 10
7799.8397345629
 20
5149.9423970937
  0
LWPOLYLINE
  5
433
330
1F
100
AcDbEntity
  8
0
  6
Continuous
 62
     7
100
AcDbPolyline
 90
       14
 70
   128
 43
0.0
 10
7799.0455627441
 20
5123.561649537
 10
7799.0317727208
 20
5123.5191335611
 10
7799.0294291876
 20
5123.5192601626
 10
7799.0270945202
 20
5123.5217343354
 10
7799.020908556
 20
5123.5392280098
 10
7798.9482650378
 20
5124.5259494656
 10
7798.6490395266
 20
5136.7317834286
 10
7798.3531492589
 20
5148.9380728678
 10
7798.277355614
 20
5149.9400521398
 10
7798.2666599274
 20
5149.9751109609
 10
7798.2648891525
 20
5149.9764438057
 10
7798.2631224226
 20
5149.9763804454
 10
7798.2584328074
 20
5149.9690788762
 10
7798.2522346985
 20
5149.9423970937
  0
LWPOLYLINE
  5
434
330
1F
100
AcDbEntity
  8
0
  6
Continuous
 62
     7
100
AcDbPolyline
 90
        8
 70
   128
 43
0.0
 10
7797.4548339844
 20
5123.561649537
 10
7797.4452256385
 20
5123.5197685264
 10
7797.4430366983
 20
5123.5189030118
 10
7797.4408556571
 20
5123.5201099503
 10
7797.4350753038
 20
5123.532989337
 10
7797.3673534571
 20
5124.3976794501
 10
7797.0889391027
 20
5135.33115012
 10
7796.7196269866
 20
5149.6549089908
  0
LWPOLYLINE
  5
435
330
1F
100
AcDbEntity
  8
0
  6
Continuous
 62
     7
100
AcDbPolyline
 90
        9
 70
   128
 43
0.0
 10
7804.2182922363
 20
5149.9315043449
 10
7804.2138629368
 20
5149.9492211789
 10
7804.2117104884
 20
5149.9531069958
 10
7804.2106373187
 20
5149.9541146269
 10
7804.2095665733
 20
5149.9543799744
 10
7804.2079656369
 20
5149.9531913645
 10
7804.2063717635
 20
5149.9498401284
 10
7804.2032041313
 20
5149.9369787218
 10
7804.196916518
 20
5149.89666543
  0
LWPOLYLINE
  5
436
330
1F
100
AcDbEntity
  8
0
  6
Continuous
 62
     7
100
AcDbPolyline
 90
       10
 70
   128
 43
0.0
 10
7803.4019470215
 20
5123.5963990449
 10
7803.3784190559
 20
5123.6453978605
 10
7803.3067486212
 20
5124.6751876247
 10
7803.0102631078
 20
5136.9559378191
 10
7802.7174749193
 20
5148.9670135356
 10
7802.6429054786
 20
5149.878974868
 10
7802.6240267907
 20
5149.9587961083
 10
7802.6232476816
 20
5149.9591892324
 10
7802.6224706161
 20
5149.9589628709
 10
7802.6178595584
 20
5149.9423970937
  0
LWPOLYLINE
  5
437
330
1F
100
AcDbEntity
  8
0
  6
Continuous
 62
     7
100
AcDbPolyline
 90
       10
 70
   128
 43
0.0
 10
7801.815032959
 20
5123.5963990449
 10
7801.7909191029
 20
5123.6453978612
 10
7801.7192487564
 20
5124.6751876282
 10
7801.4227632162
 20
5136.9559378229
 10
7801.1299750469
 20
5148.9670135359
 10
7801.0554056139
 20
5149.8789748681
 10
7801.0365269263
 20
5149.9587961083
 10
7801.0357478172
 20
5149.9591892324
 10
7801.0349707517
 20
5149.9589628709
 10
7801.030359694
 20
5149.9423970937
  0
LWPOLYLINE
  5
438
330
1F
100
AcDbEntity
  8
0
  6
Continuous
 62
     7
100
AcDbPolyline
 90
       10
 70
   128
 43
0.0
 10
7800.2281188965
 20
5123.5963990449
 10
7800.2034192385
 20
5123.6453978612
 10
7800.131748892
 20
5124.6751876282
 10
7799.8352633604
 20
5136.9559378229
 10
7799.5424743254
 20
5148.9670135308
 10
7799.4679058027
 20
5149.8789748684
 10
7799.4490270591
 20
5149.9587961083
 10
7799.4482479506
 20
5149.9591892324
 10
7799.4474708857
 20
5149.9589628709
 10
7799.4428598296
 20
5149.9423970937
  0
LWPOLYLINE
  5
439
330
1F
100
AcDbEntity
  8
0
  6
Continuous
 62
     7
100
AcDbPolyline
 90
       10
 70
   128
 43
0.0
 10
7798.6373901367
 20
5123.5963990449
 10
7798.6159186359
 20
5123.6453978599
 10
7798.544248259
 20
5124.6751876221
 10
7798.2477624909
 20
5136.9559378034
 10
7797.9549744645
 20
5148.9670135309
 10
7797.8804059384
 20
5149.8789748684
 10
7797.8615271947
 20
5149.9587961083
 10
7797.8607480862
 20
5149.9591892324
 10
7797.8599710212
 20
5149.9589628709
 10
7797.8553599652
 20
5149.9423970937
  0
ARC
  5
43A
330
1F
100
AcDbEntity
  8
0
  6
Continuous
 62
     7
100
AcDbCircle
 10
7836.7381643734
 20
5130.044843441
 30
0.0
 40
40.20814640913249
100
AcDbArc
 50
174.4335166091
 51
189.228754054
  0
LWPOLYLINE
  5
43B
330
1F
100
AcDbEntity
  8
0
  6
Continuous
 62
     7
100
AcDbPolyline
 90
       14
 70
   128
 43
0.0
 10
7804.4929504395
 20
5124.3871887683
 10
7804.4874811209
 20
5124.3727043968
 10
7804.4851345464
 20
5124.3720612305
 10
7804.4827981217
 20
5124.3739369474
 10
7804.4689612895
 20
5124.4328021754
 10
7804.3963824289
 20
5125.4938424913
 10
7804.0970071357
 20
5137.1706102248
 10
7803.8013052121
 20
5148.3032175859
 10
7803.7253176177
 20
5149.101465319
 10
7803.7221619297
 20
5149.1060996104
 10
7803.7190168722
 20
5149.1071693293
 10
7803.7143218507
 20
5149.1017379783
 10
7803.7096574493
 20
5149.0873970529
 10
7803.7004000481
 20
5149.0388502836
  0
LWPOLYLINE
  5
43C
330
1F
100
AcDbEntity
  8
0
  6
Continuous
 62
     7
100
AcDbPolyline
 90
       14
 70
   128
 43
0.0
 10
7802.906036377
 20
5124.3871887683
 10
7802.8999812591
 20
5124.3727043968
 10
7802.8976346873
 20
5124.3720612305
 10
7802.895298266
 20
5124.3739369475
 10
7802.8814614614
 20
5124.4328021757
 10
7802.8088821524
 20
5125.4938424875
 10
7802.5095072632
 20
5137.1706102252
 10
7802.2138053278
 20
5148.3032175851
 10
7802.1378178594
 20
5149.1014653197
 10
7802.1346621391
 20
5149.1060996108
 10
7802.1315170536
 20
5149.1071693295
 10
7802.1268220002
 20
5149.1017379784
 10
7802.1221575818
 20
5149.0873970529
 10
7802.1129001837
 20
5149.0388502836
  0
LWPOLYLINE
  5
43D
330
1F
100
AcDbEntity
  8
0
  6
Continuous
 62
     7
100
AcDbPolyline
 90
       14
 70
   128
 43
0.0
 10
7801.3153076172
 20
5124.3871887683
 10
7801.312480927
 20
5124.3727043968
 10
7801.3101343531
 20
5124.3720612305
 10
7801.3077979291
 20
5124.3739369474
 10
7801.2939611027
 20
5124.4328021755
 10
7801.2213821907
 20
5125.4938424902
 10
7800.9220073987
 20
5137.1706102297
 10
7800.6263049815
 20
5148.303217583
 10
7800.5503178157
 20
5149.1014653187
 10
7800.5471621505
 20
5149.1060996101
 10
7800.5440171124
 20
5149.1071693291
 10
7800.5393221127
 20
5149.1017379783
 10
7800.5346577225
 20
5149.0873970529
 10
7800.5254003193
 20
5149.0388502836
  0
LWPOLYLINE
  5
43E
330
1F
100
AcDbEntity
  8
0
  6
Continuous
 62
     7
100
AcDbPolyline
 90
       14
 70
   128
 43
0.0
 10
7799.7283935547
 20
5124.3871887683
 10
7799.7249810626
 20
5124.3727043968
 10
7799.7226344887
 20
5124.3720612305
 10
7799.7202980647
 20
5124.3739369474
 10
7799.7064612383
 20
5124.4328021755
 10
7799.6338823263
 20
5125.4938424902
 10
7799.3345075524
 20
5137.1706102296
 10
7799.038805126
 20
5148.3032175832
 10
7798.9628179504
 20
5149.1014653187
 10
7798.9596622855
 20
5149.1060996101
 10
7798.9565172476
 20
5149.1071693291
 10
7798.9518222482
 20
5149.1017379783
 10
7798.9471578581
 20
5149.0873970529
 10
7798.9379004549
 20
5149.0388502836
  0
LWPOLYLINE
  5
43F
330
1F
100
AcDbEntity
  8
0
  6
Continuous
 62
     7
100
AcDbPolyline
 90
       14
 70
   128
 43
0.0
 10
7798.1414794922
 20
5124.3871887683
 10
7798.1374811972
 20
5124.3727043968
 10
7798.1351346223
 20
5124.3720612305
 10
7798.1327981969
 20
5124.3739369474
 10
7798.11896136
 20
5124.4328021753
 10
7798.0463825415
 20
5125.4938424913
 10
7797.7470067735
 20
5137.1706102104
 10
7797.4513055101
 20
5148.3032175831
 10
7797.3753166733
 20
5149.1014653203
 10
7797.3721610382
 20
5149.1060996118
 10
7797.3690160689
 20
5149.1071693307
 10
7797.3643212533
 20
5149.1017379798
 10
7797.3596571561
 20
5149.0873970542
 10
7797.3504005905
 20
5149.0388502836
  0
LWPOLYLINE
  5
440
330
1F
100
AcDbEntity
  8
0
  6
Continuous
 62
     7
100
AcDbPolyline
 90
       14
 70
   128
 43
0.0
 10
7804.3022155762
 20
5124.4159331083
 10
7804.2969189761
 20
5124.3895469714
 10
7804.2898116268
 20
5124.3774749046
 10
7804.2874614671
 20
5124.3780231911
 10
7804.2851202075
 20
5124.3807826836
 10
7804.2789167534
 20
5124.398394077
 10
7804.2060204946
 20
5125.3350963584
 10
7803.9057024396
 20
5136.8250041154
 10
7803.6087841216
 20
5148.203667371
 10
7803.5327832088
 20
5149.0621307283
 10
7803.5184833058
 20
5149.0944967858
 10
7803.5161128553
 20
5149.0947980288
 10
7803.5137469767
 20
5149.0935691329
 10
7803.507458416
 20
5149.0838517904
  0
LWPOLYLINE
  5
441
330
1F
100
AcDbEntity
  8
0
  6
Continuous
 62
     7
100
AcDbPolyline
 90
       14
 70
   128
 43
0.0
 10
7802.7153015137
 20
5124.4159331083
 10
7802.7094189786
 20
5124.3895469711
 10
7802.7023118849
 20
5124.3774749042
 10
7802.6999617865
 20
5124.3780231908
 10
7802.697620577
 20
5124.3807826834
 10
7802.6914172079
 20
5124.398394077
 10
7802.618520607
 20
5125.335096363
 10
7802.3182021
 20
5136.8250041153
 10
7802.0212842805
 20
5148.2036673744
 10
7801.9452829926
 20
5149.0621307288
 10
7801.9309829912
 20
5149.0944967859
 10
7801.9286125324
 20
5149.0947980289
 10
7801.9262466482
 20
5149.0935691329
 10
7801.9199580859
 20
5149.0838517904
  0
LWPOLYLINE
  5
442
330
1F
100
AcDbEntity
  8
0
  6
Continuous
 62
     7
100
AcDbPolyline
 90
       14
 70
   128
 43
0.0
 10
7801.1283874512
 20
5124.4159331083
 10
7801.1219191118
 20
5124.3895469711
 10
7801.1148120277
 20
5124.3774749043
 10
7801.1124619358
 20
5124.3780231909
 10
7801.1101207341
 20
5124.3807826836
 10
7801.1039173899
 20
5124.3983940775
 10
7801.0310200612
 20
5125.3350963567
 10
7800.7307022678
 20
5136.8250041169
 10
7800.4337845389
 20
5148.2036673759
 10
7800.3577831114
 20
5149.0621307286
 10
7800.3434831241
 20
5149.0944967859
 10
7800.3411126667
 20
5149.0947980289
 10
7800.3387467835
 20
5149.0935691329
 10
7800.3324582215
 20
5149.0838517904
  0
LWPOLYLINE
  5
443
330
1F
100
AcDbEntity
  8
0
  6
Continuous
 62
     7
100
AcDbPolyline
 90
       14
 70
   128
 43
0.0
 10
7799.5414733887
 20
5124.4159331083
 10
7799.5344192563
 20
5124.3895469711
 10
7799.5273121363
 20
5124.3774749041
 10
7799.5249620189
 20
5124.3780231906
 10
7799.5226207858
 20
5124.3807826831
 10
7799.5164173342
 20
5124.3983940763
 10
7799.4435197572
 20
5125.3350963543
 10
7799.1432023661
 20
5136.8250041159
 10
7798.8462839161
 20
5148.2036673692
 10
7798.7702833105
 20
5149.0621307291
 10
7798.7559832699
 20
5149.094496786
 10
7798.7536128071
 20
5149.0947980289
 10
7798.7512469202
 20
5149.0935691329
 10
7798.7449583571
 20
5149.0838517904
  0
LWPOLYLINE
  5
444
330
1F
100
AcDbEntity
  8
0
  6
Continuous
 62
     7
100
AcDbPolyline
 90
       14
 70
   128
 43
0.0
 10
7797.9507446289
 20
5124.4159331083
 10
7797.9469193919
 20
5124.3895469711
 10
7797.9398122719
 20
5124.3774749041
 10
7797.9374621545
 20
5124.3780231906
 10
7797.9351209214
 20
5124.3807826831
 10
7797.9289174698
 20
5124.3983940763
 10
7797.8560198929
 20
5125.3350963543
 10
7797.5557025017
 20
5136.8250041157
 10
7797.258783703
 20
5148.2036673674
 10
7797.1827831725
 20
5149.0621307277
 10
7797.1684833671
 20
5149.0944967858
 10
7797.1661129249
 20
5149.0947980288
 10
7797.1637470518
 20
5149.0935691329
 10
7797.1574584927
 20
5149.0838517904
  0
LWPOLYLINE
  5
445
330
1F
100
AcDbEntity
  8
0
  6
Continuous
 62
     7
100
AcDbPolyline
 90
       18
 70
   128
 43
0.0
 10
7695.1560974121
 20
5281.8912462801
 10
7695.1590454809
 20
5281.8910777192
 10
7695.1585899749
 20
5281.891115936
 10
7695.1566611761
 20
5281.8914847895
 10
7695.1506790972
 20
5281.8929590142
 10
7695.1473802845
 20
5281.8944312146
 10
7695.1465951056
 20
5281.8955339389
 10
7695.1480107783
 20
5281.8971855699
 10
7695.152387178
 20
5281.8988340491
 10
7695.4357248245
 20
5281.921804222
 10
7698.9676896918
 20
5282.0149413865
 10
7708.0223955042
 20
5282.1400995182
 10
7719.8471809138
 20
5282.3291150917
 10
7720.7340019963
 20
5282.3778329945
 10
7720.7460312191
 20
5282.381921625
 10
7720.7475428554
 20
5282.3834526108
 10
7720.7477111724
 20
5282.3849825857
 10
7720.7312579241
 20
5282.3941492944
  0
LWPOLYLINE
  5
446
330
1F
100
AcDbEntity
  8
0
  6
Continuous
 62
     7
100
AcDbPolyline
 90
        8
 70
   128
 43
0.0
 10
7721.4126586914
 20
5281.5862698018
 10
7708.2205383331
 20
5281.1894851378
 10
7696.0141396043
 20
5280.8901646826
 10
7695.0422783184
 20
5280.8175776736
 10
7695.0297921814
 20
5280.8113786025
 10
7695.0291536824
 20
5280.8090351032
 10
7695.0306840225
 20
5280.8066811367
 10
7695.0683291044
 20
5280.7924197524
  0
LWPOLYLINE
  5
447
330
1F
100
AcDbEntity
  8
0
  6
Continuous
 62
     7
100
AcDbPolyline
 90
        8
 70
   128
 43
0.0
 10
7721.4126586914
 20
5279.9987690061
 10
7708.2205382946
 20
5279.601986344
 10
7696.0141396044
 20
5279.3026638734
 10
7695.0422783184
 20
5279.2300768786
 10
7695.0297921813
 20
5279.2238778069
 10
7695.0291536824
 20
5279.2215343074
 10
7695.0306840226
 20
5279.2191803409
 10
7695.0683291044
 20
5279.2049189567
  0
LWPOLYLINE
  5
448
330
1F
100
AcDbEntity
  8
0
  6
Continuous
 62
     7
100
AcDbPolyline
 90
        8
 70
   128
 43
0.0
 10
7721.4126586914
 20
5278.4112682104
 10
7708.2205383111
 20
5278.0144856131
 10
7696.0141396026
 20
5277.7151649534
 10
7695.0422783184
 20
5277.6425779448
 10
7695.0297921813
 20
5277.6363788737
 10
7695.0291536825
 20
5277.6340353743
 10
7695.0306840226
 20
5277.6316814079
 10
7695.0683291044
 20
5277.6174200236
  0
LWPOLYLINE
  5
449
330
1F
100
AcDbEntity
  8
0
  6
Continuous
 62
     7
100
AcDbPolyline
 90
        8
 70
   128
 43
0.0
 10
7721.4126586914
 20
5276.8237692773
 10
7708.2205382949
 20
5276.4269866149
 10
7696.0141396045
 20
5276.1276641446
 10
7695.0422783184
 20
5276.0550771498
 10
7695.0297921813
 20
5276.0488780781
 10
7695.0291536825
 20
5276.0465345786
 10
7695.0306840226
 20
5276.0441806121
 10
7695.0683291044
 20
5276.0299192279
  0
LWPOLYLINE
  5
44A
330
1F
100
AcDbEntity
  8
0
  6
Continuous
 62
     7
100
AcDbPolyline
 90
        8
 70
   128
 43
0.0
 10
7721.4126586914
 20
5275.2362684816
 10
7708.2205382947
 20
5274.8394858277
 10
7696.0141396003
 20
5274.5401643694
 10
7695.0422783173
 20
5274.4675765422
 10
7695.0297921812
 20
5274.4613773096
 10
7695.0291536825
 20
5274.4590337728
 10
7695.0306840228
 20
5274.4566797824
 10
7695.0683291044
 20
5274.4424184322
  0
LWPOLYLINE
  5
44B
330
1F
100
AcDbEntity
  8
0
  6
Continuous
 62
     7
100
AcDbPolyline
 90
       10
 70
   128
 43
0.0
 10
7721.3592529297
 20
5281.1806266665
 10
7721.369378117
 20
5281.1744147238
 10
7721.3727162561
 20
5281.168192894
 10
7721.3657278163
 20
5281.1619512897
 10
7721.3443255679
 20
5281.1556833199
 10
7720.2722604017
 20
5281.0813887797
 10
7707.9980912311
 20
5280.788274924
 10
7695.9846046019
 20
5280.4920746459
 10
7695.0964064398
 20
5280.4203253209
 10
7695.0605134454
 20
5280.3954397797
  0
LWPOLYLINE
  5
44C
330
1F
100
AcDbEntity
  8
0
  6
Continuous
 62
     7
100
AcDbPolyline
 90
       10
 70
   128
 43
0.0
 10
7721.3592529297
 20
5279.5931277334
 10
7721.369378117
 20
5279.5869157907
 10
7721.3727162561
 20
5279.5806939608
 10
7721.3657278162
 20
5279.5744523567
 10
7721.3443255678
 20
5279.5681843869
 10
7720.2722604001
 20
5279.4938898434
 10
7707.9980912515
 20
5279.2007740117
 10
7695.9846045899
 20
5278.9045757514
 10
7695.0964064408
 20
5278.8328243753
 10
7695.0605134454
 20
5278.807938984
  0
LWPOLYLINE
  5
44D
330
1F
100
AcDbEntity
  8
0
  6
Continuous
 62
     7
100
AcDbPolyline
 90
       10
 70
   128
 43
0.0
 10
7721.3592529297
 20
5278.0056269377
 10
7721.369378117
 20
5277.999414995
 10
7721.3727162561
 20
5277.9931931652
 10
7721.3657278163
 20
5277.9869515609
 10
7721.3443255679
 20
5277.9806835911
 10
7720.2722604018
 20
5277.906389051
 10
7707.9980912327
 20
5277.6132751466
 10
7695.9846046017
 20
5277.3170749249
 10
7695.0964064397
 20
5277.2453256024
 10
7695.0605134454
 20
5277.2204400509
  0
LWPOLYLINE
  5
44E
330
1F
100
AcDbEntity
  8
0
  6
Continuous
 62
     7
100
AcDbPolyline
 90
       10
 70
   128
 43
0.0
 10
7721.3592529297
 20
5276.4181280046
 10
7721.369378117
 20
5276.4119160611
 10
7721.3727162561
 20
5276.4056942311
 10
7721.3657278162
 20
5276.3994526279
 10
7721.3443255678
 20
5276.3931846606
 10
7720.272260401
 20
5276.3188900599
 10
7707.9980912524
 20
5276.0257742432
 10
7695.9846045899
 20
5275.7295760226
 10
7695.0964064408
 20
5275.6578246465
 10
7695.0605134454
 20
5275.6329392552
  0
LWPOLYLINE
  5
44F
330
1F
100
AcDbEntity
  8
0
  6
Continuous
 62
     7
100
AcDbPolyline
 90
        8
 70
   128
 43
0.0
 10
7721.3592529297
 20
5274.8306272089
 10
7721.3703036259
 20
5274.8235147124
 10
7721.3725957706
 20
5274.8199538275
 10
7721.3719823264
 20
5274.8163873788
 10
7721.3649708572
 20
5274.811620254
 10
7720.7266421991
 20
5274.7542934064
 10
7712.7674128872
 20
5274.5296936572
 10
7698.4206507888
 20
5274.2313509344
  0
LWPOLYLINE
  5
450
330
1F
100
AcDbEntity
  8
0
  6
Continuous
 62
     7
100
AcDbPolyline
 90
        8
 70
   128
 43
0.0
 10
7720.516204834
 20
5282.2716542988
 10
7708.0141483255
 20
5281.8797335867
 10
7696.794989102
 20
5281.5840248702
 10
7695.8990626728
 20
5281.5123148432
 10
7695.8871835905
 20
5281.5061909932
 10
7695.8864375373
 20
5281.5038761589
 10
7695.8877101605
 20
5281.5015509379
 10
7695.9220091786
 20
5281.4874620646
  0
LWPOLYLINE
  5
451
330
1F
100
AcDbEntity
  8
0
  6
Continuous
 62
     7
100
AcDbPolyline
 90
        8
 70
   128
 43
0.0
 10
7720.516204834
 20
5280.6841553658
 10
7708.014148334
 20
5280.2922342636
 10
7696.7949891057
 20
5279.9965249563
 10
7695.8990626742
 20
5279.9248157133
 10
7695.8871835907
 20
5279.9186920274
 10
7695.8864375373
 20
5279.9163772317
 10
7695.8877101603
 20
5279.9140520358
 10
7695.9220091786
 20
5279.8999631315
  0
LWPOLYLINE
  5
452
330
1F
100
AcDbEntity
  8
0
  6
Continuous
 62
     7
100
AcDbPolyline
 90
        8
 70
   128
 43
0.0
 10
7720.516204834
 20
5279.09665457
 10
7708.0141483253
 20
5278.7047338587
 10
7696.7949891089
 20
5278.409023926
 10
7695.899062674
 20
5278.3373149307
 10
7695.8871835907
 20
5278.3311912339
 10
7695.8864375373
 20
5278.3288764356
 10
7695.8877101603
 20
5278.3265512379
 10
7695.9220091786
 20
5278.3124623358
  0
LWPOLYLINE
  5
453
330
1F
100
AcDbEntity
  8
0
  6
Continuous
 62
     7
100
AcDbPolyline
 90
        8
 70
   128
 43
0.0
 10
7720.516204834
 20
5277.509155637
 10
7708.0141483623
 20
5277.1172331549
 10
7696.7949891056
 20
5276.8215252284
 10
7695.8990626742
 20
5276.7498159844
 10
7695.8871835907
 20
5276.7436922986
 10
7695.8864375373
 20
5276.7413775029
 10
7695.8877101603
 20
5276.739052307
 10
7695.9220091786
 20
5276.7249634027
  0
LWPOLYLINE
  5
454
330
1F
100
AcDbEntity
  8
0
  6
Continuous
 62
     7
100
AcDbPolyline
 90
        8
 70
   128
 43
0.0
 10
7720.516204834
 20
5275.9216548412
 10
7708.0141483258
 20
5275.5297341393
 10
7696.7949891058
 20
5275.2340244197
 10
7695.8990626741
 20
5275.1623151894
 10
7695.8871835907
 20
5275.156191503
 10
7695.8864375373
 20
5275.1538767072
 10
7695.8877101603
 20
5275.1515515112
 10
7695.9220091786
 20
5275.137462607
  0
LWPOLYLINE
  5
455
330
1F
100
AcDbEntity
  8
0
  6
Continuous
 62
     7
100
AcDbPolyline
 90
        9
 70
   128
 43
0.0
 10
7720.5581665039
 20
5282.0828957021
 10
7708.4540656178
 20
5281.6904116032
 10
7696.9624397008
 20
5281.3941491757
 10
7695.9292156174
 20
5281.3223710037
 10
7695.8978830054
 20
5281.3155539969
 10
7695.885561276
 20
5281.3086499979
 10
7695.886032501
 20
5281.3063261272
 10
7695.8888534021
 20
5281.3039902079
 10
7695.9036136951
 20
5281.2977237164
  0
LWPOLYLINE
  5
456
330
1F
100
AcDbEntity
  8
0
  6
Continuous
 62
     7
100
AcDbPolyline
 90
        9
 70
   128
 43
0.0
 10
7720.5581665039
 20
5280.495396769
 10
7708.4540656372
 20
5280.1029108108
 10
7696.9624397006
 20
5279.8066490364
 10
7695.9292156144
 20
5279.7348706742
 10
7695.897883004
 20
5279.7280534051
 10
7695.8855612758
 20
5279.721149236
 10
7695.886032501
 20
5279.7188253356
 10
7695.8888534021
 20
5279.7164894021
 10
7695.9036136951
 20
5279.7102229207
  0
LWPOLYLINE
  5
457
330
1F
100
AcDbEntity
  8
0
  6
Continuous
 62
     7
100
AcDbPolyline
 90
        9
 70
   128
 43
0.0
 10
7720.5581665039
 20
5278.9078959733
 10
7708.4540656204
 20
5278.5154117397
 10
7696.9624397007
 20
5278.2191494604
 10
7695.9292156175
 20
5278.1473712734
 10
7695.8978830054
 20
5278.1405542674
 10
7695.885561276
 20
5278.133650269
 10
7695.886032501
 20
5278.1313263984
 10
7695.8888534021
 20
5278.1289904792
 10
7695.9036136951
 20
5278.1227239876
  0
LWPOLYLINE
  5
458
330
1F
100
AcDbEntity
  8
0
  6
Continuous
 62
     7
100
AcDbPolyline
 90
        9
 70
   128
 43
0.0
 10
7720.5581665039
 20
5277.3203970402
 10
7708.454065637
 20
5276.9279110754
 10
7696.9624397015
 20
5276.6316492405
 10
7695.9292156143
 20
5276.559870953
 10
7695.897883004
 20
5276.5530536798
 10
7695.8855612758
 20
5276.5461495078
 10
7695.886032501
 20
5276.5438256068
 10
7695.8888534021
 20
5276.5414896731
 10
7695.9036136951
 20
5276.5352231919
  0
LWPOLYLINE
  5
459
330
1F
100
AcDbEntity
  8
0
  6
Continuous
 62
     7
100
AcDbPolyline
 90
        9
 70
   128
 43
0.0
 10
7720.5581665039
 20
5275.7328962445
 10
7708.4540656577
 20
5275.3404101888
 10
7696.9624397006
 20
5275.0441497329
 10
7695.9292156175
 20
5274.9723715444
 10
7695.8978830054
 20
5274.9655545386
 10
7695.885561276
 20
5274.9586505402
 10
7695.886032501
 20
5274.9563266696
 10
7695.8888534021
 20
5274.9539907504
 10
7695.9036136951
 20
5274.9477242588
  0
LWPOLYLINE
  5
45A
330
1F
100
AcDbEntity
  8
0
  6
Continuous
 62
     7
100
AcDbPolyline
 90
        3
 70
   128
 43
0.0
 10
8103.9581298828
 20
5204.9087723255
 10
8104.2243502291
 20
5204.456161392
 10
8104.4307219355
 20
5204.1004960894
  0
LWPOLYLINE
  5
45B
330
1F
100
AcDbEntity
  8
0
  6
Continuous
 62
     7
100
AcDbPolyline
 90
        3
 70
   128
 43
0.0
 10
8134.9029541016
 20
5111.8276556491
 10
8136.9216846613
 20
5110.8162756453
 10
8138.656394419
 20
5110.4837199211
  0
LWPOLYLINE
  5
45C
330
1F
100
AcDbEntity
  8
0
  6
Continuous
 62
     7
100
AcDbPolyline
 90
        3
 70
   128
 43
0.0
 10
8138.6489868164
 20
5110.4837199211
 10
8140.8473656274
 20
5110.9813652963
 10
8142.4057947962
 20
5111.8278046608
  0
LWPOLYLINE
  5
45D
330
1F
100
AcDbEntity
  8
0
  6
Continuous
 62
     7
100
AcDbPolyline
 90
        3
 70
   128
 43
0.0
 10
8041.2368774414
 20
5280.0022931307
 10
8041.718171483
 20
5279.7243217849
 10
8042.096139726
 20
5279.5059149622
  0
LWPOLYLINE
  5
45E
330
1F
100
AcDbEntity
  8
0
  6
Continuous
 62
     7
100
AcDbPolyline
 90
        3
 70
   128
 43
0.0
 10
8041.2368774414
 20
5278.4147941976
 10
8041.7181708869
 20
5278.1368218193
 10
8042.096139726
 20
5277.9184160292
  0
LWPOLYLINE
  5
45F
330
1F
100
AcDbEntity
  8
0
  6
Continuous
 62
     7
100
AcDbPolyline
 90
        3
 70
   128
 43
0.0
 10
8041.2368774414
 20
5276.8272934019
 10
8041.718171483
 20
5276.5493220561
 10
8042.096139726
 20
5276.3309152334
  0
LWPOLYLINE
  5
460
330
1F
100
AcDbEntity
  8
0
  6
Continuous
 62
     7
100
AcDbPolyline
 90
        3
 70
   128
 43
0.0
 10
8041.2368774414
 20
5275.2397944688
 10
8041.718171185
 20
5274.9618215637
 10
8042.096139726
 20
5274.7434144377
  0
LWPOLYLINE
  5
461
330
1F
100
AcDbEntity
  8
0
  6
Continuous
 62
     7
100
AcDbPolyline
 90
        3
 70
   128
 43
0.0
 10
8066.8029785156
 20
5280.2872536241
 10
8067.291251848
 20
5280.5654061969
 10
8067.6695572703
 20
5280.7839503049
  0
LWPOLYLINE
  5
462
330
1F
100
AcDbEntity
  8
0
  6
Continuous
 62
     7
100
AcDbPolyline
 90
        3
 70
   128
 43
0.0
 10
8066.8029785156
 20
5278.6997546911
 10
8067.291251848
 20
5278.9779072639
 10
8067.6695572703
 20
5279.1964513718
  0
LWPOLYLINE
  5
463
330
1F
100
AcDbEntity
  8
0
  6
Continuous
 62
     7
100
AcDbPolyline
 90
        3
 70
   128
 43
0.0
 10
8066.8029785156
 20
5277.1122538953
 10
8067.291251848
 20
5277.3904064682
 10
8067.6695572703
 20
5277.6089505761
  0
LWPOLYLINE
  5
464
330
1F
100
AcDbEntity
  8
0
  6
Continuous
 62
     7
100
AcDbPolyline
 90
        3
 70
   128
 43
0.0
 10
8066.8029785156
 20
5275.5247549623
 10
8067.291251848
 20
5275.8029075351
 10
8067.6695572703
 20
5276.021451643
  0
LWPOLYLINE
  5
465
330
1F
100
AcDbEntity
  8
0
  6
Continuous
 62
     7
100
AcDbPolyline
 90
        3
 70
   128
 43
0.0
 10
8066.8029785156
 20
5281.8747544199
 10
8067.0602032878
 20
5282.0194189411
 10
8067.256959018
 20
5282.1330995768
  0
LWPOLYLINE
  5
466
330
1F
100
AcDbEntity
  8
0
  6
Continuous
 62
     7
100
AcDbPolyline
 90
        3
 70
   128
 43
0.0
 10
8041.2368774414
 20
5281.5897939264
 10
8041.7181708869
 20
5281.3118215481
 10
8042.096139726
 20
5281.093415758
  0
LWPOLYLINE
  5
467
330
1F
100
AcDbEntity
  8
0
  6
Continuous
 62
     7
100
AcDbPolyline
 90
        3
 70
   128
 43
0.0
 10
8042.0989990234
 20
5280.90088903
 10
8041.621532826
 20
5280.6227411819
 10
8041.2432270615
 20
5280.4042016625
  0
LWPOLYLINE
  5
468
330
1F
100
AcDbEntity
  8
0
  6
Continuous
 62
     7
100
AcDbPolyline
 90
        3
 70
   128
 43
0.0
 10
8042.0989990234
 20
5279.313390097
 10
8041.6215325278
 20
5279.0352417219
 10
8041.2432270615
 20
5278.8167008668
  0
LWPOLYLINE
  5
469
330
1F
100
AcDbEntity
  8
0
  6
Continuous
 62
     7
100
AcDbPolyline
 90
        3
 70
   128
 43
0.0
 10
8042.0989990234
 20
5277.7258893012
 10
8041.621532826
 20
5277.4477414531
 10
8041.2432270615
 20
5277.2292019337
  0
LWPOLYLINE
  5
46A
330
1F
100
AcDbEntity
  8
0
  6
Continuous
 62
     7
100
AcDbPolyline
 90
        3
 70
   128
 43
0.0
 10
8042.0989990234
 20
5276.1383885055
 10
8041.6215322296
 20
5275.8602416897
 10
8041.2432270615
 20
5275.641701138
  0
LWPOLYLINE
  5
46B
330
1F
100
AcDbEntity
  8
0
  6
Continuous
 62
     7
100
AcDbPolyline
 90
        3
 70
   128
 43
0.0
 10
8042.0989990234
 20
5274.5508895724
 10
8041.8086363813
 20
5274.3808282662
 10
8041.5773408978
 20
5274.2472132205
  0
LWPOLYLINE
  5
46C
330
1F
100
AcDbEntity
  8
0
  6
Continuous
 62
     7
100
AcDbPolyline
 90
        3
 70
   128
 43
0.0
 10
8067.6651000977
 20
5279.6104503333
 10
8067.1924734007
 20
5279.8860637421
 10
8066.8176131814
 20
5280.102622649
  0
LWPOLYLINE
  5
46D
330
1F
100
AcDbEntity
  8
0
  6
Continuous
 62
     7
100
AcDbPolyline
 90
        3
 70
   128
 43
0.0
 10
8067.6651000977
 20
5278.0229514002
 10
8067.1924737018
 20
5278.2985642871
 10
8066.8176131814
 20
5278.5151218533
  0
LWPOLYLINE
  5
46E
330
1F
100
AcDbEntity
  8
0
  6
Continuous
 62
     7
100
AcDbPolyline
 90
        3
 70
   128
 43
0.0
 10
8067.6651000977
 20
5276.4354506045
 10
8067.1924734007
 20
5276.7110640133
 10
8066.8176131814
 20
5276.9276229202
  0
LWPOLYLINE
  5
46F
330
1F
100
AcDbEntity
  8
0
  6
Continuous
 62
     7
100
AcDbPolyline
 90
        3
 70
   128
 43
0.0
 10
8067.6651000977
 20
5274.8479516714
 10
8067.1924731052
 20
5275.1235635255
 10
8066.8176131814
 20
5275.3401221245
  0
LWPOLYLINE
  5
470
330
1F
100
AcDbEntity
  8
0
  6
Continuous
 62
     7
100
AcDbPolyline
 90
        3
 70
   128
 43
0.0
 10
8067.6651000977
 20
5281.197951129
 10
8067.1924734007
 20
5281.4735645378
 10
8066.8176131814
 20
5281.6901234447
  0
LWPOLYLINE
  5
471
330
1F
100
AcDbEntity
  8
0
  6
Continuous
 62
     7
100
AcDbPolyline
 90
        3
 70
   128
 43
0.0
 10
8103.9505004883
 20
5208.4853490352
 10
8104.2384368954
 20
5205.0581281081
 10
8104.4564115374
 20
5204.0313547015
  0
LWPOLYLINE
  5
472
330
1F
100
AcDbEntity
  8
0
  6
Continuous
 62
     7
100
AcDbPolyline
 90
        6
 70
   128
 43
0.0
 10
8103.5690307617
 20
5209.1184025168
 10
8103.7378295425
 20
5205.1170984219
 10
8103.77949533
 20
5204.8117950109
 10
8103.7812216244
 20
5204.8108143722
 10
8103.7829487713
 20
5204.8110904465
 10
8103.7933396666
 20
5204.8408751845
  0
LWPOLYLINE
  5
473
330
1F
100
AcDbEntity
  8
0
  6
Continuous
 62
     7
100
AcDbPolyline
 90
        3
 70
   128
 43
0.0
 10
8104.9499511719
 20
5213.8707926034
 10
8104.932550821
 20
5214.9136703546
 10
8104.9137281745
 20
5215.7313515901
  0
LWPOLYLINE
  5
474
330
1F
100
AcDbEntity
  8
0
  6
Continuous
 62
     7
100
AcDbPolyline
 90
        8
 70
   128
 43
0.0
 10
8104.850769043
 20
5204.182683444
 10
8104.832885526
 20
5204.0356845501
 10
8104.8282597747
 20
5204.0246301934
 10
8104.8236395896
 20
5204.0209646636
 10
8104.8190224488
 20
5204.024377009
 10
8104.8144058095
 20
5204.0345473469
 10
8104.7581346258
 20
5204.568129638
 10
8104.4564115374
 20
5215.2313505769
  0
LWPOLYLINE
  5
475
330
1F
100
AcDbEntity
  8
0
  6
Continuous
 62
     7
100
AcDbPolyline
 90
        3
 70
   128
 43
0.0
 10
8103.9581298828
 20
5204.9949680924
 10
8103.8489984367
 20
5206.5302178766
 10
8103.7635969489
 20
5209.125398612
  0
LWPOLYLINE
  5
476
330
1F
100
AcDbEntity
  8
0
  6
Continuous
 62
     7
100
AcDbPolyline
 90
        3
 70
   128
 43
0.0
 10
8103.9505004883
 20
5204.9702545165
 10
8103.8505075317
 20
5206.6431050665
 10
8103.770451483
 20
5209.1184025168
  0
LWPOLYLINE
  5
477
330
1F
100
AcDbEntity
  8
0
  6
Continuous
 62
     7
100
AcDbPolyline
 90
        3
 70
   128
 43
0.0
 10
8103.9505004883
 20
5204.9702545165
 10
8103.9563881724
 20
5206.3406946691
 10
8103.9563881724
 20
5208.4853490352
  0
LWPOLYLINE
  5
478
330
1F
100
AcDbEntity
  8
0
  6
Continuous
 62
     7
100
AcDbPolyline
 90
        4
 70
   128
 43
0.0
 10
8058.219909668
 20
5132.7246268749
 10
8056.7557135295
 20
5132.6657126624
 10
8056.1730521459
 20
5132.2335315559
 10
8056.0362058251
 20
5131.5215518236
  0
LWPOLYLINE
  5
479
330
1F
100
AcDbEntity
  8
0
  6
Continuous
 62
     7
100
AcDbPolyline
 90
        4
 70
   128
 43
0.0
 10
8050.0793457031
 20
5133.4632327318
 10
8051.494839102
 20
5133.1287202789
 10
8051.9721595039
 20
5132.5939805841
 10
8051.9334840148
 20
5131.8809976339
  0
LWPOLYLINE
  5
47A
330
1F
100
AcDbEntity
  8
0
  6
Continuous
 62
     7
100
AcDbPolyline
 90
        3
 70
   128
 43
0.0
 10
8135.5895996094
 20
5112.2111072301
 10
8139.1058650935
 20
5112.4314762588
 10
8141.7063938945
 20
5112.2143407821
  0
LWPOLYLINE
  5
47B
330
1F
100
AcDbEntity
  8
0
  6
Continuous
 62
     7
100
AcDbPolyline
 90
        6
 70
   128
 43
0.0
 10
8154.5715332031
 20
5126.3914247512
 10
8153.4861683943
 20
5125.4365996651
 10
8153.1188017114
 20
5125.4065059275
 10
8152.8226861413
 20
5125.5915993949
 10
8152.7310037133
 20
5127.3541451713
 10
8153.7180709212
 20
5129.4246604204
  0
LWPOLYLINE
  5
47C
330
1F
100
AcDbEntity
  8
0
  6
Continuous
 62
     7
100
AcDbPolyline
 90
        6
 70
   128
 43
0.0
 10
8153.7170410156
 20
5129.4246604204
 10
8154.7832238188
 20
5130.3548250984
 10
8155.1296449889
 20
5130.3788678589
 10
8155.4029153126
 20
5130.1935133701
 10
8155.4918586812
 20
5128.4582050757
 10
8154.5730995505
 20
5126.3914247512
  0
LWPOLYLINE
  5
47D
330
1F
100
AcDbEntity
  8
0
  6
Continuous
 62
     7
100
AcDbPolyline
 90
        6
 70
   128
 43
0.0
 10
8153.1753540039
 20
5125.3937175035
 10
8154.7636407546
 20
5126.776593825
 10
8155.5396443151
 20
5129.6150335664
 10
8155.3404682269
 20
5130.1997149217
 10
8155.1690119377
 20
5130.3593793543
 10
8154.9474763244
 20
5130.3729703187
  0
LWPOLYLINE
  5
47E
330
1F
100
AcDbEntity
  8
0
  6
Continuous
 62
     7
100
AcDbPolyline
 90
        9
 70
   128
 43
0.0
 10
8053.7185668945
 20
5149.931497735
 10
8045.9372170808
 20
5146.7027805399
 10
8041.7245528748
 20
5139.4047360874
 10
8042.8670707626
 20
5131.0587382608
 10
8048.9139461272
 20
5125.1979223486
 10
8057.2908946683
 20
5124.3635888535
 10
8064.3445288054
 20
5128.9542271177
 10
8066.9248999387
 20
5136.9619829693
 10
8063.8348775475
 20
5144.7839578151
  0
LWPOLYLINE
  5
47F
330
1F
100
AcDbEntity
  8
0
  6
Continuous
 62
     7
100
AcDbPolyline
 90
        3
 70
   128
 43
0.0
 10
8055.3894042969
 20
5149.0569849967
 10
8064.4706053974
 20
5144.783840649
 10
8067.6565485566
 20
5137.4646713495
  0
LWPOLYLINE
  5
480
330
1F
100
AcDbEntity
  8
0
  6
Continuous
 62
     7
100
AcDbPolyline
 90
        3
 70
   128
 43
0.0
 10
8063.8275146484
 20
5144.7839578151
 10
8059.5132421351
 20
5148.0093835337
 10
8055.3939359753
 20
5149.0569849967
  0
ARC
  5
481
330
1F
100
AcDbEntity
  8
0
  6
Continuous
 62
     7
100
AcDbCircle
 10
8054.4705285377
 20
5136.6859456634
 30
0.0
 40
13.20229899703046
100
AcDbArc
 50
112.2569034172
 51
3.3815025367
  0
LWPOLYLINE
  5
482
330
1F
100
AcDbEntity
  8
0
  6
Continuous
 62
     7
100
AcDbPolyline
 90
        3
 70
   128
 43
0.0
 10
8055.3894042969
 20
5149.0569849967
 10
8060.8327767083
 20
5147.3219257366
 10
8064.1511546939
 20
5144.2971517801
  0
LWPOLYLINE
  5
483
330
1F
100
AcDbEntity
  8
0
  6
Continuous
 62
     7
100
AcDbPolyline
 90
        8
 70
   128
 43
0.0
 10
8043.3883666992
 20
5281.7313512325
 10
8064.7492847153
 20
5282.0387762672
 10
8067.1340787842
 20
5282.1159902938
 10
8067.25906686
 20
5282.1310106035
 10
8067.2625109437
 20
5282.1334914979
 10
8067.2620033617
 20
5282.1347280883
 10
8067.2599460689
 20
5282.1359618542
 10
8067.2306733697
 20
5282.1425077974
  0
LWPOLYLINE
  5
484
330
1F
100
AcDbEntity
  8
0
  6
Continuous
 62
     7
100
AcDbPolyline
 90
        3
 70
   128
 43
0.0
 10
8043.3120727539
 20
5282.5906117916
 10
8042.1746814759
 20
5282.4434290792
 10
8041.8739634126
 20
5282.3269413322
  0
LINE
  5
485
330
1F
100
AcDbEntity
  8
0
  6
Continuous
 62
     7
100
AcDbLine
 10
8042.0989990234
 20
5282.5906117916
 30
0.0
 11
8043.3133261769
 21
5282.5906117916
 31
0.0
  0
LWPOLYLINE
  5
486
330
1F
100
AcDbEntity
  8
0
  6
Continuous
 62
     7
100
AcDbPolyline
 90
        8
 70
   128
 43
0.0
 10
8043.3883666992
 20
5281.7313512325
 10
8041.3665937042
 20
5281.6254627224
 10
8041.3083570182
 20
5281.615583286
 10
8041.2932715711
 20
5281.6105770745
 10
8041.2880528661
 20
5281.6055186632
 10
8041.2892361727
 20
5281.602121213
 10
8041.2932500746
 20
5281.598708477
 10
8041.3119214146
 20
5281.5895648211
  0
LWPOLYLINE
  5
487
330
1F
100
AcDbEntity
  8
0
  6
Continuous
 62
     7
100
AcDbPolyline
 90
       15
 70
   128
 43
0.0
 10
8067.6116943359
 20
5280.7837919801
 10
8067.6281919783
 20
5280.7776256481
 10
8067.6323571587
 20
5280.7745363681
 10
8067.6333062025
 20
5280.7729891296
 10
8067.6333217568
 20
5280.7714397513
 10
8067.6231336823
 20
5280.7652199085
 10
8067.5973918306
 20
5280.75897111
 10
8066.5173893792
 20
5280.6849124433
 10
8054.3218498151
 20
5280.3930620682
 10
8042.288699304
 20
5280.0982544638
 10
8041.30363042
 20
5280.0268460455
 10
8041.2896948397
 20
5280.0207369488
 10
8041.2881709714
 20
5280.0184261644
 10
8041.2883679791
 20
5280.0161060475
 10
8041.3119214146
 20
5280.0020640253
  0
LWPOLYLINE
  5
488
330
1F
100
AcDbEntity
  8
0
  6
Continuous
 62
     7
100
AcDbPolyline
 90
       15
 70
   128
 43
0.0
 10
8067.6116943359
 20
5279.196293047
 10
8067.6281919781
 20
5279.1901257042
 10
8067.6323571585
 20
5279.1870359633
 10
8067.6333062025
 20
5279.1854885134
 10
8067.633321757
 20
5279.1839389392
 10
8067.6231336836
 20
5279.1777184813
 10
8067.5973918332
 20
5279.1714693105
 10
8066.5173893935
 20
5279.0974119719
 10
8054.3218498514
 20
5278.8055611963
 10
8042.2886992996
 20
5278.5107553598
 10
8041.303630421
 20
5278.4393469754
 10
8041.2896948395
 20
5278.4332380458
 10
8041.2881709709
 20
5278.4309272936
 10
8041.2883679785
 20
5278.4286071947
 10
8041.3119214146
 20
5278.4145650923
  0
LWPOLYLINE
  5
489
330
1F
100
AcDbEntity
  8
0
  6
Continuous
 62
     7
100
AcDbPolyline
 90
       15
 70
   128
 43
0.0
 10
8067.6116943359
 20
5277.6087922513
 10
8067.6281919783
 20
5277.6026259145
 10
8067.6323571587
 20
5277.5995366351
 10
8067.6333062025
 20
5277.5979893983
 10
8067.6333217568
 20
5277.5964400228
 10
8067.6231336822
 20
5277.590220202
 10
8067.5973918302
 20
5277.5839714377
 10
8066.5173893871
 20
5277.509911777
 10
8054.3218498141
 20
5277.21806234
 10
8042.2886992999
 20
5276.9232545487
 10
8041.303630421
 20
5276.8518461802
 10
8041.2896948395
 20
5276.8457372499
 10
8041.2881709709
 20
5276.8434264977
 10
8041.2883679785
 20
5276.8411063986
 10
8041.3119214146
 20
5276.8270642965
  0
LWPOLYLINE
  5
48A
330
1F
100
AcDbEntity
  8
0
  6
Continuous
 62
     7
100
AcDbPolyline
 90
       15
 70
   128
 43
0.0
 10
8067.6116943359
 20
5276.0212914556
 10
8067.6281919783
 20
5276.0151251239
 10
8067.6323571586
 20
5276.0120358438
 10
8067.6333062025
 20
5276.0104886052
 10
8067.6333217568
 20
5276.0089392267
 10
8067.6231336824
 20
5276.0027193824
 10
8067.5973918307
 20
5275.9964705815
 10
8066.5173893786
 20
5275.9224119649
 10
8054.3218498148
 20
5275.6305614653
 10
8042.2886993037
 20
5275.3357535974
 10
8041.3036304183
 20
5275.2643475669
 10
8041.2896948388
 20
5275.2582381993
 10
8041.2881709706
 20
5275.2559272578
 10
8041.2883679785
 20
5275.253606958
 10
8041.3119214146
 20
5275.2395635008
  0
LWPOLYLINE
  5
48B
330
1F
100
AcDbEntity
  8
0
  6
Continuous
 62
     7
100
AcDbPolyline
 90
        7
 70
   128
 43
0.0
 10
8067.6116943359
 20
5274.4337925225
 10
8067.6326302402
 20
5274.4242030941
 10
8067.6334013254
 20
5274.4225997135
 10
8067.6331371466
 20
5274.4209939635
 10
8067.548888258
 20
5274.4015750218
 10
8067.3415917211
 20
5274.3820761106
 10
8063.3311735957
 20
5274.2313509344
  0
LWPOLYLINE
  5
48C
330
1F
100
AcDbEntity
  8
0
  6
Continuous
 62
     7
100
AcDbPolyline
 90
        8
 70
   128
 43
0.0
 10
8066.7343139648
 20
5281.8747059911
 10
8054.3160611301
 20
5281.4842438742
 10
8043.075568388
 20
5281.1894151744
 10
8042.1579022744
 20
5281.1180563535
 10
8042.1452538657
 20
5281.1119485502
 10
8042.1439370819
 20
5281.1096384144
 10
8042.1442049984
 20
5281.107319081
 10
8042.1664136021
 20
5281.0932835101
  0
LWPOLYLINE
  5
48D
330
1F
100
AcDbEntity
  8
0
  6
Continuous
 62
     7
100
AcDbPolyline
 90
        8
 70
   128
 43
0.0
 10
8066.7343139648
 20
5280.2872051954
 10
8054.3160610887
 20
5279.8967451717
 10
8043.0755683821
 20
5279.6019150415
 10
8042.1579022745
 20
5279.5305555405
 10
8042.1452538656
 20
5279.524447759
 10
8042.1439370818
 20
5279.5221376274
 10
8042.1442049983
 20
5279.5198182963
 10
8042.1664136021
 20
5279.5057827144
  0
LWPOLYLINE
  5
48E
330
1F
100
AcDbEntity
  8
0
  6
Continuous
 62
     7
100
AcDbPolyline
 90
        8
 70
   128
 43
0.0
 10
8066.7343139648
 20
5278.6997062623
 10
8054.3160611254
 20
5278.3092444062
 10
8043.075568388
 20
5278.0144154453
 10
8042.1579022744
 20
5277.9430566247
 10
8042.1452538657
 20
5277.9369488214
 10
8042.1439370819
 20
5277.9346386856
 10
8042.1442049984
 20
5277.9323193522
 10
8042.1664136021
 20
5277.9182837813
  0
LWPOLYLINE
  5
48F
330
1F
100
AcDbEntity
  8
0
  6
Continuous
 62
     7
100
AcDbPolyline
 90
        8
 70
   128
 43
0.0
 10
8066.7343139648
 20
5277.1122054666
 10
8054.3160610843
 20
5276.7217456243
 10
8043.0755683819
 20
5276.4269153273
 10
8042.1579022745
 20
5276.3555558112
 10
8042.1452538656
 20
5276.3494480303
 10
8042.1439370818
 20
5276.3471378988
 10
8042.1442049983
 20
5276.3448185678
 10
8042.1664136021
 20
5276.3307829856
  0
LWPOLYLINE
  5
490
330
1F
100
AcDbEntity
  8
0
  6
Continuous
 62
     7
100
AcDbPolyline
 90
        8
 70
   128
 43
0.0
 10
8066.7343139648
 20
5275.5247065335
 10
8054.316061127
 20
5275.1342446457
 10
8043.075568389
 20
5274.8394160555
 10
8042.1579022761
 20
5274.7680548589
 10
8042.1452538667
 20
5274.7619473284
 10
8042.1439370827
 20
5274.7596373496
 10
8042.1442049991
 20
5274.7573181984
 10
8042.1664136021
 20
5274.7432840525
  0
LWPOLYLINE
  5
491
330
1F
100
AcDbEntity
  8
0
  6
Continuous
 62
     7
100
AcDbPolyline
 90
       11
 70
   128
 43
0.0
 10
8067.6193237305
 20
5281.1893494337
 10
8067.5754752275
 20
5281.164007621
 10
8066.6719160985
 20
5281.0884712355
 10
8054.4572680527
 20
5280.7926471168
 10
8042.2497471379
 20
5280.4932175726
 10
8041.2953395911
 20
5280.4207049809
 10
8041.2865026328
 20
5280.4144759017
 10
8041.286457522
 20
5280.4121222646
 10
8041.287873503
 20
5280.4097606977
 10
8041.2942538309
 20
5280.4050183058
 10
8041.3153635829
 20
5280.3954882085
  0
LWPOLYLINE
  5
492
330
1F
100
AcDbEntity
  8
0
  6
Continuous
 62
     7
100
AcDbPolyline
 90
       11
 70
   128
 43
0.0
 10
8067.6193237305
 20
5279.6018505006
 10
8067.575475228
 20
5279.5765086387
 10
8066.6719160981
 20
5279.5009723533
 10
8054.4572680914
 20
5279.2051461647
 10
8042.2497471437
 20
5278.9057179727
 10
8041.295339591
 20
5278.8332060544
 10
8041.2865026329
 20
5278.826976956
 10
8041.2864575222
 20
5278.8246233159
 10
8041.2878735032
 20
5278.8222617478
 10
8041.2942538311
 20
5278.8175193579
 10
8041.3153635829
 20
5278.8079892754
  0
LWPOLYLINE
  5
493
330
1F
100
AcDbEntity
  8
0
  6
Continuous
 62
     7
100
AcDbPolyline
 90
       11
 70
   128
 43
0.0
 10
8067.6193237305
 20
5278.0143497049
 10
8067.5754752275
 20
5277.9890078922
 10
8066.6719160986
 20
5277.9134715067
 10
8054.4572680529
 20
5277.6176473991
 10
8042.2497471353
 20
5277.3182180295
 10
8041.2953395911
 20
5277.24570525
 10
8041.2865026328
 20
5277.239476177
 10
8041.286457522
 20
5277.237122541
 10
8041.287873503
 20
5277.2347609745
 10
8041.2942538309
 20
5277.2300185818
 10
8041.3153635829
 20
5277.2204884797
  0
LWPOLYLINE
  5
494
330
1F
100
AcDbEntity
  8
0
  6
Continuous
 62
     7
100
AcDbPolyline
 90
       11
 70
   128
 43
0.0
 10
8067.6193237305
 20
5276.4268507718
 10
8067.5754752279
 20
5276.4015089099
 10
8066.6719160965
 20
5276.3259726244
 10
8054.457268074
 20
5276.0301464353
 10
8042.2497471315
 20
5275.7307184667
 10
8041.2953395909
 20
5275.6582044874
 10
8041.2865026332
 20
5275.6519753179
 10
8041.2864575225
 20
5275.6496216665
 10
8041.2878735035
 20
5275.6472600939
 10
8041.2942538314
 20
5275.6425177118
 10
8041.3153635829
 20
5275.632987684
  0
LWPOLYLINE
  5
495
330
1F
100
AcDbEntity
  8
0
  6
Continuous
 62
     7
100
AcDbPolyline
 90
        5
 70
   128
 43
0.0
 10
8067.6193237305
 20
5274.8393499761
 10
8063.4964152371
 20
5274.6326216635
 10
8057.388553835
 20
5274.498439187
 10
8050.4783718723
 20
5274.3635300052
 10
8044.6574258178
 20
5274.2313509344
  0
LWPOLYLINE
  5
496
330
1F
100
AcDbEntity
  8
0
  6
Continuous
 62
     7
100
AcDbPolyline
 90
        3
 70
   128
 43
0.0
 10
8043.3120727539
 20
5282.5906117916
 10
8042.383728852
 20
5282.5337402327
 10
8042.1489047377
 20
5282.488078764
  0
LWPOLYLINE
  5
497
330
1F
100
AcDbEntity
  8
0
  6
Continuous
 62
     7
100
AcDbPolyline
 90
        5
 70
   128
 43
0.0
 10
8066.764831543
 20
5281.6859771966
 10
8066.7259155793
 20
5281.6609029246
 10
8065.9076621978
 20
5281.5861134643
 10
8054.6868725637
 20
5281.2934961496
 10
8042.1489047377
 20
5280.9005798309
  0
LWPOLYLINE
  5
498
330
1F
100
AcDbEntity
  8
0
  6
Continuous
 62
     7
100
AcDbPolyline
 90
        5
 70
   128
 43
0.0
 10
8066.764831543
 20
5280.0984782636
 10
8066.7259155812
 20
5280.0734028739
 10
8065.9076622116
 20
5279.9986125735
 10
8054.6868725789
 20
5279.7059955814
 10
8042.1489047377
 20
5279.3130790352
  0
LWPOLYLINE
  5
499
330
1F
100
AcDbEntity
  8
0
  6
Continuous
 62
     7
100
AcDbPolyline
 90
        5
 70
   128
 43
0.0
 10
8066.764831543
 20
5278.5109774678
 10
8066.7259155812
 20
5278.4859020829
 10
8065.9076622136
 20
5278.4111117705
 10
8054.6868725651
 20
5278.1184964215
 10
8042.1489047377
 20
5277.7255801021
  0
LWPOLYLINE
  5
49A
330
1F
100
AcDbEntity
  8
0
  6
Continuous
 62
     7
100
AcDbPolyline
 90
        5
 70
   128
 43
0.0
 10
8066.764831543
 20
5276.9234785348
 10
8066.725915582
 20
5276.8984030824
 10
8065.9076622105
 20
5276.8236129429
 10
8054.6868725867
 20
5276.5309954193
 10
8042.1489047377
 20
5276.1380793064
  0
LWPOLYLINE
  5
49B
330
1F
100
AcDbEntity
  8
0
  6
Continuous
 62
     7
100
AcDbPolyline
 90
        5
 70
   128
 43
0.0
 10
8066.764831543
 20
5275.335977739
 10
8066.7259155812
 20
5275.3109023541
 10
8065.9076622118
 20
5275.2361120416
 10
8054.6868725461
 20
5274.9434966924
 10
8042.1489047377
 20
5274.5505785107
  0
LWPOLYLINE
  5
49C
330
1F
100
AcDbEntity
  8
0
  6
Continuous
 62
     7
100
AcDbPolyline
 90
        3
 70
   128
 43
0.0
 10
8104.9499511719
 20
5104.7358503103
 10
8104.1970241055
 20
5104.7389271516
 10
8103.4563946097
 20
5104.7413488388
  0
LWPOLYLINE
  5
49D
330
1F
100
AcDbEntity
  8
0
  6
Continuous
 62
     7
100
AcDbPolyline
 90
        3
 70
   128
 43
0.0
 10
8103.4545898438
 20
5261.7213530004
 10
8104.3928165033
 20
5261.7244293145
 10
8104.9564051001
 20
5261.7268478035
  0
LWPOLYLINE
  5
49E
330
1F
100
AcDbEntity
  8
0
  6
Continuous
 62
     7
100
AcDbPolyline
 90
        3
 70
   128
 43
0.0
 10
7697.0252990723
 20
4798.3781989232
 10
7697.4772835021
 20
4798.1177170225
 10
7697.8315259304
 20
4797.9130442753
  0
LWPOLYLINE
  5
49F
330
1F
100
AcDbEntity
  8
0
  6
Continuous
 62
     7
100
AcDbPolyline
 90
        3
 70
   128
 43
0.0
 10
7719.409942627
 20
4798.0190809384
 10
7718.9619765617
 20
4798.2795521007
 10
7718.6077306952
 20
4798.4842057839
  0
LWPOLYLINE
  5
4A0
330
1F
100
AcDbEntity
  8
0
  6
Continuous
 62
     7
100
AcDbPolyline
 90
        3
 70
   128
 43
0.0
 10
7612.6365661621
 20
4835.1729657069
 10
7612.9174913033
 20
4835.6544380607
 10
7613.1360377159
 20
4836.0327329054
  0
LWPOLYLINE
  5
4A1
330
1F
100
AcDbEntity
  8
0
  6
Continuous
 62
     7
100
AcDbPolyline
 90
        3
 70
   128
 43
0.0
 10
7614.2234802246
 20
4835.1729657069
 10
7614.5049865111
 20
4835.6544380607
 10
7614.7235329237
 20
4836.0327329054
  0
LWPOLYLINE
  5
4A2
330
1F
100
AcDbEntity
  8
0
  6
Continuous
 62
     7
100
AcDbPolyline
 90
        3
 70
   128
 43
0.0
 10
7615.8142089844
 20
4835.1729657069
 10
7616.09249662
 20
4835.6544380607
 10
7616.3110430326
 20
4836.0327329054
  0
LWPOLYLINE
  5
4A3
330
1F
100
AcDbEntity
  8
0
  6
Continuous
 62
     7
100
AcDbPolyline
 90
        3
 70
   128
 43
0.0
 10
7617.4011230469
 20
4835.1729657069
 10
7617.6799918278
 20
4835.6544380607
 10
7617.8985382404
 20
4836.0327329054
  0
LWPOLYLINE
  5
4A4
330
1F
100
AcDbEntity
  8
0
  6
Continuous
 62
     7
100
AcDbPolyline
 90
        3
 70
   128
 43
0.0
 10
7618.9880371094
 20
4835.1729657069
 10
7619.2674870356
 20
4835.6544380607
 10
7619.4860334482
 20
4836.0327329054
  0
LWPOLYLINE
  5
4A5
330
1F
100
AcDbEntity
  8
0
  6
Continuous
 62
     7
100
AcDbPolyline
 90
        3
 70
   128
 43
0.0
 10
7613.9297485352
 20
4860.7395287171
 10
7613.6516464827
 20
4861.2210053484
 10
7613.4331072655
 20
4861.5993108168
  0
LWPOLYLINE
  5
4A6
330
1F
100
AcDbEntity
  8
0
  6
Continuous
 62
     7
100
AcDbPolyline
 90
        3
 70
   128
 43
0.0
 10
7615.5166625977
 20
4860.7395287171
 10
7615.2391416905
 20
4861.2210053484
 10
7615.0206024732
 20
4861.5993108168
  0
LWPOLYLINE
  5
4A7
330
1F
100
AcDbEntity
  8
0
  6
Continuous
 62
     7
100
AcDbPolyline
 90
        3
 70
   128
 43
0.0
 10
7617.1035766602
 20
4860.7395287171
 10
7616.8266368983
 20
4861.2210053484
 10
7616.608097681
 20
4861.5993108168
  0
LWPOLYLINE
  5
4A8
330
1F
100
AcDbEntity
  8
0
  6
Continuous
 62
     7
100
AcDbPolyline
 90
        3
 70
   128
 43
0.0
 10
7618.6904907227
 20
4860.7395287171
 10
7618.4141427919
 20
4861.2210077339
 10
7618.1955928888
 20
4861.5993108168
  0
LWPOLYLINE
  5
4A9
330
1F
100
AcDbEntity
  8
0
  6
Continuous
 62
     7
100
AcDbPolyline
 90
        3
 70
   128
 43
0.0
 10
7612.3390197754
 20
4860.7395287171
 10
7612.1460272388
 20
4861.0792443815
 10
7611.9918371525
 20
4861.3461698905
  0
LWPOLYLINE
  5
4AA
330
1F
100
AcDbEntity
  8
0
  6
Continuous
 62
     7
100
AcDbPolyline
 90
        3
 70
   128
 43
0.0
 10
7613.3155822754
 20
4836.0327627078
 10
7613.5943092713
 20
4835.5512860224
 10
7613.8128484573
 20
4835.172980608
  0
LWPOLYLINE
  5
4AB
330
1F
100
AcDbEntity
  8
0
  6
Continuous
 62
     7
100
AcDbPolyline
 90
        3
 70
   128
 43
0.0
 10
7614.9024963379
 20
4836.0327627078
 10
7615.1818086944
 20
4835.5512836369
 10
7615.4003585663
 20
4835.172980608
  0
LWPOLYLINE
  5
4AC
330
1F
100
AcDbEntity
  8
0
  6
Continuous
 62
     7
100
AcDbPolyline
 90
        3
 70
   128
 43
0.0
 10
7616.4894104004
 20
4836.0327627078
 10
7616.7693142931
 20
4835.5512896018
 10
7616.9878537741
 20
4835.172980608
  0
LWPOLYLINE
  5
4AD
330
1F
100
AcDbEntity
  8
0
  6
Continuous
 62
     7
100
AcDbPolyline
 90
        3
 70
   128
 43
0.0
 10
7618.0763244629
 20
4836.0327627078
 10
7618.3568095009
 20
4835.5512896018
 10
7618.5753489818
 20
4835.172980608
  0
LWPOLYLINE
  5
4AE
330
1F
100
AcDbEntity
  8
0
  6
Continuous
 62
     7
100
AcDbPolyline
 90
        3
 70
   128
 43
0.0
 10
7614.6049499512
 20
4861.5992959157
 10
7614.3284599774
 20
4861.1178130618
 10
7614.1099031057
 20
4860.7395138159
  0
LWPOLYLINE
  5
4AF
330
1F
100
AcDbEntity
  8
0
  6
Continuous
 62
     7
100
AcDbPolyline
 90
        3
 70
   128
 43
0.0
 10
7616.1918640137
 20
4861.5992959157
 10
7615.9159551852
 20
4861.1178130618
 10
7615.6973983135
 20
4860.7395138159
  0
LWPOLYLINE
  5
4B0
330
1F
100
AcDbEntity
  8
0
  6
Continuous
 62
     7
100
AcDbPolyline
 90
        3
 70
   128
 43
0.0
 10
7617.7787780762
 20
4861.5992959157
 10
7617.5034549044
 20
4861.1178190287
 10
7617.2849084225
 20
4860.7395138159
  0
LWPOLYLINE
  5
4B1
330
1F
100
AcDbEntity
  8
0
  6
Continuous
 62
     7
100
AcDbPolyline
 90
        3
 70
   128
 43
0.0
 10
7619.3656921387
 20
4861.5992959157
 10
7619.090960502
 20
4861.1178130618
 10
7618.8724036302
 20
4860.7395138159
  0
LWPOLYLINE
  5
4B2
330
1F
100
AcDbEntity
  8
0
  6
Continuous
 62
     7
100
AcDbPolyline
 90
        3
 70
   128
 43
0.0
 10
7613.0180358887
 20
4861.5992959157
 10
7612.7409543799
 20
4861.1178190287
 10
7612.5224078979
 20
4860.7395138159
  0
LWPOLYLINE
  5
4B3
330
1F
100
AcDbEntity
  8
0
  6
Continuous
 62
     7
100
AcDbPolyline
 90
        3
 70
   128
 43
0.0
 10
7611.7248535156
 20
4836.0327627078
 10
7612.0068137685
 20
4835.5512896018
 10
7612.2253532495
 20
4835.172980608
  0
LWPOLYLINE
  5
4B4
330
1F
100
AcDbEntity
  8
0
  6
Continuous
 62
     7
100
AcDbPolyline
 90
        3
 70
   128
 43
0.0
 10
7803.7986755371
 20
4861.5993108168
 10
7803.5217604408
 20
4861.1178314964
 10
7803.3032151844
 20
4860.7395287171
  0
LWPOLYLINE
  5
4B5
330
1F
100
AcDbEntity
  8
0
  6
Continuous
 62
     7
100
AcDbPolyline
 90
        3
 70
   128
 43
0.0
 10
7802.2117614746
 20
4861.5993108168
 10
7801.9342603184
 20
4861.1178316455
 10
7801.71571532
 20
4860.7395287171
  0
LWPOLYLINE
  5
4B6
330
1F
100
AcDbEntity
  8
0
  6
Continuous
 62
     7
100
AcDbPolyline
 90
        3
 70
   128
 43
0.0
 10
7800.6248474121
 20
4861.5993108168
 10
7800.346760454
 20
4861.1178316455
 10
7800.1282154556
 20
4860.7395287171
  0
LWPOLYLINE
  5
4B7
330
1F
100
AcDbEntity
  8
0
  6
Continuous
 62
     7
100
AcDbPolyline
 90
        3
 70
   128
 43
0.0
 10
7799.0341186523
 20
4861.5993108168
 10
7798.7592604379
 20
4861.1178314964
 10
7798.5407155912
 20
4860.7395287171
  0
LWPOLYLINE
  5
4B8
330
1F
100
AcDbEntity
  8
0
  6
Continuous
 62
     7
100
AcDbPolyline
 90
        3
 70
   128
 43
0.0
 10
7797.4472045898
 20
4861.5993108168
 10
7797.17176031
 20
4861.1178313473
 10
7796.9532147955
 20
4860.7395287171
  0
LWPOLYLINE
  5
4B9
330
1F
100
AcDbEntity
  8
0
  6
Continuous
 62
     7
100
AcDbPolyline
 90
        3
 70
   128
 43
0.0
 10
7802.5093078613
 20
4836.0327329054
 10
7802.7876154142
 20
4835.5512660715
 10
7803.0061535511
 20
4835.1729657069
  0
LWPOLYLINE
  5
4BA
330
1F
100
AcDbEntity
  8
0
  6
Continuous
 62
     7
100
AcDbPolyline
 90
        3
 70
   128
 43
0.0
 10
7800.9185791016
 20
4836.0327329054
 10
7801.2001154181
 20
4835.551266146
 10
7801.4186532211
 20
4835.1729657069
  0
LWPOLYLINE
  5
4BB
330
1F
100
AcDbEntity
  8
0
  6
Continuous
 62
     7
100
AcDbPolyline
 90
        3
 70
   128
 43
0.0
 10
7799.3316650391
 20
4836.0327329054
 10
7799.6126155537
 20
4835.551266146
 10
7799.8311533567
 20
4835.1729657069
  0
LWPOLYLINE
  5
4BC
330
1F
100
AcDbEntity
  8
0
  6
Continuous
 62
     7
100
AcDbPolyline
 90
        3
 70
   128
 43
0.0
 10
7797.7447509766
 20
4836.0327329054
 10
7798.0251151731
 20
4835.5512658478
 10
7798.2436534923
 20
4835.1729657069
  0
LWPOLYLINE
  5
4BD
330
1F
100
AcDbEntity
  8
0
  6
Continuous
 62
     7
100
AcDbPolyline
 90
        3
 70
   128
 43
0.0
 10
7804.0962219238
 20
4836.0327329054
 10
7804.2932236933
 20
4835.693026052
 10
7804.4474148165
 20
4835.4261066332
  0
LWPOLYLINE
  5
4BE
330
1F
100
AcDbEntity
  8
0
  6
Continuous
 62
     7
100
AcDbPolyline
 90
        3
 70
   128
 43
0.0
 10
7803.1196594238
 20
4860.7395138159
 10
7802.844944897
 20
4861.2209904267
 10
7802.6264007177
 20
4861.5992959157
  0
LWPOLYLINE
  5
4BF
330
1F
100
AcDbEntity
  8
0
  6
Continuous
 62
     7
100
AcDbPolyline
 90
        3
 70
   128
 43
0.0
 10
7801.5327453613
 20
4860.7395138159
 10
7801.2574449567
 20
4861.2209905012
 10
7801.0389008533
 20
4861.5992959157
  0
LWPOLYLINE
  5
4C0
330
1F
100
AcDbEntity
  8
0
  6
Continuous
 62
     7
100
AcDbPolyline
 90
        3
 70
   128
 43
0.0
 10
7799.9458312988
 20
4860.7395138159
 10
7799.6699450923
 20
4861.2209905012
 10
7799.4514009889
 20
4861.5992959157
  0
LWPOLYLINE
  5
4C1
330
1F
100
AcDbEntity
  8
0
  6
Continuous
 62
     7
100
AcDbPolyline
 90
        3
 70
   128
 43
0.0
 10
7798.3589172363
 20
4860.7395138159
 10
7798.0824449645
 20
4861.2209906503
 10
7797.8639001932
 20
4861.5992959157
  0
LWPOLYLINE
  5
4C2
330
1F
100
AcDbEntity
  8
0
  6
Continuous
 62
     7
100
AcDbPolyline
 90
        3
 70
   128
 43
0.0
 10
7801.830291748
 20
4835.172980608
 10
7802.1107988081
 20
4835.6544597314
 10
7802.329347932
 20
4836.0327627078
  0
LWPOLYLINE
  5
4C3
330
1F
100
AcDbEntity
  8
0
  6
Continuous
 62
     7
100
AcDbPolyline
 90
        3
 70
   128
 43
0.0
 10
7800.2433776855
 20
4835.172980608
 10
7800.5232984275
 20
4835.6544600296
 10
7800.7418480676
 20
4836.0327627078
  0
LWPOLYLINE
  5
4C4
330
1F
100
AcDbEntity
  8
0
  6
Continuous
 62
     7
100
AcDbPolyline
 90
        3
 70
   128
 43
0.0
 10
7798.656463623
 20
4835.172980608
 10
7798.9357985631
 20
4835.6544600296
 10
7799.1543482032
 20
4836.0327627078
  0
LWPOLYLINE
  5
4C5
330
1F
100
AcDbEntity
  8
0
  6
Continuous
 62
     7
100
AcDbPolyline
 90
        3
 70
   128
 43
0.0
 10
7797.0695495605
 20
4835.172980608
 10
7797.3482984353
 20
4835.6544598805
 10
7797.5668474074
 20
4836.0327627078
  0
LWPOLYLINE
  5
4C6
330
1F
100
AcDbEntity
  8
0
  6
Continuous
 62
     7
100
AcDbPolyline
 90
        3
 70
   128
 43
0.0
 10
7803.4172058105
 20
4835.172980608
 10
7803.6982984903
 20
4835.654459955
 10
7803.9168477964
 20
4836.0327627078
  0
LWPOLYLINE
  5
4C7
330
1F
100
AcDbEntity
  8
0
  6
Continuous
 62
     7
100
AcDbPolyline
 90
        3
 70
   128
 43
0.0
 10
7804.7103881836
 20
4860.7395138159
 10
7804.4324450195
 20
4861.2209905758
 10
7804.2139005821
 20
4861.5992959157
  0
LINE
  5
4C8
330
1F
100
AcDbEntity
  8
0
  6
Continuous
 62
     7
100
AcDbLine
 10
7764.030456543
 20
4787.8611381665
 30
0.0
 11
7764.7364991691
 21
4787.8611381665
 31
0.0
  0
LINE
  5
4C9
330
1F
100
AcDbEntity
  8
0
  6
Continuous
 62
     7
100
AcDbLine
 10
7767.7841186523
 20
4787.8611381665
 30
0.0
 11
7767.6140884842
 21
4787.8611381665
 31
0.0
  0
LINE
  5
4CA
330
1F
100
AcDbEntity
  8
0
  6
Continuous
 62
     7
100
AcDbLine
 10
7767.8451538086
 20
4787.8611381665
 30
0.0
 11
7767.7850197043
 21
4787.8611381665
 31
0.0
  0
LWPOLYLINE
  5
4CB
330
1F
100
AcDbEntity
  8
0
  6
Continuous
 62
     7
100
AcDbPolyline
 90
        8
 70
   128
 43
0.0
 10
7697.0176696777
 20
4798.386126341
 10
7708.0333540285
 20
4798.6214644924
 10
7718.1515499208
 20
4798.8010231517
 10
7718.909654639
 20
4798.8469780183
 10
7718.9202361018
 20
4798.8506768123
 10
7718.9214246981
 20
4798.8520550453
 10
7718.9213496717
 20
4798.8534292643
 10
7718.9044724192
 20
4798.8616223946
  0
LWPOLYLINE
  5
4CC
330
1F
100
AcDbEntity
  8
0
  6
Continuous
 62
     7
100
AcDbPolyline
 90
       10
 70
   128
 43
0.0
 10
7697.8416442871
 20
4797.9173358098
 10
7697.8142656326
 20
4797.9237225473
 10
7697.8072619704
 20
4797.9269157686
 10
7697.8048329827
 20
4797.9301097325
 10
7697.8056514221
 20
4797.9322397753
 10
7697.8083474684
 20
4797.9343706295
 10
7697.8242430598
 20
4797.9400583392
 10
7698.619461609
 20
4798.0099929001
 10
7708.0270227721
 20
4798.2879539101
 10
7718.5364584412
 20
4798.6584897652
  0
LWPOLYLINE
  5
4CD
330
1F
100
AcDbEntity
  8
0
  6
Continuous
 62
     7
100
AcDbPolyline
 90
        3
 70
   128
 43
0.0
 10
7717.9107666016
 20
4797.8861327782
 10
7719.1231581711
 20
4797.9572518301
 10
7719.3864132252
 20
4798.0109747067
  0
LWPOLYLINE
  5
4CE
330
1F
100
AcDbEntity
  8
0
  6
Continuous
 62
     7
100
AcDbPolyline
 90
        5
 70
   128
 43
0.0
 10
7700.0350952148
 20
4797.8861327782
 10
7707.4753257563
 20
4798.0881071963
 10
7712.978726492
 20
4798.2190645824
 10
7717.0877740491
 20
4798.3484540755
 10
7718.5770343032
 20
4798.4797652379
  0
LWPOLYLINE
  5
4CF
330
1F
100
AcDbEntity
  8
0
  6
Continuous
 62
     7
100
AcDbPolyline
 90
        9
 70
   128
 43
0.0
 10
7612.2169494629
 20
4849.1194542065
 10
7612.0371085929
 20
4860.4884129184
 10
7611.992595948
 20
4861.3466416797
 10
7611.9861064666
 20
4861.3782780279
 10
7611.9850162718
 20
4861.379687445
 10
7611.9844702458
 20
4861.3799378742
 10
7611.9839235997
 20
4861.3798782766
 10
7611.9809976494
 20
4861.3741022869
 10
7611.9770701017
 20
4861.3518770352
  0
LWPOLYLINE
  5
4D0
330
1F
100
AcDbEntity
  8
0
  6
Continuous
 62
     7
100
AcDbPolyline
 90
        8
 70
   128
 43
0.0
 10
7611.4730834961
 20
4835.9520729199
 10
7611.4702130886
 20
4835.9451070601
 10
7611.4684259258
 20
4835.9428973813
 10
7611.4666363441
 20
4835.9422156039
 10
7611.4639456722
 20
4835.9451718478
 10
7611.4612455375
 20
4835.9541698528
 10
7611.4449067825
 20
4836.1234473667
 10
7611.3603706446
 20
4839.0076603308
  0
LWPOLYLINE
  5
4D1
330
1F
100
AcDbEntity
  8
0
  6
Continuous
 62
     7
100
AcDbPolyline
 90
        3
 70
   128
 43
0.0
 10
7611.3586425781
 20
4847.448601903
 10
7611.8492191988
 20
4838.3719090697
 10
7612.2196312036
 20
4835.1859893218
  0
LWPOLYLINE
  5
4D2
330
1F
100
AcDbEntity
  8
0
  6
Continuous
 62
     7
100
AcDbPolyline
 90
        3
 70
   128
 43
0.0
 10
7611.3586425781
 20
4839.0076603308
 10
7611.3603706446
 20
4843.3292957433
 10
7611.3603706446
 20
4847.448601903
  0
LWPOLYLINE
  5
4D3
330
1F
100
AcDbEntity
  8
0
  6
Continuous
 62
     7
100
AcDbPolyline
 90
        7
 70
   128
 43
0.0
 10
7612.2169494629
 20
4849.1194542065
 10
7612.5327442194
 20
4836.1231324772
 10
7612.6127902385
 20
4835.1737730393
 10
7612.6161235697
 20
4835.1690567093
 10
7612.6177861793
 20
4835.1682532292
 10
7612.6194458616
 20
4835.168514942
 10
7612.6391584959
 20
4835.2399911299
  0
LWPOLYLINE
  5
4D4
330
1F
100
AcDbEntity
  8
0
  6
Continuous
 62
     7
100
AcDbPolyline
 90
       11
 70
   128
 43
0.0
 10
7613.4300231934
 20
4861.5179057732
 10
7613.4455287892
 20
4861.514694543
 10
7613.4580130363
 20
4861.4859285338
 10
7613.5304362364
 20
4860.4174031731
 10
7613.8299465002
 20
4847.946524633
 10
7614.1258337144
 20
4836.0178834246
 10
7614.2017102295
 20
4835.1712523419
 10
7614.204862428
 20
4835.1683552121
 10
7614.2064348432
 20
4835.1683215005
 10
7614.2080046166
 20
4835.1692553866
 10
7614.2266686048
 20
4835.2399911299
  0
LWPOLYLINE
  5
4D5
330
1F
100
AcDbEntity
  8
0
  6
Continuous
 62
     7
100
AcDbPolyline
 90
       11
 70
   128
 43
0.0
 10
7615.0169372559
 20
4861.5179057732
 10
7615.0330241937
 20
4861.5146945451
 10
7615.0455083259
 20
4861.4859285346
 10
7615.1179363654
 20
4860.4174032248
 10
7615.4174416969
 20
4847.9465246254
 10
7615.7133357368
 20
4836.0178834801
 10
7615.7892249222
 20
4835.1712523421
 10
7615.7923757016
 20
4835.1683552079
 10
7615.7939472855
 20
4835.1683214943
 10
7615.7955161429
 20
4835.1692553788
 10
7615.8141638126
 20
4835.2399911299
  0
LWPOLYLINE
  5
4D6
330
1F
100
AcDbEntity
  8
0
  6
Continuous
 62
     7
100
AcDbPolyline
 90
       11
 70
   128
 43
0.0
 10
7616.6076660156
 20
4861.5179057732
 10
7616.6205270291
 20
4861.5146945519
 10
7616.6330174904
 20
4861.4859285568
 10
7616.705441565
 20
4860.4174033057
 10
7617.0049522835
 20
4847.9465249183
 10
7617.3008309727
 20
4836.0178834812
 10
7617.3767201284
 20
4835.171252342
 10
7617.3798709085
 20
4835.1683552078
 10
7617.3814424927
 20
4835.1683214943
 10
7617.3830113503
 20
4835.1692553788
 10
7617.4016590204
 20
4835.2399911299
  0
LWPOLYLINE
  5
4D7
330
1F
100
AcDbEntity
  8
0
  6
Continuous
 62
     7
100
AcDbPolyline
 90
       11
 70
   128
 43
0.0
 10
7618.1945800781
 20
4861.5179057732
 10
7618.2080293137
 20
4861.514694543
 10
7618.2205135609
 20
4861.4859285338
 10
7618.2929367609
 20
4860.4174031731
 10
7618.5924470247
 20
4847.946524633
 10
7618.8883342389
 20
4836.0178834246
 10
7618.964210754
 20
4835.1712523419
 10
7618.9673629525
 20
4835.1683552121
 10
7618.9689353677
 20
4835.1683215005
 10
7618.9705051411
 20
4835.1692553866
 10
7618.9891691294
 20
4835.2399911299
  0
LWPOLYLINE
  5
4D8
330
1F
100
AcDbEntity
  8
0
  6
Continuous
 62
     7
100
AcDbPolyline
 90
        5
 70
   128
 43
0.0
 10
7612.3390197754
 20
4860.7185478821
 10
7612.7348170493
 20
4848.1548730549
 10
7613.0275366922
 20
4836.937466372
 10
7613.1023101373
 20
4836.1120590988
 10
7613.1273205366
 20
4836.0884781495
  0
LWPOLYLINE
  5
4D9
330
1F
100
AcDbEntity
  8
0
  6
Continuous
 62
     7
100
AcDbPolyline
 90
        5
 70
   128
 43
0.0
 10
7613.9259338379
 20
4860.7185478821
 10
7614.3223126721
 20
4848.1548730509
 10
7614.6150319331
 20
4836.9374663714
 10
7614.6898053729
 20
4836.1120590993
 10
7614.7148157444
 20
4836.0884781495
  0
LWPOLYLINE
  5
4DA
330
1F
100
AcDbEntity
  8
0
  6
Continuous
 62
     7
100
AcDbPolyline
 90
        5
 70
   128
 43
0.0
 10
7615.5166625977
 20
4860.7185478821
 10
7615.9098228829
 20
4848.1548731918
 10
7616.2025276349
 20
4836.9374662714
 10
7616.2773053554
 20
4836.112059085
 10
7616.3023258533
 20
4836.0884781495
  0
LWPOLYLINE
  5
4DB
330
1F
100
AcDbEntity
  8
0
  6
Continuous
 62
     7
100
AcDbPolyline
 90
        5
 70
   128
 43
0.0
 10
7617.1035766602
 20
4860.7185478821
 10
7617.4973175738
 20
4848.1548730549
 10
7617.7900372167
 20
4836.937466372
 10
7617.8648106618
 20
4836.1120590988
 10
7617.8898210611
 20
4836.0884781495
  0
LWPOLYLINE
  5
4DC
330
1F
100
AcDbEntity
  8
0
  6
Continuous
 62
     7
100
AcDbPolyline
 90
        5
 70
   128
 43
0.0
 10
7618.6904907227
 20
4860.7185478821
 10
7619.0848130764
 20
4848.1548730488
 10
7619.3775324245
 20
4836.9374663708
 10
7619.4523058696
 20
4836.1120590988
 10
7619.4773162689
 20
4836.0884781495
  0
LWPOLYLINE
  5
4DD
330
1F
100
AcDbEntity
  8
0
  6
Continuous
 62
     7
100
AcDbPolyline
 90
       13
 70
   128
 43
0.0
 10
7613.0180358887
 20
4861.5407790556
 10
7613.0381551872
 20
4861.6141119296
 10
7613.0397364029
 20
4861.6142825687
 10
7613.0413147294
 20
4861.6134503708
 10
7613.0444629841
 20
4861.608864085
 10
7613.1180940006
 20
4860.7354608685
 10
7613.4202620196
 20
4848.6071215463
 10
7613.7195523101
 20
4836.1959597836
 10
7613.7958616281
 20
4835.2182266634
 10
7613.8086574885
 20
4835.1845333592
 10
7613.8118415135
 20
4835.1835068108
 10
7613.8150208956
 20
4835.1846045399
 10
7613.8213719215
 20
4835.1903404608
  0
LWPOLYLINE
  5
4DE
330
1F
100
AcDbEntity
  8
0
  6
Continuous
 62
     7
100
AcDbPolyline
 90
       13
 70
   128
 43
0.0
 10
7614.6049499512
 20
4861.5407790556
 10
7614.6256503942
 20
4861.6141119296
 10
7614.6272316095
 20
4861.6142825686
 10
7614.6288099357
 20
4861.6134503708
 10
7614.6319581896
 20
4861.6088640849
 10
7614.7055892361
 20
4860.7354608689
 10
7615.0077726078
 20
4848.6071218409
 10
7615.3070480373
 20
4836.1959597917
 10
7615.3833567977
 20
4835.2182266628
 10
7615.3961526986
 20
4835.1845333593
 10
7615.3993367261
 20
4835.1835068109
 10
7615.4025161081
 20
4835.18460454
 10
7615.4088671293
 20
4835.1903404608
  0
LWPOLYLINE
  5
4DF
330
1F
100
AcDbEntity
  8
0
  6
Continuous
 62
     7
100
AcDbPolyline
 90
       13
 70
   128
 43
0.0
 10
7616.1918640137
 20
4861.5407790556
 10
7616.2131641524
 20
4861.6141119135
 10
7616.2147459925
 20
4861.6142825528
 10
7616.2163247987
 20
4861.6134503552
 10
7616.2194736051
 20
4861.6088640701
 10
7616.2930796165
 20
4860.735460845
 10
7616.5952674797
 20
4848.6071217032
 10
7616.8945416379
 20
4836.1959596892
 10
7616.9708649049
 20
4835.2182266543
 10
7616.9836629211
 20
4835.1845333599
 10
7616.9868470667
 20
4835.1835068119
 10
7616.9900264412
 20
4835.184604541
 10
7616.9963772383
 20
4835.1903404608
  0
LWPOLYLINE
  5
4E0
330
1F
100
AcDbEntity
  8
0
  6
Continuous
 62
     7
100
AcDbPolyline
 90
       13
 70
   128
 43
0.0
 10
7617.7787780762
 20
4861.5407790556
 10
7617.800655937
 20
4861.6141119314
 10
7617.8022372375
 20
4861.6142825712
 10
7617.8038156565
 20
4861.6134503741
 10
7617.8069641133
 20
4861.6088640899
 10
7617.8805843081
 20
4860.7354607843
 10
7618.1827625403
 20
4848.6071215485
 10
7618.4820462704
 20
4836.1959597496
 10
7618.5583597098
 20
4835.2182266506
 10
7618.5711581538
 20
4835.18453336
 10
7618.5743423251
 20
4835.1835068123
 10
7618.577521698
 20
4835.1846045414
 10
7618.583872446
 20
4835.1903404608
  0
LWPOLYLINE
  5
4E1
330
1F
100
AcDbEntity
  8
0
  6
Continuous
 62
     7
100
AcDbPolyline
 90
        6
 70
   128
 43
0.0
 10
7619.3656921387
 20
4861.5407790556
 10
7619.3858079859
 20
4861.6119767183
 10
7619.3885865582
 20
4861.6142602997
 10
7619.3913560954
 20
4861.6134117322
 10
7619.4560714973
 20
4860.9487569846
 10
7619.7196240511
 20
4851.1724318877
  0
ARC
  5
4E2
330
1F
100
AcDbEntity
  8
0
  6
Continuous
 62
     7
100
AcDbCircle
 10
7652.3664333305
 20
4843.1104878138
 30
0.0
 40
41.2366115998892
100
AcDbArc
 50
173.9612789606
 51
189.775463769
  0
LWPOLYLINE
  5
4E3
330
1F
100
AcDbEntity
  8
0
  6
Continuous
 62
     7
100
AcDbPolyline
 90
       12
 70
   128
 43
0.0
 10
7612.5297546387
 20
4860.7269223347
 10
7612.5383577775
 20
4860.7524685493
 10
7612.5414760847
 20
4860.7591115108
 10
7612.5445796264
 20
4860.7614613352
 10
7612.5476691649
 20
4860.7597170289
 10
7612.5507454627
 20
4860.7540775983
 10
7612.5568613853
 20
4860.7319093902
 10
7612.6285832567
 20
4859.8116199481
 10
7612.9241656514
 20
4848.5926206957
 10
7613.2168096377
 20
4837.1216632381
 10
7613.2910463494
 20
4836.1478487629
 10
7613.3160437431
 20
4836.1090268507
  0
LWPOLYLINE
  5
4E4
330
1F
100
AcDbEntity
  8
0
  6
Continuous
 62
     7
100
AcDbPolyline
 90
       12
 70
   128
 43
0.0
 10
7614.1166687012
 20
4860.7269223347
 10
7614.1258463012
 20
4860.7524685823
 10
7614.1289563423
 20
4860.7591115523
 10
7614.1320533332
 20
4860.7614613813
 10
7614.1351379073
 20
4860.7597170762
 10
7614.1382106982
 20
4860.7540776438
 10
7614.1443234645
 20
4860.7319094245
 10
7614.2160957961
 20
4859.8116199396
 10
7614.5116607443
 20
4848.5926205274
 10
7614.804302284
 20
4837.1216632072
 10
7614.8785548989
 20
4836.1478487904
 10
7614.9035389509
 20
4836.1090268507
  0
LWPOLYLINE
  5
4E5
330
1F
100
AcDbEntity
  8
0
  6
Continuous
 62
     7
100
AcDbPolyline
 90
       12
 70
   128
 43
0.0
 10
7615.7035827637
 20
4860.7269223347
 10
7615.7133415089
 20
4860.7524685825
 10
7615.7164515497
 20
4860.7591115524
 10
7615.71954854
 20
4860.7614613813
 10
7615.7226331134
 20
4860.759717076
 10
7615.7257059035
 20
4860.7540776434
 10
7615.7318186682
 20
4860.7319094234
 10
7615.8035910344
 20
4859.8116199249
 10
7616.0991708476
 20
4848.5926206683
 10
7616.3918013252
 20
4837.1216631303
 10
7616.4660523758
 20
4836.1478487686
 10
7616.4910490599
 20
4836.1090268507
  0
LWPOLYLINE
  5
4E6
330
1F
100
AcDbEntity
  8
0
  6
Continuous
 62
     7
100
AcDbPolyline
 90
       12
 70
   128
 43
0.0
 10
7617.2943115234
 20
4860.7269223347
 10
7617.300858302
 20
4860.7524685493
 10
7617.3039766093
 20
4860.7591115108
 10
7617.3070801509
 20
4860.7614613352
 10
7617.3101696894
 20
4860.7597170289
 10
7617.3132459871
 20
4860.7540775983
 10
7617.3193619097
 20
4860.7319093901
 10
7617.3910837818
 20
4859.8116199478
 10
7617.6866660754
 20
4848.5926206905
 10
7617.9793102208
 20
4837.1216632395
 10
7618.0535468776
 20
4836.147848763
 10
7618.0785442676
 20
4836.1090268507
  0
LWPOLYLINE
  5
4E7
330
1F
100
AcDbEntity
  8
0
  6
Continuous
 62
     7
100
AcDbPolyline
 90
       12
 70
   128
 43
0.0
 10
7618.8812255859
 20
4860.7269223347
 10
7618.8884223339
 20
4860.7526818216
 10
7618.8915696408
 20
4860.7592709194
 10
7618.8947036029
 20
4860.761469642
 10
7618.897824877
 20
4860.7594843163
 10
7618.9009341201
 20
4860.7535212694
 10
7618.9071191401
 20
4860.7304873199
 10
7618.9797613641
 20
4859.7899413939
 10
7619.2790013362
 20
4848.3605563737
 10
7619.5749325362
 20
4836.9574223092
 10
7619.6504615554
 20
4836.1127632136
 10
7619.6757401314
 20
4836.0885228529
  0
LWPOLYLINE
  5
4E8
330
1F
100
AcDbEntity
  8
0
  6
Continuous
 62
     7
100
AcDbPolyline
 90
        9
 70
   128
 43
0.0
 10
7804.2182922363
 20
4847.6528223172
 10
7804.4021505009
 20
4836.2838524105
 10
7804.4466790007
 20
4835.4256294017
 10
7804.4531674485
 20
4835.3939966579
 10
7804.4542564092
 20
4835.3925876951
 10
7804.4548016808
 20
4835.3923374726
 10
7804.4553474765
 20
4835.3923972625
 10
7804.4582671415
 20
4835.3981740079
 10
7804.4621814016
 20
4835.4203994885
  0
LWPOLYLINE
  5
4E9
330
1F
100
AcDbEntity
  8
0
  6
Continuous
 62
     7
100
AcDbPolyline
 90
        8
 70
   128
 43
0.0
 10
7804.9621582031
 20
4860.8202036038
 10
7804.9690432903
 20
4860.8271631937
 10
7804.970832011
 20
4860.8293700038
 10
7804.9726229332
 20
4860.8300492322
 10
7804.9753150494
 20
4860.8270899973
 10
7804.9780157791
 20
4860.8180902511
 10
7804.9943463819
 20
4860.6488205628
 10
7805.0788864467
 20
4857.7646161929
  0
LWPOLYLINE
  5
4EA
330
1F
100
AcDbEntity
  8
0
  6
Continuous
 62
     7
100
AcDbPolyline
 90
        3
 70
   128
 43
0.0
 10
7805.0765991211
 20
4849.3236746207
 10
7804.5900270736
 20
4858.4003666836
 10
7804.219626819
 20
4861.586287202
  0
LWPOLYLINE
  5
4EB
330
1F
100
AcDbEntity
  8
0
  6
Continuous
 62
     7
100
AcDbPolyline
 90
        3
 70
   128
 43
0.0
 10
7805.0765991211
 20
4857.7646161929
 10
7805.0788864467
 20
4853.4429789494
 10
7805.0788864467
 20
4849.3236746207
  0
LWPOLYLINE
  5
4EC
330
1F
100
AcDbEntity
  8
0
  6
Continuous
 62
     7
100
AcDbPolyline
 90
       13
 70
   128
 43
0.0
 10
7803.4172058105
 20
4835.231497468
 10
7803.4010965873
 20
4835.1581647475
 10
7803.3995150513
 20
4835.1579941654
 10
7803.3979364495
 20
4835.1588264254
 10
7803.3947877724
 20
4835.1634128471
 10
7803.3211664926
 20
4836.0368085375
 10
7803.018987552
 20
4848.1651513614
 10
7802.7197069526
 20
4860.5763165903
 10
7802.6433916458
 20
4861.5540498495
 10
7802.6305955097
 20
4861.5877431627
 10
7802.6274117921
 20
4861.5887697122
 10
7802.6242328321
 20
4861.5876719836
 10
7802.6178828415
 20
4861.5819360629
  0
LWPOLYLINE
  5
4ED
330
1F
100
AcDbEntity
  8
0
  6
Continuous
 62
     7
100
AcDbPolyline
 90
       13
 70
   128
 43
0.0
 10
7801.830291748
 20
4835.231497468
 10
7801.8135974421
 20
4835.1581647466
 10
7801.8120159552
 20
4835.1579941646
 10
7801.8104373944
 20
4835.1588264246
 10
7801.8072887771
 20
4835.1634128466
 10
7801.733666146
 20
4836.0368085388
 10
7801.43148815
 20
4848.1651513849
 10
7801.1322071049
 20
4860.5763165982
 10
7801.0558921378
 20
4861.5540498507
 10
7801.0430955661
 20
4861.587743163
 10
7801.0399116624
 20
4861.5887697124
 10
7801.0367324932
 20
4861.5876719837
 10
7801.0303820457
 20
4861.5819360629
  0
LWPOLYLINE
  5
4EE
330
1F
100
AcDbEntity
  8
0
  6
Continuous
 62
     7
100
AcDbPolyline
 90
       13
 70
   128
 43
0.0
 10
7800.2433776855
 20
4835.231497468
 10
7800.226096421
 20
4835.1581647476
 10
7800.224514896
 20
4835.1579941656
 10
7800.2229363063
 20
4835.1588264256
 10
7800.2197876569
 20
4835.1634128476
 10
7800.1461664958
 20
4836.0368085385
 10
7799.843987358
 20
4848.1651513666
 10
7799.5447072411
 20
4860.5763165982
 10
7799.4683922734
 20
4861.5540498507
 10
7799.4555957017
 20
4861.587743163
 10
7799.452411798
 20
4861.5887697124
 10
7799.4492326288
 20
4861.5876719837
 10
7799.4428821813
 20
4861.5819360629
  0
LWPOLYLINE
  5
4EF
330
1F
100
AcDbEntity
  8
0
  6
Continuous
 62
     7
100
AcDbPolyline
 90
       13
 70
   128
 43
0.0
 10
7798.656463623
 20
4835.231497468
 10
7798.6385965529
 20
4835.1581647476
 10
7798.6370150265
 20
4835.1579941656
 10
7798.6354364353
 20
4835.1588264256
 10
7798.6322877825
 20
4835.1634128474
 10
7798.5586667526
 20
4836.03680854
 10
7798.2564874942
 20
4848.1651513666
 10
7797.9572073767
 20
4860.5763165982
 10
7797.880892409
 20
4861.5540498507
 10
7797.8680958373
 20
4861.587743163
 10
7797.8649119336
 20
4861.5887697124
 10
7797.8617327644
 20
4861.5876719837
 10
7797.8553823169
 20
4861.5819360629
  0
LWPOLYLINE
  5
4F0
330
1F
100
AcDbEntity
  8
0
  6
Continuous
 62
     7
100
AcDbPolyline
 90
        6
 70
   128
 43
0.0
 10
7797.0695495605
 20
4835.231497468
 10
7797.0534401368
 20
4835.1602998809
 10
7797.0506608925
 20
4835.1580163912
 10
7797.0478908206
 20
4835.1588650693
 10
7796.9831831448
 20
4835.8235159645
 10
7796.7196269866
 20
4845.599844636
  0
LWPOLYLINE
  5
4F1
330
1F
100
AcDbEntity
  8
0
  6
Continuous
 62
     7
100
AcDbPolyline
 90
        8
 70
   128
 43
0.0
 10
7804.2182922363
 20
4847.6528223172
 10
7803.912822644
 20
4860.5212866265
 10
7803.8345819838
 20
4861.5802749652
 10
7803.8280206478
 20
4861.6027866441
 10
7803.8231253112
 20
4861.6086129616
 10
7803.8212963208
 20
4861.6081901732
 10
7803.819471402
 20
4861.6062871685
 10
7803.8086025018
 20
4861.5673180237
  0
LWPOLYLINE
  5
4F2
330
1F
100
AcDbEntity
  8
0
  6
Continuous
 62
     7
100
AcDbPolyline
 90
       13
 70
   128
 43
0.0
 10
7803.0052185059
 20
4835.2543558493
 10
7802.9938620099
 20
4835.2574506447
 10
7802.9815067073
 20
4835.285286609
 10
7802.9098759871
 20
4836.3318693257
 10
7802.6136000113
 20
4848.6036340698
 10
7802.3208206429
 20
4860.6117789234
 10
7802.2459161626
 20
4861.5854304999
 10
7802.2396507715
 20
4861.6045365563
 10
7802.2373105071
 20
4861.6077270709
 10
7802.2349760866
 20
4861.6086301025
 10
7802.2314865307
 20
4861.605527282
 10
7802.2280129545
 20
4861.5968574419
 10
7802.2211021718
 20
4861.5673180237
  0
LWPOLYLINE
  5
4F3
330
1F
100
AcDbEntity
  8
0
  6
Continuous
 62
     7
100
AcDbPolyline
 90
       13
 70
   128
 43
0.0
 10
7801.4183044434
 20
4835.2543558493
 10
7801.4063621392
 20
4835.2574506447
 10
7801.39400684
 20
4835.285286609
 10
7801.3223759769
 20
4836.3318693242
 10
7801.0261001469
 20
4848.6036340698
 10
7800.7333207785
 20
4860.6117789234
 10
7800.6584162982
 20
4861.5854304999
 10
7800.6521509071
 20
4861.6045365563
 10
7800.6498106427
 20
4861.6077270709
 10
7800.6474762222
 20
4861.6086301025
 10
7800.6439866663
 20
4861.605527282
 10
7800.6405130901
 20
4861.5968574419
 10
7800.6336023074
 20
4861.5673180237
  0
LWPOLYLINE
  5
4F4
330
1F
100
AcDbEntity
  8
0
  6
Continuous
 62
     7
100
AcDbPolyline
 90
       13
 70
   128
 43
0.0
 10
7799.8275756836
 20
4835.2543558493
 10
7799.8188618288
 20
4835.2574506452
 10
7799.8065069157
 20
4835.2852866104
 10
7799.7348761375
 20
4836.3318693319
 10
7799.4386002881
 20
4848.603634079
 10
7799.1458209141
 20
4860.6117789243
 10
7799.0709164338
 20
4861.5854304999
 10
7799.0646510427
 20
4861.6045365564
 10
7799.0623107783
 20
4861.6077270709
 10
7799.0599763578
 20
4861.6086301025
 10
7799.0564868019
 20
4861.6055272819
 10
7799.0530132256
 20
4861.5968574419
 10
7799.046102443
 20
4861.5673180237
  0
LWPOLYLINE
  5
4F5
330
1F
100
AcDbEntity
  8
0
  6
Continuous
 62
     7
100
AcDbPolyline
 90
       13
 70
   128
 43
0.0
 10
7798.2406616211
 20
4835.2543558493
 10
7798.2313614926
 20
4835.2574506448
 10
7798.2190061861
 20
4835.285286609
 10
7798.1473756307
 20
4836.3318693266
 10
7797.8511004236
 20
4848.6036340785
 10
7797.5583199263
 20
4860.6117789161
 10
7797.4834164051
 20
4861.5854304991
 10
7797.4771510994
 20
4861.604536556
 10
7797.4748108603
 20
4861.6077270706
 10
7797.4724764609
 20
4861.6086301023
 10
7797.468986928
 20
4861.6055272819
 10
7797.4655133635
 20
4861.5968574419
 10
7797.4586025786
 20
4861.5673180237
  0
LWPOLYLINE
  5
4F6
330
1F
100
AcDbEntity
  8
0
  6
Continuous
 62
     7
100
AcDbPolyline
 90
        5
 70
   128
 43
0.0
 10
7804.0962219238
 20
4836.0537137404
 10
7803.7044357827
 20
4848.617394282
 10
7803.4117200707
 20
4859.8347963374
 10
7803.3369484183
 20
4860.6602183592
 10
7803.3119332951
 20
4860.6837983742
  0
LWPOLYLINE
  5
4F7
330
1F
100
AcDbEntity
  8
0
  6
Continuous
 62
     7
100
AcDbPolyline
 90
        5
 70
   128
 43
0.0
 10
7802.5093078613
 20
4836.0537137404
 10
7802.1169358939
 20
4848.6173942809
 10
7801.8242197247
 20
4859.8347963336
 10
7801.7494485852
 20
4860.6602183594
 10
7801.7244334307
 20
4860.6837983742
  0
LWPOLYLINE
  5
4F8
330
1F
100
AcDbEntity
  8
0
  6
Continuous
 62
     7
100
AcDbPolyline
 90
        5
 70
   128
 43
0.0
 10
7800.9185791016
 20
4836.0537137404
 10
7800.5294360909
 20
4848.6173942824
 10
7800.2367198582
 20
4859.8347963336
 10
7800.161948719
 20
4860.6602183594
 10
7800.1369335663
 20
4860.6837983742
  0
LWPOLYLINE
  5
4F9
330
1F
100
AcDbEntity
  8
0
  6
Continuous
 62
     7
100
AcDbPolyline
 90
        5
 70
   128
 43
0.0
 10
7799.3316650391
 20
4836.0537137404
 10
7798.9419361237
 20
4848.6173942907
 10
7798.6492200135
 20
4859.8347963402
 10
7798.5744478504
 20
4860.6602183588
 10
7798.5494327705
 20
4860.6837983742
  0
LWPOLYLINE
  5
4FA
330
1F
100
AcDbEntity
  8
0
  6
Continuous
 62
     7
100
AcDbPolyline
 90
        5
 70
   128
 43
0.0
 10
7797.7447509766
 20
4836.0537137404
 10
7797.3544353555
 20
4848.6173942719
 10
7797.0617201491
 20
4859.8347963402
 10
7796.9869479861
 20
4860.6602183588
 10
7796.9619329061
 20
4860.6837983742
  0
ARC
  5
4FB
330
1F
100
AcDbEntity
  8
0
  6
Continuous
 62
     7
100
AcDbCircle
 10
7764.2475129427
 20
4853.6819523216
 30
0.0
 40
41.06103825622235
100
AcDbArc
 50
353.9070662596
 51
9.7891229721
  0
LWPOLYLINE
  5
4FC
330
1F
100
AcDbEntity
  8
0
  6
Continuous
 62
     7
100
AcDbPolyline
 90
       12
 70
   128
 43
0.0
 10
7803.9054870605
 20
4836.0453392878
 10
7803.9009054732
 20
4836.019793162
 10
7803.8977936433
 20
4836.0131505318
 10
7803.8946952506
 20
4836.0108012215
 10
7803.8916096334
 20
4836.0125462009
 10
7803.8885361296
 20
4836.0181864397
 10
7803.8824228149
 20
4836.0403565747
 10
7803.8106651741
 20
4836.9606481002
 10
7803.5150887916
 20
4848.179647778
 10
7803.222449535
 20
4859.6505982996
 10
7803.1482005864
 20
4860.6244282172
 10
7803.1232100885
 20
4860.6632496729
  0
LWPOLYLINE
  5
4FD
330
1F
100
AcDbEntity
  8
0
  6
Continuous
 62
     7
100
AcDbPolyline
 90
       12
 70
   128
 43
0.0
 10
7802.318572998
 20
4836.0453392878
 10
7802.3134049419
 20
4836.0197931631
 10
7802.3102928759
 20
4836.0131505333
 10
7802.3071943126
 20
4836.0108012233
 10
7802.3041085845
 20
4836.012546203
 10
7802.3010350241
 20
4836.018186442
 10
7802.2949217363
 20
4836.0403565773
 10
7802.223165736
 20
4836.9606481014
 10
7801.9275884263
 20
4848.1796477671
 10
7801.634949641
 20
4859.6505982991
 10
7801.5607007201
 20
4860.6244282172
 10
7801.5357102241
 20
4860.6632496729
  0
LWPOLYLINE
  5
4FE
330
1F
100
AcDbEntity
  8
0
  6
Continuous
 62
     7
100
AcDbPolyline
 90
       12
 70
   128
 43
0.0
 10
7800.7316589355
 20
4836.0453392878
 10
7800.72590507
 20
4836.0197931631
 10
7800.7227929819
 20
4836.0131505331
 10
7800.7196943848
 20
4836.0108012229
 10
7800.7166086128
 20
4836.0125462024
 10
7800.7135349998
 20
4836.0181864411
 10
7800.7074215873
 20
4836.0403565757
 10
7800.6356655067
 20
4836.9606480992
 10
7800.3400885598
 20
4848.1796477668
 10
7800.0474498268
 20
4859.6505982998
 10
7799.9732008589
 20
4860.6244282172
 10
7799.9482103597
 20
4860.6632496729
  0
LWPOLYLINE
  5
4FF
330
1F
100
AcDbEntity
  8
0
  6
Continuous
 62
     7
100
AcDbPolyline
 90
       12
 70
   128
 43
0.0
 10
7799.1409301758
 20
4836.0453392878
 10
7799.1384052055
 20
4836.0197931631
 10
7799.1352931173
 20
4836.0131505331
 10
7799.1321945201
 20
4836.0108012229
 10
7799.1291087479
 20
4836.0125462023
 10
7799.1260351347
 20
4836.0181864411
 10
7799.1199217217
 20
4836.0403565757
 10
7799.048165651
 20
4836.9606480994
 10
7798.7525887016
 20
4848.1796477671
 10
7798.459948907
 20
4859.6505982909
 10
7798.3857010266
 20
4860.6244282174
 10
7798.3607104953
 20
4860.6632496729
  0
LWPOLYLINE
  5
500
330
1F
100
AcDbEntity
  8
0
  6
Continuous
 62
     7
100
AcDbPolyline
 90
       12
 70
   128
 43
0.0
 10
7797.5540161133
 20
4836.0453392878
 10
7797.5508297779
 20
4836.0195799298
 10
7797.5476804132
 20
4836.0129911819
 10
7797.5445448434
 20
4836.0107929915
 10
7797.5414223783
 20
4836.0127790075
 10
7797.5383123272
 20
4836.0187428784
 10
7797.5321267056
 20
4836.0417787804
 10
7797.4595007436
 20
4836.982326242
 10
7797.1602484896
 20
4848.4117117879
 10
7796.8643208056
 20
4859.8148401761
 10
7796.788796139
 20
4860.6595143018
 10
7796.7635174256
 20
4860.6837536707
  0
LWPOLYLINE
  5
501
330
1F
100
AcDbEntity
  8
0
  6
Continuous
 62
     7
100
AcDbPolyline
 90
        9
 70
   128
 43
0.0
 10
7700.9811401367
 20
4859.4511369512
 10
7695.8547702112
 20
4852.7624317976
 10
7695.855442782
 20
4844.3348821795
 10
7701.0187655874
 20
4837.6779665243
 10
7709.1865742272
 20
4835.6257637336
 10
7716.8589710848
 20
4839.0919183129
 10
7720.6725094412
 20
4846.5948747446
 10
7718.9032665417
 20
4854.8206247535
 10
7712.3153279509
 20
4860.0491281167
  0
LWPOLYLINE
  5
502
330
1F
100
AcDbEntity
  8
0
  6
Continuous
 62
     7
100
AcDbPolyline
 90
        3
 70
   128
 43
0.0
 10
7702.8656005859
 20
4859.5292117014
 10
7712.8658547692
 20
4860.3670948989
 10
7719.2846308436
 20
4855.6212778702
  0
LWPOLYLINE
  5
503
330
1F
100
AcDbEntity
  8
0
  6
Continuous
 62
     7
100
AcDbPolyline
 90
        3
 70
   128
 43
0.0
 10
7712.3146057129
 20
4860.0491281167
 10
7706.9599695032
 20
4860.6816170234
 10
7702.8687442627
 20
4859.5292117014
  0
ARC
  5
504
330
1F
100
AcDbEntity
  8
0
  6
Continuous
 62
     7
100
AcDbCircle
 10
7708.2587366911
 20
4848.3561585052
 30
0.0
 40
13.20377449489201
100
AcDbArc
 50
142.2365781384
 51
33.3828272674
  0
LWPOLYLINE
  5
505
330
1F
100
AcDbEntity
  8
0
  6
Continuous
 62
     7
100
AcDbPolyline
 90
        3
 70
   128
 43
0.0
 10
7702.8656005859
 20
4859.5292117014
 10
7708.4464475138
 20
4860.746023978
 10
7712.8326292124
 20
4859.7856755867
  0
LWPOLYLINE
  5
506
330
1F
100
AcDbEntity
  8
0
  6
Continuous
 62
     7
100
AcDbPolyline
 90
        3
 70
   128
 43
0.0
 10
7632.2288513184
 20
4799.3861432686
 10
7632.592708523
 20
4798.6146693202
 10
7633.229627737
 20
4798.3861263409
  0
LWPOLYLINE
  5
507
330
1F
100
AcDbEntity
  8
0
  6
Continuous
 62
     7
100
AcDbPolyline
 90
        3
 70
   128
 43
0.0
 10
7631.2294006348
 20
4799.3861432687
 10
7631.4503882268
 20
4798.449721375
 10
7631.9438065376
 20
4797.8861327782
  0
LWPOLYLINE
  5
508
330
1F
100
AcDbEntity
  8
0
  6
Continuous
 62
     7
100
AcDbPolyline
 90
        3
 70
   128
 43
0.0
 10
7784.4924926758
 20
4797.8861327782
 10
7785.065752769
 20
4798.6455143034
 10
7785.2096273537
 20
4799.3861432687
  0
LWPOLYLINE
  5
509
330
1F
100
AcDbEntity
  8
0
  6
Continuous
 62
     7
100
AcDbPolyline
 90
        3
 70
   128
 43
0.0
 10
7783.2069396973
 20
4798.3861263409
 10
7783.9810916338
 20
4798.749218828
 10
7784.2096271899
 20
4799.3861432686
  0
ENDSEC
  0
SECTION
  2
OBJECTS
  0
DICTIONARY
  5
C
330
0
100
AcDbDictionary
281
     1
  3
ACAD_GROUP
350
D
  3
ACAD_LAYOUT
350
1A
  3
ACAD_MLINESTYLE
350
17
  3
ACAD_PLOTSETTINGS
350
19
  3
ACAD_PLOTSTYLENAME
350
E
  3
ACAD_SCALELIST
350
47
  3
DWGPROPS
350
50A
  0
DICTIONARY
  5
D
102
{ACAD_REACTORS
330
C
102
}
330
C
100
AcDbDictionary
281
     1
  0
DICTIONARY
  5
1A
102
{ACAD_REACTORS
330
C
102
}
330
C
100
AcDbDictionary
281
     1
  3
Layout1
350
1E
  3
Layout2
350
26
  3
Model
350
22
  0
DICTIONARY
  5
17
102
{ACAD_REACTORS
330
C
102
}
330
C
100
AcDbDictionary
281
     1
  3
Standard
350
18
  0
DICTIONARY
  5
19
102
{ACAD_REACTORS
330
C
102
}
330
C
100
AcDbDictionary
281
     1
  0
ACDBDICTIONARYWDFLT
  5
E
102
{ACAD_REACTORS
330
C
102
}
330
C
100
AcDbDictionary
281
     1
  3
Normal
350
F
100
AcDbDictionaryWithDefault
340
F
  0
DICTIONARY
  5
47
102
{ACAD_REACTORS
330
C
102
}
330
C
100
AcDbDictionary
281
     1
  3
A0
350
48
  3
A1
350
49
  3
A2
350
4A
  3
A3
350
4B
  3
A4
350
4C
  3
A5
350
4D
  3
A6
350
4E
  3
A7
350
4F
  3
A8
350
50
  3
A9
350
51
  3
B0
350
52
  3
B1
350
53
  3
B2
350
54
  3
B3
350
55
  3
B4
350
56
  3
B5
350
57
  3
B6
350
58
  3
B7
350
59
  3
B8
350
5A
  3
B9
350
5B
  3
C0
350
5C
  3
C1
350
5D
  3
C2
350
5E
  3
C3
350
5F
  3
C4
350
60
  3
C5
350
61
  3
C6
350
62
  3
C7
350
63
  3
C8
350
64
  3
C9
350
65
  3
D0
350
66
  3
D1
350
67
  3
D2
350
68
  0
XRECORD
  5
50A
102
{ACAD_REACTORS
330
C
102
}
330
C
100
AcDbXrecord
280
     1
  1
DWGPROPS COOKIE
  2

  3

  4

  6

  7

  8
radek.stransky
  9

300
=
301
=
302
=
303
=
304
=
305
=
306
=
307
=
308
=
309
=
 40
0.0
 41
2459095.466577257
 42
2459095.466953692
  1

 90
        0
  0
LAYOUT
  5
1E
102
{ACAD_REACTORS
330
1A
102
}
330
1A
100
AcDbPlotSettings
  1

  2
none_device
  4

  6

 40
0.0
 41
0.0
 42
0.0
 43
0.0
 44
0.0
 45
0.0
 46
0.0
 47
0.0
 48
0.0
 49
0.0
140
0.0
141
0.0
142
1.0
143
1.0
 70
   688
 72
     1
 73
     0
 74
     5
  7

 75
    16
147
1.0
148
0.0
149
0.0
100
AcDbLayout
  1
Layout1
 70
     1
 71
     1
 10
0.0
 20
0.0
 11
420.0
 21
297.0
 12
0.0
 22
0.0
 32
0.0
 14
1.0000000000E+20
 24
1.0000000000E+20
 34
1.0000000000E+20
 15
-1.0000000000E+20
 25
-1.0000000000E+20
 35
-1.0000000000E+20
146
0.0
 13
0.0
 23
0.0
 33
0.0
 16
1.0
 26
0.0
 36
0.0
 17
0.0
 27
1.0
 37
0.0
 76
     0
330
1B
  0
LAYOUT
  5
26
102
{ACAD_REACTORS
330
1A
102
}
330
1A
100
AcDbPlotSettings
  1

  2
none_device
  4

  6

 40
0.0
 41
0.0
 42
0.0
 43
0.0
 44
0.0
 45
0.0
 46
0.0
 47
0.0
 48
0.0
 49
0.0
140
0.0
141
0.0
142
1.0
143
1.0
 70
   688
 72
     1
 73
     0
 74
     5
  7

 75
    16
147
1.0
148
0.0
149
0.0
100
AcDbLayout
  1
Layout2
 70
     1
 71
     2
 10
0.0
 20
0.0
 11
0.0
 21
0.0
 12
0.0
 22
0.0
 32
0.0
 14
0.0
 24
0.0
 34
0.0
 15
0.0
 25
0.0
 35
0.0
146
0.0
 13
0.0
 23
0.0
 33
0.0
 16
1.0
 26
0.0
 36
0.0
 17
0.0
 27
1.0
 37
0.0
 76
     0
330
23
  0
LAYOUT
  5
22
102
{ACAD_REACTORS
330
1A
102
}
330
1A
100
AcDbPlotSettings
  1

  2
none_device
  4
ANSI_A_(11.00_x_8.50_Inches)
  6

 40
6.35
 41
19.05
 42
6.35000508
 43
19.05000254
 44
279.4
 45
215.9
 46
-2993.0688046596
 47
-1899.1245444704
 48
0.0
 49
0.0
140
0.0
141
0.0
142
0.0156109353
143
1.0
 70
  1696
 72
     0
 73
     0
 74
     0
  7

 75
     0
147
0.0179189148
148
-1300.4909072572
149
0.0
100
AcDbLayout
  1
Model
 70
     1
 71
     0
 10
0.0
 20
0.0
 11
420.0
 21
297.0
 12
0.0
 22
0.0
 32
0.0
 14
7610.7196207132
 24
4744.1861348878
 34
0.0
 15
8158.6564029906
 25
5283.2313514784
 35
0.0
146
0.0
 13
0.0
 23
0.0
 33
0.0
 16
1.0
 26
0.0
 36
0.0
 17
0.0
 27
1.0
 37
0.0
 76
     0
330
1F
331
29
  0
MLINESTYLE
  5
18
102
{ACAD_REACTORS
330
17
102
}
330
17
100
AcDbMlineStyle
  2
Standard
 70
     0
  3

 62
   256
 51
90.0
 52
90.0
 71
     2
 49
0.5
 62
   256
  6
BYLAYER
 49
-0.5
 62
   256
  6
BYLAYER
  0
ACDBPLACEHOLDER
  5
F
102
{ACAD_REACTORS
330
E
102
}
330
E
  0
SCALE
  5
48
102
{ACAD_REACTORS
330
47
102
}
330
47
100
AcDbScale
 70
     0
300
1:1
140
1.0
141
1.0
290
     1
  0
SCALE
  5
49
102
{ACAD_REACTORS
330
47
102
}
330
47
100
AcDbScale
 70
     0
300
1:2
140
1.0
141
2.0
290
     0
  0
SCALE
  5
4A
102
{ACAD_REACTORS
330
47
102
}
330
47
100
AcDbScale
 70
     0
300
1:4
140
1.0
141
4.0
290
     0
  0
SCALE
  5
4B
102
{ACAD_REACTORS
330
47
102
}
330
47
100
AcDbScale
 70
     0
300
1:5
140
1.0
141
5.0
290
     0
  0
SCALE
  5
4C
102
{ACAD_REACTORS
330
47
102
}
330
47
100
AcDbScale
 70
     0
300
1:8
140
1.0
141
8.0
290
     0
  0
SCALE
  5
4D
102
{ACAD_REACTORS
330
47
102
}
330
47
100
AcDbScale
 70
     0
300
1:10
140
1.0
141
10.0
290
     0
  0
SCALE
  5
4E
102
{ACAD_REACTORS
330
47
102
}
330
47
100
AcDbScale
 70
     0
300
1:16
140
1.0
141
16.0
290
     0
  0
SCALE
  5
4F
102
{ACAD_REACTORS
330
47
102
}
330
47
100
AcDbScale
 70
     0
300
1:20
140
1.0
141
20.0
290
     0
  0
SCALE
  5
50
102
{ACAD_REACTORS
330
47
102
}
330
47
100
AcDbScale
 70
     0
300
1:30
140
1.0
141
30.0
290
     0
  0
SCALE
  5
51
102
{ACAD_REACTORS
330
47
102
}
330
47
100
AcDbScale
 70
     0
300
1:40
140
1.0
141
40.0
290
     0
  0
SCALE
  5
52
102
{ACAD_REACTORS
330
47
102
}
330
47
100
AcDbScale
 70
     0
300
1:50
140
1.0
141
50.0
290
     0
  0
SCALE
  5
53
102
{ACAD_REACTORS
330
47
102
}
330
47
100
AcDbScale
 70
     0
300
1:100
140
1.0
141
100.0
290
     0
  0
SCALE
  5
54
102
{ACAD_REACTORS
330
47
102
}
330
47
100
AcDbScale
 70
     0
300
2:1
140
2.0
141
1.0
290
     0
  0
SCALE
  5
55
102
{ACAD_REACTORS
330
47
102
}
330
47
100
AcDbScale
 70
     0
300
4:1
140
4.0
141
1.0
290
     0
  0
SCALE
  5
56
102
{ACAD_REACTORS
330
47
102
}
330
47
100
AcDbScale
 70
     0
300
8:1
140
8.0
141
1.0
290
     0
  0
SCALE
  5
57
102
{ACAD_REACTORS
330
47
102
}
330
47
100
AcDbScale
 70
     0
300
10:1
140
10.0
141
1.0
290
     0
  0
SCALE
  5
58
102
{ACAD_REACTORS
330
47
102
}
330
47
100
AcDbScale
 70
     0
300
100:1
140
100.0
141
1.0
290
     0
  0
SCALE
  5
59
102
{ACAD_REACTORS
330
47
102
}
330
47
100
AcDbScale
 70
     0
300
1/128" = 1'-0"
140
0.0078125
141
12.0
290
     0
  0
SCALE
  5
5A
102
{ACAD_REACTORS
330
47
102
}
330
47
100
AcDbScale
 70
     0
300
1/64" = 1'-0"
140
0.015625
141
12.0
290
     0
  0
SCALE
  5
5B
102
{ACAD_REACTORS
330
47
102
}
330
47
100
AcDbScale
 70
     0
300
1/32" = 1'-0"
140
0.03125
141
12.0
290
     0
  0
SCALE
  5
5C
102
{ACAD_REACTORS
330
47
102
}
330
47
100
AcDbScale
 70
     0
300
1/16" = 1'-0"
140
0.0625
141
12.0
290
     0
  0
SCALE
  5
5D
102
{ACAD_REACTORS
330
47
102
}
330
47
100
AcDbScale
 70
     0
300
3/32" = 1'-0"
140
0.09375
141
12.0
290
     0
  0
SCALE
  5
5E
102
{ACAD_REACTORS
330
47
102
}
330
47
100
AcDbScale
 70
     0
300
1/8" = 1'-0"
140
0.125
141
12.0
290
     0
  0
SCALE
  5
5F
102
{ACAD_REACTORS
330
47
102
}
330
47
100
AcDbScale
 70
     0
300
3/16" = 1'-0"
140
0.1875
141
12.0
290
     0
  0
SCALE
  5
60
102
{ACAD_REACTORS
330
47
102
}
330
47
100
AcDbScale
 70
     0
300
1/4" = 1'-0"
140
0.25
141
12.0
290
     0
  0
SCALE
  5
61
102
{ACAD_REACTORS
330
47
102
}
330
47
100
AcDbScale
 70
     0
300
3/8" = 1'-0"
140
0.375
141
12.0
290
     0
  0
SCALE
  5
62
102
{ACAD_REACTORS
330
47
102
}
330
47
100
AcDbScale
 70
     0
300
1/2" = 1'-0"
140
0.5
141
12.0
290
     0
  0
SCALE
  5
63
102
{ACAD_REACTORS
330
47
102
}
330
47
100
AcDbScale
 70
     0
300
3/4" = 1'-0"
140
0.75
141
12.0
290
     0
  0
SCALE
  5
64
102
{ACAD_REACTORS
330
47
102
}
330
47
100
AcDbScale
 70
     0
300
1" = 1'-0"
140
1.0
141
12.0
290
     0
  0
SCALE
  5
65
102
{ACAD_REACTORS
330
47
102
}
330
47
100
AcDbScale
 70
     0
300
1-1/2" = 1'-0"
140
1.5
141
12.0
290
     0
  0
SCALE
  5
66
102
{ACAD_REACTORS
330
47
102
}
330
47
100
AcDbScale
 70
     0
300
3" = 1'-0"
140
3.0
141
12.0
290
     0
  0
SCALE
  5
67
102
{ACAD_REACTORS
330
47
102
}
330
47
100
AcDbScale
 70
     0
300
6" = 1'-0"
140
6.0
141
12.0
290
     0
  0
SCALE
  5
68
102
{ACAD_REACTORS
330
47
102
}
330
47
100
AcDbScale
 70
     0
300
1'-0" = 1'-0"
140
12.0
141
12.0
290
     0
  0
ENDSEC
  0
EOF
