  0
SECTION
  2
HEADER
  9
$ACADVER
  1
AC1015
  9
$ACADMAINTVER
 70
     6
  9
$DWGCODEPAGE
  3
ANSI_1250
  9
$INSBASE
 10
0.0
 20
0.0
 30
0.0
  9
$EXTMIN
 10
0.0
 20
0.0
 30
0.0
  9
$EXTMAX
 10
20000.0
 20
10000.0
 30
0.0
  9
$LIMMIN
 10
0.0
 20
0.0
  9
$LIMMAX
 10
20000.0
 20
10000.0
  9
$ORTHOMODE
 70
     0
  9
$REGENMODE
 70
     1
  9
$FILLMODE
 70
     1
  9
$QTEXTMODE
 70
     0
  9
$MIRRTEXT
 70
     1
  9
$LTSCALE
 40
1.0
  9
$ATTMODE
 70
     1
  9
$TEXTSIZE
 40
2.0
  9
$TRACEWID
 40
1.0
  9
$TEXTSTYLE
  7
Standard
  9
$CLAYER
  8
0
  9
$CELTYPE
  6
ByLayer
  9
$CECOLOR
 62
   256
  9
$CELTSCALE
 40
1.0
  9
$DISPSILH
 70
     0
  9
$DIMSCALE
 40
1.0
  9
$DIMASZ
 40
2.0
  9
$DIMEXO
 40
1.0
  9
$DIMDLI
 40
3.75
  9
$DIMRND
 40
0.0
  9
$DIMDLE
 40
0.0
  9
$DIMEXE
 40
1.0
  9
$DIMTP
 40
0.0
  9
$DIMTM
 40
0.0
  9
$DIMTXT
 40
2.0
  9
$DIMCEN
 40
2.5
  9
$DIMTSZ
 40
0.0
  9
$DIMTOL
 70
     0
  9
$DIMLIM
 70
     0
  9
$DIMTIH
 70
     1
  9
$DIMTOH
 70
     1
  9
$DIMSE1
 70
     0
  9
$DIMSE2
 70
     0
  9
$DIMTAD
 70
     1
  9
$DIMZIN
 70
     0
  9
$DIMBLK
  1

  9
$DIMASO
 70
     1
  9
$DIMSHO
 70
     1
  9
$DIMPOST
  1

  9
$DIMAPOST
  1

  9
$DIMALT
 70
     0
  9
$DIMALTD
 70
     3
  9
$DIMALTF
 40
0.0393700787
  9
$DIMLFAC
 40
1.0
  9
$DIMTOFL
 70
     1
  9
$DIMTVP
 40
0.0
  9
$DIMTIX
 70
     0
  9
$DIMSOXD
 70
     0
  9
$DIMSAH
 70
     0
  9
$DIMBLK1
  1

  9
$DIMBLK2
  1

  9
$DIMSTYLE
  2
ISO-25
  9
$DIMCLRD
 70
     0
  9
$DIMCLRE
 70
     0
  9
$DIMCLRT
 70
     0
  9
$DIMTFAC
 40
1.0
  9
$DIMGAP
 40
1.524
  9
$DIMJUST
 70
     0
  9
$DIMSD1
 70
     0
  9
$DIMSD2
 70
     0
  9
$DIMTOLJ
 70
     0
  9
$DIMTZIN
 70
     0
  9
$DIMALTZ
 70
     0
  9
$DIMALTTZ
 70
     0
  9
$DIMUPT
 70
     0
  9
$DIMDEC
 70
     2
  9
$DIMTDEC
 70
     0
  9
$DIMALTU
 70
     2
  9
$DIMALTTD
 70
     3
  9
$DIMTXSTY
  7
Standard
  9
$DIMAUNIT
 70
     0
  9
$DIMADEC
 70
     2
  9
$DIMALTRND
 40
0.0
  9
$DIMAZIN
 70
     0
  9
$DIMDSEP
 70
    44
  9
$DIMATFIT
 70
     3
  9
$DIMFRAC
 70
     0
  9
$DIMLDRBLK
  1

  9
$DIMLUNIT
 70
     2
  9
$DIMLWD
 70
    -2
  9
$DIMLWE
 70
    -2
  9
$DIMTMOVE
 70
     0
  9
$LUNITS
 70
     2
  9
$LUPREC
 70
     3
  9
$SKETCHINC
 40
1.0
  9
$FILLETRAD
 40
10.0
  9
$AUNITS
 70
     0
  9
$AUPREC
 70
     2
  9
$MENU
  1
.
  9
$ELEVATION
 40
0.0
  9
$PELEVATION
 40
0.0
  9
$THICKNESS
 40
0.0
  9
$LIMCHECK
 70
     0
  9
$CHAMFERA
 40
0.0
  9
$CHAMFERB
 40
0.0
  9
$CHAMFERC
 40
0.0
  9
$CHAMFERD
 40
0.0
  9
$SKPOLY
 70
     0
  9
$TDCREATE
 40
2458690.6278314
  9
$TDUCREATE
 40
2458690.544498067
  9
$TDUPDATE
 40
2458690.627831609
  9
$TDUUPDATE
 40
2458690.544498275
  9
$TDINDWG
 40
0.0000000116
  9
$TDUSRTIMER
 40
0.0000000116
  9
$USRTIMER
 70
     1
  9
$ANGBASE
 50
0.0
  9
$ANGDIR
 70
     0
  9
$PDMODE
 70
     0
  9
$PDSIZE
 40
-1.0
  9
$PLINEWID
 40
0.0
  9
$SPLFRAME
 70
     0
  9
$SPLINETYPE
 70
     6
  9
$SPLINESEGS
 70
     8
  9
$HANDSEED
  5
1EA
  9
$SURFTAB1
 70
     6
  9
$SURFTAB2
 70
     6
  9
$SURFTYPE
 70
     6
  9
$SURFU
 70
     6
  9
$SURFV
 70
     6
  9
$UCSBASE
  2

  9
$UCSNAME
  2

  9
$UCSORG
 10
0.0
 20
0.0
 30
0.0
  9
$UCSXDIR
 10
1.0
 20
0.0
 30
0.0
  9
$UCSYDIR
 10
0.0
 20
1.0
 30
0.0
  9
$UCSORTHOREF
  2

  9
$UCSORTHOVIEW
 70
     0
  9
$UCSORGTOP
 10
0.0
 20
0.0
 30
0.0
  9
$UCSORGBOTTOM
 10
0.0
 20
0.0
 30
0.0
  9
$UCSORGLEFT
 10
0.0
 20
0.0
 30
0.0
  9
$UCSORGRIGHT
 10
0.0
 20
0.0
 30
0.0
  9
$UCSORGFRONT
 10
0.0
 20
0.0
 30
0.0
  9
$UCSORGBACK
 10
0.0
 20
0.0
 30
0.0
  9
$PUCSBASE
  2

  9
$PUCSNAME
  2

  9
$PUCSORG
 10
0.0
 20
0.0
 30
0.0
  9
$PUCSXDIR
 10
1.0
 20
0.0
 30
0.0
  9
$PUCSYDIR
 10
0.0
 20
1.0
 30
0.0
  9
$PUCSORTHOREF
  2

  9
$PUCSORTHOVIEW
 70
     0
  9
$PUCSORGTOP
 10
0.0
 20
0.0
 30
0.0
  9
$PUCSORGBOTTOM
 10
0.0
 20
0.0
 30
0.0
  9
$PUCSORGLEFT
 10
0.0
 20
0.0
 30
0.0
  9
$PUCSORGRIGHT
 10
0.0
 20
0.0
 30
0.0
  9
$PUCSORGFRONT
 10
0.0
 20
0.0
 30
0.0
  9
$PUCSORGBACK
 10
0.0
 20
0.0
 30
0.0
  9
$USERI1
 70
     0
  9
$USERI2
 70
     0
  9
$USERI3
 70
     0
  9
$USERI4
 70
     0
  9
$USERI5
 70
     0
  9
$USERR1
 40
0.0
  9
$USERR2
 40
0.0
  9
$USERR3
 40
0.0
  9
$USERR4
 40
0.0
  9
$USERR5
 40
0.0
  9
$WORLDVIEW
 70
     1
  9
$SHADEDGE
 70
     3
  9
$SHADEDIF
 70
    70
  9
$TILEMODE
 70
     1
  9
$MAXACTVP
 70
    64
  9
$PINSBASE
 10
0.0
 20
0.0
 30
0.0
  9
$PLIMCHECK
 70
     0
  9
$PEXTMIN
 10
1.0000000000E+20
 20
1.0000000000E+20
 30
1.0000000000E+20
  9
$PEXTMAX
 10
-1.0000000000E+20
 20
-1.0000000000E+20
 30
-1.0000000000E+20
  9
$PLIMMIN
 10
0.0
 20
0.0
  9
$PLIMMAX
 10
420.0
 20
297.0
  9
$UNITMODE
 70
     0
  9
$VISRETAIN
 70
     1
  9
$PLINEGEN
 70
     0
  9
$PSLTSCALE
 70
     1
  9
$TREEDEPTH
 70
  3020
  9
$CMLSTYLE
  2
Standard
  9
$CMLJUST
 70
     0
  9
$CMLSCALE
 40
20.0
  9
$PROXYGRAPHICS
 70
     1
  9
$MEASUREMENT
 70
     1
  9
$CELWEIGHT
370
    -1
  9
$ENDCAPS
280
     0
  9
$JOINSTYLE
280
     0
  9
$LWDISPLAY
290
     1
  9
$INSUNITS
 70
     4
  9
$HYPERLINKBASE
  1

  9
$STYLESHEET
  1

  9
$XEDIT
290
     1
  9
$CEPSNTYPE
380
     0
  9
$PSTYLEMODE
290
     1
  9
$FINGERPRINTGUID
  2
{9CBC26B5-FE27-4D73-9D84-DC66FB8F423B}
  9
$VERSIONGUID
  2
{FAEB1C32-E019-11D5-929B-00C0DF256EC4}
  9
$EXTNAMES
290
     1
  9
$PSVPSCALE
 40
0.0
  9
$OLESTARTUP
290
     0
  0
ENDSEC
  0
SECTION
  2
CLASSES
  0
CLASS
  1
ACDBDICTIONARYWDFLT
  2
AcDbDictionaryWithDefault
  3
ObjectDBX Classes
 90
        0
280
     0
281
     0
  0
CLASS
  1
VISUALSTYLE
  2
AcDbVisualStyle
  3
ObjectDBX Classes
 90
     4095
280
     0
281
     0
  0
CLASS
  1
MATERIAL
  2
AcDbMaterial
  3
ObjectDBX Classes
 90
     1153
280
     0
281
     0
  0
CLASS
  1
SCALE
  2
AcDbScale
  3
ObjectDBX Classes
 90
     1153
280
     0
281
     0
  0
CLASS
  1
TABLESTYLE
  2
AcDbTableStyle
  3
ObjectDBX Classes
 90
     4095
280
     0
281
     0
  0
CLASS
  1
MLEADERSTYLE
  2
AcDbMLeaderStyle
  3
ACDB_MLEADERSTYLE_CLASS
 90
     4095
280
     0
281
     0
  0
CLASS
  1
SUN
  2
AcDbSun
  3
SCENEOE
 90
     1153
280
     0
281
     0
  0
CLASS
  1
ACDBPLACEHOLDER
  2
AcDbPlaceHolder
  3
ObjectDBX Classes
 90
        0
280
     0
281
     0
  0
CLASS
  1
LAYOUT
  2
AcDbLayout
  3
ObjectDBX Classes
 90
        0
280
     0
281
     0
  0
ENDSEC
  0
SECTION
  2
TABLES
  0
TABLE
  2
VPORT
  5
8
330
0
100
AcDbSymbolTable
 70
     1
  0
VPORT
  5
29
330
8
100
AcDbSymbolTableRecord
100
AcDbViewportTableRecord
  2
*Active
 70
     0
 10
0.0
 20
0.0
 11
1.0
 21
1.0
 12
10000.0
 22
5000.0
 13
0.0
 23
0.0
 14
10.0
 24
10.0
 15
10.0
 25
10.0
 16
0.0
 26
0.0
 36
1.0
 17
0.0
 27
0.0
 37
0.0
 40
10000.0
 41
2.0
 42
50.0
 43
0.0
 44
0.0
 50
0.0
 51
0.0
 71
     0
 72
  2000
 73
     1
 74
     3
 75
     0
 76
     0
 77
     0
 78
     0
281
     0
 65
     1
110
0.0
120
0.0
130
0.0
111
1.0
121
0.0
131
0.0
112
0.0
122
1.0
132
0.0
 79
     0
146
0.0
  0
ENDTAB
  0
TABLE
  2
LTYPE
  5
5
330
0
100
AcDbSymbolTable
 70
     6
  0
LTYPE
  5
14
330
5
100
AcDbSymbolTableRecord
100
AcDbLinetypeTableRecord
  2
ByBlock
 70
     0
  3

 72
    65
 73
     0
 40
0.0
  0
LTYPE
  5
15
330
5
100
AcDbSymbolTableRecord
100
AcDbLinetypeTableRecord
  2
ByLayer
 70
     0
  3

 72
    65
 73
     0
 40
0.0
  0
LTYPE
  5
16
330
5
100
AcDbSymbolTableRecord
100
AcDbLinetypeTableRecord
  2
Continuous
 70
     0
  3
Solid line
 72
    65
 73
     0
 40
0.0
  0
LTYPE
  5
6E
330
5
100
AcDbSymbolTableRecord
100
AcDbLinetypeTableRecord
  2
HIDDEN
 70
     0
  3
Hidden __ __ __ __ __ __ __ __ __ __ __ __ __ __
 72
    65
 73
     2
 40
1.905
 49
1.27
 74
     0
 49
-0.635
 74
     0
  0
LTYPE
  5
6F
330
5
100
AcDbSymbolTableRecord
100
AcDbLinetypeTableRecord
  2
PHANTOM
 70
     0
  3
Phantom ______  __  __  ______  __  __  ______
 72
    65
 73
     6
 40
12.7
 49
6.35
 74
     0
 49
-1.27
 74
     0
 49
1.27
 74
     0
 49
-1.27
 74
     0
 49
1.27
 74
     0
 49
-1.27
 74
     0
  0
LTYPE
  5
70
330
5
100
AcDbSymbolTableRecord
100
AcDbLinetypeTableRecord
  2
CENTER
 70
     0
  3
Center ____ _ ____ _ ____ _ ____ _ ____ _ ____
 72
    65
 73
     4
 40
10.16
 49
6.35
 74
     0
 49
-1.27
 74
     0
 49
1.27
 74
     0
 49
-1.27
 74
     0
  0
LTYPE
  5
71
330
5
100
AcDbSymbolTableRecord
100
AcDbLinetypeTableRecord
  2
CENTERX2
 70
     0
  3
Center (2x) ________  __  ________  __  _____
 72
    65
 73
     4
 40
20.32
 49
12.7
 74
     0
 49
-2.54
 74
     0
 49
2.54
 74
     0
 49
-2.54
 74
     0
  0
LTYPE
  5
72
330
5
100
AcDbSymbolTableRecord
100
AcDbLinetypeTableRecord
  2
DOT2
 70
     0
  3
Dot (.5x) ........................................
 72
    65
 73
     2
 40
0.635
 49
0.0
 74
     0
 49
-0.635
 74
     0
  0
ENDTAB
  0
TABLE
  2
LAYER
  5
2
330
0
100
AcDbSymbolTable
 70
    13
  0
LAYER
  5
10
330
2
100
AcDbSymbolTableRecord
100
AcDbLayerTableRecord
  2
0
 70
     0
 62
     7
  6
Continuous
370
    -3
390
F
  0
LAYER
  5
73
330
2
100
AcDbSymbolTableRecord
100
AcDbLayerTableRecord
  2
FORMAT
 70
     0
 62
     7
  6
Continuous
370
    -3
390
F
  0
LAYER
  5
74
330
2
100
AcDbSymbolTableRecord
100
AcDbLayerTableRecord
  2
OSA
 70
     0
 62
     7
  6
CENTER
370
    -3
390
F
  0
LAYER
  5
75
330
2
100
AcDbSymbolTableRecord
100
AcDbLayerTableRecord
  2
0_35
 70
     0
 62
     7
  6
Continuous
370
    35
390
F
  0
LAYER
  5
76
330
2
100
AcDbSymbolTableRecord
100
AcDbLayerTableRecord
  2
0_5
 70
     0
 62
     7
  6
Continuous
370
    50
390
F
  0
LAYER
  5
77
330
2
100
AcDbSymbolTableRecord
100
AcDbLayerTableRecord
  2
0_25
 70
     0
 62
     7
  6
Continuous
370
    25
390
F
  0
LAYER
  5
78
330
2
100
AcDbSymbolTableRecord
100
AcDbLayerTableRecord
  2
0_18
 70
     0
 62
     7
  6
Continuous
370
    -3
390
F
  0
LAYER
  5
79
330
2
100
AcDbSymbolTableRecord
100
AcDbLayerTableRecord
  2
SLD-0
 70
     0
 62
   179
  6
Continuous
370
    -3
390
F
  0
LAYER
  5
7A
330
2
100
AcDbSymbolTableRecord
100
AcDbLayerTableRecord
  2
KOTY
 70
     0
 62
     7
  6
Continuous
370
    -3
390
F
  0
LAYER
  5
7B
330
2
100
AcDbSymbolTableRecord
100
AcDbLayerTableRecord
  2
SILNA
 70
     0
 62
   179
  6
Continuous
370
    -3
390
F
  0
LAYER
  5
7C
330
2
100
AcDbSymbolTableRecord
100
AcDbLayerTableRecord
  2
0_18_1
 70
     0
 62
   179
  6
Continuous
370
    -3
390
F
  0
LAYER
  5
7D
330
2
100
AcDbSymbolTableRecord
100
AcDbLayerTableRecord
  2
0_35_1
 70
     0
 62
   179
  6
Continuous
370
    35
390
F
  0
LAYER
  5
7E
330
2
100
AcDbSymbolTableRecord
100
AcDbLayerTableRecord
  2
0_5_1
 70
     0
 62
   179
  6
Continuous
370
    50
390
F
  0
ENDTAB
  0
TABLE
  2
STYLE
  5
3
330
0
100
AcDbSymbolTable
 70
     1
  0
STYLE
  5
11
330
3
100
AcDbSymbolTableRecord
100
AcDbTextStyleTableRecord
  2
Standard
 70
     0
 40
0.0
 41
1.0
 50
0.0
 71
     0
 42
2.0
  3
txt
  4

  0
ENDTAB
  0
TABLE
  2
VIEW
  5
6
330
0
100
AcDbSymbolTable
 70
     0
  0
ENDTAB
  0
TABLE
  2
UCS
  5
7
330
0
100
AcDbSymbolTable
 70
     0
  0
ENDTAB
  0
TABLE
  2
APPID
  5
9
330
0
100
AcDbSymbolTable
 70
     1
  0
APPID
  5
12
330
9
100
AcDbSymbolTableRecord
100
AcDbRegAppTableRecord
  2
ACAD
 70
     0
  0
ENDTAB
  0
TABLE
  2
DIMSTYLE
  5
A
330
0
100
AcDbSymbolTable
 70
     1
100
AcDbDimStyleTable
  0
DIMSTYLE
105
27
330
A
100
AcDbSymbolTableRecord
100
AcDbDimStyleTableRecord
  2
ISO-25
 70
     0
 41
2.5
 42
0.625
 43
3.75
 44
1.25
 73
     0
 74
     0
 77
     1
 78
     8
140
2.5
141
2.5
143
0.0393700787
147
0.625
171
     3
172
     1
178
     0
271
     2
272
     2
274
     3
278
    44
283
     0
284
     8
340
11
  0
ENDTAB
  0
TABLE
  2
BLOCK_RECORD
  5
1
330
0
100
AcDbSymbolTable
 70
     1
  0
BLOCK_RECORD
  5
1F
330
1
100
AcDbSymbolTableRecord
100
AcDbBlockTableRecord
  2
*Model_Space
340
22
  0
BLOCK_RECORD
  5
1B
330
1
100
AcDbSymbolTableRecord
100
AcDbBlockTableRecord
  2
*Paper_Space
340
1E
  0
BLOCK_RECORD
  5
23
330
1
100
AcDbSymbolTableRecord
100
AcDbBlockTableRecord
  2
*Paper_Space0
340
26
  0
ENDTAB
  0
ENDSEC
  0
SECTION
  2
BLOCKS
  0
BLOCK
  5
20
330
1F
100
AcDbEntity
  8
0
100
AcDbBlockBegin
  2
*Model_Space
 70
     0
 10
0.0
 20
0.0
 30
0.0
  3
*Model_Space
  1

  0
ENDBLK
  5
21
330
1F
100
AcDbEntity
  8
0
100
AcDbBlockEnd
  0
BLOCK
  5
1C
330
1B
100
AcDbEntity
 67
     1
  8
0
100
AcDbBlockBegin
  2
*Paper_Space
 70
     0
 10
0.0
 20
0.0
 30
0.0
  3
*Paper_Space
  1

  0
ENDBLK
  5
1D
330
1B
100
AcDbEntity
 67
     1
  8
0
100
AcDbBlockEnd
  0
BLOCK
  5
24
330
23
100
AcDbEntity
  8
0
100
AcDbBlockBegin
  2
*Paper_Space0
 70
     0
 10
0.0
 20
0.0
 30
0.0
  3
*Paper_Space0
  1

  0
ENDBLK
  5
25
330
23
100
AcDbEntity
  8
0
100
AcDbBlockEnd
  0
ENDSEC
  0
SECTION
  2
ENTITIES
  0
ARC
  5
7F
330
1F
100
AcDbEntity
  8
0
  6
Continuous
 62
     7
370
    25
100
AcDbCircle
 10
5525.0188053361
 20
5523.0422092625
 30
0.0
 40
1.0
100
AcDbArc
 50
90.0
 51
180.0
  0
ARC
  5
80
330
1F
100
AcDbEntity
  8
0
  6
Continuous
 62
     7
370
    25
100
AcDbCircle
 10
7023.0188053361
 20
5523.0422092625
 30
0.0
 40
1.0
100
AcDbArc
 50
0.0
 51
90.0
  0
LINE
  5
81
330
1F
100
AcDbEntity
  8
0
  6
Continuous
 62
     7
370
    25
100
AcDbLine
 10
7023.0188053361
 20
5524.0422092625
 30
0.0
 11
5525.0188053361
 21
5524.0422092625
 31
0.0
  0
LINE
  5
82
330
1F
100
AcDbEntity
  8
0
  6
Continuous
 62
     7
370
    25
100
AcDbLine
 10
6791.962969066
 20
5131.8090076298
 30
0.0
 11
6794.942902846
 21
5128.7890747386
 31
0.0
  0
LINE
  5
83
330
1F
100
AcDbEntity
  8
0
  6
Continuous
 62
     7
370
    25
100
AcDbLine
 10
6859.9414584497
 20
5128.3557510346
 30
0.0
 11
6862.9613913408
 21
5131.3356848146
 31
0.0
  0
LINE
  5
84
330
1F
100
AcDbEntity
  8
0
  6
Continuous
 62
     7
370
    25
100
AcDbLine
 10
6862.9613913408
 20
5131.3356848146
 30
0.0
 11
6862.9747243779
 21
5133.3356403716
 31
0.0
  0
LINE
  5
85
330
1F
100
AcDbEntity
  8
0
  6
Continuous
 62
     7
370
    25
100
AcDbLine
 10
6791.9763021031
 20
5133.8089631868
 30
0.0
 11
6791.962969066
 21
5131.8090076298
 31
0.0
  0
LINE
  5
86
330
1F
100
AcDbEntity
  8
0
  6
Continuous
 62
     7
370
    25
100
AcDbLine
 10
6859.904125946
 20
5122.7558754749
 30
0.0
 11
6859.9414584497
 21
5128.3557510346
 31
0.0
  0
LINE
  5
87
330
1F
100
AcDbEntity
  8
0
  6
Continuous
 62
     7
370
    25
100
AcDbLine
 10
6794.942902846
 20
5128.7890747386
 30
0.0
 11
6794.9055703423
 21
5123.1891991789
 31
0.0
  0
LINE
  5
88
330
1F
100
AcDbEntity
  8
0
  6
Continuous
 62
     7
370
    25
100
AcDbLine
 10
6797.069522255
 20
5072.7736528453
 30
0.0
 11
6796.9495249216
 21
5054.774052832
 31
0.0
  0
LINE
  5
89
330
1F
100
AcDbEntity
  8
0
  6
Continuous
 62
     7
370
    25
100
AcDbLine
 10
6856.9481916327
 20
5054.3740617206
 30
0.0
 11
6857.0681889661
 21
5072.3736617339
 31
0.0
  0
LINE
  5
8A
330
1F
100
AcDbEntity
  8
0
  6
Continuous
 62
     7
370
    25
100
AcDbLine
 10
6853.2109413484
 20
5093.7998522683
 30
0.0
 11
6853.4042703856
 21
5122.7992078453
 31
0.0
  0
LINE
  5
8B
330
1F
100
AcDbEntity
  8
0
  6
Continuous
 62
     7
370
    25
100
AcDbLine
 10
6801.4054259026
 20
5123.1458668085
 30
0.0
 11
6801.2120968655
 21
5094.1465112315
 31
0.0
  0
LINE
  5
8C
330
1F
100
AcDbEntity
  8
0
  6
Continuous
 62
     7
370
    25
100
AcDbLine
 10
6801.2120968655
 20
5094.1465112315
 30
0.0
 11
6805.1386762758
 21
5083.1200895937
 31
0.0
  0
LINE
  5
8D
330
1F
100
AcDbEntity
  8
0
  6
Continuous
 62
     7
370
    25
100
AcDbLine
 10
6849.1376985306
 20
5082.8267627787
 30
0.0
 11
6853.2109413484
 21
5093.7998522683
 31
0.0
  0
ARC
  5
8E
330
1F
100
AcDbEntity
  8
0
  6
Continuous
 62
     7
370
    25
100
AcDbCircle
 10
6826.2755399062
 20
4953.5763016459
 30
0.0
 40
25.00000000000058
100
AcDbArc
 50
285.4724562299
 51
359.6180337953
  0
ARC
  5
8F
330
1F
100
AcDbEntity
  8
0
  6
Continuous
 62
     7
370
    25
100
AcDbCircle
 10
6826.2755399062
 20
4953.5763016459
 30
0.0
 40
24.99999999999913
100
AcDbArc
 50
179.6180337953
 51
253.7911740108
  0
LINE
  5
90
330
1F
100
AcDbEntity
  8
0
  6
Continuous
 62
     7
370
    25
100
AcDbLine
 10
6851.2749843692
 20
4953.4096386828
 30
0.0
 11
6851.9483027401
 21
5054.4073943132
 31
0.0
  0
LINE
  5
91
330
1F
100
AcDbEntity
  8
0
  6
Continuous
 62
     7
370
    25
100
AcDbLine
 10
6801.9494138142
 20
5054.7407202393
 30
0.0
 11
6801.2760954433
 21
4953.742964609
 31
0.0
  0
LINE
  5
92
330
1F
100
AcDbEntity
  8
0
  6
Continuous
 62
     7
370
    25
100
AcDbLine
 10
6849.0683667379
 20
5072.4269938821
 30
0.0
 11
6849.1376985306
 21
5082.8267627787
 31
0.0
  0
LINE
  5
93
330
1F
100
AcDbEntity
  8
0
  6
Continuous
 62
     7
370
    25
100
AcDbLine
 10
6805.1386762758
 20
5083.1200895937
 30
0.0
 11
6805.0693444831
 21
5072.7203206971
 31
0.0
  0
LINE
  5
94
330
1F
100
AcDbEntity
  8
0
  6
Continuous
 62
     7
370
    25
100
AcDbLine
 10
6858.4875907
 20
4910.2755885855
 30
0.0
 11
6858.5875884779
 21
4925.2752552632
 31
0.0
  0
LINE
  5
95
330
1F
100
AcDbEntity
  8
0
  6
Continuous
 62
     7
370
    25
100
AcDbLine
 10
6793.5890328742
 20
4925.7085789673
 30
0.0
 11
6793.4890350963
 21
4910.7089122895
 31
0.0
  0
ARC
  5
96
330
1F
100
AcDbEntity
  8
0
  6
Continuous
 62
     7
370
    25
100
AcDbCircle
 10
6826.475641786
 20
4983.591583612
 30
0.0
 40
80.00000000000051
100
AcDbArc
 50
245.6485514775
 51
293.587516113
  0
LINE
  5
97
330
1F
100
AcDbEntity
  8
0
  6
Continuous
 62
     7
370
    25
100
AcDbLine
 10
6854.0876884746
 20
4925.3052545966
 30
0.0
 11
6854.8482382978
 21
5039.3877280798
 31
0.0
  0
LINE
  5
98
330
1F
100
AcDbEntity
  8
0
  6
Continuous
 62
     7
370
    25
100
AcDbLine
 10
6798.8494827007
 20
5039.7610531171
 30
0.0
 11
6798.0889328775
 21
4925.6785796339
 31
0.0
  0
LINE
  5
99
330
1F
100
AcDbEntity
  8
0
  6
Continuous
 62
     7
370
    25
100
AcDbLine
 10
7023.0188053361
 20
5387.3595976004
 30
0.0
 11
7023.0188053361
 21
5388.3595976004
 31
0.0
  0
LINE
  5
9A
330
1F
100
AcDbEntity
  8
0
  6
Continuous
 62
     7
370
    25
100
AcDbLine
 10
7024.0188053361
 20
5388.3595976004
 30
0.0
 11
7023.0188053361
 21
5388.3595976004
 31
0.0
  0
ARC
  5
9B
330
1F
100
AcDbEntity
  8
0
  6
Continuous
 62
     7
370
    25
100
AcDbCircle
 10
7023.0188053361
 20
5388.3595976004
 30
0.0
 40
1.000000000000909
100
AcDbArc
 50
270.0
 51
0.0
  0
LINE
  5
9C
330
1F
100
AcDbEntity
  8
0
  6
Continuous
 62
     7
370
    25
100
AcDbLine
 10
5524.0188053361
 20
5388.3595976004
 30
0.0
 11
5524.0188053361
 21
5413.2620131652
 31
0.0
  0
LINE
  5
9D
330
1F
100
AcDbEntity
  8
0
  6
Continuous
 62
     7
370
    25
100
AcDbLine
 10
5525.0188053361
 20
5413.2620131652
 30
0.0
 11
5524.0188053361
 21
5413.2620131652
 31
0.0
  0
LINE
  5
9E
330
1F
100
AcDbEntity
  8
0
  6
Continuous
 62
     7
370
    25
100
AcDbLine
 10
5525.0188053361
 20
5413.2620131652
 30
0.0
 11
5525.0188053361
 21
5388.3595976004
 31
0.0
  0
LINE
  5
9F
330
1F
100
AcDbEntity
  8
0
  6
Continuous
 62
     7
370
    25
100
AcDbLine
 10
5524.0188053361
 20
5388.3595976004
 30
0.0
 11
5525.0188053361
 21
5388.3595976004
 31
0.0
  0
LINE
  5
A0
330
1F
100
AcDbEntity
  8
0
  6
Continuous
 62
     7
370
    25
100
AcDbLine
 10
7023.0188053361
 20
5413.2620131652
 30
0.0
 11
5525.0188053361
 21
5413.2620131652
 31
0.0
  0
LINE
  5
A1
330
1F
100
AcDbEntity
  8
0
  6
Continuous
 62
     7
370
    25
100
AcDbLine
 10
5525.0188053361
 20
5413.2620131652
 30
0.0
 11
5525.0188053361
 21
5414.2620131652
 31
0.0
  0
LINE
  5
A2
330
1F
100
AcDbEntity
  8
0
  6
Continuous
 62
     7
370
    25
100
AcDbLine
 10
5525.0188053361
 20
5414.2620131652
 30
0.0
 11
7023.0188053361
 21
5414.2620131652
 31
0.0
  0
LINE
  5
A3
330
1F
100
AcDbEntity
  8
0
  6
Continuous
 62
     7
370
    25
100
AcDbLine
 10
7023.0188053361
 20
5413.2620131652
 30
0.0
 11
7023.0188053361
 21
5414.2620131652
 31
0.0
  0
ARC
  5
A4
330
1F
100
AcDbEntity
  8
0
  6
Continuous
 62
     7
370
    25
100
AcDbCircle
 10
7023.0188053361
 20
5413.2620131652
 30
0.0
 40
0.9999999999990905
100
AcDbArc
 50
0.0
 51
90.0
  0
LINE
  5
A5
330
1F
100
AcDbEntity
  8
0
  6
Continuous
 62
     7
370
    25
100
AcDbLine
 10
7023.0188053361
 20
5413.2620131652
 30
0.0
 11
7024.0188053361
 21
5413.2620131652
 31
0.0
  0
LINE
  5
A6
330
1F
100
AcDbEntity
  8
0
  6
Continuous
 62
     7
370
    25
100
AcDbLine
 10
7023.0188053361
 20
5387.3595976004
 30
0.0
 11
5525.0188053361
 21
5387.3595976004
 31
0.0
  0
LINE
  5
A7
330
1F
100
AcDbEntity
  8
0
  6
Continuous
 62
     7
370
    25
100
AcDbLine
 10
5525.0188053361
 20
5387.3595976004
 30
0.0
 11
5525.0188053361
 21
5388.3595976004
 31
0.0
  0
LINE
  5
A8
330
1F
100
AcDbEntity
  8
0
  6
Continuous
 62
     7
370
    25
100
AcDbLine
 10
5525.0188053361
 20
5388.3595976004
 30
0.0
 11
7023.0188053361
 21
5388.3595976004
 31
0.0
  0
LINE
  5
A9
330
1F
100
AcDbEntity
  8
0
  6
Continuous
 62
     7
370
    25
100
AcDbLine
 10
7023.0188053361
 20
5388.3595976004
 30
0.0
 11
7023.0188053361
 21
5413.2620131652
 31
0.0
  0
LINE
  5
AA
330
1F
100
AcDbEntity
  8
0
  6
Continuous
 62
     7
370
    25
100
AcDbLine
 10
7024.0188053361
 20
5413.2620131652
 30
0.0
 11
7024.0188053361
 21
5388.3595976004
 31
0.0
  0
ARC
  5
AB
330
1F
100
AcDbEntity
  8
0
  6
Continuous
 62
     7
370
    25
100
AcDbCircle
 10
5525.0188053361
 20
5388.3595976004
 30
0.0
 40
1.000000000000909
100
AcDbArc
 50
180.0
 51
270.0
  0
ARC
  5
AC
330
1F
100
AcDbEntity
  8
0
  6
Continuous
 62
     7
370
    25
100
AcDbCircle
 10
5525.0188053361
 20
5413.2620131652
 30
0.0
 40
1.0
100
AcDbArc
 50
90.0
 51
180.0
  0
LINE
  5
AD
330
1F
100
AcDbEntity
  8
0
  6
Continuous
 62
     7
370
    25
100
AcDbLine
 10
5562.0188053361
 20
5141.9953464986
 30
0.0
 11
5564.0188053361
 21
5141.9953464986
 31
0.0
  0
LINE
  5
AE
330
1F
100
AcDbEntity
  8
0
  6
Continuous
 62
     7
370
    25
100
AcDbLine
 10
6986.0188053361
 20
5387.3595976004
 30
0.0
 11
6986.0188053361
 21
5132.5286798319
 31
0.0
  0
LINE
  5
AF
330
1F
100
AcDbEntity
  8
0
  6
Continuous
 62
     7
370
    25
100
AcDbLine
 10
6986.0188053361
 20
5132.5286798319
 30
0.0
 11
6984.0188053361
 21
5132.5286798319
 31
0.0
  0
LINE
  5
B0
330
1F
100
AcDbEntity
  8
0
  6
Continuous
 62
     7
370
    25
100
AcDbLine
 10
5564.0188053361
 20
5141.9953464986
 30
0.0
 11
6984.0188053361
 21
5132.5286798319
 31
0.0
  0
LINE
  5
B1
330
1F
100
AcDbEntity
  8
0
  6
Continuous
 62
     7
370
    25
100
AcDbLine
 10
5562.0188053361
 20
5141.9953464986
 30
0.0
 11
5562.0188053361
 21
5387.3595976004
 31
0.0
  0
LINE
  5
B2
330
1F
100
AcDbEntity
  8
0
  6
Continuous
 62
     7
370
    25
100
AcDbLine
 10
5525.0188053361
 20
5414.2620131652
 30
0.0
 11
5525.0188053361
 21
5415.2620131652
 31
0.0
  0
LINE
  5
B3
330
1F
100
AcDbEntity
  8
0
  6
Continuous
 62
     7
370
    25
100
AcDbLine
 10
5525.0188053361
 20
5415.2620131652
 30
0.0
 11
5524.0188053361
 21
5415.2620131652
 31
0.0
  0
LINE
  5
B4
330
1F
100
AcDbEntity
  8
0
  6
Continuous
 62
     7
370
    25
100
AcDbLine
 10
5524.0188053361
 20
5415.2620131652
 30
0.0
 11
5524.0188053361
 21
5413.2620131652
 31
0.0
  0
LINE
  5
B5
330
1F
100
AcDbEntity
  8
0
  6
Continuous
 62
     7
370
    25
100
AcDbLine
 10
5525.0188053361
 20
5415.2620131652
 30
0.0
 11
5563.0188053361
 21
5415.2620131652
 31
0.0
  0
LINE
  5
B6
330
1F
100
AcDbEntity
  8
0
  6
Continuous
 62
     7
370
    25
100
AcDbLine
 10
5563.0188053361
 20
5414.2620131652
 30
0.0
 11
5563.0188053361
 21
5415.2620131652
 31
0.0
  0
LINE
  5
B7
330
1F
100
AcDbEntity
  8
0
  6
Continuous
 62
     7
370
    25
100
AcDbLine
 10
6985.0188053361
 20
5415.2620131652
 30
0.0
 11
7023.0188053361
 21
5415.2620131652
 31
0.0
  0
LINE
  5
B8
330
1F
100
AcDbEntity
  8
0
  6
Continuous
 62
     7
370
    25
100
AcDbLine
 10
7023.0188053361
 20
5415.2620131652
 30
0.0
 11
7023.0188053361
 21
5414.2620131652
 31
0.0
  0
LINE
  5
B9
330
1F
100
AcDbEntity
  8
0
  6
Continuous
 62
     7
370
    25
100
AcDbLine
 10
6985.0188053361
 20
5415.2620131652
 30
0.0
 11
6985.0188053361
 21
5414.2620131652
 31
0.0
  0
LINE
  5
BA
330
1F
100
AcDbEntity
  8
0
  6
Continuous
 62
     7
370
    25
100
AcDbLine
 10
7024.0188053361
 20
5415.2620131652
 30
0.0
 11
7023.0188053361
 21
5415.2620131652
 31
0.0
  0
LINE
  5
BB
330
1F
100
AcDbEntity
  8
0
  6
Continuous
 62
     7
370
    25
100
AcDbLine
 10
7024.0188053361
 20
5413.2620131652
 30
0.0
 11
7024.0188053361
 21
5415.2620131652
 31
0.0
  0
LINE
  5
BC
330
1F
100
AcDbEntity
  8
0
  6
Continuous
 62
     7
370
    25
100
AcDbLine
 10
5525.0188053361
 20
5387.3595976004
 30
0.0
 11
5525.0188053361
 21
5142.2553464986
 31
0.0
  0
LINE
  5
BD
330
1F
100
AcDbEntity
  8
0
  6
Continuous
 62
     7
370
    25
100
AcDbLine
 10
5525.0188053361
 20
5142.2553464986
 30
0.0
 11
5562.0188053361
 21
5142.0086798319
 31
0.0
  0
LINE
  5
BE
330
1F
100
AcDbEntity
  8
0
  6
Continuous
 62
     7
370
    25
100
AcDbLine
 10
5525.0188053361
 20
5513.4422092625
 30
0.0
 11
5524.0188053361
 21
5513.4422092625
 31
0.0
  0
ARC
  5
BF
330
1F
100
AcDbEntity
  8
0
  6
Continuous
 62
     7
370
    25
100
AcDbCircle
 10
5525.0091899515
 20
5513.4324034558
 30
0.0
 40
0.9904331578856096
100
AcDbArc
 50
89.4437488216
 51
179.4327325207
  0
LINE
  5
C0
330
1F
100
AcDbEntity
  8
0
  6
Continuous
 62
     7
370
    25
100
AcDbLine
 10
5525.0188053361
 20
5513.4422092625
 30
0.0
 11
5525.0188053361
 21
5514.4227899382
 31
0.0
  0
LINE
  5
C1
330
1F
100
AcDbEntity
  8
0
  6
Continuous
 62
     7
370
    25
100
AcDbLine
 10
5525.0188053361
 20
5513.4422092625
 30
0.0
 11
5525.0188053361
 21
5415.2620131652
 31
0.0
  0
LINE
  5
C2
330
1F
100
AcDbEntity
  8
0
  6
Continuous
 62
     7
370
    25
100
AcDbLine
 10
5524.0188053361
 20
5415.2620131652
 30
0.0
 11
5524.0188053361
 21
5513.4422092625
 31
0.0
  0
LINE
  5
C3
330
1F
100
AcDbEntity
  8
0
  6
Continuous
 62
     7
370
    25
100
AcDbLine
 10
7023.0188053361
 20
5513.4422092625
 30
0.0
 11
5525.0188053361
 21
5513.4422092625
 31
0.0
  0
LINE
  5
C4
330
1F
100
AcDbEntity
  8
0
  6
Continuous
 62
     7
370
    25
100
AcDbLine
 10
5525.0188053361
 20
5514.4227899382
 30
0.0
 11
7023.0188053361
 21
5514.4227899382
 31
0.0
  0
LINE
  5
C5
330
1F
100
AcDbEntity
  8
0
  6
Continuous
 62
     7
370
    25
100
AcDbLine
 10
7023.0188053361
 20
5513.4422092625
 30
0.0
 11
7023.0188053361
 21
5514.4227899382
 31
0.0
  0
LINE
  5
C6
330
1F
100
AcDbEntity
  8
0
  6
Continuous
 62
     7
370
    25
100
AcDbLine
 10
7023.0188053361
 20
5415.2620131652
 30
0.0
 11
7023.0188053361
 21
5513.4422092625
 31
0.0
  0
LINE
  5
C7
330
1F
100
AcDbEntity
  8
0
  6
Continuous
 62
     7
370
    25
100
AcDbLine
 10
5525.0188053361
 20
5142.2553464986
 30
0.0
 11
5524.0188053361
 21
5142.2620131652
 31
0.0
  0
LINE
  5
C8
330
1F
100
AcDbEntity
  8
0
  6
Continuous
 62
     7
370
    25
100
AcDbLine
 10
5524.0188053361
 20
5142.2620131652
 30
0.0
 11
5524.0188053361
 21
5388.3595976004
 31
0.0
  0
ARC
  5
C9
330
1F
100
AcDbEntity
  8
0
  6
Continuous
 62
     7
370
    25
100
AcDbCircle
 10
7023.0284207207
 20
5513.4324034558
 30
0.0
 40
0.9904331578844503
100
AcDbArc
 50
0.5672674792
 51
90.5562511784
  0
LINE
  5
CA
330
1F
100
AcDbEntity
  8
0
  6
Continuous
 62
     7
370
    25
100
AcDbLine
 10
7024.0188053361
 20
5513.4422092625
 30
0.0
 11
7023.0188053361
 21
5513.4422092625
 31
0.0
  0
LINE
  5
CB
330
1F
100
AcDbEntity
  8
0
  6
Continuous
 62
     7
370
    25
100
AcDbLine
 10
7024.0188053361
 20
5513.4422092625
 30
0.0
 11
7024.0188053361
 21
5415.2620131652
 31
0.0
  0
LINE
  5
CC
330
1F
100
AcDbEntity
  8
0
  6
Continuous
 62
     7
370
    25
100
AcDbLine
 10
7022.0188053361
 20
5132.2753464986
 30
0.0
 11
7022.0188053361
 21
5132.2620131652
 31
0.0
  0
LINE
  5
CD
330
1F
100
AcDbEntity
  8
0
  6
Continuous
 62
     7
370
    25
100
AcDbLine
 10
7023.0188053361
 20
5132.2620131652
 30
0.0
 11
7023.0188053361
 21
5387.3595976004
 31
0.0
  0
LINE
  5
CE
330
1F
100
AcDbEntity
  8
0
  6
Continuous
 62
     7
370
    25
100
AcDbLine
 10
7022.0188053361
 20
5132.2620131652
 30
0.0
 11
7023.0188053361
 21
5132.2620131652
 31
0.0
  0
LINE
  5
CF
330
1F
100
AcDbEntity
  8
0
  6
Continuous
 62
     7
370
    25
100
AcDbLine
 10
7022.0188053361
 20
5132.2753464986
 30
0.0
 11
6984.0188053361
 21
5132.5286798319
 31
0.0
  0
LINE
  5
D0
330
1F
100
AcDbEntity
  8
0
  6
Continuous
 62
     7
370
    25
100
AcDbLine
 10
7024.0188053361
 20
5132.2620131652
 30
0.0
 11
7023.0188053361
 21
5132.2620131652
 31
0.0
  0
LINE
  5
D1
330
1F
100
AcDbEntity
  8
0
  6
Continuous
 62
     7
370
    25
100
AcDbLine
 10
7024.0188053361
 20
5388.3595976004
 30
0.0
 11
7024.0188053361
 21
5132.2620131652
 31
0.0
  0
LINE
  5
D2
330
1F
100
AcDbEntity
  8
0
  6
Continuous
 62
     7
370
    25
100
AcDbLine
 10
5525.0188053361
 20
5524.0227899382
 30
0.0
 11
5525.0188053361
 21
5514.4227899382
 31
0.0
  0
ARC
  5
D3
330
1F
100
AcDbEntity
  8
0
  6
Continuous
 62
     7
370
    25
100
AcDbCircle
 10
5525.0091899515
 20
5523.0324034558
 30
0.0
 40
0.9904331578835318
100
AcDbArc
 50
89.4437488214
 51
179.4327325209
  0
LINE
  5
D4
330
1F
100
AcDbEntity
  8
0
  6
Continuous
 62
     7
370
    25
100
AcDbLine
 10
5524.0188053361
 20
5513.4422092625
 30
0.0
 11
5524.0188053361
 21
5523.0422092625
 31
0.0
  0
LINE
  5
D5
330
1F
100
AcDbEntity
  8
0
  6
Continuous
 62
     7
370
    25
100
AcDbLine
 10
7023.0188053361
 20
5524.0227899382
 30
0.0
 11
5525.0188053361
 21
5524.0227899382
 31
0.0
  0
LINE
  5
D6
330
1F
100
AcDbEntity
  8
0
  6
Continuous
 62
     7
370
    25
100
AcDbLine
 10
7023.0188053361
 20
5514.4227899382
 30
0.0
 11
7023.0188053361
 21
5524.0227899382
 31
0.0
  0
ARC
  5
D7
330
1F
100
AcDbEntity
  8
0
  6
Continuous
 62
     7
370
    25
100
AcDbCircle
 10
7023.0284207207
 20
5523.0324034558
 30
0.0
 40
0.9904331578810976
100
AcDbArc
 50
0.567267479
 51
90.5562511787
  0
LINE
  5
D8
330
1F
100
AcDbEntity
  8
0
  6
Continuous
 62
     7
370
    25
100
AcDbLine
 10
7024.0188053361
 20
5523.0422092625
 30
0.0
 11
7024.0188053361
 21
5513.4422092625
 31
0.0
  0
LINE
  5
D9
330
1F
100
AcDbEntity
  8
0
  6
Continuous
 62
     7
370
    25
100
AcDbLine
 10
6827.4621802034
 20
5131.5723462222
 30
0.0
 11
6791.962969066
 21
5131.8090076298
 31
0.0
  0
LINE
  5
DA
330
1F
100
AcDbEntity
  8
0
  6
Continuous
 62
     7
370
    25
100
AcDbLine
 10
6862.9613913408
 20
5131.3356848146
 30
0.0
 11
6827.4621802034
 21
5131.5723462222
 31
0.0
  0
LINE
  5
DB
330
1F
100
AcDbEntity
  8
0
  6
Continuous
 62
     7
370
    25
100
AcDbLine
 10
6827.4421806479
 20
5128.5724128866
 30
0.0
 11
6794.942902846
 21
5128.7890747386
 31
0.0
  0
LINE
  5
DC
330
1F
100
AcDbEntity
  8
0
  6
Continuous
 62
     7
370
    25
100
AcDbLine
 10
6859.9414584497
 20
5128.3557510346
 30
0.0
 11
6827.4421806479
 21
5128.5724128866
 31
0.0
  0
LINE
  5
DD
330
1F
100
AcDbEntity
  8
0
  6
Continuous
 62
     7
370
    25
100
AcDbLine
 10
6827.4048481441
 20
5122.9725373269
 30
0.0
 11
6794.9055703423
 21
5123.1891991789
 31
0.0
  0
LINE
  5
DE
330
1F
100
AcDbEntity
  8
0
  6
Continuous
 62
     7
370
    25
100
AcDbLine
 10
6859.904125946
 20
5122.7558754749
 30
0.0
 11
6827.4048481441
 21
5122.9725373269
 31
0.0
  0
LINE
  5
DF
330
1F
100
AcDbEntity
  8
0
  6
Continuous
 62
     7
370
    25
100
AcDbLine
 10
6797.069522255
 20
5072.7736528453
 30
0.0
 11
6857.0681889661
 21
5072.3736617339
 31
0.0
  0
LINE
  5
E0
330
1F
100
AcDbEntity
  8
0
  6
Continuous
 62
     7
370
    25
100
AcDbLine
 10
6796.9495249216
 20
5054.774052832
 30
0.0
 11
6856.9481916327
 21
5054.3740617206
 31
0.0
  0
LINE
  5
E1
330
1F
100
AcDbEntity
  8
0
  6
Continuous
 62
     7
370
    25
100
AcDbLine
 10
6827.2115191069
 20
5093.9731817499
 30
0.0
 11
6801.2120968655
 21
5094.1465112315
 31
0.0
  0
LINE
  5
E2
330
1F
100
AcDbEntity
  8
0
  6
Continuous
 62
     7
370
    25
100
AcDbLine
 10
6853.2109413484
 20
5093.7998522683
 30
0.0
 11
6827.2115191069
 21
5093.9731817499
 31
0.0
  0
LINE
  5
E3
330
1F
100
AcDbEntity
  8
0
  6
Continuous
 62
     7
370
    25
100
AcDbLine
 10
6827.1381874032
 20
5082.9734261862
 30
0.0
 11
6805.1386762758
 21
5083.1200895937
 31
0.0
  0
LINE
  5
E4
330
1F
100
AcDbEntity
  8
0
  6
Continuous
 62
     7
370
    25
100
AcDbLine
 10
6849.1376985306
 20
5082.8267627787
 30
0.0
 11
6827.1381874032
 21
5082.9734261862
 31
0.0
  0
SPLINE
  5
E5
330
1F
100
AcDbEntity
  8
0
  6
Continuous
 62
     7
370
    25
100
AcDbSpline
210
0.0
220
0.0
230
1.0
 70
     8
 71
     3
 72
    12
 73
     8
 74
     0
 42
0.000000001
 43
0.00000001
 40
0.0
 40
0.0
 40
0.0
 40
0.0
 40
0.1821415231939918
 40
0.447247125708415
 40
0.6771288461122024
 40
0.9139212708164289
 40
1.0
 40
1.0
 40
1.0
 40
1.0
 10
6819.308861253176
 20
4929.621175962286
 30
0.0
 10
6820.10288202476
 20
4929.394911730821
 30
0.0
 10
6822.052593993873
 20
4928.83932163034
 30
0.0
 10
6825.216963884616
 20
4928.541464769068
 30
0.0
 10
6828.619671947918
 20
4928.642469731572
 30
0.0
 10
6831.17620246717
 20
4928.982093440341
 30
0.0
 10
6832.562794320123
 20
4929.413007274658
 30
0.0
 10
6832.932465203266
 20
4929.527890610624
 30
0.0
  0
LINE
  5
E6
330
1F
100
AcDbEntity
  8
0
  6
Continuous
 62
     7
370
    25
100
AcDbLine
 10
6825.9883128982
 20
4910.4922504375
 30
0.0
 11
6793.4890350963
 21
4910.7089122895
 31
0.0
  0
LINE
  5
E7
330
1F
100
AcDbEntity
  8
0
  6
Continuous
 62
     7
370
    25
100
AcDbLine
 10
6858.4875907
 20
4910.2755885855
 30
0.0
 11
6825.9883128982
 21
4910.4922504375
 31
0.0
  0
LINE
  5
E8
330
1F
100
AcDbEntity
  8
0
  6
Continuous
 62
     7
370
    25
100
AcDbLine
 10
6826.088310676
 20
4925.4919171153
 30
0.0
 11
6793.5890328742
 21
4925.7085789673
 31
0.0
  0
LINE
  5
E9
330
1F
100
AcDbEntity
  8
0
  6
Continuous
 62
     7
370
    25
100
AcDbLine
 10
6858.5875884779
 20
4925.2752552632
 30
0.0
 11
6826.088310676
 21
4925.4919171153
 31
0.0
  0
ELLIPSE
  5
EA
330
1F
100
AcDbEntity
  8
0
  6
Continuous
 62
     7
370
    25
100
AcDbEllipse
 10
6826.8488604993
 20
5039.5743905985
 30
0.0
 11
27.99937779851734
 21
-0.186662518657613
 31
0.0
210
0.0
220
0.0
230
1.0
 40
0.8928571429
 41
0.0
 42
0.0752180938701604
  0
ELLIPSE
  5
EB
330
1F
100
AcDbEntity
  8
0
  6
Continuous
 62
     7
370
    25
100
AcDbEllipse
 10
6826.8488604993
 20
5039.5743905985
 30
0.0
 11
27.99937779851734
 21
-0.186662518657613
 31
0.0
210
0.0
220
0.0
230
1.0
 40
0.8928571429
 41
3.066374559719712
 42
3.141592653589881
  0
ELLIPSE
  5
EC
330
1F
100
AcDbEntity
  8
0
  6
Continuous
 62
     7
370
    25
100
AcDbEllipse
 10
6826.8739090047
 20
5043.3316664173
 30
0.0
 11
27.99937779851735
 21
-0.186662518655794
 31
0.0
210
0.0
220
0.0
230
1.0
 40
0.8928571429
 41
3.216810747459894
 42
3.544057385154726
  0
ELLIPSE
  5
ED
330
1F
100
AcDbEntity
  8
0
  6
Continuous
 62
     7
370
    25
100
AcDbEllipse
 10
6826.8739090047
 20
5043.3316664173
 30
0.0
 11
27.99937779851735
 21
-0.186662518655794
 31
0.0
210
0.0
220
0.0
230
1.0
 40
0.8928571429
 41
5.880720575614643
 42
6.207967213309445
  0
ARC
  5
EE
330
1F
100
AcDbEntity
  8
0
  6
Continuous
 62
     7
370
    25
100
AcDbCircle
 10
6800.441018974
 20
5041.741887564
 30
0.0
 40
1.503356138383677
100
AcDbArc
 50
175.3179936587
 51
183.9180739321
  0
ARC
  5
EF
330
1F
100
AcDbEntity
  8
0
  6
Continuous
 62
     7
370
    25
100
AcDbCircle
 10
6853.2832534407
 20
5041.3896060009
 30
0.0
 40
1.503356138074039
100
AcDbArc
 50
355.3179936575
 51
3.9180739328
  0
ARC
  5
F0
330
1F
100
AcDbEntity
  8
0
  6
Continuous
 62
     7
370
    25
100
AcDbCircle
 10
6826.8488604993
 20
5039.5743905985
 30
0.0
 40
28.0
100
AcDbArc
 50
152.8525332185
 51
175.3083544735
  0
ARC
  5
F1
330
1F
100
AcDbEntity
  8
0
  6
Continuous
 62
     7
370
    25
100
AcDbCircle
 10
6826.8488604993
 20
5039.5743905985
 30
0.0
 40
28.00000000000023
100
AcDbArc
 50
3.927713117
 51
26.383534372
  0
ARC
  5
F2
330
1F
100
AcDbEntity
  8
0
  6
Continuous
 62
     7
370
    25
100
AcDbCircle
 10
6826.8488604993
 20
5039.5743905985
 30
0.0
 40
28.00000000000091
100
AcDbArc
 50
175.3083544735
 51
179.6180337953
  0
ARC
  5
F3
330
1F
100
AcDbEntity
  8
0
  6
Continuous
 62
     7
370
    25
100
AcDbCircle
 10
6826.8488604993
 20
5039.5743905985
 30
0.0
 40
27.99999999999977
100
AcDbArc
 50
359.6180337953
 51
3.927713117
  0
ARC
  5
F4
330
1F
100
AcDbEntity
  8
0
  6
Continuous
 62
     7
370
    25
100
AcDbCircle
 10
6826.8488604993
 20
5039.5743905985
 30
0.0
 40
33.00000000000007
100
AcDbArc
 50
152.5823420059
 51
179.6180337953
  0
ARC
  5
F5
330
1F
100
AcDbEntity
  8
0
  6
Continuous
 62
     7
370
    25
100
AcDbCircle
 10
6826.8488604993
 20
5039.5743905985
 30
0.0
 40
33.00000000000021
100
AcDbArc
 50
327.665287395
 51
26.6537255847
  0
ARC
  5
F6
330
1F
100
AcDbEntity
  8
0
  6
Continuous
 62
     7
370
    25
100
AcDbCircle
 10
6826.8488604993
 20
5039.5743905985
 30
0.0
 40
33.00000000000037
100
AcDbArc
 50
179.6180337953
 51
211.5707801955
  0
ARC
  5
F7
330
1F
100
AcDbEntity
  8
0
  6
Continuous
 62
     8
370
    25
100
AcDbCircle
 10
5563.0188053361
 20
5413.2620131652
 30
0.0
 40
1.999999999999091
100
AcDbArc
 50
30.0
 51
90.0
  0
ARC
  5
F8
330
1F
100
AcDbEntity
  8
0
  6
Continuous
 62
     8
370
    25
100
AcDbCircle
 10
6985.0188053361
 20
5413.2620131652
 30
0.0
 40
1.999999999999091
100
AcDbArc
 50
90.0
 51
150.0
  0
LINE
  5
F9
330
1F
100
AcDbEntity
  8
0
  6
Continuous
 62
     8
370
    25
100
AcDbLine
 10
5525.0188053361
 20
5524.0227899382
 30
0.0
 11
5525.0188053361
 21
5524.0422092625
 31
0.0
  0
LINE
  5
FA
330
1F
100
AcDbEntity
  8
0
  6
Continuous
 62
     8
370
    25
100
AcDbLine
 10
7023.0188053361
 20
5524.0227899382
 30
0.0
 11
7023.0188053361
 21
5524.0422092625
 31
0.0
  0
LINE
  5
FB
330
1F
100
AcDbEntity
  8
0
  6
Continuous
 62
     8
370
    25
100
AcDbLine
 10
6851.2749843692
 20
4953.4096386828
 30
0.0
 11
6801.2760954433
 21
4953.742964609
 31
0.0
  0
SPLINE
  5
FC
330
1F
100
AcDbEntity
  8
0
  6
Continuous
 62
     8
370
    25
100
AcDbSpline
210
0.0
220
0.0
230
1.0
 70
     8
 71
     3
 72
    22
 73
    18
 74
     0
 42
0.000000001
 43
0.00000001
 40
0.0
 40
0.0
 40
0.0
 40
0.0
 40
0.0662074388415396
 40
0.1423970852043981
 40
0.2072674839358853
 40
0.2736193630047897
 40
0.3330229277733298
 40
0.3940133441540149
 40
0.4535035283566909
 40
0.5149681726561366
 40
0.5812632413563744
 40
0.6502913623957147
 40
0.7269344705863635
 40
0.8067774655418535
 40
0.8860645744327715
 40
0.967676964354376
 40
1.0
 40
1.0
 40
1.0
 40
1.0
 10
6846.335911050799
 20
4938.884426197927
 30
0.0
 10
6845.869764343171
 20
4937.874016912517
 30
0.0
 10
6844.867189200479
 20
4935.700857224972
 30
0.0
 10
6842.846210338082
 20
4932.938986299626
 30
0.0
 10
6840.425580138467
 20
4930.515004229423
 30
0.0
 10
6837.818097430229
 20
4928.650649835552
 30
0.0
 10
6834.942788268458
 20
4927.208030168727
 30
0.0
 10
6831.918521030925
 20
4926.213089728931
 30
0.0
 10
6828.678814863372
 20
4925.642318705362
 30
0.0
 10
6825.256798935712
 20
4925.528397669109
 30
0.0
 10
6821.691903507161
 20
4925.940848068342
 30
0.0
 10
6818.041937395743
 20
4926.969390636415
 30
0.0
 10
6814.522256421408
 20
4928.679090496844
 30
0.0
 10
6811.353362692623
 20
4931.062162913235
 30
0.0
 10
6808.7317225278
 20
4934.042465387751
 30
0.0
 10
6807.00177381175
 20
4936.735459995667
 30
0.0
 10
6806.306770118831
 20
4938.538304556301
 30
0.0
 10
6806.109600283126
 20
4939.049764523267
 30
0.0
  0
LINE
  5
FD
330
1F
100
AcDbEntity
  8
0
  6
Continuous
 62
     8
370
    25
100
AcDbLine
 10
6801.801436526
 20
5032.544127009
 30
0.0
 11
6801.0464469238
 21
5033.7114487642
 31
0.0
  0
LINE
  5
FE
330
1F
100
AcDbEntity
  8
0
  6
Continuous
 62
     8
370
    25
100
AcDbLine
 10
6852.5708115452
 20
5033.3679530001
 30
0.0
 11
6851.8011195241
 21
5032.3299119117
 31
0.0
  0
ARC
  5
FF
330
1F
100
AcDbEntity
  8
0
  6
Continuous
 62
     8
370
    25
100
AcDbCircle
 10
6849.8488389413
 20
5032.3166658359
 30
0.0
 40
2.917934125052138
100
AcDbArc
 50
21.1176844685
 51
47.6267561964
  0
ARC
  5
100
330
1F
100
AcDbEntity
  8
0
  6
Continuous
 62
     8
370
    25
100
AcDbCircle
 10
6803.7541610461
 20
5032.6239636885
 30
0.0
 40
2.917934125046269
100
AcDbArc
 50
131.6093113941
 51
158.1183831221
  0
ARC
  5
101
330
1F
100
AcDbEntity
  8
0
  6
Continuous
 62
     8
370
    25
100
AcDbCircle
 10
6852.0252970653
 20
5040.5638040577
 30
0.0
 40
2.844556619832951
100
AcDbArc
 50
14.3101242348
 51
93.029753673
  0
ARC
  5
102
330
1F
100
AcDbEntity
  8
0
  6
Continuous
 62
     8
370
    25
100
AcDbCircle
 10
6801.6878533324
 20
5040.8993870159
 30
0.0
 40
2.844556619832935
100
AcDbArc
 50
86.2063139175
 51
164.9259433557
  0
ARC
  5
103
330
1F
100
AcDbEntity
  8
0
  6
Continuous
 62
     8
370
    25
100
AcDbCircle
 10
6801.4553000339
 20
5041.170495156
 30
0.0
 40
2.606730429038892
100
AcDbArc
 50
80.7102832045
 51
164.5573302466
  0
ARC
  5
104
330
1F
100
AcDbEntity
  8
0
  6
Continuous
 62
     8
370
    25
100
AcDbCircle
 10
6852.2614443079
 20
5040.8317875275
 30
0.0
 40
2.606730429040273
100
AcDbArc
 50
14.678737344
 51
98.525784386
  0
LINE
  5
105
330
1F
100
AcDbEntity
  8
0
  6
Continuous
 62
     7
370
    25
100
AcDbLine
 10
7518.3908488374
 20
5131.5707684795
 30
0.0
 11
7521.3900599397
 21
5128.5716906724
 31
0.0
  0
LINE
  5
106
330
1F
100
AcDbEntity
  8
0
  6
Continuous
 62
     7
370
    25
100
AcDbLine
 10
7586.3900599397
 20
5128.5716906724
 30
0.0
 11
7589.3892710421
 21
5131.5707684795
 31
0.0
  0
LINE
  5
107
330
1F
100
AcDbEntity
  8
0
  6
Continuous
 62
     7
370
    25
100
AcDbLine
 10
7589.3900599397
 20
5131.5723462222
 30
0.0
 11
7589.3900599397
 21
5133.5723017792
 31
0.0
  0
LINE
  5
108
330
1F
100
AcDbEntity
  8
0
  6
Continuous
 62
     7
370
    25
100
AcDbLine
 10
7518.3900599397
 20
5133.5723017792
 30
0.0
 11
7518.3900599397
 21
5131.5723462222
 31
0.0
  0
ARC
  5
109
330
1F
100
AcDbEntity
  8
0
  6
Continuous
 62
     7
370
    25
100
AcDbCircle
 10
7523.8900599397
 20
4983.591583612
 30
0.0
 40
80.0000000000003
100
AcDbArc
 50
246.0333816585
 51
293.9666183415
  0
LINE
  5
10A
330
1F
100
AcDbEntity
  8
0
  6
Continuous
 62
     7
370
    25
100
AcDbLine
 10
7556.3900599397
 20
4910.4922504375
 30
0.0
 11
7556.3900599397
 21
4925.4919171153
 31
0.0
  0
LINE
  5
10B
330
1F
100
AcDbEntity
  8
0
  6
Continuous
 62
     7
370
    25
100
AcDbLine
 10
7491.3900599397
 20
4925.4919171153
 30
0.0
 11
7491.3900599397
 21
4910.4922504375
 31
0.0
  0
LINE
  5
10C
330
1F
100
AcDbEntity
  8
0
  6
Continuous
 62
     7
370
    25
100
AcDbLine
 10
7473.8900599397
 20
5006.5743905985
 30
0.0
 11
7493.8900599397
 21
5006.5743905985
 31
0.0
  0
LINE
  5
10D
330
1F
100
AcDbEntity
  8
0
  6
Continuous
 62
     7
370
    25
100
AcDbLine
 10
7493.8900599397
 20
5072.5743905985
 30
0.0
 11
7473.8900599397
 21
5072.5743905985
 31
0.0
  0
LINE
  5
10E
330
1F
100
AcDbEntity
  8
0
  6
Continuous
 62
     7
370
    25
100
AcDbLine
 10
7586.3900599397
 20
5122.9725373269
 30
0.0
 11
7586.3900599397
 21
5128.5724128866
 31
0.0
  0
LINE
  5
10F
330
1F
100
AcDbEntity
  8
0
  6
Continuous
 62
     7
370
    25
100
AcDbLine
 10
7521.3900599397
 20
5128.5724128866
 30
0.0
 11
7521.3900599397
 21
5122.9725373269
 31
0.0
  0
LINE
  5
110
330
1F
100
AcDbEntity
  8
0
  6
Continuous
 62
     7
370
    25
100
AcDbLine
 10
7523.8900599397
 20
5072.5736572896
 30
0.0
 11
7523.8900599397
 21
5054.5740572763
 31
0.0
  0
LINE
  5
111
330
1F
100
AcDbEntity
  8
0
  6
Continuous
 62
     7
370
    25
100
AcDbLine
 10
7583.8900599397
 20
5054.5740572763
 30
0.0
 11
7583.8900599397
 21
5072.5736572896
 31
0.0
  0
LINE
  5
112
330
1F
100
AcDbEntity
  8
0
  6
Continuous
 62
     7
370
    25
100
AcDbLine
 10
7551.8900599397
 20
4925.6019146709
 30
0.0
 11
7551.8900599397
 21
4925.6357996907
 31
0.0
  0
LINE
  5
113
330
1F
100
AcDbEntity
  8
0
  6
Continuous
 62
     7
370
    25
100
AcDbLine
 10
7495.8900599397
 20
5008.5750794644
 30
0.0
 11
7495.8900599397
 21
4925.6019146709
 31
0.0
  0
SPLINE
  5
114
330
1F
100
AcDbEntity
  8
0
  6
Continuous
 62
     7
370
    25
100
AcDbSpline
210
0.0
220
0.0
230
1.0
 70
     8
 71
     3
 72
    13
 73
     9
 74
     0
 42
0.000000001
 43
0.00000001
 40
0.0
 40
0.0
 40
0.0
 40
0.0
 40
0.0137004908267953
 40
0.2667390881506578
 40
0.5267469905905452
 40
0.7720683558454503
 40
0.9804369915653223
 40
1.0
 40
1.0
 40
1.0
 40
1.0
 10
7493.874148170633
 20
5011.401396534402
 30
0.0
 10
7493.890111141129
 20
5011.398215024399
 30
0.0
 10
7494.200899144851
 20
5011.33627322335
 30
0.0
 10
7494.741973187576
 20
5010.971522591965
 30
0.0
 10
7495.38549521189
 20
5010.332932811726
 30
0.0
 10
7495.750799115238
 20
5009.557134797142
 30
0.0
 10
7495.895013097527
 20
5009.000025916626
 30
0.0
 10
7495.881606056269
 20
5008.730025781394
 30
0.0
 10
7495.880455351364
 20
5008.70685210166
 30
0.0
  0
LINE
  5
115
330
1F
100
AcDbEntity
  8
0
  6
Continuous
 62
     7
370
    25
100
AcDbLine
 10
7502.6479747897
 20
5067.5743905985
 30
0.0
 11
7493.8900599397
 21
5067.5743905985
 31
0.0
  0
SPLINE
  5
116
330
1F
100
AcDbEntity
  8
0
  6
Continuous
 62
     7
370
    25
100
AcDbSpline
210
0.0
220
0.0
230
1.0
 70
     8
 71
     3
 72
    13
 73
     9
 74
     0
 42
0.000000001
 43
0.00000001
 40
0.0
 40
0.0
 40
0.0
 40
0.0
 40
0.1540547227028231
 40
0.266549819288277
 40
0.3844478845577105
 40
0.622336179398347
 40
0.9669654328285098
 40
1.0
 40
1.0
 40
1.0
 40
1.0
 10
7504.636006900128
 20
5066.824302300904
 30
0.0
 10
7504.609191686397
 20
5066.84736155831
 30
0.0
 10
7504.562795248503
 20
5066.887259334805
 30
0.0
 10
7504.423330781956
 20
5066.996319272924
 30
0.0
 10
7504.143630063035
 20
5067.1882734389
 30
0.0
 10
7503.604423419888
 20
5067.439002929661
 30
0.0
 10
7503.082865415045
 20
5067.602043014333
 30
0.0
 10
7502.762518582912
 20
5067.5639278657
 30
0.0
 10
7502.734497580193
 20
5067.560593902082
 30
0.0
  0
ARC
  5
117
330
1F
100
AcDbEntity
  8
0
  6
Continuous
 62
     7
370
    25
100
AcDbCircle
 10
7553.8900599397
 20
4953.5763016459
 30
0.0
 40
25.0
100
AcDbArc
 50
271.9619160205
 51
0.0
  0
LINE
  5
118
330
1F
100
AcDbEntity
  8
0
  6
Continuous
 62
     7
370
    25
100
AcDbLine
 10
7527.8901363402
 20
5093.9727615572
 30
0.0
 11
7531.8900599397
 21
5082.9732484121
 31
0.0
  0
LINE
  5
119
330
1F
100
AcDbEntity
  8
0
  6
Continuous
 62
     7
370
    25
100
AcDbLine
 10
7575.8900599397
 20
5082.9732484121
 30
0.0
 11
7579.8899835393
 21
5093.9727615572
 31
0.0
  0
LINE
  5
11A
330
1F
100
AcDbEntity
  8
0
  6
Continuous
 62
     7
370
    25
100
AcDbLine
 10
7579.8900599397
 20
5093.9731817499
 30
0.0
 11
7579.8900599397
 21
5122.9725373269
 31
0.0
  0
LINE
  5
11B
330
1F
100
AcDbEntity
  8
0
  6
Continuous
 62
     7
370
    25
100
AcDbLine
 10
7527.8900599397
 20
5122.9725373269
 30
0.0
 11
7527.8900599397
 21
5093.9731817499
 31
0.0
  0
LINE
  5
11C
330
1F
100
AcDbEntity
  8
0
  6
Continuous
 62
     7
370
    25
100
AcDbLine
 10
7578.8900599397
 20
4953.5763016459
 30
0.0
 11
7578.8900599397
 21
5054.5740572763
 31
0.0
  0
LINE
  5
11D
330
1F
100
AcDbEntity
  8
0
  6
Continuous
 62
     7
370
    25
100
AcDbLine
 10
7528.8900599397
 20
5054.5740572763
 30
0.0
 11
7528.8900599397
 21
5049.8168036789
 31
0.0
  0
SPLINE
  5
11E
330
1F
100
AcDbEntity
  8
0
  6
Continuous
 62
     7
370
    25
100
AcDbSpline
210
0.0
220
0.0
230
1.0
 70
     8
 71
     3
 72
    13
 73
     9
 74
     0
 42
0.000000001
 43
0.00000001
 40
0.0
 40
0.0
 40
0.0
 40
0.0
 40
0.1527648429748761
 40
0.346015219503252
 40
0.5501923555873888
 40
0.7584285676049171
 40
0.9324293033809448
 40
1.0
 40
1.0
 40
1.0
 40
1.0
 10
7551.917444838949
 20
4925.629987868067
 30
0.0
 10
7551.924752678719
 20
4925.861172219246
 30
0.0
 10
7551.94130507214
 20
4926.384809087924
 30
0.0
 10
7552.284380973487
 20
4927.160490846514
 30
0.0
 10
7552.865975812723
 20
4927.878677247872
 30
0.0
 10
7553.624616637726
 20
4928.352370643239
 30
0.0
 10
7554.281332023647
 20
4928.568572179399
 30
0.0
 10
7554.645408732557
 20
4928.570911271967
 30
0.0
 10
7554.747245761048
 20
4928.571565546823
 30
0.0
  0
SPLINE
  5
11F
330
1F
100
AcDbEntity
  8
0
  6
Continuous
 62
     7
370
    25
100
AcDbSpline
210
0.0
220
0.0
230
1.0
 70
     8
 71
     3
 72
    16
 73
    12
 74
     0
 42
0.000000001
 43
0.00000001
 40
0.0
 40
0.0
 40
0.0
 40
0.0
 40
0.1280169077942331
 40
0.2709610653488562
 40
0.419973860481153
 40
0.5664945240882371
 40
0.6898463727628831
 40
0.797250475879259
 40
0.8905677579231771
 40
0.9693710752930654
 40
1.0
 40
1.0
 40
1.0
 40
1.0
 10
7528.871625077317
 20
5049.753757619376
 30
0.0
 10
7528.852632804542
 20
5049.487812072233
 30
0.0
 10
7528.812433689025
 20
5048.924910733495
 30
0.0
 10
7528.419405401684
 20
5048.1265354256
 30
0.0
 10
7527.804389847088
 20
5047.444760828181
 30
0.0
 10
7527.040466282829
 20
5047.003933725594
 30
0.0
 10
7526.275869347259
 20
5046.813234846471
 30
0.0
 10
7525.598753608341
 20
5046.809636258273
 30
0.0
 10
7525.035763923014
 20
5046.926923632263
 30
0.0
 10
7524.637294691828
 20
5047.080057639702
 30
0.0
 10
7524.46285020931
 20
5047.18340136676
 30
0.0
 10
7524.414025047556
 20
5047.212326180646
 30
0.0
  0
LINE
  5
120
330
1F
100
AcDbEntity
  8
0
  6
Continuous
 62
     7
370
    25
100
AcDbLine
 10
7575.8900599397
 20
5072.7096281217
 30
0.0
 11
7575.8900599397
 21
5082.9734261862
 31
0.0
  0
LINE
  5
121
330
1F
100
AcDbEntity
  8
0
  6
Continuous
 62
     7
370
    25
100
AcDbLine
 10
7531.8900599397
 20
5082.9734261862
 30
0.0
 11
7531.8900599397
 21
5072.7096281217
 31
0.0
  0
LINE
  5
122
330
1F
100
AcDbEntity
  8
0
  6
Continuous
 62
     7
370
    25
100
AcDbLine
 10
7452.6021196202
 20
5415.2620131652
 30
0.0
 11
7452.6021196202
 21
5513.4422092625
 31
0.0
  0
ARC
  5
123
330
1F
100
AcDbEntity
  8
0
  6
Continuous
 62
     7
370
    25
100
AcDbCircle
 10
7454.6021196202
 20
5415.2620131652
 30
0.0
 40
1.999999999999091
100
AcDbArc
 50
180.0
 51
270.0
  0
LINE
  5
124
330
1F
100
AcDbEntity
  8
0
  6
Continuous
 62
     7
370
    25
100
AcDbLine
 10
7852.6021196202
 20
5413.2620131652
 30
0.0
 11
7454.6021196202
 21
5413.2620131652
 31
0.0
  0
LINE
  5
125
330
1F
100
AcDbEntity
  8
0
  6
Continuous
 62
     7
370
    25
100
AcDbLine
 10
7852.6021196202
 20
5388.3595976004
 30
0.0
 11
7852.6021196202
 21
5413.2620131652
 31
0.0
  0
LINE
  5
126
330
1F
100
AcDbEntity
  8
0
  6
Continuous
 62
     7
370
    25
100
AcDbLine
 10
7452.6021196202
 20
5388.3595976004
 30
0.0
 11
7852.6021196202
 21
5388.3595976004
 31
0.0
  0
LINE
  5
127
330
1F
100
AcDbEntity
  8
0
  6
Continuous
 62
     7
370
    25
100
AcDbLine
 10
7452.6021196202
 20
5142.2620131652
 30
0.0
 11
7452.6021196202
 21
5388.3595976004
 31
0.0
  0
LINE
  5
128
330
1F
100
AcDbEntity
  8
0
  6
Continuous
 62
     7
370
    25
100
AcDbLine
 10
7452.6021196202
 20
5142.2620131652
 30
0.0
 11
7451.6021196202
 21
5142.2620131652
 31
0.0
  0
LINE
  5
129
330
1F
100
AcDbEntity
  8
0
  6
Continuous
 62
     7
370
    25
100
AcDbLine
 10
7404.6021196202
 20
5523.0422092625
 30
0.0
 11
7404.6021196202
 21
5142.2620131652
 31
0.0
  0
LINE
  5
12A
330
1F
100
AcDbEntity
  8
0
  6
Continuous
 62
     7
370
    25
100
AcDbLine
 10
7452.6021196202
 20
5513.4422092625
 30
0.0
 11
7404.6021196202
 21
5523.0422092625
 31
0.0
  0
LINE
  5
12B
330
1F
100
AcDbEntity
  8
0
  6
Continuous
 62
     7
370
    25
100
AcDbLine
 10
7451.6021196202
 20
5142.2620131652
 30
0.0
 11
7404.6021196202
 21
5142.2620131652
 31
0.0
  0
LINE
  5
12C
330
1F
100
AcDbEntity
  8
0
  6
Continuous
 62
     7
370
    25
100
AcDbLine
 10
7660.3246694531
 20
5141.9953464986
 30
0.0
 11
7654.9151456436
 21
5132.5286798319
 31
0.0
  0
LINE
  5
12D
330
1F
100
AcDbEntity
  8
0
  6
Continuous
 62
     7
370
    25
100
AcDbLine
 10
7654.9151456436
 20
5132.5286798319
 30
0.0
 11
7589.3900599397
 21
5132.5286798319
 31
0.0
  0
LINE
  5
12E
330
1F
100
AcDbEntity
  8
0
  6
Continuous
 62
     7
370
    25
100
AcDbLine
 10
7518.3900599397
 20
5132.5286798319
 30
0.0
 11
7453.6021196202
 21
5132.5286798319
 31
0.0
  0
LINE
  5
12F
330
1F
100
AcDbEntity
  8
0
  6
Continuous
 62
     7
370
    25
100
AcDbLine
 10
7453.6021196202
 20
5132.2753464986
 30
0.0
 11
7453.6021196202
 21
5132.5286798319
 31
0.0
  0
LINE
  5
130
330
1F
100
AcDbEntity
  8
0
  6
Continuous
 62
     7
370
    25
100
AcDbLine
 10
7451.6021196202
 20
5132.2753464986
 30
0.0
 11
7453.6021196202
 21
5132.2753464986
 31
0.0
  0
LINE
  5
131
330
1F
100
AcDbEntity
  8
0
  6
Continuous
 62
     7
370
    25
100
AcDbLine
 10
7451.6021196202
 20
5142.2620131652
 30
0.0
 11
7451.6021196202
 21
5132.2753464986
 31
0.0
  0
ELLIPSE
  5
132
330
1F
100
AcDbEntity
  8
0
  6
Continuous
 62
     7
370
    25
100
AcDbEllipse
 10
7452.6021196202
 20
5142.2553464986
 30
0.0
 11
0.9999999999990905
 21
0.0
 31
0.0
210
0.0
220
0.0
230
1.0
 40
0.0066666667
 41
0.0
 42
1.570796326794897
  0
LINE
  5
133
330
1F
100
AcDbEntity
  8
0
  6
Continuous
 62
     7
370
    25
100
AcDbLine
 10
7453.6021196202
 20
5142.2553464986
 30
0.0
 11
7453.6021196202
 21
5142.0086798319
 31
0.0
  0
LINE
  5
134
330
1F
100
AcDbEntity
  8
0
  6
Continuous
 62
     7
370
    25
100
AcDbLine
 10
7404.7982357554
 20
5524.0227899382
 30
0.0
 11
7452.7982357554
 21
5514.4227899382
 31
0.0
  0
LINE
  5
135
330
1F
100
AcDbEntity
  8
0
  6
Continuous
 62
     7
370
    25
100
AcDbLine
 10
7452.7982357554
 20
5514.4227899382
 30
0.0
 11
7452.6021196202
 21
5513.4422092625
 31
0.0
  0
LINE
  5
136
330
1F
100
AcDbEntity
  8
0
  6
Continuous
 62
     7
370
    25
100
AcDbLine
 10
7404.7982357554
 20
5524.0227899382
 30
0.0
 11
7404.6021196202
 21
5523.0422092625
 31
0.0
  0
LINE
  5
137
330
1F
100
AcDbEntity
  8
0
  6
Continuous
 62
     7
370
    25
100
AcDbLine
 10
7403.6021196202
 20
5523.0422092625
 30
0.0
 11
7404.6021196202
 21
5523.0422092625
 31
0.0
  0
ARC
  5
138
330
1F
100
AcDbEntity
  8
0
  6
Continuous
 62
     7
370
    25
100
AcDbCircle
 10
7404.6021196202
 20
5523.0422092625
 30
0.0
 40
1.000000000000909
100
AcDbArc
 50
78.690067526
 51
180.0
  0
LINE
  5
139
330
1F
100
AcDbEntity
  8
0
  6
Continuous
 62
     7
370
    25
100
AcDbLine
 10
7403.6021196202
 20
5142.2620131652
 30
0.0
 11
7403.6021196202
 21
5523.0422092625
 31
0.0
  0
LINE
  5
13A
330
1F
100
AcDbEntity
  8
0
  6
Continuous
 62
     7
370
    25
100
AcDbLine
 10
7404.6021196202
 20
5142.2620131652
 30
0.0
 11
7403.6021196202
 21
5142.2620131652
 31
0.0
  0
LINE
  5
13B
330
1F
100
AcDbEntity
  8
0
  6
Continuous
 62
     7
370
    25
100
AcDbLine
 10
7453.6021196202
 20
5513.4422092625
 30
0.0
 11
7453.6021196202
 21
5415.2620131652
 31
0.0
  0
LINE
  5
13C
330
1F
100
AcDbEntity
  8
0
  6
Continuous
 62
     7
370
    25
100
AcDbLine
 10
7453.6021196202
 20
5415.2620131652
 30
0.0
 11
7452.6021196202
 21
5415.2620131652
 31
0.0
  0
LINE
  5
13D
330
1F
100
AcDbEntity
  8
0
  6
Continuous
 62
     7
370
    25
100
AcDbLine
 10
7453.6021196202
 20
5513.4422092625
 30
0.0
 11
7452.6021196202
 21
5513.4422092625
 31
0.0
  0
ARC
  5
13E
330
1F
100
AcDbEntity
  8
0
  6
Continuous
 62
     7
370
    25
100
AcDbCircle
 10
7454.6021196202
 20
5415.2620131652
 30
0.0
 40
1.0
100
AcDbArc
 50
180.0
 51
270.0
  0
LINE
  5
13F
330
1F
100
AcDbEntity
  8
0
  6
Continuous
 62
     7
370
    25
100
AcDbLine
 10
7454.6021196202
 20
5414.2620131652
 30
0.0
 11
7454.6021196202
 21
5413.2620131652
 31
0.0
  0
ARC
  5
140
330
1F
100
AcDbEntity
  8
0
  6
Continuous
 62
     7
370
    25
100
AcDbCircle
 10
7452.6021196202
 20
5513.4422092625
 30
0.0
 40
0.9999999999992881
100
AcDbArc
 50
0.0
 51
78.690067526
  0
LINE
  5
141
330
1F
100
AcDbEntity
  8
0
  6
Continuous
 62
     7
370
    25
100
AcDbLine
 10
7452.6021196202
 20
5388.3595976004
 30
0.0
 11
7453.6021196202
 21
5387.3595976004
 31
0.0
  0
LINE
  5
142
330
1F
100
AcDbEntity
  8
0
  6
Continuous
 62
     7
370
    25
100
AcDbLine
 10
7453.6021196202
 20
5387.3595976004
 30
0.0
 11
7453.6021196202
 21
5142.2553464986
 31
0.0
  0
LINE
  5
143
330
1F
100
AcDbEntity
  8
0
  6
Continuous
 62
     7
370
    25
100
AcDbLine
 10
7454.6021196202
 20
5414.2620131652
 30
0.0
 11
7852.6021196202
 21
5414.2620131652
 31
0.0
  0
LINE
  5
144
330
1F
100
AcDbEntity
  8
0
  6
Continuous
 62
     7
370
    25
100
AcDbLine
 10
7852.6021196202
 20
5414.2620131652
 30
0.0
 11
7852.6021196202
 21
5413.2620131652
 31
0.0
  0
LINE
  5
145
330
1F
100
AcDbEntity
  8
0
  6
Continuous
 62
     7
370
    25
100
AcDbLine
 10
7852.6021196202
 20
5388.3595976004
 30
0.0
 11
7852.6021196202
 21
5387.3595976004
 31
0.0
  0
LINE
  5
146
330
1F
100
AcDbEntity
  8
0
  6
Continuous
 62
     7
370
    25
100
AcDbLine
 10
7852.6021196202
 20
5387.3595976004
 30
0.0
 11
7453.6021196202
 21
5387.3595976004
 31
0.0
  0
LINE
  5
147
330
1F
100
AcDbEntity
  8
0
  6
Continuous
 62
     7
370
    25
100
AcDbLine
 10
7853.6021196202
 20
5413.2620131652
 30
0.0
 11
7852.6021196202
 21
5413.2620131652
 31
0.0
  0
LINE
  5
148
330
1F
100
AcDbEntity
  8
0
  6
Continuous
 62
     7
370
    25
100
AcDbLine
 10
7853.6021196202
 20
5413.2620131652
 30
0.0
 11
7853.6021196202
 21
5388.3595976004
 31
0.0
  0
LINE
  5
149
330
1F
100
AcDbEntity
  8
0
  6
Continuous
 62
     7
370
    25
100
AcDbLine
 10
7852.6021196202
 20
5388.3595976004
 30
0.0
 11
7853.6021196202
 21
5388.3595976004
 31
0.0
  0
ARC
  5
14A
330
1F
100
AcDbEntity
  8
0
  6
Continuous
 62
     7
370
    25
100
AcDbCircle
 10
7852.6021196202
 20
5388.3595976004
 30
0.0
 40
1.000000000000909
100
AcDbArc
 50
270.0
 51
0.0
  0
ARC
  5
14B
330
1F
100
AcDbEntity
  8
0
  6
Continuous
 62
     7
370
    25
100
AcDbCircle
 10
7852.6021196202
 20
5413.2620131652
 30
0.0
 40
1.0
100
AcDbArc
 50
0.0
 51
90.0
  0
LINE
  5
14C
330
1F
100
AcDbEntity
  8
0
  6
Continuous
 62
     7
370
    25
100
AcDbLine
 10
7453.6021196202
 20
5141.9953464986
 30
0.0
 11
7660.3246694531
 21
5141.9953464986
 31
0.0
  0
LINE
  5
14D
330
1F
100
AcDbEntity
  8
0
  6
Continuous
 62
     7
370
    25
100
AcDbLine
 10
7453.6021196202
 20
5142.0086798319
 30
0.0
 11
7453.6021196202
 21
5141.9953464986
 31
0.0
  0
LINE
  5
14E
330
1F
100
AcDbEntity
  8
0
  6
Continuous
 62
     7
370
    25
100
AcDbLine
 10
7660.3246694531
 20
5141.9953464986
 30
0.0
 11
7800.5328129398
 21
5387.3595976004
 31
0.0
  0
LINE
  5
14F
330
1F
100
AcDbEntity
  8
0
  6
Continuous
 62
     7
370
    25
100
AcDbLine
 10
7453.6021196202
 20
5132.2620131652
 30
0.0
 11
7403.6021196202
 21
5132.2620131652
 31
0.0
  0
LINE
  5
150
330
1F
100
AcDbEntity
  8
0
  6
Continuous
 62
     7
370
    25
100
AcDbLine
 10
7453.6021196202
 20
5132.2753464986
 30
0.0
 11
7453.6021196202
 21
5132.2620131652
 31
0.0
  0
LINE
  5
151
330
1F
100
AcDbEntity
  8
0
  6
Continuous
 62
     7
370
    25
100
AcDbLine
 10
7403.6021196202
 20
5132.2620131652
 30
0.0
 11
7403.6021196202
 21
5142.2620131652
 31
0.0
  0
LWPOLYLINE
  5
152
330
1F
100
AcDbEntity
  8
0
  6
Continuous
 62
     7
370
    25
100
AcDbPolyline
 90
       34
 70
   128
 43
0.0
 10
7589.3892710421
 20
5131.5707684795
 10
7589.3900599397
 20
5131.5723462222
 10
7589.2136524652
 20
5131.5959100889
 10
7588.6861832584
 20
5131.6192397673
 10
7587.8128945451
 20
5131.6421033966
 10
7586.6024654611
 20
5131.6642737478
 10
7585.0669257944
 20
5131.6855304819
 10
7583.221536428
 20
5131.70566234
 10
7581.0846376705
 20
5131.7244692427
 10
7578.6774669818
 20
5131.7417642784
 10
7576.0239479057
 20
5131.7573755613
 10
7573.150452307
 20
5131.7711479396
 10
7570.0855382758
 20
5131.782944537
 10
7566.8596663047
 20
5131.7926481138
 10
7563.5048965588
 20
5131.8001622314
 10
7560.0545702469
 20
5131.8054122112
 10
7556.5429782621
 20
5131.8083458765
 10
7553.005020383
 20
5131.8089340711
 10
7549.4758584247
 20
5131.8071709495
 10
7545.9905667843
 20
5131.8030740342
 10
7542.5837838558
 20
5131.7966840422
 10
7539.2893677786
 20
5131.7880644802
 10
7536.1400599397
 20
5131.7773010132
 10
7533.1671595754
 20
5131.7645006135
 10
7530.400212705
 20
5131.7497904971
 10
7527.8667184898
 20
5131.7333168597
 10
7525.5918559333
 20
5131.7152434238
 10
7523.5982336418
 20
5131.6957498114
 10
7521.9056651292
 20
5131.6750297586
 10
7520.5309719018
 20
5131.6532891907
 10
7519.4878162786
 20
5131.6307441752
 10
7518.7865656087
 20
5131.6076187747
 10
7518.4341892365
 20
5131.5841428196
 10
7518.3908488374
 20
5131.5707684795
  0
LWPOLYLINE
  5
153
330
1F
100
AcDbEntity
  8
0
  6
Continuous
 62
     7
370
    25
100
AcDbPolyline
 90
       32
 70
   128
 43
0.0
 10
7586.3900599397
 20
5128.5724128866
 10
7586.2120215392
 20
5128.5950602171
 10
7585.6798569636
 20
5128.6174594186
 10
7584.7993967193
 20
5128.6393650809
 10
7583.5802873131
 20
5128.660537201
 10
7582.0358855627
 20
5128.6807438126
 10
7580.1831122569
 20
5128.699763528
 10
7578.0422667677
 20
5128.717387963
 10
7575.6368046464
 20
5128.7334240208
 10
7572.9930806392
 20
5128.7476960069
 10
7570.1400599397
 20
5128.7600475545
 10
7567.1090008397
 20
5128.7703433374
 10
7563.9331122569
 20
5128.7784705528
 10
7560.6471898913
 20
5128.7843401573
 10
7557.2872349959
 20
5128.7878878423
 10
7553.8900599397
 20
5128.7890747386
 10
7550.4928848835
 20
5128.7878878423
 10
7547.1329299882
 20
5128.7843401573
 10
7543.8470076225
 20
5128.7784705528
 10
7540.6711190398
 20
5128.7703433374
 10
7537.6400599397
 20
5128.7600475545
 10
7534.7870392402
 20
5128.7476960069
 10
7532.1433152331
 20
5128.7334240208
 10
7529.7378531117
 20
5128.717387963
 10
7527.5970076225
 20
5128.699763528
 10
7525.7442343167
 20
5128.6807438126
 10
7524.1998325663
 20
5128.660537201
 10
7522.9807231601
 20
5128.6393650809
 10
7522.1002629159
 20
5128.6174594186
 10
7521.5680983403
 20
5128.5950602171
 10
7521.3900599397
 20
5128.5724128866
 10
7521.3900599397
 20
5128.5724128866
  0
LWPOLYLINE
  5
154
330
1F
100
AcDbEntity
  8
0
  6
Continuous
 62
     7
370
    25
100
AcDbPolyline
 90
       33
 70
   128
 43
0.0
 10
7589.3900599397
 20
5133.5723017792
 10
7589.2136524652
 20
5133.5958656459
 10
7588.6861832584
 20
5133.6191953244
 10
7587.8128945451
 20
5133.6420589537
 10
7586.6024654611
 20
5133.6642293049
 10
7585.0669257944
 20
5133.685486039
 10
7583.221536428
 20
5133.7056178971
 10
7581.0846376705
 20
5133.7244247997
 10
7578.6774669818
 20
5133.7417198354
 10
7576.0239479057
 20
5133.7573311183
 10
7573.150452307
 20
5133.7711034966
 10
7570.0855382758
 20
5133.7829000941
 10
7566.8596663047
 20
5133.7926036709
 10
7563.5048965588
 20
5133.8001177885
 10
7560.0545702469
 20
5133.8053677682
 10
7556.5429782621
 20
5133.8083014335
 10
7553.005020383
 20
5133.8088896282
 10
7549.4758584247
 20
5133.8071265065
 10
7545.9905667843
 20
5133.8030295912
 10
7542.5837838558
 20
5133.7966395992
 10
7539.2893677786
 20
5133.7880200372
 10
7536.1400599397
 20
5133.7772565703
 10
7533.1671595754
 20
5133.7644561705
 10
7530.400212705
 20
5133.7497460541
 10
7527.8667184898
 20
5133.7332724167
 10
7525.5918559333
 20
5133.7151989809
 10
7523.5982336418
 20
5133.6957053684
 10
7521.9056651292
 20
5133.6749853156
 10
7520.5309719018
 20
5133.6532447478
 10
7519.4878162786
 20
5133.6306997323
 10
7518.7865656087
 20
5133.6075743317
 10
7518.4341892365
 20
5133.5840983767
 10
7518.3900599397
 20
5133.5723017792
  0
LWPOLYLINE
  5
155
330
1F
100
AcDbEntity
  8
0
  6
Continuous
 62
     7
370
    25
100
AcDbPolyline
 90
       33
 70
   128
 43
0.0
 10
7556.3864058882
 20
4910.4890015782
 10
7556.3900599397
 20
4910.4922504375
 10
7556.2120215392
 20
4910.5148977679
 10
7555.6798569636
 20
4910.5372969695
 10
7554.7993967193
 20
4910.5592026318
 10
7553.5802873131
 20
4910.5803747519
 10
7552.0358855627
 20
4910.6005813635
 10
7550.1831122569
 20
4910.6196010788
 10
7548.0422667677
 20
4910.6372255139
 10
7545.6368046464
 20
4910.6532615717
 10
7542.9930806392
 20
4910.6675335578
 10
7540.1400599397
 20
4910.6798851054
 10
7537.1090008397
 20
4910.6901808882
 10
7533.9331122569
 20
4910.6983081037
 10
7530.6471898913
 20
4910.7041777082
 10
7527.2872349959
 20
4910.7077253932
 10
7523.8900599397
 20
4910.7089122895
 10
7520.4928848835
 20
4910.7077253932
 10
7517.1329299882
 20
4910.7041777082
 10
7513.8470076225
 20
4910.6983081037
 10
7510.6711190398
 20
4910.6901808882
 10
7507.6400599397
 20
4910.6798851054
 10
7504.7870392402
 20
4910.6675335578
 10
7502.1433152331
 20
4910.6532615717
 10
7499.7378531117
 20
4910.6372255139
 10
7497.5970076225
 20
4910.6196010788
 10
7495.7442343167
 20
4910.6005813635
 10
7494.1998325663
 20
4910.5803747519
 10
7492.9807231601
 20
4910.5592026318
 10
7492.1002629159
 20
4910.5372969695
 10
7491.5680983403
 20
4910.5148977679
 10
7491.3900599397
 20
4910.4922504375
 10
7491.3937139913
 20
4910.4890015782
  0
LWPOLYLINE
  5
156
330
1F
100
AcDbEntity
  8
0
  6
Continuous
 62
     7
370
    25
100
AcDbPolyline
 90
       32
 70
   128
 43
0.0
 10
7556.3900599397
 20
4925.4919171153
 10
7556.2120215392
 20
4925.5145644457
 10
7555.6798569636
 20
4925.5369636472
 10
7554.7993967193
 20
4925.5588693096
 10
7553.5802873131
 20
4925.5800414296
 10
7552.0358855627
 20
4925.6002480413
 10
7550.1831122569
 20
4925.6192677566
 10
7548.0422667677
 20
4925.6368921917
 10
7545.6368046464
 20
4925.6529282495
 10
7542.9930806392
 20
4925.6672002356
 10
7540.1400599397
 20
4925.6795517831
 10
7537.1090008397
 20
4925.689847566
 10
7533.9331122569
 20
4925.6979747814
 10
7530.6471898913
 20
4925.703844386
 10
7527.2872349959
 20
4925.707392071
 10
7523.8900599397
 20
4925.7085789673
 10
7520.4928848835
 20
4925.707392071
 10
7517.1329299882
 20
4925.703844386
 10
7513.8470076225
 20
4925.6979747814
 10
7510.6711190398
 20
4925.689847566
 10
7507.6400599397
 20
4925.6795517831
 10
7504.7870392402
 20
4925.6672002356
 10
7502.1433152331
 20
4925.6529282495
 10
7499.7378531117
 20
4925.6368921917
 10
7497.5970076225
 20
4925.6192677566
 10
7495.7442343167
 20
4925.6002480413
 10
7494.1998325663
 20
4925.5800414296
 10
7492.9807231601
 20
4925.5588693096
 10
7492.1002629159
 20
4925.5369636472
 10
7491.5680983403
 20
4925.5145644457
 10
7491.3900599397
 20
4925.4919171153
 10
7491.3900599397
 20
4925.4919171153
  0
LINE
  5
157
330
1F
100
AcDbEntity
  8
0
  6
Continuous
 62
     7
370
    25
100
AcDbLine
 10
7473.8900599397
 20
5039.7943857098
 30
0.0
 11
7473.8900599397
 21
5072.5743905985
 31
0.0
  0
LINE
  5
158
330
1F
100
AcDbEntity
  8
0
  6
Continuous
 62
     7
370
    25
100
AcDbLine
 10
7473.8900599397
 20
5006.5743905985
 30
0.0
 11
7473.8900599397
 21
5039.7943857098
 31
0.0
  0
LINE
  5
159
330
1F
100
AcDbEntity
  8
0
  6
Continuous
 62
     7
370
    25
100
AcDbLine
 10
7493.8900599397
 20
5039.7943857098
 30
0.0
 11
7493.8900599397
 21
5072.5743905985
 31
0.0
  0
LINE
  5
15A
330
1F
100
AcDbEntity
  8
0
  6
Continuous
 62
     7
370
    25
100
AcDbLine
 10
7493.8900599397
 20
5006.5743905985
 30
0.0
 11
7493.8900599397
 21
5039.7943857098
 31
0.0
  0
LWPOLYLINE
  5
15B
330
1F
100
AcDbEntity
  8
0
  6
Continuous
 62
     7
370
    25
100
AcDbPolyline
 90
       38
 70
   128
 43
0.0
 10
7586.3900599397
 20
5122.9725373269
 10
7586.2120215392
 20
5122.9951846574
 10
7585.6798569636
 20
5123.0175838589
 10
7584.7993967193
 20
5123.0394895212
 10
7583.5802873131
 20
5123.0606616413
 10
7582.0358855627
 20
5123.0808682529
 10
7580.1831122569
 20
5123.0998879683
 10
7578.0422667677
 20
5123.1175124033
 10
7575.6368046464
 20
5123.1335484611
 10
7572.9930806392
 20
5123.1478204472
 10
7570.1400599397
 20
5123.1601719948
 10
7567.1090008397
 20
5123.1704677777
 10
7563.9331122569
 20
5123.1785949931
 10
7560.6471898913
 20
5123.1844645976
 10
7557.2872349959
 20
5123.1880122826
 10
7553.8900599397
 20
5123.1891991789
 10
7550.4928848835
 20
5123.1880122826
 10
7547.1329299882
 20
5123.1844645976
 10
7543.8470076225
 20
5123.1785949931
 10
7540.6711190398
 20
5123.1704677777
 10
7537.6400599397
 20
5123.1601719948
 10
7534.7870392402
 20
5123.1478204472
 10
7532.1433152331
 20
5123.1335484611
 10
7529.7378531117
 20
5123.1175124033
 10
7527.5970076225
 20
5123.0998879683
 10
7525.7442343167
 20
5123.0808682529
 10
7524.1998325663
 20
5123.0606616413
 10
7522.9807231601
 20
5123.0394895212
 10
7522.1002629159
 20
5123.0175838589
 10
7521.5680983403
 20
5122.9951846574
 10
7521.3900599397
 20
5122.9725373269
 10
7521.5680983403
 20
5122.9498899965
 10
7522.1002629159
 20
5122.9274907949
 10
7522.9807231601
 20
5122.9055851326
 10
7524.1998325663
 20
5122.8844130125
 10
7525.7442343167
 20
5122.8642064009
 10
7527.5970076225
 20
5122.8451866856
 10
7527.8900599397
 20
5122.8425402157
  0
ARC
  5
15C
330
1F
100
AcDbEntity
  8
0
  6
Continuous
 62
     7
370
    25
100
AcDbCircle
 10
7580.7359240219
 20
5243.1170058983
 30
0.0
 40
120.2774400346483
100
AcDbArc
 50
269.5970579235
 51
272.6944168453
  0
LWPOLYLINE
  5
15D
330
1F
100
AcDbEntity
  8
0
  6
Continuous
 62
     7
370
    25
100
AcDbPolyline
 90
       29
 70
   128
 43
0.0
 10
7579.8900599397
 20
5122.9725373269
 10
7579.714257241
 20
5122.9926596515
 10
7579.1892265748
 20
5123.0125098562
 10
7578.3220680802
 20
5123.0318195011
 10
7577.1245085881
 20
5123.0503274562
 10
7575.6127430365
 20
5123.0677834332
 10
7573.8072154608
 20
5123.0839513701
 10
7571.7323425243
 20
5123.0986126231
 10
7569.416183324
 20
5123.1115689241
 10
7566.8900599397
 20
5123.1226450612
 10
7564.1881338568
 20
5123.1316912487
 10
7561.3469439902
 20
5123.1385851525
 10
7558.4049125591
 20
5123.1432335442
 10
7555.4018254914
 20
5123.1455735625
 10
7552.3782943881
 20
5123.1455735625
 10
7549.3752073204
 20
5123.1432335442
 10
7546.4331758892
 20
5123.1385851525
 10
7543.5919860227
 20
5123.1316912487
 10
7540.8900599397
 20
5123.1226450612
 10
7538.3639365555
 20
5123.1115689241
 10
7536.0477773551
 20
5123.0986126231
 10
7533.9729044186
 20
5123.0839513701
 10
7532.167376843
 20
5123.0677834332
 10
7530.6556112913
 20
5123.0503274562
 10
7529.4580517993
 20
5123.0318195011
 10
7528.5908933047
 20
5123.0125098562
 10
7528.0658626384
 20
5122.9926596515
 10
7527.8900599397
 20
5122.9725373269
 10
7527.8900599397
 20
5122.9725373269
  0
LWPOLYLINE
  5
15E
330
1F
100
AcDbEntity
  8
0
  6
Continuous
 62
     7
370
    25
100
AcDbPolyline
 90
       30
 70
   128
 43
0.0
 10
7523.8900599397
 20
5072.5736572896
 10
7524.0659212251
 20
5072.5952806128
 10
7524.5914432684
 20
5072.6166504222
 10
7525.4604648042
 20
5072.6375161765
 10
7526.6627973496
 20
5072.6576332438
 10
7528.1843446547
 20
5072.6767657697
 10
7530.0072679686
 20
5072.6946894431
 10
7532.110195182
 20
5072.711194125
 10
7534.4684713963
 20
5072.7260863133
 10
7537.0544479789
 20
5072.7391914107
 10
7539.8378067187
 20
5072.7503557719
 10
7542.7859152795
 20
5072.7594485049
 10
7545.8642097839
 20
5072.7663630058
 10
7549.0366000431
 20
5072.7710182083
 10
7552.2658926822
 20
5072.7733595346
 10
7555.5142271973
 20
5072.7733595346
 10
7558.7435198363
 20
5072.7710182083
 10
7561.9159100956
 20
5072.7663630058
 10
7564.9942045999
 20
5072.7594485049
 10
7567.9423131607
 20
5072.7503557719
 10
7570.7256719006
 20
5072.7391914107
 10
7573.3116484832
 20
5072.7260863133
 10
7575.6699246974
 20
5072.711194125
 10
7577.7728519109
 20
5072.6946894431
 10
7579.5957752248
 20
5072.6767657697
 10
7581.1173225299
 20
5072.6576332438
 10
7582.3196550752
 20
5072.6375161765
 10
7583.188676611
 20
5072.6166504222
 10
7583.7141986544
 20
5072.5952806128
 10
7583.8900599397
 20
5072.5736572896
  0
LWPOLYLINE
  5
15F
330
1F
100
AcDbEntity
  8
0
  6
Continuous
 62
     7
370
    25
100
AcDbPolyline
 90
       36
 70
   128
 43
0.0
 10
7523.8900599397
 20
5054.5740572763
 10
7524.0659212251
 20
5054.5956805994
 10
7524.5914432684
 20
5054.6170504089
 10
7525.4604648042
 20
5054.6379161632
 10
7526.6627973496
 20
5054.6580332305
 10
7528.1843446547
 20
5054.6771657564
 10
7530.0072679686
 20
5054.6950894297
 10
7532.110195182
 20
5054.7115941117
 10
7534.4684713963
 20
5054.7264863
 10
7537.0544479789
 20
5054.7395913974
 10
7539.8378067187
 20
5054.7507557586
 10
7542.7859152795
 20
5054.7598484916
 10
7545.8642097839
 20
5054.7667629925
 10
7549.0366000431
 20
5054.771418195
 10
7552.2658926822
 20
5054.7737595212
 10
7555.5142271973
 20
5054.7737595212
 10
7558.7435198363
 20
5054.771418195
 10
7561.9159100956
 20
5054.7667629925
 10
7564.9942045999
 20
5054.7598484916
 10
7567.9423131607
 20
5054.7507557586
 10
7570.7256719006
 20
5054.7395913974
 10
7573.3116484832
 20
5054.7264863
 10
7575.6699246974
 20
5054.7115941117
 10
7577.7728519109
 20
5054.6950894297
 10
7579.5957752248
 20
5054.6771657564
 10
7581.1173225299
 20
5054.6580332305
 10
7582.3196550752
 20
5054.6379161632
 10
7583.188676611
 20
5054.6170504089
 10
7583.7141986544
 20
5054.5956805994
 10
7583.8900599397
 20
5054.5740572763
 10
7583.7141986544
 20
5054.5524339531
 10
7583.188676611
 20
5054.5310641436
 10
7582.3196550752
 20
5054.5101983893
 10
7581.1173225299
 20
5054.4900813221
 10
7579.5957752248
 20
5054.4709487961
 10
7578.8900599397
 20
5054.4635055733
  0
ARC
  5
160
330
1F
100
AcDbEntity
  8
0
  6
Continuous
 62
     7
370
    25
100
AcDbCircle
 10
7528.617166905
 20
5155.2457220684
 30
0.0
 40
100.7825859575207
100
AcDbArc
 50
267.3116120921
 51
270.155142261
  0
LWPOLYLINE
  5
161
330
1F
100
AcDbEntity
  8
0
  6
Continuous
 62
     7
370
    25
100
AcDbPolyline
 90
       28
 70
   128
 43
0.0
 10
7528.8900599397
 20
5054.5740572763
 10
7529.0655325394
 20
5054.5937690334
 10
7529.5894870877
 20
5054.6132040806
 10
7530.4545684114
 20
5054.6320895926
 10
7531.6486326649
 20
5054.650160458
 10
7533.1549178035
 20
5054.6671630016
 10
7534.9522788857
 20
5054.6828585448
 10
7537.0154849018
 20
5054.6970267568
 10
7539.3155729619
 20
5054.7094687468
 10
7541.8202548715
 20
5054.7200098566
 10
7544.4943703869
 20
5054.7285021121
 10
7547.300380788
 20
5054.7348263006
 10
7550.1988958397
 20
5054.7388936445
 10
7553.1492267442
 20
5054.7406470471
 10
7556.1099573228
 20
5054.7400618944
 10
7559.0395254083
 20
5054.7371464008
 10
7561.8968062863
 20
5054.7319414934
 10
7564.6416899966
 20
5054.7245202377
 10
7567.2356443889
 20
5054.7149868118
 10
7569.6422560293
 20
5054.7034750441
 10
7571.8277413658
 20
5054.6901465347
 10
7573.7614209751
 20
5054.6751883866
 10
7575.4161502339
 20
5054.6588105793
 10
7576.7687003708
 20
5054.6412430215
 10
7577.8000845466
 20
5054.622732323
 10
7578.4958243884
 20
5054.6035383336
 10
7578.8461532338
 20
5054.5839304948
 10
7578.8900599397
 20
5054.5740572763
  0
ELLIPSE
  5
162
330
1F
100
AcDbEntity
  8
0
  6
Continuous
 62
     7
370
    25
100
AcDbEllipse
 10
7523.8900599397
 20
5039.5743905985
 30
0.0
 11
27.99984642984873
 21
24.99992557366477
 31
0.0
210
0.0
220
0.0
230
1.0
 40
0.0037094366
 41
1.492266239728317
 42
1.567484333598952
  0
ELLIPSE
  5
163
330
1F
100
AcDbEntity
  8
0
  6
Continuous
 62
     7
370
    25
100
AcDbEllipse
 10
7523.8900599397
 20
5043.3316664173
 30
0.0
 11
27.9998464299224
 21
-24.99992557372934
 31
0.0
210
0.0
220
0.0
230
1.0
 40
0.0037094366
 41
1.171643588424482
 42
1.498890226120502
  0
SPLINE
  5
164
330
1F
100
AcDbEntity
  8
0
  6
Continuous
 62
     7
370
    25
100
AcDbSpline
210
0.0
220
0.0
230
1.0
 70
     8
 71
     3
 72
    10
 73
     6
 74
     0
 42
0.000000001
 43
0.00000001
 40
0.0
 40
0.0
 40
0.0
 40
0.0
 40
0.2767262145199432
 40
0.6090796950219526
 40
1.0
 40
1.0
 40
1.0
 40
1.0
 10
7540.102963165538
 20
5031.622540528288
 30
0.0
 10
7539.601025158366
 20
5031.584790179933
 30
0.0
 10
7538.496249996898
 20
5031.501700940622
 30
0.0
 10
7536.653894419051
 20
5032.27914614583
 30
0.0
 10
7535.487646987966
 20
5033.208918566665
 30
0.0
 10
7534.857305047484
 20
5033.711448764233
 30
0.0
  0
LINE
  5
165
330
1F
100
AcDbEntity
  8
0
  6
Continuous
 62
     7
370
    25
100
AcDbLine
 10
7540.1029631655
 20
4953.7284884621
 30
0.0
 11
7540.1029631655
 21
5031.6225405283
 31
0.0
  0
ELLIPSE
  5
166
330
1F
100
AcDbEntity
  8
0
  6
Continuous
 62
     7
370
    25
100
AcDbEllipse
 10
7523.8900599397
 20
5039.5743905985
 30
0.0
 11
30.99986094846463
 21
27.99981129246953
 31
0.0
210
0.0
220
0.0
230
1.0
 40
0.0033161041
 41
1.567801151673957
 42
2.883909424200341
  0
ELLIPSE
  5
167
330
1F
100
AcDbEntity
  8
0
  6
Continuous
 62
     7
370
    25
100
AcDbEllipse
 10
7523.8900599397
 20
5039.5743905985
 30
0.0
 11
24.99982800114413
 21
27.99987757537929
 31
0.0
210
0.0
220
0.0
230
1.0
 40
0.0033120044
 41
1.491868795743489
 42
1.567086889613704
  0
ARC
  5
168
330
1F
100
AcDbEntity
  8
0
  6
Continuous
 62
     7
370
    25
100
AcDbCircle
 10
7489.2872896325
 20
5005.1568975661
 30
0.0
 40
51.75279309539267
100
AcDbArc
 50
44.8241532792
 51
45.1771199322
  0
ARC
  5
169
330
1F
100
AcDbEntity
  8
0
  6
Continuous
 62
     7
370
    25
100
AcDbCircle
 10
7516.4287105956
 20
5052.1753203732
 30
0.0
 40
14.23055987587212
100
AcDbArc
 50
312.2353942359
 51
323.6492864372
  0
ELLIPSE
  5
16A
330
1F
100
AcDbEntity
  8
0
  6
Continuous
 62
     7
370
    25
100
AcDbEllipse
 10
7526.0113802833
 20
5045.4529396219
 30
0.0
 11
-24.99986111530779
 21
24.99986111530779
 31
0.0
210
0.0
220
0.0
230
1.0
 40
0.0033332963
 41
4.313257532772631
 42
4.640504170466881
  0
LWPOLYLINE
  5
16B
330
1F
100
AcDbEntity
  8
0
  6
Continuous
 62
     7
370
    25
100
AcDbPolyline
 90
        9
 70
   128
 43
0.0
 10
7534.8573050475
 20
5033.7114487642
 10
7535.1421643809
 20
5034.0648431436
 10
7535.389136139
 20
5034.4085887518
 10
7535.5918109617
 20
5034.733764774
 10
7535.744929074
 20
5035.0319323094
 10
7535.8445167865
 20
5035.2953533759
 10
7535.8879896194
 20
5035.5171917246
 10
7535.8742193748
 20
5035.6916902525
 10
7535.8035634152
 20
5035.8143204101
  0
ARC
  5
16C
330
1F
100
AcDbEntity
  8
0
  6
Continuous
 62
     7
370
    25
100
AcDbCircle
 10
7534.6985106987
 20
5033.9039050913
 30
0.0
 40
11.96300429855505
100
AcDbArc
 50
124.6892664422
 51
138.2836977282
  0
ELLIPSE
  5
16D
330
1F
100
AcDbEntity
  8
0
  6
Continuous
 62
     7
370
    25
100
AcDbEllipse
 10
7529.7687395962
 20
5041.6956638032
 30
0.0
 11
-24.99986111530871
 21
24.99986111530871
 31
0.0
210
0.0
220
0.0
230
1.0
 40
0.0033332963
 41
4.790940358206303
 42
6.237161303335949
  0
SPLINE
  5
16E
330
1F
100
AcDbEntity
  8
0
  6
Continuous
 62
     7
370
    25
100
AcDbSpline
210
0.0
220
0.0
230
1.0
 70
     8
 71
     3
 72
    11
 73
     7
 74
     0
 42
0.000000001
 43
0.00000001
 40
0.0
 40
0.0
 40
0.0
 40
0.0
 40
0.4418022567785129
 40
0.7742903917582712
 40
0.921539872947136
 40
0.9999999999999999
 40
0.9999999999999999
 40
0.9999999999999999
 40
0.9999999999999999
 10
7535.803563415213
 20
5035.814320410119
 30
0.0
 10
7536.259411921549
 20
5035.38429778157
 30
0.0
 10
7537.058319381027
 20
5034.630652039806
 30
0.0
 10
7538.153777882007
 20
5033.921778733158
 30
0.0
 10
7538.879736167254
 20
5033.656757017535
 30
0.0
 10
7539.167793225481
 20
5033.654023728246
 30
0.0
 10
7539.267926283896
 20
5033.653073594902
 30
0.0
  0
ARC
  5
16F
330
1F
100
AcDbEntity
  8
0
  6
Continuous
 62
     7
370
    25
100
AcDbCircle
 10
7535.3343713115
 20
5030.8484706383
 30
0.0
 40
4.83100946641631
100
AcDbArc
 50
9.2202133668
 51
35.4886593582
  0
LWPOLYLINE
  5
170
330
1F
100
AcDbEntity
  8
0
  6
Continuous
 62
     7
370
    25
100
AcDbPolyline
 90
       29
 70
   128
 43
0.0
 10
7579.8900599397
 20
5093.9731817499
 10
7579.714257241
 20
5093.9933040745
 10
7579.1892265748
 20
5094.0131542792
 10
7578.3220680802
 20
5094.032463924
 10
7577.1245085881
 20
5094.0509718791
 10
7575.6127430365
 20
5094.0684278562
 10
7573.8072154608
 20
5094.0845957931
 10
7571.7323425243
 20
5094.0992570461
 10
7569.416183324
 20
5094.1122133471
 10
7566.8900599397
 20
5094.1232894842
 10
7564.1881338568
 20
5094.1323356717
 10
7561.3469439902
 20
5094.1392295754
 10
7558.4049125591
 20
5094.1438779672
 10
7555.4018254914
 20
5094.1462179854
 10
7552.3782943881
 20
5094.1462179854
 10
7549.3752073204
 20
5094.1438779672
 10
7546.4331758892
 20
5094.1392295754
 10
7543.5919860227
 20
5094.1323356717
 10
7540.8900599397
 20
5094.1232894842
 10
7538.3639365555
 20
5094.1122133471
 10
7536.0477773551
 20
5094.0992570461
 10
7533.9729044186
 20
5094.0845957931
 10
7532.167376843
 20
5094.0684278562
 10
7530.6556112913
 20
5094.0509718791
 10
7529.4580517993
 20
5094.032463924
 10
7528.5908933047
 20
5094.0131542792
 10
7528.0658626384
 20
5093.9933040745
 10
7527.8900599397
 20
5093.9731817499
 10
7527.8901363402
 20
5093.9727615572
  0
LWPOLYLINE
  5
171
330
1F
100
AcDbEntity
  8
0
  6
Continuous
 62
     7
370
    25
100
AcDbPolyline
 90
       26
 70
   128
 43
0.0
 10
7575.8900599397
 20
5082.9734261862
 10
7575.7094402438
 20
5082.9921810865
 10
7575.1705469266
 20
5083.0106280318
 10
7574.2822286013
 20
5083.0284641238
 10
7573.0590714304
 20
5083.0453964945
 10
7571.5211596208
 20
5083.0611471147
 10
7569.6937456419
 20
5083.0754573596
 10
7567.6068355806
 20
5083.0880922555
 10
7565.2946964426
 20
5083.0988443377
 10
7562.7952934884
 20
5083.1075370573
 10
7560.1496668456
 20
5083.1140276802
 10
7557.4012576305
 20
5083.1182096304
 10
7554.5951946463
 20
5083.1200142404
 10
7551.7775533698
 20
5083.1194118787
 10
7548.9945993927
 20
5083.1164124359
 10
7546.2920287425
 20
5083.1110651628
 10
7543.7142175544
 20
5083.1034578616
 10
7541.303493417
 20
5083.0937154438
 10
7539.099440354
 20
5083.0819978797
 10
7537.1382488556
 20
5083.0684975715
 10
7535.4521216321
 20
5083.0534361937
 10
7534.0687448459
 20
5083.0370610538
 10
7533.0108335055
 20
5083.0196410312
 10
7532.2957584859
 20
5083.001462162
 10
7531.9352612992
 20
5082.982822943
 10
7531.8901245863
 20
5082.9730706385
  0
LINE
  5
172
330
1F
100
AcDbEntity
  8
0
  6
Continuous
 62
     7
370
    25
100
AcDbLine
 10
7543.1311313683
 20
5034.0175978853
 30
0.0
 11
7543.1311313683
 21
4953.7267414196
 31
0.0
  0
ARC
  5
173
330
1F
100
AcDbEntity
  8
0
  6
Continuous
 62
     7
370
    25
100
AcDbCircle
 10
7541.8529805987
 20
5362.6734762694
 30
0.0
 40
408.9487322559644
100
AcDbArc
 50
269.7548129848
 51
270.1790756594
  0
SPLINE
  5
174
330
1F
100
AcDbEntity
  8
0
  6
Continuous
 62
     7
370
    25
100
AcDbSpline
210
0.0
220
0.0
230
1.0
 70
     8
 71
     3
 72
    12
 73
     8
 74
     0
 42
0.000000001
 43
0.00000001
 40
0.0
 40
0.0
 40
0.0
 40
0.0
 40
0.0040736008791829
 40
0.059426741989985
 40
0.4039567950184631
 40
0.7115404366576077
 40
1.0
 40
1.0
 40
1.0
 40
1.0
 10
7543.131131368304
 20
5034.017597885257
 30
0.0
 10
7543.127531294711
 20
5034.013909112628
 30
0.0
 10
7543.075012491102
 20
5033.960096344578
 30
0.0
 10
7542.71305601214
 20
5033.594155130759
 30
0.0
 10
7542.024809382471
 20
5032.957943995567
 30
0.0
 10
7541.026312653616
 20
5032.159736316421
 30
0.0
 10
7540.404091663585
 20
5031.797734171568
 30
0.0
 10
7540.102963165538
 20
5031.622540528288
 30
0.0
  0
SPLINE
  5
175
330
1F
100
AcDbEntity
  8
0
  6
Continuous
 62
     7
370
    25
100
AcDbSpline
210
0.0
220
0.0
230
1.0
 70
     8
 71
     3
 72
    12
 73
     8
 74
     0
 42
0.000000001
 43
0.00000001
 40
0.0
 40
0.0
 40
0.0
 40
0.0
 40
0.2860841375525646
 40
0.5938173985192468
 40
0.9402661687057589
 40
0.9946780011584527
 40
1.0
 40
1.0
 40
1.0
 40
1.0
 10
7539.267926283896
 20
5033.653073594902
 30
0.0
 10
7539.62719039823
 20
5033.683016669014
 30
0.0
 10
7540.372905569927
 20
5033.745168728634
 30
0.0
 10
7541.650069120753
 20
5033.863839075394
 30
0.0
 10
7542.560544304709
 20
5033.955335062999
 30
0.0
 10
7543.053055855718
 20
5034.00897951244
 30
0.0
 10
7543.124744272993
 20
5034.016892845138
 30
0.0
 10
7543.131131368304
 20
5034.017597885257
 30
0.0
  0
ELLIPSE
  5
176
330
1F
100
AcDbEntity
  8
0
  6
Continuous
 62
     8
370
    25
100
AcDbEllipse
 10
7523.8900599397
 20
5039.5743905985
 30
0.0
 11
27.99984604953079
 21
30.99975968178751
 31
0.0
210
0.0
220
0.0
230
1.0
 40
0.0029951983
 41
1.567480234059903
 42
3.138276560838696
  0
SPLINE
  5
177
330
1F
100
AcDbEntity
  8
0
  6
Continuous
 62
     8
370
    25
100
AcDbSpline
210
0.0
220
0.0
230
1.0
 70
     8
 71
     3
 72
    18
 73
    14
 74
     0
 42
0.000000001
 43
0.00000001
 40
0.0
 40
0.0
 40
0.0
 40
0.0
 40
0.0173164430520814
 40
0.1020731770893532
 40
0.1903240562381142
 40
0.2883105228647202
 40
0.3903879717739335
 40
0.4917547330218521
 40
0.5960943130592192
 40
0.6948132561445061
 40
0.7957827708096095
 40
0.8966057184902094
 40
1.0
 40
1.0
 40
1.0
 40
1.0
 10
7551.855577929411
 20
4925.635807389232
 30
0.0
 10
7551.866108735599
 20
4925.624921516145
 30
0.0
 10
7551.928183426209
 20
4925.560753854924
 30
0.0
 10
7551.59871174206
 20
4925.969379711585
 30
0.0
 10
7550.802218081551
 20
4926.960849283969
 30
0.0
 10
7549.470255289813
 20
4928.680811606452
 30
0.0
 10
7547.763461610439
 20
4931.064717780087
 30
0.0
 10
7545.871847428505
 20
4934.030506542257
 30
0.0
 10
7544.039254738115
 20
4937.406860376237
 30
0.0
 10
7542.409681052463
 20
4941.138794755749
 30
0.0
 10
7541.142321083681
 20
4945.108671389894
 30
0.0
 10
7540.272446090735
 20
4949.346256730601
 30
0.0
 10
7540.159929711554
 20
4952.255534149512
 30
0.0
 10
7540.102963165538
 20
4953.7284884621
 30
0.0
  0
ELLIPSE
  5
178
330
1F
100
AcDbEntity
  8
0
  6
Continuous
 62
     8
370
    25
100
AcDbEllipse
 10
7527.6474192526
 20
5039.5743905985
 30
0.0
 11
-24.99982800110319
 21
27.99987757533472
 31
0.0
210
0.0
220
0.0
230
1.0
 40
0.0033120044
 41
4.791316511436293
 42
6.280228176467486
  0
SPLINE
  5
179
330
1F
100
AcDbEntity
  8
0
  6
Continuous
 62
     8
370
    25
100
AcDbSpline
210
0.0
220
0.0
230
1.0
 70
     8
 71
     3
 72
    18
 73
    14
 74
     0
 42
0.000000001
 43
0.00000001
 40
0.0
 40
0.0
 40
0.0
 40
0.0
 40
0.0954539646207213
 40
0.1939215031682729
 40
0.2893187509603748
 40
0.3871929104976257
 40
0.4881578308569757
 40
0.5920182788491065
 40
0.6926602860084783
 40
0.7970281931547459
 40
0.8857190293513855
 40
0.9776102098612969
 40
1.0
 40
1.0
 40
1.0
 40
1.0
 10
7543.131131368304
 20
4953.726741419568
 30
0.0
 10
7543.185020079377
 20
4952.44343599283
 30
0.0
 10
7543.29449882022
 20
4949.836309946617
 30
0.0
 10
7544.148141488275
 20
4946.06376744453
 30
0.0
 10
7545.411523221524
 20
4942.483567202845
 30
0.0
 10
7547.012863652947
 20
4939.169738347691
 30
0.0
 10
7548.834432242444
 20
4936.134376915044
 30
0.0
 10
7550.685259535512
 20
4933.511560347045
 30
0.0
 10
7552.383775017463
 20
4931.363783894843
 30
0.0
 10
7553.687954261164
 20
4929.840224198304
 30
0.0
 10
7554.492702005172
 20
4928.932547052607
 30
0.0
 10
7554.822247221197
 20
4928.561661362696
 30
0.0
 10
7554.757506956145
 20
4928.620973623662
 30
0.0
 10
7554.744823121384
 20
4928.632594010401
 30
0.0
  0
LWPOLYLINE
  5
17A
330
1F
100
AcDbEntity
  8
0
  6
Continuous
 62
     8
370
    25
100
AcDbPolyline
 90
       18
 70
   128
 43
0.0
 10
7578.8900599397
 20
4953.5763016459
 10
7578.7145310866
 20
4953.5960165512
 10
7578.1904093574
 20
4953.6154546138
 10
7577.3250546311
 20
4953.6343428784
 10
7576.1306184854
 20
4953.65241611
 10
7574.623873561
 20
4953.6694205189
 10
7572.8259780344
 20
4953.6851173239
 10
7570.762178509
 20
4953.6992861056
 10
7568.4614554937
 20
4953.7117279016
 10
7565.9561164504
 20
4953.7222680003
 10
7563.2813421222
 20
4953.7307583945
 10
7560.4746925147
 20
4953.7370798595
 10
7557.5755794668
 20
4953.7411436272
 10
7554.6247132177
 20
4953.742892633
 10
7551.6635307408
 20
4953.7423023168
 10
7548.7336138733
 20
4953.739380968
 10
7545.8761054109
 20
4953.7341696091
 10
7543.1311313683
 20
4953.7267414196
  0
ELLIPSE
  5
17B
330
1F
100
AcDbEntity
  8
0
  6
Continuous
 62
     8
370
    25
100
AcDbEllipse
 10
7553.8900599397
 20
5021.8174258804
 30
0.0
 11
-24.99986288385844
 21
27.99977621744347
 31
0.0
210
0.0
220
0.0
230
1.0
 40
0.002957155
 41
5.160589369800131
 42
6.286497300379128
  0
LINE
  5
17C
330
1F
100
AcDbEntity
  8
0
  6
Continuous
 62
     7
370
    25
100
AcDbLine
 10
6827.4160920048
 20
4369.6992383715
 30
0.0
 11
6827.4115289714
 21
4369.6992383715
 31
0.0
  0
LINE
  5
17D
330
1F
100
AcDbEntity
  8
0
  6
Continuous
 62
     7
370
    25
100
AcDbLine
 10
6827.4115289714
 20
4359.1992383715
 30
0.0
 11
6827.4160920047
 21
4359.1992383715
 31
0.0
  0
ARC
  5
17E
330
1F
100
AcDbEntity
  8
0
  6
Continuous
 62
     7
370
    25
100
AcDbCircle
 10
6827.4162021347
 20
4364.4492383715
 30
0.0
 40
5.250013352787117
100
AcDbArc
 50
98.2142202528
 51
261.7857797472
  0
LWPOLYLINE
  5
17F
330
1F
100
AcDbEntity
  8
0
  6
Continuous
 62
     7
370
    25
100
AcDbPolyline
 90
        9
 70
   128
 43
0.0
 10
6826.6661086709
 20
4369.6453907942
 10
6826.6711598491
 20
4368.4734763915
 10
6826.674867865
 20
4367.1935904347
 10
6826.6771332315
 20
4365.8400726607
 10
6826.677895168
 20
4364.4492383715
 10
6826.6771332315
 20
4363.0584040822
 10
6826.674867865
 20
4361.7048863083
 10
6826.6711598491
 20
4360.4250003514
 10
6826.6661086709
 20
4359.2530859487
  0
ARC
  5
180
330
1F
100
AcDbEntity
  8
0
  6
Continuous
 62
     7
370
    25
100
AcDbCircle
 10
6827.4159818748
 20
4364.4492383715
 30
0.0
 40
5.250013352787117
100
AcDbArc
 50
278.2142202528
 51
81.7857797472
  0
LWPOLYLINE
  5
181
330
1F
100
AcDbEntity
  8
0
  6
Continuous
 62
     7
370
    25
100
AcDbPolyline
 90
        9
 70
   128
 43
0.0
 10
6828.1660753386
 20
4359.2530859487
 10
6828.1711265169
 20
4360.4250003514
 10
6828.1748345328
 20
4361.7048863083
 10
6828.1770998993
 20
4363.0584040822
 10
6828.1778618357
 20
4364.4492383715
 10
6828.1770998993
 20
4365.8400726607
 10
6828.1748345328
 20
4367.1935904347
 10
6828.1711265169
 20
4368.4734763915
 10
6828.1660753386
 20
4369.6453907942
  0
LINE
  5
182
330
1F
100
AcDbEntity
  8
0
  6
Continuous
 62
     7
370
    25
100
AcDbLine
 10
6828.1660753386
 20
4369.6453907942
 30
0.0
 11
6828.1660753386
 21
4359.2530859487
 31
0.0
  0
ARC
  5
183
330
1F
100
AcDbEntity
  8
0
  6
Continuous
 62
     7
370
    25
100
AcDbCircle
 10
6827.4114837738
 20
4364.4491800407
 30
0.0
 40
5.249941669585765
100
AcDbArc
 50
179.9993634015
 51
269.9993633873
  0
ARC
  5
184
330
1F
100
AcDbEntity
  8
0
  6
Continuous
 62
     7
370
    25
100
AcDbCircle
 10
6827.4114837738
 20
4364.4492967022
 30
0.0
 40
5.249941669586689
100
AcDbArc
 50
90.0006366127
 51
180.0006365985
  0
ARC
  5
185
330
1F
100
AcDbEntity
  8
0
  6
Continuous
 62
     7
370
    25
100
AcDbCircle
 10
6827.4160920047
 20
4364.4494702983
 30
0.0
 40
5.249768071130276
100
AcDbArc
 50
81.7866077201
 51
98.2133922799
  0
ARC
  5
186
330
1F
100
AcDbEntity
  8
0
  6
Continuous
 62
     7
370
    25
100
AcDbCircle
 10
6827.4160920047
 20
4364.4490064447
 30
0.0
 40
5.249768071158182
100
AcDbArc
 50
261.7866077202
 51
278.2133922798
  0
LINE
  5
187
330
1F
100
AcDbEntity
  8
0
  6
Continuous
 62
     7
370
    25
100
AcDbLine
 10
7023.0188053361
 20
4513.5410625558
 30
0.0
 11
5525.0188053361
 21
4513.5410625558
 31
0.0
  0
LINE
  5
188
330
1F
100
AcDbEntity
  8
0
  6
Continuous
 62
     7
370
    25
100
AcDbLine
 10
5525.0188053361
 20
4513.5410625558
 30
0.0
 11
5525.0188053361
 21
4514.7371786909
 31
0.0
  0
LINE
  5
189
330
1F
100
AcDbEntity
  8
0
  6
Continuous
 62
     7
370
    25
100
AcDbLine
 10
5525.0188053361
 20
4514.7371786909
 30
0.0
 11
7023.0188053361
 21
4514.7371786909
 31
0.0
  0
LINE
  5
18A
330
1F
100
AcDbEntity
  8
0
  6
Continuous
 62
     7
370
    25
100
AcDbLine
 10
7023.0188053361
 20
4513.5410625558
 30
0.0
 11
7023.0188053361
 21
4514.7371786909
 31
0.0
  0
ARC
  5
18B
330
1F
100
AcDbEntity
  8
0
  6
Continuous
 62
     7
370
    25
100
AcDbCircle
 10
5524.7784207207
 20
4514.9629045356
 30
0.0
 40
1.442019201914413
100
AcDbArc
 50
238.2123876691
 51
279.5960057645
  0
ARC
  5
18C
330
1F
100
AcDbEntity
  8
0
  6
Continuous
 62
     7
370
    25
100
AcDbCircle
 10
5525.0188053361
 20
4513.737178691
 30
0.0
 40
1.0
100
AcDbArc
 50
90.0
 51
180.0
  0
ARC
  5
18D
330
1F
100
AcDbEntity
  8
0
  6
Continuous
 62
     7
370
    25
100
AcDbCircle
 10
7023.0188053361
 20
4513.737178691
 30
0.0
 40
0.9999999999990905
100
AcDbArc
 50
0.0
 51
90.0
  0
ARC
  5
18E
330
1F
100
AcDbEntity
  8
0
  6
Continuous
 62
     7
370
    25
100
AcDbCircle
 10
7023.2591899515
 20
4514.9629045356
 30
0.0
 40
1.442019201908344
100
AcDbArc
 50
260.4039942353
 51
301.787612331
  0
LINE
  5
18F
330
1F
100
AcDbEntity
  8
0
  6
Continuous
 62
     7
370
    25
100
AcDbLine
 10
7023.0188053361
 20
4465.5410625558
 30
0.0
 11
7023.0188053361
 21
4513.5410625558
 31
0.0
  0
LINE
  5
190
330
1F
100
AcDbEntity
  8
0
  6
Continuous
 62
     7
370
    25
100
AcDbLine
 10
5525.0188053361
 20
4465.5410625558
 30
0.0
 11
7023.0188053361
 21
4465.5410625558
 31
0.0
  0
LINE
  5
191
330
1F
100
AcDbEntity
  8
0
  6
Continuous
 62
     7
370
    25
100
AcDbLine
 10
5525.0188053361
 20
4513.5410625558
 30
0.0
 11
5525.0188053361
 21
4465.5410625558
 31
0.0
  0
LINE
  5
192
330
1F
100
AcDbEntity
  8
0
  6
Continuous
 62
     7
370
    25
100
AcDbLine
 10
7024.0188053361
 20
4513.737178691
 30
0.0
 11
7024.0188053361
 21
4465.737178691
 31
0.0
  0
ARC
  5
193
330
1F
100
AcDbEntity
  8
0
  6
Continuous
 62
     7
370
    25
100
AcDbCircle
 10
7023.2591899515
 20
4466.9629045356
 30
0.0
 40
1.442019201907564
100
AcDbArc
 50
260.4039942353
 51
301.787612331
  0
ARC
  5
194
330
1F
100
AcDbEntity
  8
0
  6
Continuous
 62
     7
370
    25
100
AcDbCircle
 10
5524.7784207207
 20
4466.9629045356
 30
0.0
 40
1.442019201914413
100
AcDbArc
 50
238.2123876691
 51
279.5960057646
  0
LINE
  5
195
330
1F
100
AcDbEntity
  8
0
  6
Continuous
 62
     7
370
    25
100
AcDbLine
 10
5524.0188053361
 20
4465.737178691
 30
0.0
 11
5524.0188053361
 21
4513.737178691
 31
0.0
  0
LINE
  5
196
330
1F
100
AcDbEntity
  8
0
  6
Continuous
 62
     7
370
    25
100
AcDbLine
 10
7023.0188053361
 20
4464.737178691
 30
0.0
 11
5525.0188053361
 21
4464.737178691
 31
0.0
  0
LINE
  5
197
330
1F
100
AcDbEntity
  8
0
  6
Continuous
 62
     7
370
    25
100
AcDbLine
 10
5525.0188053361
 20
4464.737178691
 30
0.0
 11
5525.0188053361
 21
4465.5410625558
 31
0.0
  0
LINE
  5
198
330
1F
100
AcDbEntity
  8
0
  6
Continuous
 62
     7
370
    25
100
AcDbLine
 10
7023.0188053361
 20
4464.737178691
 30
0.0
 11
7023.0188053361
 21
4465.5410625558
 31
0.0
  0
ARC
  5
199
330
1F
100
AcDbEntity
  8
0
  6
Continuous
 62
     7
370
    25
100
AcDbCircle
 10
7023.0188053361
 20
4465.737178691
 30
0.0
 40
1.0
100
AcDbArc
 50
270.0
 51
0.0
  0
ARC
  5
19A
330
1F
100
AcDbEntity
  8
0
  6
Continuous
 62
     7
370
    25
100
AcDbCircle
 10
5525.0188053361
 20
4465.737178691
 30
0.0
 40
1.0
100
AcDbArc
 50
180.0
 51
270.0
  0
LINE
  5
19B
330
1F
100
AcDbEntity
  8
0
  6
Continuous
 62
     7
370
    25
100
AcDbLine
 10
5563.0188053361
 20
4463.737178691
 30
0.0
 11
5564.0188053361
 21
4463.737178691
 31
0.0
  0
LINE
  5
19C
330
1F
100
AcDbEntity
  8
0
  6
Continuous
 62
     7
370
    25
100
AcDbLine
 10
5563.0188053361
 20
4463.737178691
 30
0.0
 11
5563.0188053361
 21
4464.737178691
 31
0.0
  0
ARC
  5
19D
330
1F
100
AcDbEntity
  8
0
  6
Continuous
 62
     7
370
    25
100
AcDbCircle
 10
5565.0188053361
 20
4463.737178691
 30
0.0
 40
1.0
100
AcDbArc
 50
90.0
 51
180.0
  0
LINE
  5
19E
330
1F
100
AcDbEntity
  8
0
  6
Continuous
 62
     7
370
    25
100
AcDbLine
 10
7023.0188053361
 20
4464.737178691
 30
0.0
 11
7023.0188053361
 21
4463.737178691
 31
0.0
  0
LINE
  5
19F
330
1F
100
AcDbEntity
  8
0
  6
Continuous
 62
     7
370
    25
100
AcDbLine
 10
7023.0188053361
 20
4463.737178691
 30
0.0
 11
6985.0188053361
 21
4463.737178691
 31
0.0
  0
LINE
  5
1A0
330
1F
100
AcDbEntity
  8
0
  6
Continuous
 62
     7
370
    25
100
AcDbLine
 10
6985.0188053361
 20
4464.737178691
 30
0.0
 11
6985.0188053361
 21
4463.737178691
 31
0.0
  0
LINE
  5
1A1
330
1F
100
AcDbEntity
  8
0
  6
Continuous
 62
     7
370
    25
100
AcDbLine
 10
5563.0188053361
 20
4463.737178691
 30
0.0
 11
5525.0188053361
 21
4463.737178691
 31
0.0
  0
LINE
  5
1A2
330
1F
100
AcDbEntity
  8
0
  6
Continuous
 62
     7
370
    25
100
AcDbLine
 10
5525.0188053361
 20
4463.737178691
 30
0.0
 11
5525.0188053361
 21
4464.737178691
 31
0.0
  0
LINE
  5
1A3
330
1F
100
AcDbEntity
  8
0
  6
Continuous
 62
     7
370
    25
100
AcDbLine
 10
5525.0188053361
 20
4463.737178691
 30
0.0
 11
5524.0188053361
 21
4463.737178691
 31
0.0
  0
LINE
  5
1A4
330
1F
100
AcDbEntity
  8
0
  6
Continuous
 62
     7
370
    25
100
AcDbLine
 10
5524.0188053361
 20
4465.737178691
 30
0.0
 11
5524.0188053361
 21
4463.737178691
 31
0.0
  0
LINE
  5
1A5
330
1F
100
AcDbEntity
  8
0
  6
Continuous
 62
     7
370
    25
100
AcDbLine
 10
7024.0188053361
 20
4463.737178691
 30
0.0
 11
7023.0188053361
 21
4463.737178691
 31
0.0
  0
LINE
  5
1A6
330
1F
100
AcDbEntity
  8
0
  6
Continuous
 62
     7
370
    25
100
AcDbLine
 10
7024.0188053361
 20
4463.737178691
 30
0.0
 11
7024.0188053361
 21
4465.737178691
 31
0.0
  0
LINE
  5
1A7
330
1F
100
AcDbEntity
  8
0
  6
Continuous
 62
     7
370
    25
100
AcDbLine
 10
6984.0188053361
 20
4463.737178691
 30
0.0
 11
6985.0188053361
 21
4463.737178691
 31
0.0
  0
ARC
  5
1A8
330
1F
100
AcDbEntity
  8
0
  6
Continuous
 62
     7
370
    25
100
AcDbCircle
 10
6983.0188053361
 20
4463.737178691
 30
0.0
 40
1.0
100
AcDbArc
 50
0.0
 51
90.0
  0
LINE
  5
1A9
330
1F
100
AcDbEntity
  8
0
  6
Continuous
 62
     7
370
    25
100
AcDbLine
 10
7024.0188053361
 20
4065.737178691
 30
0.0
 11
7023.0188053361
 21
4065.737178691
 31
0.0
  0
LINE
  5
1AA
330
1F
100
AcDbEntity
  8
0
  6
Continuous
 62
     7
370
    25
100
AcDbLine
 10
7023.0188053361
 20
4065.737178691
 30
0.0
 11
7023.0188053361
 21
4463.737178691
 31
0.0
  0
LINE
  5
1AB
330
1F
100
AcDbEntity
  8
0
  6
Continuous
 62
     7
370
    25
100
AcDbLine
 10
7024.0188053361
 20
4463.737178691
 30
0.0
 11
7024.0188053361
 21
4065.737178691
 31
0.0
  0
LINE
  5
1AC
330
1F
100
AcDbEntity
  8
0
  6
Continuous
 62
     7
370
    25
100
AcDbLine
 10
6983.0188053361
 20
4104.1568561555
 30
0.0
 11
5565.0188053361
 21
4104.1568561555
 31
0.0
  0
ELLIPSE
  5
1AD
330
1F
100
AcDbEntity
  8
0
  6
Continuous
 62
     7
370
    25
100
AcDbEllipse
 10
6983.0188053361
 20
4106.4603583693
 30
0.0
 11
0.0
 21
-2.30350221380013
 31
0.0
210
0.0
220
0.0
230
1.0
 40
0.8682431421
 41
0.0
 42
1.570796326794897
  0
LINE
  5
1AE
330
1F
100
AcDbEntity
  8
0
  6
Continuous
 62
     7
370
    25
100
AcDbLine
 10
6985.0188053361
 20
4463.737178691
 30
0.0
 11
6985.0188053361
 21
4106.4603583693
 31
0.0
  0
LINE
  5
1AF
330
1F
100
AcDbEntity
  8
0
  6
Continuous
 62
     7
370
    25
100
AcDbLine
 10
5525.0188053361
 20
4065.737178691
 30
0.0
 11
7023.0188053361
 21
4065.737178691
 31
0.0
  0
LINE
  5
1B0
330
1F
100
AcDbEntity
  8
0
  6
Continuous
 62
     7
370
    25
100
AcDbLine
 10
5525.0188053361
 20
4463.737178691
 30
0.0
 11
5525.0188053361
 21
4065.737178691
 31
0.0
  0
LINE
  5
1B1
330
1F
100
AcDbEntity
  8
0
  6
Continuous
 62
     7
370
    25
100
AcDbLine
 10
5563.0188053361
 20
4106.4603583693
 30
0.0
 11
5563.0188053361
 21
4463.737178691
 31
0.0
  0
ELLIPSE
  5
1B2
330
1F
100
AcDbEntity
  8
0
  6
Continuous
 62
     7
370
    25
100
AcDbEllipse
 10
5565.0188053361
 20
4106.4603583693
 30
0.0
 11
0.0
 21
-2.30350221380013
 31
0.0
210
0.0
220
0.0
230
1.0
 40
0.8682431421
 41
4.712388980384702
 42
6.283185307179586
  0
LINE
  5
1B3
330
1F
100
AcDbEntity
  8
0
  6
Continuous
 62
     7
370
    25
100
AcDbLine
 10
5564.0188053361
 20
4463.737178691
 30
0.0
 11
5564.0188053361
 21
4106.4603583693
 31
0.0
  0
LINE
  5
1B4
330
1F
100
AcDbEntity
  8
0
  6
Continuous
 62
     7
370
    25
100
AcDbLine
 10
5563.0188053361
 20
4106.4603583693
 30
0.0
 11
5564.0188053361
 21
4106.4603583693
 31
0.0
  0
LINE
  5
1B5
330
1F
100
AcDbEntity
  8
0
  6
Continuous
 62
     7
370
    25
100
AcDbLine
 10
6984.0188053361
 20
4106.4603583693
 30
0.0
 11
6984.0188053361
 21
4463.737178691
 31
0.0
  0
LINE
  5
1B6
330
1F
100
AcDbEntity
  8
0
  6
Continuous
 62
     7
370
    25
100
AcDbLine
 10
6984.0188053361
 20
4106.4603583693
 30
0.0
 11
6985.0188053361
 21
4106.4603583693
 31
0.0
  0
LINE
  5
1B7
330
1F
100
AcDbEntity
  8
0
  6
Continuous
 62
     7
370
    25
100
AcDbLine
 10
5525.0188053361
 20
4065.737178691
 30
0.0
 11
5524.0188053361
 21
4065.737178691
 31
0.0
  0
LINE
  5
1B8
330
1F
100
AcDbEntity
  8
0
  6
Continuous
 62
     7
370
    25
100
AcDbLine
 10
5524.0188053361
 20
4065.737178691
 30
0.0
 11
5524.0188053361
 21
4463.737178691
 31
0.0
  0
ELLIPSE
  5
1B9
330
1F
100
AcDbEntity
  8
0
  6
Continuous
 62
     7
370
    25
100
AcDbEllipse
 10
5565.0188053361
 20
4106.4603583693
 30
0.0
 11
0.0
 21
1.435259071674409
 31
0.0
210
0.0
220
0.0
230
1.0
 40
0.6967383239
 41
1.570796326794897
 42
3.141592653589793
  0
LINE
  5
1BA
330
1F
100
AcDbEntity
  8
0
  6
Continuous
 62
     7
370
    25
100
AcDbLine
 10
5565.0188053361
 20
4104.1568561555
 30
0.0
 11
5565.0188053361
 21
4105.0250992976
 31
0.0
  0
LINE
  5
1BB
330
1F
100
AcDbEntity
  8
0
  6
Continuous
 62
     7
370
    25
100
AcDbLine
 10
5565.0188053361
 20
4105.0250992976
 30
0.0
 11
6983.0188053361
 21
4105.0250992976
 31
0.0
  0
LINE
  5
1BC
330
1F
100
AcDbEntity
  8
0
  6
Continuous
 62
     7
370
    25
100
AcDbLine
 10
6983.0188053361
 20
4104.1568561555
 30
0.0
 11
6983.0188053361
 21
4105.0250992976
 31
0.0
  0
ELLIPSE
  5
1BD
330
1F
100
AcDbEntity
  8
0
  6
Continuous
 62
     7
370
    25
100
AcDbEllipse
 10
6983.0188053361
 20
4106.4603583693
 30
0.0
 11
0.0
 21
1.435259071674409
 31
0.0
210
0.0
220
0.0
230
1.0
 40
0.6967383239
 41
3.141592653589793
 42
4.712388980384699
  0
LINE
  5
1BE
330
1F
100
AcDbEntity
  8
0
  6
Continuous
 62
     7
370
    25
100
AcDbLine
 10
7023.0188053361
 20
4064.737178691
 30
0.0
 11
7023.0188053361
 21
4065.737178691
 31
0.0
  0
ARC
  5
1BF
330
1F
100
AcDbEntity
  8
0
  6
Continuous
 62
     7
370
    25
100
AcDbCircle
 10
7023.0188053361
 20
4065.737178691
 30
0.0
 40
0.9999999999990905
100
AcDbArc
 50
270.0
 51
0.0
  0
ARC
  5
1C0
330
1F
100
AcDbEntity
  8
0
  6
Continuous
 62
     7
370
    25
100
AcDbCircle
 10
5525.0188053361
 20
4065.737178691
 30
0.0
 40
1.0
100
AcDbArc
 50
180.0
 51
270.0
  0
LINE
  5
1C1
330
1F
100
AcDbEntity
  8
0
  6
Continuous
 62
     7
370
    25
100
AcDbLine
 10
5525.0188053361
 20
4064.737178691
 30
0.0
 11
5525.0188053361
 21
4065.737178691
 31
0.0
  0
LINE
  5
1C2
330
1F
100
AcDbEntity
  8
0
  6
Continuous
 62
     7
370
    25
100
AcDbLine
 10
7023.0188053361
 20
4064.737178691
 30
0.0
 11
5525.0188053361
 21
4064.737178691
 31
0.0
  0
LINE
  5
1C3
330
1F
100
AcDbEntity
  8
0
  6
Continuous
 62
     7
370
    25
100
AcDbLine
 10
5565.0188053361
 20
4258.8911501479
 30
0.0
 11
5565.0188053361
 21
4105.0250992976
 31
0.0
  0
LINE
  5
1C4
330
1F
100
AcDbEntity
  8
0
  6
Continuous
 62
     7
370
    25
100
AcDbLine
 10
6983.0188053361
 20
4264.2930549098
 30
0.0
 11
5565.0188053361
 21
4258.8911501479
 31
0.0
  0
LINE
  5
1C5
330
1F
100
AcDbEntity
  8
0
  6
Continuous
 62
     7
370
    25
100
AcDbLine
 10
6983.0188053361
 20
4105.0250992976
 30
0.0
 11
6983.0188053361
 21
4264.2930549098
 31
0.0
  0
ARC
  5
1C6
330
1F
100
AcDbEntity
  8
0
  6
Continuous
 62
     7
370
    25
100
AcDbCircle
 10
5564.9572668746
 20
4259.8302702812
 30
0.0
 40
0.9411342130939045
100
AcDbArc
 50
184.3190449706
 51
273.7491055295
  0
ARC
  5
1C7
330
1F
100
AcDbEntity
  8
0
  6
Continuous
 62
     7
370
    25
100
AcDbCircle
 10
6983.0803437976
 20
4265.2321750432
 30
0.0
 40
0.9411342130901716
100
AcDbArc
 50
266.2508944704
 51
355.6809550296
  0
LINE
  5
1C8
330
1F
100
AcDbEntity
  8
0
  6
Continuous
 62
     7
370
    25
100
AcDbLine
 10
6983.0121388176
 20
4463.737178691
 30
0.0
 11
5565.0121388176
 21
4463.737178691
 31
0.0
  0
ARC
  5
1C9
330
1F
100
AcDbEntity
  8
0
  6
Continuous
 62
     7
370
    25
100
AcDbCircle
 10
5602.5179720403
 20
4463.9871675803
 30
0.0
 40
37.50666634314886
100
AcDbArc
 50
178.8541947384
 51
180.3818898274
  0
ARC
  5
1CA
330
1F
100
AcDbEntity
  8
0
  6
Continuous
 62
     7
370
    25
100
AcDbCircle
 10
7020.5179720318
 20
4463.9871675803
 30
0.0
 40
37.50666633459995
100
AcDbArc
 50
178.8541947381
 51
180.3818898276
  0
LINE
  5
1CB
330
1F
100
AcDbEntity
  8
0
  6
Continuous
 62
     7
370
    25
100
AcDbLine
 10
5564.0188053361
 20
4463.737178691
 30
0.0
 11
5565.0121388176
 21
4463.737178691
 31
0.0
  0
LINE
  5
1CC
330
1F
100
AcDbEntity
  8
0
  6
Continuous
 62
     7
370
    25
100
AcDbLine
 10
5565.0121388176
 20
4463.737178691
 30
0.0
 11
5565.0121388176
 21
4259.7593932901
 31
0.0
  0
LINE
  5
1CD
330
1F
100
AcDbEntity
  8
0
  6
Continuous
 62
     7
370
    25
100
AcDbLine
 10
5564.0188053361
 20
4259.7593932901
 30
0.0
 11
5565.0121388176
 21
4259.7593932901
 31
0.0
  0
ARC
  5
1CE
330
1F
100
AcDbEntity
  8
0
  6
Continuous
 62
     7
370
    25
100
AcDbCircle
 10
5652.5716587849
 20
4259.9975430128
 30
0.0
 40
87.55984383376044
100
AcDbArc
 50
180.1558361714
 51
180.7240000197
  0
LINE
  5
1CF
330
1F
100
AcDbEntity
  8
0
  6
Continuous
 62
     7
370
    25
100
AcDbLine
 10
5565.0121388176
 20
4259.7593932901
 30
0.0
 11
6983.0121388176
 21
4265.161298052
 31
0.0
  0
ARC
  5
1D0
330
1F
100
AcDbEntity
  8
0
  6
Continuous
 62
     7
370
    25
100
AcDbCircle
 10
7070.5716587884
 20
4265.3994477748
 30
0.0
 40
87.55984383731231
100
AcDbArc
 50
180.1558361715
 51
180.7240000198
  0
LINE
  5
1D1
330
1F
100
AcDbEntity
  8
0
  6
Continuous
 62
     7
370
    25
100
AcDbLine
 10
6983.0121388176
 20
4265.161298052
 30
0.0
 11
6983.0121388176
 21
4463.737178691
 31
0.0
  0
LINE
  5
1D2
330
1F
100
AcDbEntity
  8
0
  6
Continuous
 62
     7
370
    25
100
AcDbLine
 10
6983.0121388176
 20
4463.737178691
 30
0.0
 11
6984.0188053361
 21
4463.737178691
 31
0.0
  0
LINE
  5
1D3
330
1F
100
AcDbEntity
  8
0
  6
Continuous
 62
     7
370
    25
100
AcDbLine
 10
6983.0121388176
 20
4265.161298052
 30
0.0
 11
6984.0188053361
 21
4265.161298052
 31
0.0
  0
CIRCLE
  5
1D4
330
1F
100
AcDbEntity
  8
0
  6
Continuous
 62
     7
370
    25
100
AcDbCircle
 10
6827.5085168352
 20
4364.4486950121
 30
0.0
 40
34.99945664068406
  0
CIRCLE
  5
1D5
330
1F
100
AcDbEntity
  8
0
  6
Continuous
 62
     7
370
    25
100
AcDbCircle
 10
6827.5039889271
 20
4364.448692385
 30
0.0
 40
35.16867346348705
  0
CIRCLE
  5
1D6
330
1F
100
AcDbEntity
  8
0
  6
Continuous
 62
     7
370
    25
100
AcDbCircle
 10
6827.4918425247
 20
4364.4488592353
 30
0.0
 40
24.96474630823098
  0
CIRCLE
  5
1D7
330
1F
100
AcDbEntity
  8
0
  6
Continuous
 62
     7
370
    25
100
AcDbCircle
 10
6827.4708579619
 20
4364.4489037289
 30
0.0
 40
21.99966535748815
  0
CIRCLE
  5
1D8
330
1F
100
AcDbEntity
  8
0
  6
Continuous
 62
     7
370
    25
100
AcDbCircle
 10
6827.4172811799
 20
4364.4489359803
 30
0.0
 40
20.49969760888884
  0
CIRCLE
  5
1D9
330
1F
100
AcDbEntity
  8
0
  6
Continuous
 62
     7
370
    25
100
AcDbCircle
 10
6827.4118391572
 20
4364.4489314236
 30
0.0
 40
19.48670068645121
  0
CIRCLE
  5
1DA
330
1F
100
AcDbEntity
  8
0
  6
Continuous
 62
     7
370
    25
100
AcDbCircle
 10
6827.411821571
 20
4364.4491503687
 30
0.0
 40
5.699911997281625
  0
CIRCLE
  5
1DB
330
1F
100
AcDbEntity
  8
0
  6
Continuous
 62
     7
370
    25
100
AcDbCircle
 10
6827.4118180518
 20
4377.4491764285
 30
0.0
 40
3.999938057055337
  0
CIRCLE
  5
1DC
330
1F
100
AcDbEntity
  8
0
  6
Continuous
 62
     7
370
    25
100
AcDbCircle
 10
6816.1537379794
 20
4370.9491764285
 30
0.0
 40
3.999938057053518
  0
CIRCLE
  5
1DD
330
1F
100
AcDbEntity
  8
0
  6
Continuous
 62
     7
370
    25
100
AcDbCircle
 10
6816.1537379794
 20
4357.9491764285
 30
0.0
 40
3.999938057053518
  0
CIRCLE
  5
1DE
330
1F
100
AcDbEntity
  8
0
  6
Continuous
 62
     7
370
    25
100
AcDbCircle
 10
6827.4118180518
 20
4351.4491764285
 30
0.0
 40
3.999938057055337
  0
CIRCLE
  5
1DF
330
1F
100
AcDbEntity
  8
0
  6
Continuous
 62
     7
370
    25
100
AcDbCircle
 10
6838.6698981242
 20
4357.9491764285
 30
0.0
 40
3.999938057055337
  0
CIRCLE
  5
1E0
330
1F
100
AcDbEntity
  8
0
  6
Continuous
 62
     7
370
    25
100
AcDbCircle
 10
6838.6698981242
 20
4370.9491764285
 30
0.0
 40
3.999938057055337
  0
ARC
  5
1E1
330
1F
100
AcDbEntity
  8
0
  6
Continuous
 62
     7
370
    25
100
AcDbCircle
 10
6816.1489896466
 20
4357.9492383715
 30
0.0
 40
4.000000000527516
100
AcDbArc
 50
270.0009297171
 51
89.9990702828
  0
ARC
  5
1E2
330
1F
100
AcDbEntity
  8
0
  6
Continuous
 62
     7
370
    25
100
AcDbCircle
 10
6816.1489896466
 20
4370.9492383715
 30
0.0
 40
4.000000000526606
100
AcDbArc
 50
270.0009297171
 51
89.9990702828
  0
ARC
  5
1E3
330
1F
100
AcDbEntity
  8
0
  6
Continuous
 62
     7
370
    25
100
AcDbCircle
 10
6827.4070697191
 20
4377.4492383715
 30
0.0
 40
4.000000000527516
100
AcDbArc
 50
270.0009297171
 51
89.9990702828
  0
ARC
  5
1E4
330
1F
100
AcDbEntity
  8
0
  6
Continuous
 62
     7
370
    25
100
AcDbCircle
 10
6827.4070697191
 20
4351.4492383715
 30
0.0
 40
4.000000000527516
100
AcDbArc
 50
270.0009297171
 51
89.9990702828
  0
ARC
  5
1E5
330
1F
100
AcDbEntity
  8
0
  6
Continuous
 62
     7
370
    25
100
AcDbCircle
 10
6838.6651497915
 20
4370.9492383715
 30
0.0
 40
4.000000000527516
100
AcDbArc
 50
270.0009297172
 51
89.9990702828
  0
ARC
  5
1E6
330
1F
100
AcDbEntity
  8
0
  6
Continuous
 62
     7
370
    25
100
AcDbCircle
 10
6838.6651497915
 20
4357.9492383715
 30
0.0
 40
4.000000000527516
100
AcDbArc
 50
270.0009297172
 51
89.9990702828
  0
ARC
  5
1E7
330
1F
100
AcDbEntity
  8
0
  6
Continuous
 62
     7
370
    25
100
AcDbCircle
 10
6826.0815154314
 20
4394.448432586
 30
0.0
 40
26.99921658398853
100
AcDbArc
 50
289.6584285335
 51
306.6880047133
  0
SPLINE
  5
1E8
330
1F
100
AcDbEntity
  8
0
  6
Continuous
 62
     7
370
    25
100
AcDbSpline
210
0.0
220
0.0
230
1.0
 70
     8
 71
     3
 72
    11
 73
     7
 74
     0
 42
0.000000001
 43
0.00000001
 40
0.0
 40
0.0
 40
0.0
 40
0.0
 40
0.0216393938786116
 40
0.3781254568322703
 40
0.7427790200681689
 40
1.0
 40
1.0
 40
1.0
 40
1.0
 10
6842.175614589602
 20
4372.735982280592
 30
0.0
 10
6842.139584399458
 20
4372.706890280433
 30
0.0
 10
6841.509995041078
 20
4372.198538433262
 30
0.0
 10
6839.883441720374
 20
4371.18863104289
 30
0.0
 10
6837.593904866112
 20
4369.93736183796
 30
0.0
 10
6835.870447777803
 20
4369.301506995776
 30
0.0
 10
6835.157588044284
 20
4369.038503456883
 30
0.0
  0
SPLINE
  5
1E9
330
1F
100
AcDbEntity
  8
0
  6
Continuous
 62
     7
370
    25
100
AcDbSpline
210
0.0
220
0.0
230
1.0
 70
     8
 71
     3
 72
    11
 73
     7
 74
     0
 42
0.000000001
 43
0.00000001
 40
0.0
 40
0.0
 40
0.0
 40
0.0
 40
0.07838263843147
 40
0.5135935045584865
 40
0.9645371722633567
 40
0.9999999999999999
 40
0.9999999999999999
 40
0.9999999999999999
 40
0.9999999999999999
 10
6819.116824319422
 20
4368.367616510166
 30
0.0
 10
6818.912886793436
 20
4368.423770982548
 30
0.0
 10
6817.576608878091
 20
4368.791716905839
 30
0.0
 10
6815.223717737673
 20
4369.670563521031
 30
0.0
 10
6813.246135227809
 20
4370.682999802298
 30
0.0
 10
6812.315802051049
 20
4371.248222847662
 30
0.0
 10
6812.247973505389
 20
4371.289432016697
 30
0.0
  0
ENDSEC
  0
SECTION
  2
OBJECTS
  0
DICTIONARY
  5
C
330
0
100
AcDbDictionary
281
     1
  3
ACAD_GROUP
350
D
  3
ACAD_LAYOUT
350
1A
  3
ACAD_MLINESTYLE
350
17
  3
ACAD_PLOTSETTINGS
350
19
  3
ACAD_PLOTSTYLENAME
350
E
  3
ACAD_SCALELIST
350
47
  0
DICTIONARY
  5
D
102
{ACAD_REACTORS
330
C
102
}
330
C
100
AcDbDictionary
281
     1
  0
DICTIONARY
  5
1A
102
{ACAD_REACTORS
330
C
102
}
330
C
100
AcDbDictionary
281
     1
  3
Layout1
350
1E
  3
Layout2
350
26
  3
Model
350
22
  0
DICTIONARY
  5
17
102
{ACAD_REACTORS
330
C
102
}
330
C
100
AcDbDictionary
281
     1
  3
Standard
350
18
  0
DICTIONARY
  5
19
102
{ACAD_REACTORS
330
C
102
}
330
C
100
AcDbDictionary
281
     1
  0
ACDBDICTIONARYWDFLT
  5
E
102
{ACAD_REACTORS
330
C
102
}
330
C
100
AcDbDictionary
281
     1
  3
Normal
350
F
100
AcDbDictionaryWithDefault
340
F
  0
DICTIONARY
  5
47
102
{ACAD_REACTORS
330
C
102
}
330
C
100
AcDbDictionary
281
     1
  3
A0
350
48
  3
A1
350
49
  3
A2
350
4A
  3
A3
350
4B
  3
A4
350
4C
  3
A5
350
4D
  3
A6
350
4E
  3
A7
350
4F
  3
A8
350
50
  3
A9
350
51
  3
B0
350
52
  3
B1
350
53
  3
B2
350
54
  3
B3
350
55
  3
B4
350
56
  3
B5
350
57
  3
B6
350
58
  3
B7
350
59
  3
B8
350
5A
  3
B9
350
5B
  3
C0
350
5C
  3
C1
350
5D
  3
C2
350
5E
  3
C3
350
5F
  3
C4
350
60
  3
C5
350
61
  3
C6
350
62
  3
C7
350
63
  3
C8
350
64
  3
C9
350
65
  3
D0
350
66
  3
D1
350
67
  3
D2
350
68
  0
LAYOUT
  5
1E
102
{ACAD_REACTORS
330
1A
102
}
330
1A
100
AcDbPlotSettings
  1

  2
none_device
  4

  6

 40
0.0
 41
0.0
 42
0.0
 43
0.0
 44
0.0
 45
0.0
 46
0.0
 47
0.0
 48
0.0
 49
0.0
140
0.0
141
0.0
142
1.0
143
1.0
 70
   688
 72
     1
 73
     0
 74
     5
  7

 75
    16
147
1.0
148
0.0
149
0.0
100
AcDbLayout
  1
Layout1
 70
     1
 71
     1
 10
0.0
 20
0.0
 11
420.0
 21
297.0
 12
0.0
 22
0.0
 32
0.0
 14
1.0000000000E+20
 24
1.0000000000E+20
 34
1.0000000000E+20
 15
-1.0000000000E+20
 25
-1.0000000000E+20
 35
-1.0000000000E+20
146
0.0
 13
0.0
 23
0.0
 33
0.0
 16
1.0
 26
0.0
 36
0.0
 17
0.0
 27
1.0
 37
0.0
 76
     0
330
1B
  0
LAYOUT
  5
26
102
{ACAD_REACTORS
330
1A
102
}
330
1A
100
AcDbPlotSettings
  1

  2
none_device
  4

  6

 40
0.0
 41
0.0
 42
0.0
 43
0.0
 44
0.0
 45
0.0
 46
0.0
 47
0.0
 48
0.0
 49
0.0
140
0.0
141
0.0
142
1.0
143
1.0
 70
   688
 72
     1
 73
     0
 74
     5
  7

 75
    16
147
1.0
148
0.0
149
0.0
100
AcDbLayout
  1
Layout2
 70
     1
 71
     2
 10
0.0
 20
0.0
 11
0.0
 21
0.0
 12
0.0
 22
0.0
 32
0.0
 14
0.0
 24
0.0
 34
0.0
 15
0.0
 25
0.0
 35
0.0
146
0.0
 13
0.0
 23
0.0
 33
0.0
 16
1.0
 26
0.0
 36
0.0
 17
0.0
 27
1.0
 37
0.0
 76
     0
330
23
  0
LAYOUT
  5
22
102
{ACAD_REACTORS
330
1A
102
}
330
1A
100
AcDbPlotSettings
  1

  2
none_device
  4
Letter_(8.50_x_11.00_Inches)
  6

 40
6.35
 41
6.35
 42
6.35000508
 43
6.35000508
 44
215.9
 45
279.4
 46
0.0
 47
0.0
 48
0.0
 49
0.0
140
0.0
141
0.0
142
1.0
143
1.0
 70
  1712
 72
     1
 73
     0
 74
     0
  7

 75
     0
147
1.0
148
0.0
149
0.0
100
AcDbLayout
  1
Model
 70
     1
 71
     0
 10
0.0
 20
0.0
 11
20000.0
 21
10000.0
 12
0.0
 22
0.0
 32
0.0
 14
0.0
 24
0.0
 34
0.0
 15
20000.0
 25
10000.0
 35
0.0
146
0.0
 13
0.0
 23
0.0
 33
0.0
 16
1.0
 26
0.0
 36
0.0
 17
0.0
 27
1.0
 37
0.0
 76
     0
330
1F
331
29
  0
MLINESTYLE
  5
18
102
{ACAD_REACTORS
330
17
102
}
330
17
100
AcDbMlineStyle
  2
Standard
 70
     0
  3

 62
   256
 51
90.0
 52
90.0
 71
     2
 49
0.5
 62
   256
  6
BYLAYER
 49
-0.5
 62
   256
  6
BYLAYER
  0
ACDBPLACEHOLDER
  5
F
102
{ACAD_REACTORS
330
E
102
}
330
E
  0
SCALE
  5
48
102
{ACAD_REACTORS
330
47
102
}
330
47
100
AcDbScale
 70
     0
300
1:1
140
1.0
141
1.0
290
     1
  0
SCALE
  5
49
102
{ACAD_REACTORS
330
47
102
}
330
47
100
AcDbScale
 70
     0
300
1:2
140
1.0
141
2.0
290
     0
  0
SCALE
  5
4A
102
{ACAD_REACTORS
330
47
102
}
330
47
100
AcDbScale
 70
     0
300
1:4
140
1.0
141
4.0
290
     0
  0
SCALE
  5
4B
102
{ACAD_REACTORS
330
47
102
}
330
47
100
AcDbScale
 70
     0
300
1:5
140
1.0
141
5.0
290
     0
  0
SCALE
  5
4C
102
{ACAD_REACTORS
330
47
102
}
330
47
100
AcDbScale
 70
     0
300
1:8
140
1.0
141
8.0
290
     0
  0
SCALE
  5
4D
102
{ACAD_REACTORS
330
47
102
}
330
47
100
AcDbScale
 70
     0
300
1:10
140
1.0
141
10.0
290
     0
  0
SCALE
  5
4E
102
{ACAD_REACTORS
330
47
102
}
330
47
100
AcDbScale
 70
     0
300
1:16
140
1.0
141
16.0
290
     0
  0
SCALE
  5
4F
102
{ACAD_REACTORS
330
47
102
}
330
47
100
AcDbScale
 70
     0
300
1:20
140
1.0
141
20.0
290
     0
  0
SCALE
  5
50
102
{ACAD_REACTORS
330
47
102
}
330
47
100
AcDbScale
 70
     0
300
1:30
140
1.0
141
30.0
290
     0
  0
SCALE
  5
51
102
{ACAD_REACTORS
330
47
102
}
330
47
100
AcDbScale
 70
     0
300
1:40
140
1.0
141
40.0
290
     0
  0
SCALE
  5
52
102
{ACAD_REACTORS
330
47
102
}
330
47
100
AcDbScale
 70
     0
300
1:50
140
1.0
141
50.0
290
     0
  0
SCALE
  5
53
102
{ACAD_REACTORS
330
47
102
}
330
47
100
AcDbScale
 70
     0
300
1:100
140
1.0
141
100.0
290
     0
  0
SCALE
  5
54
102
{ACAD_REACTORS
330
47
102
}
330
47
100
AcDbScale
 70
     0
300
2:1
140
2.0
141
1.0
290
     0
  0
SCALE
  5
55
102
{ACAD_REACTORS
330
47
102
}
330
47
100
AcDbScale
 70
     0
300
4:1
140
4.0
141
1.0
290
     0
  0
SCALE
  5
56
102
{ACAD_REACTORS
330
47
102
}
330
47
100
AcDbScale
 70
     0
300
8:1
140
8.0
141
1.0
290
     0
  0
SCALE
  5
57
102
{ACAD_REACTORS
330
47
102
}
330
47
100
AcDbScale
 70
     0
300
10:1
140
10.0
141
1.0
290
     0
  0
SCALE
  5
58
102
{ACAD_REACTORS
330
47
102
}
330
47
100
AcDbScale
 70
     0
300
100:1
140
100.0
141
1.0
290
     0
  0
SCALE
  5
59
102
{ACAD_REACTORS
330
47
102
}
330
47
100
AcDbScale
 70
     0
300
1/128" = 1'-0"
140
0.0078125
141
12.0
290
     0
  0
SCALE
  5
5A
102
{ACAD_REACTORS
330
47
102
}
330
47
100
AcDbScale
 70
     0
300
1/64" = 1'-0"
140
0.015625
141
12.0
290
     0
  0
SCALE
  5
5B
102
{ACAD_REACTORS
330
47
102
}
330
47
100
AcDbScale
 70
     0
300
1/32" = 1'-0"
140
0.03125
141
12.0
290
     0
  0
SCALE
  5
5C
102
{ACAD_REACTORS
330
47
102
}
330
47
100
AcDbScale
 70
     0
300
1/16" = 1'-0"
140
0.0625
141
12.0
290
     0
  0
SCALE
  5
5D
102
{ACAD_REACTORS
330
47
102
}
330
47
100
AcDbScale
 70
     0
300
3/32" = 1'-0"
140
0.09375
141
12.0
290
     0
  0
SCALE
  5
5E
102
{ACAD_REACTORS
330
47
102
}
330
47
100
AcDbScale
 70
     0
300
1/8" = 1'-0"
140
0.125
141
12.0
290
     0
  0
SCALE
  5
5F
102
{ACAD_REACTORS
330
47
102
}
330
47
100
AcDbScale
 70
     0
300
3/16" = 1'-0"
140
0.1875
141
12.0
290
     0
  0
SCALE
  5
60
102
{ACAD_REACTORS
330
47
102
}
330
47
100
AcDbScale
 70
     0
300
1/4" = 1'-0"
140
0.25
141
12.0
290
     0
  0
SCALE
  5
61
102
{ACAD_REACTORS
330
47
102
}
330
47
100
AcDbScale
 70
     0
300
3/8" = 1'-0"
140
0.375
141
12.0
290
     0
  0
SCALE
  5
62
102
{ACAD_REACTORS
330
47
102
}
330
47
100
AcDbScale
 70
     0
300
1/2" = 1'-0"
140
0.5
141
12.0
290
     0
  0
SCALE
  5
63
102
{ACAD_REACTORS
330
47
102
}
330
47
100
AcDbScale
 70
     0
300
3/4" = 1'-0"
140
0.75
141
12.0
290
     0
  0
SCALE
  5
64
102
{ACAD_REACTORS
330
47
102
}
330
47
100
AcDbScale
 70
     0
300
1" = 1'-0"
140
1.0
141
12.0
290
     0
  0
SCALE
  5
65
102
{ACAD_REACTORS
330
47
102
}
330
47
100
AcDbScale
 70
     0
300
1-1/2" = 1'-0"
140
1.5
141
12.0
290
     0
  0
SCALE
  5
66
102
{ACAD_REACTORS
330
47
102
}
330
47
100
AcDbScale
 70
     0
300
3" = 1'-0"
140
3.0
141
12.0
290
     0
  0
SCALE
  5
67
102
{ACAD_REACTORS
330
47
102
}
330
47
100
AcDbScale
 70
     0
300
6" = 1'-0"
140
6.0
141
12.0
290
     0
  0
SCALE
  5
68
102
{ACAD_REACTORS
330
47
102
}
330
47
100
AcDbScale
 70
     0
300
1'-0" = 1'-0"
140
12.0
141
12.0
290
     0
  0
ENDSEC
  0
EOF
