  0
SECTION
  2
HEADER
  9
$ACADVER
  1
AC1015
  9
$ACADMAINTVER
 70
     6
  9
$DWGCODEPAGE
  3
ANSI_1250
  9
$INSBASE
 10
0.0
 20
0.0
 30
0.0
  9
$EXTMIN
 10
5342.4201592783
 20
4247.1904310076
 30
0.0
  9
$EXTMAX
 10
6416.5162494671
 20
5527.2668308396
 30
0.0
  9
$LIMMIN
 10
0.0
 20
0.0
  9
$LIMMAX
 10
420.0
 20
297.0
  9
$ORTHOMODE
 70
     0
  9
$REGENMODE
 70
     1
  9
$FILLMODE
 70
     1
  9
$QTEXTMODE
 70
     0
  9
$MIRRTEXT
 70
     1
  9
$LTSCALE
 40
1.0
  9
$ATTMODE
 70
     1
  9
$TEXTSIZE
 40
3.5
  9
$TRACEWID
 40
1.0
  9
$TEXTSTYLE
  7
Standard
  9
$CLAYER
  8
0
  9
$CELTYPE
  6
ByLayer
  9
$CECOLOR
 62
   256
  9
$CELTSCALE
 40
1.0
  9
$DISPSILH
 70
     0
  9
$DIMSCALE
 40
1.0
  9
$DIMASZ
 40
3.302
  9
$DIMEXO
 40
0.0
  9
$DIMDLI
 40
3.75
  9
$DIMRND
 40
0.0
  9
$DIMDLE
 40
0.0
  9
$DIMEXE
 40
1.0
  9
$DIMTP
 40
0.0
  9
$DIMTM
 40
0.0
  9
$DIMTXT
 40
3.5
  9
$DIMCEN
 40
2.5
  9
$DIMTSZ
 40
0.0
  9
$DIMTOL
 70
     0
  9
$DIMLIM
 70
     0
  9
$DIMTIH
 70
     1
  9
$DIMTOH
 70
     1
  9
$DIMSE1
 70
     0
  9
$DIMSE2
 70
     0
  9
$DIMTAD
 70
     1
  9
$DIMZIN
 70
     0
  9
$DIMBLK
  1

  9
$DIMASO
 70
     1
  9
$DIMSHO
 70
     1
  9
$DIMPOST
  1

  9
$DIMAPOST
  1

  9
$DIMALT
 70
     0
  9
$DIMALTD
 70
     3
  9
$DIMALTF
 40
0.0393700787
  9
$DIMLFAC
 40
1.0
  9
$DIMTOFL
 70
     1
  9
$DIMTVP
 40
0.0
  9
$DIMTIX
 70
     0
  9
$DIMSOXD
 70
     0
  9
$DIMSAH
 70
     0
  9
$DIMBLK1
  1

  9
$DIMBLK2
  1

  9
$DIMSTYLE
  2
ISO-25
  9
$DIMCLRD
 70
     0
  9
$DIMCLRE
 70
     0
  9
$DIMCLRT
 70
     0
  9
$DIMTFAC
 40
1.0
  9
$DIMGAP
 40
1.524
  9
$DIMJUST
 70
     0
  9
$DIMSD1
 70
     0
  9
$DIMSD2
 70
     0
  9
$DIMTOLJ
 70
     0
  9
$DIMTZIN
 70
     0
  9
$DIMALTZ
 70
     0
  9
$DIMALTTZ
 70
     0
  9
$DIMUPT
 70
     0
  9
$DIMDEC
 70
     2
  9
$DIMTDEC
 70
     2
  9
$DIMALTU
 70
     2
  9
$DIMALTTD
 70
     3
  9
$DIMTXSTY
  7
Standard
  9
$DIMAUNIT
 70
     0
  9
$DIMADEC
 70
     2
  9
$DIMALTRND
 40
0.0
  9
$DIMAZIN
 70
     0
  9
$DIMDSEP
 70
    44
  9
$DIMATFIT
 70
     3
  9
$DIMFRAC
 70
     0
  9
$DIMLDRBLK
  1

  9
$DIMLUNIT
 70
     2
  9
$DIMLWD
 70
    -2
  9
$DIMLWE
 70
    -2
  9
$DIMTMOVE
 70
     0
  9
$LUNITS
 70
     2
  9
$LUPREC
 70
     2
  9
$SKETCHINC
 40
1.0
  9
$FILLETRAD
 40
10.0
  9
$AUNITS
 70
     0
  9
$AUPREC
 70
     2
  9
$MENU
  1
.
  9
$ELEVATION
 40
0.0
  9
$PELEVATION
 40
0.0
  9
$THICKNESS
 40
0.0
  9
$LIMCHECK
 70
     0
  9
$CHAMFERA
 40
0.0
  9
$CHAMFERB
 40
0.0
  9
$CHAMFERC
 40
0.0
  9
$CHAMFERD
 40
0.0
  9
$SKPOLY
 70
     0
  9
$TDCREATE
 40
2459096.553741354
  9
$TDUCREATE
 40
2459096.470408021
  9
$TDUPDATE
 40
2459096.554035451
  9
$TDUUPDATE
 40
2459096.470702118
  9
$TDINDWG
 40
0.0000000116
  9
$TDUSRTIMER
 40
0.0000000116
  9
$USRTIMER
 70
     1
  9
$ANGBASE
 50
0.0
  9
$ANGDIR
 70
     0
  9
$PDMODE
 70
     0
  9
$PDSIZE
 40
-1.0
  9
$PLINEWID
 40
0.0
  9
$SPLFRAME
 70
     0
  9
$SPLINETYPE
 70
     6
  9
$SPLINESEGS
 70
     8
  9
$HANDSEED
  5
514
  9
$SURFTAB1
 70
     6
  9
$SURFTAB2
 70
     6
  9
$SURFTYPE
 70
     6
  9
$SURFU
 70
     6
  9
$SURFV
 70
     6
  9
$UCSBASE
  2

  9
$UCSNAME
  2

  9
$UCSORG
 10
0.0
 20
0.0
 30
0.0
  9
$UCSXDIR
 10
1.0
 20
0.0
 30
0.0
  9
$UCSYDIR
 10
0.0
 20
1.0
 30
0.0
  9
$UCSORTHOREF
  2

  9
$UCSORTHOVIEW
 70
     0
  9
$UCSORGTOP
 10
0.0
 20
0.0
 30
0.0
  9
$UCSORGBOTTOM
 10
0.0
 20
0.0
 30
0.0
  9
$UCSORGLEFT
 10
0.0
 20
0.0
 30
0.0
  9
$UCSORGRIGHT
 10
0.0
 20
0.0
 30
0.0
  9
$UCSORGFRONT
 10
0.0
 20
0.0
 30
0.0
  9
$UCSORGBACK
 10
0.0
 20
0.0
 30
0.0
  9
$PUCSBASE
  2

  9
$PUCSNAME
  2

  9
$PUCSORG
 10
0.0
 20
0.0
 30
0.0
  9
$PUCSXDIR
 10
1.0
 20
0.0
 30
0.0
  9
$PUCSYDIR
 10
0.0
 20
1.0
 30
0.0
  9
$PUCSORTHOREF
  2

  9
$PUCSORTHOVIEW
 70
     0
  9
$PUCSORGTOP
 10
0.0
 20
0.0
 30
0.0
  9
$PUCSORGBOTTOM
 10
0.0
 20
0.0
 30
0.0
  9
$PUCSORGLEFT
 10
0.0
 20
0.0
 30
0.0
  9
$PUCSORGRIGHT
 10
0.0
 20
0.0
 30
0.0
  9
$PUCSORGFRONT
 10
0.0
 20
0.0
 30
0.0
  9
$PUCSORGBACK
 10
0.0
 20
0.0
 30
0.0
  9
$USERI1
 70
     0
  9
$USERI2
 70
     0
  9
$USERI3
 70
     0
  9
$USERI4
 70
     0
  9
$USERI5
 70
     0
  9
$USERR1
 40
0.0
  9
$USERR2
 40
0.0
  9
$USERR3
 40
0.0
  9
$USERR4
 40
0.0
  9
$USERR5
 40
0.0
  9
$WORLDVIEW
 70
     1
  9
$SHADEDGE
 70
     3
  9
$SHADEDIF
 70
    70
  9
$TILEMODE
 70
     1
  9
$MAXACTVP
 70
    64
  9
$PINSBASE
 10
0.0
 20
0.0
 30
0.0
  9
$PLIMCHECK
 70
     0
  9
$PEXTMIN
 10
1.0000000000E+20
 20
1.0000000000E+20
 30
1.0000000000E+20
  9
$PEXTMAX
 10
-1.0000000000E+20
 20
-1.0000000000E+20
 30
-1.0000000000E+20
  9
$PLIMMIN
 10
0.0
 20
0.0
  9
$PLIMMAX
 10
420.0
 20
297.0
  9
$UNITMODE
 70
     0
  9
$VISRETAIN
 70
     1
  9
$PLINEGEN
 70
     0
  9
$PSLTSCALE
 70
     1
  9
$TREEDEPTH
 70
  3020
  9
$CMLSTYLE
  2
Standard
  9
$CMLJUST
 70
     0
  9
$CMLSCALE
 40
20.0
  9
$PROXYGRAPHICS
 70
     1
  9
$MEASUREMENT
 70
     1
  9
$CELWEIGHT
370
    -1
  9
$ENDCAPS
280
     0
  9
$JOINSTYLE
280
     0
  9
$LWDISPLAY
290
     1
  9
$INSUNITS
 70
     4
  9
$HYPERLINKBASE
  1

  9
$STYLESHEET
  1

  9
$XEDIT
290
     1
  9
$CEPSNTYPE
380
     0
  9
$PSTYLEMODE
290
     1
  9
$FINGERPRINTGUID
  2
{1eba4b53-ffda-4398-a758-71adfdc6bc8c}
  9
$VERSIONGUID
  2
{FAEB1C32-E019-11D5-929B-00C0DF256EC4}
  9
$EXTNAMES
290
     1
  9
$PSVPSCALE
 40
0.0
  9
$OLESTARTUP
290
     0
  0
ENDSEC
  0
SECTION
  2
CLASSES
  0
CLASS
  1
ACDBDICTIONARYWDFLT
  2
AcDbDictionaryWithDefault
  3
ObjectDBX Classes
 90
        0
280
     0
281
     0
  0
CLASS
  1
VISUALSTYLE
  2
AcDbVisualStyle
  3
ObjectDBX Classes
 90
     4095
280
     0
281
     0
  0
CLASS
  1
MATERIAL
  2
AcDbMaterial
  3
ObjectDBX Classes
 90
     1153
280
     0
281
     0
  0
CLASS
  1
SCALE
  2
AcDbScale
  3
ObjectDBX Classes
 90
     1153
280
     0
281
     0
  0
CLASS
  1
TABLESTYLE
  2
AcDbTableStyle
  3
ObjectDBX Classes
 90
     4095
280
     0
281
     0
  0
CLASS
  1
MLEADERSTYLE
  2
AcDbMLeaderStyle
  3
ACDB_MLEADERSTYLE_CLASS
 90
     4095
280
     0
281
     0
  0
CLASS
  1
SUN
  2
AcDbSun
  3
SCENEOE
 90
     1153
280
     0
281
     0
  0
CLASS
  1
ACDBPLACEHOLDER
  2
AcDbPlaceHolder
  3
ObjectDBX Classes
 90
        0
280
     0
281
     0
  0
CLASS
  1
LAYOUT
  2
AcDbLayout
  3
ObjectDBX Classes
 90
        0
280
     0
281
     0
  0
ENDSEC
  0
SECTION
  2
TABLES
  0
TABLE
  2
VPORT
  5
8
330
0
100
AcDbSymbolTable
 70
     1
  0
VPORT
  5
29
330
8
100
AcDbSymbolTableRecord
100
AcDbViewportTableRecord
  2
*Active
 70
     0
 10
0.0
 20
0.0
 11
1.0
 21
1.0
 12
5879.4682043727
 22
4887.2286309236
 13
0.0
 23
0.0
 14
10.0
 24
10.0
 15
10.0
 25
10.0
 16
0.0
 26
0.0
 36
1.0
 17
0.0
 27
0.0
 37
0.0
 40
1305.6779278286
 41
0.8390874875
 42
50.0
 43
0.0
 44
0.0
 50
0.0
 51
0.0
 71
     0
 72
   100
 73
     1
 74
     3
 75
     0
 76
     0
 77
     0
 78
     0
281
     0
 65
     1
110
0.0
120
0.0
130
0.0
111
1.0
121
0.0
131
0.0
112
0.0
122
1.0
132
0.0
 79
     0
146
0.0
  0
ENDTAB
  0
TABLE
  2
LTYPE
  5
5
330
0
100
AcDbSymbolTable
 70
     6
  0
LTYPE
  5
14
330
5
100
AcDbSymbolTableRecord
100
AcDbLinetypeTableRecord
  2
ByBlock
 70
     0
  3

 72
    65
 73
     0
 40
0.0
  0
LTYPE
  5
15
330
5
100
AcDbSymbolTableRecord
100
AcDbLinetypeTableRecord
  2
ByLayer
 70
     0
  3

 72
    65
 73
     0
 40
0.0
  0
LTYPE
  5
16
330
5
100
AcDbSymbolTableRecord
100
AcDbLinetypeTableRecord
  2
Continuous
 70
     0
  3
Solid line
 72
    65
 73
     0
 40
0.0
  0
LTYPE
  5
6E
330
5
100
AcDbSymbolTableRecord
100
AcDbLinetypeTableRecord
  2
HIDDEN
 70
     0
  3
Hidden __ __ __ __ __ __ __ __ __ __ __ __ __ __
 72
    65
 73
     2
 40
1.905
 49
1.27
 74
     0
 49
-0.635
 74
     0
  0
LTYPE
  5
6F
330
5
100
AcDbSymbolTableRecord
100
AcDbLinetypeTableRecord
  2
PHANTOM
 70
     0
  3
Phantom ______  __  __  ______  __  __  ______
 72
    65
 73
     6
 40
12.7
 49
6.35
 74
     0
 49
-1.27
 74
     0
 49
1.27
 74
     0
 49
-1.27
 74
     0
 49
1.27
 74
     0
 49
-1.27
 74
     0
  0
LTYPE
  5
70
330
5
100
AcDbSymbolTableRecord
100
AcDbLinetypeTableRecord
  2
CENTER
 70
     0
  3
Center ____ _ ____ _ ____ _ ____ _ ____ _ ____
 72
    65
 73
     4
 40
10.16
 49
6.35
 74
     0
 49
-1.27
 74
     0
 49
1.27
 74
     0
 49
-1.27
 74
     0
  0
LTYPE
  5
71
330
5
100
AcDbSymbolTableRecord
100
AcDbLinetypeTableRecord
  2
CENTERX2
 70
     0
  3
Center (2x) ________  __  ________  __  _____
 72
    65
 73
     4
 40
20.32
 49
12.7
 74
     0
 49
-2.54
 74
     0
 49
2.54
 74
     0
 49
-2.54
 74
     0
  0
LTYPE
  5
72
330
5
100
AcDbSymbolTableRecord
100
AcDbLinetypeTableRecord
  2
DOT2
 70
     0
  3
Dot (.5x) ........................................
 72
    65
 73
     2
 40
0.635
 49
0.0
 74
     0
 49
-0.635
 74
     0
  0
ENDTAB
  0
TABLE
  2
LAYER
  5
2
330
0
100
AcDbSymbolTable
 70
     1
  0
LAYER
  5
10
330
2
100
AcDbSymbolTableRecord
100
AcDbLayerTableRecord
  2
0
 70
     0
 62
     7
  6
Continuous
370
    -3
390
F
  0
ENDTAB
  0
TABLE
  2
STYLE
  5
3
330
0
100
AcDbSymbolTable
 70
     1
  0
STYLE
  5
11
330
3
100
AcDbSymbolTableRecord
100
AcDbTextStyleTableRecord
  2
Standard
 70
     0
 40
0.0
 41
1.0
 50
0.0
 71
     0
 42
3.5
  3
txt
  4

  0
ENDTAB
  0
TABLE
  2
VIEW
  5
6
330
0
100
AcDbSymbolTable
 70
     0
  0
ENDTAB
  0
TABLE
  2
UCS
  5
7
330
0
100
AcDbSymbolTable
 70
     0
  0
ENDTAB
  0
TABLE
  2
APPID
  5
9
330
0
100
AcDbSymbolTable
 70
     1
  0
APPID
  5
12
330
9
100
AcDbSymbolTableRecord
100
AcDbRegAppTableRecord
  2
ACAD
 70
     0
  0
ENDTAB
  0
TABLE
  2
DIMSTYLE
  5
A
330
0
100
AcDbSymbolTable
 70
     1
100
AcDbDimStyleTable
  0
DIMSTYLE
105
27
330
A
100
AcDbSymbolTableRecord
100
AcDbDimStyleTableRecord
  2
ISO-25
 70
     0
 41
2.5
 42
0.625
 43
3.75
 44
1.25
 73
     0
 74
     0
 77
     1
 78
     8
140
2.5
141
2.5
143
0.0393700787
147
0.625
171
     3
172
     1
178
     0
271
     2
272
     2
274
     3
278
    44
283
     0
284
     8
340
11
  0
ENDTAB
  0
TABLE
  2
BLOCK_RECORD
  5
1
330
0
100
AcDbSymbolTable
 70
     1
  0
BLOCK_RECORD
  5
1F
330
1
100
AcDbSymbolTableRecord
100
AcDbBlockTableRecord
  2
*Model_Space
340
22
  0
BLOCK_RECORD
  5
1B
330
1
100
AcDbSymbolTableRecord
100
AcDbBlockTableRecord
  2
*Paper_Space
340
1E
  0
BLOCK_RECORD
  5
23
330
1
100
AcDbSymbolTableRecord
100
AcDbBlockTableRecord
  2
*Paper_Space0
340
26
  0
ENDTAB
  0
ENDSEC
  0
SECTION
  2
BLOCKS
  0
BLOCK
  5
20
330
1F
100
AcDbEntity
  8
0
100
AcDbBlockBegin
  2
*Model_Space
 70
     0
 10
0.0
 20
0.0
 30
0.0
  3
*Model_Space
  1

  0
ENDBLK
  5
21
330
1F
100
AcDbEntity
  8
0
100
AcDbBlockEnd
  0
BLOCK
  5
1C
330
1B
100
AcDbEntity
 67
     1
  8
0
100
AcDbBlockBegin
  2
*Paper_Space
 70
     0
 10
0.0
 20
0.0
 30
0.0
  3
*Paper_Space
  1

  0
ENDBLK
  5
1D
330
1B
100
AcDbEntity
 67
     1
  8
0
100
AcDbBlockEnd
  0
BLOCK
  5
24
330
23
100
AcDbEntity
  8
0
100
AcDbBlockBegin
  2
*Paper_Space0
 70
     0
 10
0.0
 20
0.0
 30
0.0
  3
*Paper_Space0
  1

  0
ENDBLK
  5
25
330
23
100
AcDbEntity
  8
0
100
AcDbBlockEnd
  0
ENDSEC
  0
SECTION
  2
ENTITIES
  0
ARC
  5
73
330
1F
100
AcDbEntity
  8
0
  6
Continuous
 62
     7
100
AcDbCircle
 10
6398.255819922
 20
5146.0442704293
 30
0.0
 40
3.000000000001004
100
AcDbArc
 50
147.3699446945
 51
155.9505958713
  0
ARC
  5
74
330
1F
100
AcDbEntity
  8
0
  6
Continuous
 62
     7
100
AcDbCircle
 10
6398.2558169768
 20
5138.4894243737
 30
0.0
 40
3.000000000000494
100
AcDbArc
 50
204.0495421521
 51
212.5904289294
  0
ARC
  5
75
330
1F
100
AcDbEntity
  8
0
  6
Continuous
 62
     7
100
AcDbCircle
 10
6398.2558371607
 20
5416.0442973539
 30
0.0
 40
3.000000000000584
100
AcDbArc
 50
154.1276270184
 51
155.9511167513
  0
ARC
  5
76
330
1F
100
AcDbEntity
  8
0
  6
Continuous
 62
     7
100
AcDbCircle
 10
6398.2558371607
 20
5416.0442973539
 30
0.0
 40
3.000000000001215
100
AcDbArc
 50
155.5762975627
 51
155.9511167513
  0
ARC
  5
77
330
1F
100
AcDbEntity
  8
0
  6
Continuous
 62
     7
100
AcDbCircle
 10
6398.2554079084
 20
5408.4903364382
 30
0.0
 40
3.000000000000017
100
AcDbArc
 50
204.0687058283
 51
204.4702689041
  0
ARC
  5
78
330
1F
100
AcDbEntity
  8
0
  6
Continuous
 62
     7
100
AcDbCircle
 10
6271.4463177215
 20
5131.9641070483
 30
0.0
 40
4.999999999999302
100
AcDbArc
 50
279.5888325527
 51
359.9999538525
  0
ARC
  5
79
330
1F
100
AcDbEntity
  8
0
  6
Continuous
 62
     7
100
AcDbCircle
 10
6206.4463161383
 20
5131.9641070287
 30
0.0
 40
5.000000000000393
100
AcDbArc
 50
180.0000459221
 51
260.4111660946
  0
ARC
  5
7A
330
1F
100
AcDbEntity
  8
0
  6
Continuous
 62
     7
100
AcDbCircle
 10
6190.5960416686
 20
5067.6641064067
 30
0.0
 40
2.000000000000469
100
AcDbArc
 50
90.0
 51
180.0001161127
  0
ARC
  5
7B
330
1F
100
AcDbEntity
  8
0
  6
Continuous
 62
     7
100
AcDbCircle
 10
6263.4463177811
 20
5064.4641037364
 30
0.0
 40
1.999999999999117
100
AcDbArc
 50
269.999990609
 51
0.0001161128
  0
ARC
  5
7C
330
1F
100
AcDbEntity
  8
0
  6
Continuous
 62
     7
100
AcDbCircle
 10
6260.4463177811
 20
5034.9640984799
 30
0.0
 40
5.000000000001385
100
AcDbArc
 50
0.0000192532
 51
69.5127198836
  0
ARC
  5
7D
330
1F
100
AcDbEntity
  8
0
  6
Continuous
 62
     7
100
AcDbCircle
 10
6193.5960413408
 20
5034.9641056371
 30
0.0
 40
5.000000000000271
100
AcDbArc
 50
119.9999991796
 51
180.0000627613
  0
ARC
  5
7E
330
1F
100
AcDbEntity
  8
0
  6
Continuous
 62
     7
100
AcDbCircle
 10
6188.596041229
 20
5043.6243596104
 30
0.0
 40
4.999999999999702
100
AcDbArc
 50
300.0000022997
 51
359.9999703488
  0
ARC
  5
7F
330
1F
100
AcDbEntity
  8
0
  6
Continuous
 62
     7
100
AcDbCircle
 10
6338.7388017501
 20
5396.2272621414
 30
0.0
 40
3.000000000000485
100
AcDbArc
 50
114.0492104679
 51
131.7096360383
  0
ARC
  5
80
330
1F
100
AcDbEntity
  8
0
  6
Continuous
 62
     7
100
AcDbCircle
 10
6338.7387905597
 20
5396.5064394021
 30
0.0
 40
2.999999999999795
100
AcDbArc
 50
228.3589426158
 51
245.9511167513
  0
ARC
  5
81
330
1F
100
AcDbEntity
  8
0
  6
Continuous
 62
     7
100
AcDbCircle
 10
6346.2936842469
 20
5396.2272604138
 30
0.0
 40
2.999999999999921
100
AcDbArc
 50
48.3586649314
 51
65.9508704989
  0
ARC
  5
82
330
1F
100
AcDbEntity
  8
0
  6
Continuous
 62
     7
100
AcDbCircle
 10
6346.2937017626
 20
5396.5064423697
 30
0.0
 40
3.000000000000255
100
AcDbArc
 50
294.0487441703
 51
311.7090888877
  0
ARC
  5
83
330
1F
100
AcDbEntity
  8
0
  6
Continuous
 62
     7
100
AcDbCircle
 10
6237.1356352346
 20
5416.0442966864
 30
0.0
 40
3.000000000001431
100
AcDbArc
 50
143.5598851338
 51
155.9510764504
  0
ARC
  5
84
330
1F
100
AcDbEntity
  8
0
  6
Continuous
 62
     7
100
AcDbCircle
 10
6236.8564470782
 20
5416.0442973539
 30
0.0
 40
2.99999999999951
100
AcDbArc
 50
24.0488832487
 51
36.1381943467
  0
ARC
  5
85
330
1F
100
AcDbEntity
  8
0
  6
Continuous
 62
     7
100
AcDbCircle
 10
6236.8564470782
 20
5408.489392801
 30
0.0
 40
2.999999999999077
100
AcDbArc
 50
323.8716985395
 51
335.9511167513
  0
ARC
  5
86
330
1F
100
AcDbEntity
  8
0
  6
Continuous
 62
     7
100
AcDbCircle
 10
6237.1356320344
 20
5408.4893977942
 30
0.0
 40
2.999999999998974
100
AcDbArc
 50
204.0490735286
 51
216.48754391
  0
ARC
  5
87
330
1F
100
AcDbEntity
  8
0
  6
Continuous
 62
     7
100
AcDbCircle
 10
6237.1356389326
 20
5146.0443016948
 30
0.0
 40
3.000000000001018
100
AcDbArc
 50
143.5600040368
 51
155.9512497599
  0
ARC
  5
88
330
1F
100
AcDbEntity
  8
0
  6
Continuous
 62
     7
100
AcDbCircle
 10
6236.8564470782
 20
5146.0442973539
 30
0.0
 40
3.000000000000723
100
AcDbArc
 50
24.0488832487
 51
36.1381943468
  0
ARC
  5
89
330
1F
100
AcDbEntity
  8
0
  6
Continuous
 62
     7
100
AcDbCircle
 10
6236.8564470782
 20
5138.489392801
 30
0.0
 40
2.999999999999077
100
AcDbArc
 50
323.8716985395
 51
335.9511167513
  0
ARC
  5
8A
330
1F
100
AcDbEntity
  8
0
  6
Continuous
 62
     7
100
AcDbCircle
 10
6237.1356367286
 20
5138.4893914474
 30
0.0
 40
3.000000000000273
100
AcDbArc
 50
204.0488535312
 51
216.4873931437
  0
ARC
  5
8B
330
1F
100
AcDbEntity
  8
0
  6
Continuous
 62
     7
100
AcDbCircle
 10
6279.2936721146
 20
5396.2272650832
 30
0.0
 40
3.00000000000166
100
AcDbArc
 50
58.0720181317
 51
65.9506516668
  0
ARC
  5
8C
330
1F
100
AcDbEntity
  8
0
  6
Continuous
 62
     7
100
AcDbCircle
 10
6279.2936951125
 20
5396.5064394021
 30
0.0
 40
3.00000000000071
100
AcDbArc
 50
294.0488832487
 51
301.3039068876
  0
ARC
  5
8D
330
1F
100
AcDbEntity
  8
0
  6
Continuous
 62
     7
100
AcDbCircle
 10
6271.7388119772
 20
5396.2272641253
 30
0.0
 40
2.999999999998973
100
AcDbArc
 50
114.0493034421
 51
121.9797104165
  0
ARC
  5
8E
330
1F
100
AcDbEntity
  8
0
  6
Continuous
 62
     7
100
AcDbCircle
 10
6271.7387905597
 20
5396.5064394021
 30
0.0
 40
2.999999999999795
100
AcDbArc
 50
238.6629594009
 51
245.9511167513
  0
ARC
  5
8F
330
1F
100
AcDbEntity
  8
0
  6
Continuous
 62
     7
100
AcDbCircle
 10
6279.2936951125
 20
5396.2272507528
 30
0.0
 40
3.000000000001243
100
AcDbArc
 50
48.3589426158
 51
58.0725356518
  0
ARC
  5
90
330
1F
100
AcDbEntity
  8
0
  6
Continuous
 62
     7
100
AcDbCircle
 10
6271.7387905597
 20
5396.2272507528
 30
0.0
 40
2.999999999999936
100
AcDbArc
 50
121.9792281875
 51
126.9693102803
  0
ARC
  5
91
330
1F
100
AcDbEntity
  8
0
  6
Continuous
 62
     7
100
AcDbCircle
 10
6192.023773431
 20
5063.7506375905
 30
0.0
 40
3.978563980688687
100
AcDbArc
 50
159.189965107
 51
186.6615626716
  0
ARC
  5
92
330
1F
100
AcDbEntity
  8
0
  6
Continuous
 62
     7
100
AcDbCircle
 10
6232.4404937964
 20
5068.8391036172
 30
0.0
 40
1.819754019400534
100
AcDbArc
 50
180.0
 51
0.0
  0
ARC
  5
93
330
1F
100
AcDbEntity
  8
0
  6
Continuous
 62
     7
100
AcDbCircle
 10
6218.3886426256
 20
5035.0123757735
 30
0.0
 40
4.995120721659907
100
AcDbArc
 50
111.874825189
 51
180.5537467696
  0
ARC
  5
94
330
1F
100
AcDbEntity
  8
0
  6
Continuous
 62
     7
100
AcDbCircle
 10
6194.5782962007
 20
5034.9972467333
 30
0.0
 40
5.03492392549138
100
AcDbArc
 50
121.4126979732
 51
180.3771998337
  0
ARC
  5
95
330
1F
100
AcDbEntity
  8
0
  6
Continuous
 62
     7
100
AcDbCircle
 10
6189.329840946
 20
5043.5912454097
 30
0.0
 40
5.034986491777964
100
AcDbArc
 50
301.4131004976
 51
0.376797309
  0
ARC
  5
96
330
1F
100
AcDbEntity
  8
0
  6
Continuous
 62
     7
100
AcDbCircle
 10
6283.876401095
 20
5137.2668431181
 30
0.0
 40
0.9999999999992599
100
AcDbArc
 50
270.0000007558
 51
277.9993936206
  0
ARC
  5
97
330
1F
100
AcDbEntity
  8
0
  6
Continuous
 62
     7
100
AcDbCircle
 10
6283.876401095
 20
5137.2668431181
 30
0.0
 40
1.999995571728564
100
AcDbArc
 50
269.9995924864
 51
277.9996074272
  0
ARC
  5
98
330
1F
100
AcDbEntity
  8
0
  6
Continuous
 62
     7
100
AcDbCircle
 10
6195.5162426349
 20
5371.2668450774
 30
0.0
 40
0.9999969601012926
100
AcDbArc
 50
89.999988048
 51
126.9594728004
  0
ARC
  5
99
330
1F
100
AcDbEntity
  8
0
  6
Continuous
 62
     7
100
AcDbCircle
 10
6195.5162426349
 20
5371.2668450774
 30
0.0
 40
2.500000000000918
100
AcDbArc
 50
89.9999952192
 51
180.0
  0
ARC
  5
9A
330
1F
100
AcDbEntity
  8
0
  6
Continuous
 62
     7
100
AcDbCircle
 10
6214.7895661666
 20
5044.1163272186
 30
0.0
 40
4.794572904650239
100
AcDbArc
 50
291.2533135927
 51
311.4118282425
  0
ARC
  5
9B
330
1F
100
AcDbEntity
  8
0
  6
Continuous
 62
     7
100
AcDbCircle
 10
5663.9597292523
 20
5067.6641064067
 30
0.0
 40
1.999999999999559
100
AcDbArc
 50
359.9998838872
 51
89.9999026689
  0
ARC
  5
9C
330
1F
100
AcDbEntity
  8
0
  6
Continuous
 62
     7
100
AcDbCircle
 10
5614.9597336034
 20
5067.6641064067
 30
0.0
 40
1.999999999999559
100
AcDbArc
 50
89.9999906062
 51
180.0001161127
  0
ARC
  5
9D
330
1F
100
AcDbEntity
  8
0
  6
Continuous
 62
     7
100
AcDbCircle
 10
5528.1774513851
 20
5064.4641037364
 30
0.0
 40
2.000000000000936
100
AcDbArc
 50
179.9998838873
 51
270.0000093909
  0
ARC
  5
9E
330
1F
100
AcDbEntity
  8
0
  6
Continuous
 62
     7
100
AcDbCircle
 10
5577.1774507592
 20
5064.4641037364
 30
0.0
 40
2.000000000000936
100
AcDbArc
 50
269.9999906091
 51
0.0001161127
  0
ARC
  5
9F
330
1F
100
AcDbEntity
  8
0
  6
Continuous
 62
     7
100
AcDbCircle
 10
5531.1774513851
 20
5034.9641057897
 30
0.0
 40
4.999999999999964
100
AcDbArc
 50
110.4873189424
 51
180.0000645106
  0
ARC
  5
A0
330
1F
100
AcDbEntity
  8
0
  6
Continuous
 62
     7
100
AcDbCircle
 10
5527.6774515192
 20
5044.3316028374
 30
0.0
 40
5.000000000000996
100
AcDbArc
 50
290.4873096465
 51
359.9999209077
  0
ARC
  5
A1
330
1F
100
AcDbEntity
  8
0
  6
Continuous
 62
     7
100
AcDbCircle
 10
5577.6774506251
 20
5044.9641056728
 30
0.0
 40
5.00000000000002
100
AcDbArc
 50
180.0000016982
 51
270.0000051234
  0
ARC
  5
A2
330
1F
100
AcDbEntity
  8
0
  6
Continuous
 62
     7
100
AcDbCircle
 10
5612.9597362856
 20
5044.9641056728
 30
0.0
 40
5.000000000000393
100
AcDbArc
 50
269.9999586462
 51
359.9999983018
  0
ARC
  5
A3
330
1F
100
AcDbEntity
  8
0
  6
Continuous
 62
     7
100
AcDbCircle
 10
5660.9597292523
 20
5034.96410765
 30
0.0
 40
5.000000000001062
100
AcDbArc
 50
359.9999141722
 51
59.9999546874
  0
ARC
  5
A4
330
1F
100
AcDbEntity
  8
0
  6
Continuous
 62
     7
100
AcDbCircle
 10
5665.9597340207
 20
5043.6243589348
 30
0.0
 40
5.000000000000107
100
AcDbArc
 50
180.0000219099
 51
239.9999822177
  0
ARC
  5
A5
330
1F
100
AcDbEntity
  8
0
  6
Continuous
 62
     7
100
AcDbCircle
 10
5616.3874547211
 20
5063.7506350265
 30
0.0
 40
3.978554634800175
100
AcDbArc
 50
159.1898744508
 51
186.6615412144
  0
ARC
  5
A6
330
1F
100
AcDbEntity
  8
0
  6
Continuous
 62
     7
100
AcDbCircle
 10
5546.1716283093
 20
5068.8391036172
 30
0.0
 40
1.819754950700371
100
AcDbArc
 50
180.0
 51
0.0
  0
ARC
  5
A7
330
1F
100
AcDbEntity
  8
0
  6
Continuous
 62
     7
100
AcDbCircle
 10
5531.2206899775
 20
5068.6942870915
 30
0.0
 40
5.201519668028656
100
AcDbArc
 50
178.4046108527
 51
194.1708039739
  0
ARC
  5
A8
330
1F
100
AcDbEntity
  8
0
  6
Continuous
 62
     7
100
AcDbCircle
 10
5639.4597326768
 20
5089.0641056728
 30
0.0
 40
23.50000000000029
100
AcDbArc
 50
102.4719226478
 51
180.0
  0
ARC
  5
A9
330
1F
100
AcDbEntity
  8
0
  6
Continuous
 62
     7
100
AcDbCircle
 10
5639.4597326768
 20
5089.0641056728
 30
0.0
 40
23.50000000000049
100
AcDbArc
 50
180.0
 51
77.5280773522
  0
ARC
  5
AA
330
1F
100
AcDbEntity
  8
0
  6
Continuous
 62
     7
100
AcDbCircle
 10
5639.4597326768
 20
5089.0641056728
 30
0.0
 40
25.00000000000091
100
AcDbArc
 50
113.3908789189
 51
180.0
  0
ARC
  5
AB
330
1F
100
AcDbEntity
  8
0
  6
Continuous
 62
     7
100
AcDbCircle
 10
5639.4597326768
 20
5089.0641056728
 30
0.0
 40
25.00000000000127
100
AcDbArc
 50
180.0
 51
66.6091210811
  0
CIRCLE
  5
AC
330
1F
100
AcDbEntity
  8
0
  6
Continuous
 62
     7
100
AcDbCircle
 10
5639.4597326768
 20
5089.0641056728
 30
0.0
 40
21.8229490168751
  0
ARC
  5
AD
330
1F
100
AcDbEntity
  8
0
  6
Continuous
 62
     7
100
AcDbCircle
 10
5639.4597326768
 20
5089.0641056728
 30
0.0
 40
27.00000000000055
100
AcDbArc
 50
121.8066712784
 51
180.0
  0
ARC
  5
AE
330
1F
100
AcDbEntity
  8
0
  6
Continuous
 62
     7
100
AcDbCircle
 10
5639.4597326768
 20
5089.0641056728
 30
0.0
 40
27.0
100
AcDbArc
 50
180.0
 51
58.1933287216
  0
CIRCLE
  5
AF
330
1F
100
AcDbEntity
  8
0
  6
Continuous
 62
     7
100
AcDbCircle
 10
5639.4597326768
 20
5089.0641056728
 30
0.0
 40
18.49999999999909
  0
ARC
  5
B0
330
1F
100
AcDbEntity
  8
0
  6
Continuous
 62
     7
100
AcDbCircle
 10
5622.8201967045
 20
5084.2801224902
 30
0.0
 40
1.210716727985433
100
AcDbArc
 50
207.9351307697
 51
287.6077846692
  0
ARC
  5
B1
330
1F
100
AcDbEntity
  8
0
  6
Continuous
 62
     7
100
AcDbCircle
 10
5639.4597351531
 20
5088.0434236188
 30
0.0
 40
17.00000000002122
100
AcDbArc
 50
196.8132193214
 51
343.1867806787
  0
ARC
  5
B2
330
1F
100
AcDbEntity
  8
0
  6
Continuous
 62
     7
100
AcDbCircle
 10
5656.0992734229
 20
5084.2801093469
 30
0.0
 40
1.210704146334077
100
AcDbArc
 50
252.3920352439
 51
332.0652575399
  0
ARC
  5
B3
330
1F
100
AcDbEntity
  8
0
  6
Continuous
 62
     7
100
AcDbCircle
 10
5656.1929331424
 20
5086.06410531
 30
0.0
 40
1.500000000001213
100
AcDbArc
 50
270.0000522822
 51
349.8357654572
  0
ARC
  5
B4
330
1F
100
AcDbEntity
  8
0
  6
Continuous
 62
     7
100
AcDbCircle
 10
5622.7265322111
 20
5086.06410531
 30
0.0
 40
1.500000000000644
100
AcDbArc
 50
190.1642345427
 51
270.0001369008
  0
ARC
  5
B5
330
1F
100
AcDbEntity
  8
0
  6
Continuous
 62
     7
100
AcDbCircle
 10
5550.0089197848
 20
5035.6031318117
 30
0.0
 40
9.712158361725598
100
AcDbArc
 50
356.2273796124
 51
24.6112334108
  0
ARC
  5
B6
330
1F
100
AcDbEntity
  8
0
  6
Continuous
 62
     7
100
AcDbCircle
 10
5567.6687589185
 20
5043.6925890434
 30
0.0
 40
9.712291090750552
100
AcDbArc
 50
176.2275776263
 51
204.611035396
  0
ARC
  5
B7
330
1F
100
AcDbEntity
  8
0
  6
Continuous
 62
     7
100
AcDbCircle
 10
5634.8669555522
 20
5035.4026873708
 30
0.0
 40
11.62363900572521
100
AcDbArc
 50
357.8375822927
 51
19.5600986406
  0
ARC
  5
B8
330
1F
100
AcDbEntity
  8
0
  6
Continuous
 62
     7
100
AcDbCircle
 10
5656.7728052544
 20
5043.1857731841
 30
0.0
 40
11.62378399028865
100
AcDbArc
 50
177.8376259105
 51
199.559862363
  0
CIRCLE
  5
B9
330
1F
100
AcDbEntity
  8
0
  6
Continuous
 62
     7
100
AcDbCircle
 10
5552.6774510722
 20
5253.7668450775
 30
0.0
 40
11.25000000000182
  0
CIRCLE
  5
BA
330
1F
100
AcDbEntity
  8
0
  6
Continuous
 62
     7
100
AcDbCircle
 10
5552.6774510722
 20
5253.7668450775
 30
0.0
 40
11.30000000000109
  0
ARC
  5
BB
330
1F
100
AcDbEntity
  8
0
  6
Continuous
 62
     7
100
AcDbCircle
 10
5736.4548691527
 20
4265.4508657626
 30
0.0
 40
3.000000000000496
100
AcDbArc
 50
56.715863382
 51
65.9503517133
  0
ARC
  5
BC
330
1F
100
AcDbEntity
  8
0
  6
Continuous
 62
     7
100
AcDbCircle
 10
5728.9000340251
 20
4265.4508664898
 30
0.0
 40
2.99999999999992
100
AcDbArc
 50
114.0496823655
 51
123.3396546574
  0
ARC
  5
BD
330
1F
100
AcDbEntity
  8
0
  6
Continuous
 62
     7
100
AcDbCircle
 10
5368.900022899
 20
4265.4508612586
 30
0.0
 40
3.000000000000645
100
AcDbArc
 50
114.0494372078
 51
126.6677087118
  0
ARC
  5
BE
330
1F
100
AcDbEntity
  8
0
  6
Continuous
 62
     7
100
AcDbCircle
 10
5376.4548783267
 20
4265.4508619345
 30
0.0
 40
2.999999999998952
100
AcDbArc
 50
53.3442002736
 51
65.9505311133
  0
ARC
  5
BF
330
1F
100
AcDbEntity
  8
0
  6
Continuous
 62
     7
100
AcDbCircle
 10
5560.1774511243
 20
4418.9904365031
 30
0.0
 40
1.500000000000442
100
AcDbArc
 50
90.0000439688
 51
179.9999738158
  0
ARC
  5
C0
330
1F
100
AcDbEntity
  8
0
  6
Continuous
 62
     7
100
AcDbCircle
 10
5545.17745102
 20
4418.9904365031
 30
0.0
 40
1.500000000001066
100
AcDbArc
 50
0.0000261842
 51
89.9999916043
  0
ARC
  5
C1
330
1F
100
AcDbEntity
  8
0
  6
Continuous
 62
     7
100
AcDbCircle
 10
5558.5274509135
 20
4404.5404384522
 30
0.0
 40
1.150000840400935
100
AcDbArc
 50
270.0
 51
90.0
  0
ARC
  5
C2
330
1F
100
AcDbEntity
  8
0
  6
Continuous
 62
     7
100
AcDbCircle
 10
5546.8274512309
 20
4404.5404384522
 30
0.0
 40
1.150000840400935
100
AcDbArc
 50
90.0
 51
270.0
  0
ARC
  5
C3
330
1F
100
AcDbEntity
  8
0
  6
Continuous
 62
     7
100
AcDbCircle
 10
5558.5274511243
 20
4413.6404372184
 30
0.0
 40
0.1500000000006938
100
AcDbArc
 50
269.9999194786
 51
359.9995469049
  0
ARC
  5
C4
330
1F
100
AcDbEntity
  8
0
  6
Continuous
 62
     7
100
AcDbCircle
 10
5546.82745102
 20
4413.6404372184
 30
0.0
 40
0.1499999999997845
100
AcDbArc
 50
180.0004530948
 51
270.0000805593
  0
ARC
  5
C5
330
1F
100
AcDbEntity
  8
0
  6
Continuous
 62
     7
100
AcDbCircle
 10
5368.8999987958
 20
4426.8502333964
 30
0.0
 40
3.00000000000029
100
AcDbArc
 50
245.287178486
 51
245.9511167513
  0
ARC
  5
C6
330
1F
100
AcDbEntity
  8
0
  6
Continuous
 62
     7
100
AcDbCircle
 10
5728.8999987958
 20
4426.8502333964
 30
0.0
 40
3.000000000000997
100
AcDbArc
 50
245.287178486
 51
245.9511167513
  0
ARC
  5
C7
330
1F
100
AcDbEntity
  8
0
  6
Continuous
 62
     7
100
AcDbCircle
 10
5728.9001918332
 20
4426.5711318616
 30
0.0
 40
3.000000000000318
100
AcDbArc
 50
114.0529828221
 51
114.2908829079
  0
ARC
  5
C8
330
1F
100
AcDbEntity
  8
0
  6
Continuous
 62
     7
100
AcDbCircle
 10
5720.6774467806
 20
4419.6106404452
 30
0.0
 40
1.000000000001144
100
AcDbArc
 50
89.9998838843
 51
180.0001161157
  0
ARC
  5
C9
330
1F
100
AcDbEntity
  8
0
  6
Continuous
 62
     7
100
AcDbCircle
 10
5720.6774467806
 20
4405.6106378226
 30
0.0
 40
1.000000000002053
100
AcDbArc
 50
179.9998838901
 51
270.0001161157
  0
ARC
  5
CA
330
1F
100
AcDbEntity
  8
0
  6
Continuous
 62
     7
100
AcDbCircle
 10
5744.6774547677
 20
4405.6106378226
 30
0.0
 40
1.000000000001144
100
AcDbArc
 50
269.9998838843
 51
0.0001161099
  0
ARC
  5
CB
330
1F
100
AcDbEntity
  8
0
  6
Continuous
 62
     7
100
AcDbCircle
 10
5744.6774547677
 20
4419.6106404452
 30
0.0
 40
1.000000000000234
100
AcDbArc
 50
359.9998838842
 51
90.0001161158
  0
ARC
  5
CC
330
1F
100
AcDbEntity
  8
0
  6
Continuous
 62
     7
100
AcDbCircle
 10
5744.6774439196
 20
4405.6106374948
 30
0.0
 40
2.999999999999105
100
AcDbArc
 50
270.0001684782
 51
0.0000449641
  0
ARC
  5
CD
330
1F
100
AcDbEntity
  8
0
  6
Continuous
 62
     7
100
AcDbCircle
 10
5720.6774576287
 20
4405.6106374948
 30
0.0
 40
3.000000000000014
100
AcDbArc
 50
179.9999550359
 51
269.9998315218
  0
ARC
  5
CE
330
1F
100
AcDbEntity
  8
0
  6
Continuous
 62
     7
100
AcDbCircle
 10
5720.6774576287
 20
4419.610640773
 30
0.0
 40
3.000000000000015
100
AcDbArc
 50
90.0001684782
 51
180.000044966
  0
ARC
  5
CF
330
1F
100
AcDbEntity
  8
0
  6
Continuous
 62
     7
100
AcDbCircle
 10
5744.6774439196
 20
4419.610640773
 30
0.0
 40
2.999999999999105
100
AcDbArc
 50
359.999955034
 51
89.9998315218
  0
ARC
  5
D0
330
1F
100
AcDbEntity
  8
0
  6
Continuous
 62
     7
100
AcDbCircle
 10
5360.6774473767
 20
4419.6106404452
 30
0.0
 40
1.000000000001144
100
AcDbArc
 50
89.99988389
 51
180.0001161157
  0
ARC
  5
D1
330
1F
100
AcDbEntity
  8
0
  6
Continuous
 62
     7
100
AcDbCircle
 10
5360.6774473767
 20
4405.6106378226
 30
0.0
 40
1.000000000002053
100
AcDbArc
 50
179.9998838901
 51
270.00011611
  0
ARC
  5
D2
330
1F
100
AcDbEntity
  8
0
  6
Continuous
 62
     7
100
AcDbCircle
 10
5384.6774553637
 20
4405.6106378226
 30
0.0
 40
1.000000000001144
100
AcDbArc
 50
269.9998838843
 51
0.0001161099
  0
ARC
  5
D3
330
1F
100
AcDbEntity
  8
0
  6
Continuous
 62
     7
100
AcDbCircle
 10
5384.6774553637
 20
4419.6106404452
 30
0.0
 40
1.000000000002053
100
AcDbArc
 50
359.9998838843
 51
90.0001161157
  0
ARC
  5
D4
330
1F
100
AcDbEntity
  8
0
  6
Continuous
 62
     7
100
AcDbCircle
 10
5384.6774445157
 20
4405.6106374948
 30
0.0
 40
2.999999999999105
100
AcDbArc
 50
270.0001684763
 51
0.0000449641
  0
ARC
  5
D5
330
1F
100
AcDbEntity
  8
0
  6
Continuous
 62
     7
100
AcDbCircle
 10
5360.6774582247
 20
4405.6106374948
 30
0.0
 40
3.000000000000014
100
AcDbArc
 50
179.9999550359
 51
269.9998315218
  0
ARC
  5
D6
330
1F
100
AcDbEntity
  8
0
  6
Continuous
 62
     7
100
AcDbCircle
 10
5360.6774582247
 20
4419.610640773
 30
0.0
 40
3.000000000000015
100
AcDbArc
 50
90.0001684782
 51
180.000044966
  0
ARC
  5
D7
330
1F
100
AcDbEntity
  8
0
  6
Continuous
 62
     7
100
AcDbCircle
 10
5384.6774445157
 20
4419.610640773
 30
0.0
 40
3.000000000000015
100
AcDbArc
 50
359.999955034
 51
89.9998315237
  0
ARC
  5
D8
330
1F
100
AcDbEntity
  8
0
  6
Continuous
 62
     7
100
AcDbCircle
 10
5550.7979332624
 20
4263.3323995613
 30
0.0
 40
157.2690912499379
100
AcDbArc
 50
87.8466768646
 51
89.3152436962
  0
ARC
  5
D9
330
1F
100
AcDbEntity
  8
0
  6
Continuous
 62
     7
100
AcDbCircle
 10
5532.6774510722
 20
4321.1904376385
 30
0.0
 40
4.999998563070628
100
AcDbArc
 50
0.0000540678
 51
60.0000534528
  0
ARC
  5
DA
330
1F
100
AcDbEntity
  8
0
  6
Continuous
 62
     7
100
AcDbCircle
 10
5532.6774510722
 20
4321.1904376385
 30
0.0
 40
4.999998563070716
100
AcDbArc
 50
180.0000650565
 51
240.0000497052
  0
ARC
  5
DB
330
1F
100
AcDbEntity
  8
0
  6
Continuous
 62
     7
100
AcDbCircle
 10
5532.6774510722
 20
4321.1904376385
 30
0.0
 40
4.999998563070625
100
AcDbArc
 50
60.0000534528
 51
120.0000153515
  0
ARC
  5
DC
330
1F
100
AcDbEntity
  8
0
  6
Continuous
 62
     7
100
AcDbCircle
 10
5532.6774510722
 20
4321.1904376385
 30
0.0
 40
4.999998563070801
100
AcDbArc
 50
240.0000497052
 51
300.0000472459
  0
ARC
  5
DD
330
1F
100
AcDbEntity
  8
0
  6
Continuous
 62
     7
100
AcDbCircle
 10
5532.6774510722
 20
4321.1904376385
 30
0.0
 40
4.999998563070716
100
AcDbArc
 50
120.0000153515
 51
180.0000650565
  0
ARC
  5
DE
330
1F
100
AcDbEntity
  8
0
  6
Continuous
 62
     7
100
AcDbCircle
 10
5532.6774510722
 20
4321.1904376385
 30
0.0
 40
4.999998563070801
100
AcDbArc
 50
300.0000472459
 51
0.0000540678
  0
CIRCLE
  5
DF
330
1F
100
AcDbEntity
  8
0
  6
Continuous
 62
     7
100
AcDbCircle
 10
5532.6774510722
 20
4321.1904376385
 30
0.0
 40
3.0
  0
ARC
  5
E0
330
1F
100
AcDbEntity
  8
0
  6
Continuous
 62
     7
100
AcDbCircle
 10
5572.6774510722
 20
4321.1904376385
 30
0.0
 40
4.999998302299864
100
AcDbArc
 50
0.0000609072
 51
60.000050218
  0
ARC
  5
E1
330
1F
100
AcDbEntity
  8
0
  6
Continuous
 62
     7
100
AcDbCircle
 10
5572.6774510722
 20
4321.1904376385
 30
0.0
 40
4.999998302300334
100
AcDbArc
 50
180.0000650565
 51
240.0000615354
  0
ARC
  5
E2
330
1F
100
AcDbEntity
  8
0
  6
Continuous
 62
     7
100
AcDbCircle
 10
5572.6774510722
 20
4321.1904376385
 30
0.0
 40
4.999998302299989
100
AcDbArc
 50
60.000050218
 51
120.0000035213
  0
ARC
  5
E3
330
1F
100
AcDbEntity
  8
0
  6
Continuous
 62
     7
100
AcDbCircle
 10
5572.6774510722
 20
4321.1904376385
 30
0.0
 40
4.999998302300334
100
AcDbArc
 50
240.0000615354
 51
300.0000557489
  0
ARC
  5
E4
330
1F
100
AcDbEntity
  8
0
  6
Continuous
 62
     7
100
AcDbCircle
 10
5572.6774510722
 20
4321.1904376385
 30
0.0
 40
4.999998302299989
100
AcDbArc
 50
120.0000035213
 51
180.0000650565
  0
ARC
  5
E5
330
1F
100
AcDbEntity
  8
0
  6
Continuous
 62
     7
100
AcDbCircle
 10
5572.6774510722
 20
4321.1904376385
 30
0.0
 40
4.999998302299562
100
AcDbArc
 50
300.0000557489
 51
0.0000609072
  0
CIRCLE
  5
E6
330
1F
100
AcDbEntity
  8
0
  6
Continuous
 62
     7
100
AcDbCircle
 10
5572.6774510722
 20
4321.1904376385
 30
0.0
 40
3.0
  0
ARC
  5
E7
330
1F
100
AcDbEntity
  8
0
  6
Continuous
 62
     7
100
AcDbCircle
 10
5532.6774510722
 20
4388.1904376385
 30
0.0
 40
4.999997901741407
100
AcDbArc
 50
350.3346438117
 51
50.3346404773
  0
ARC
  5
E8
330
1F
100
AcDbEntity
  8
0
  6
Continuous
 62
     7
100
AcDbCircle
 10
5532.6774510722
 20
4388.1904376385
 30
0.0
 40
4.999997901741718
100
AcDbArc
 50
170.3346285657
 51
230.3346328544
  0
ARC
  5
E9
330
1F
100
AcDbEntity
  8
0
  6
Continuous
 62
     7
100
AcDbCircle
 10
5532.6774510722
 20
4388.1904376385
 30
0.0
 40
4.99999790174157
100
AcDbArc
 50
50.3346404773
 51
110.3346805177
  0
ARC
  5
EA
330
1F
100
AcDbEntity
  8
0
  6
Continuous
 62
     7
100
AcDbCircle
 10
5532.6774510722
 20
4388.1904376385
 30
0.0
 40
4.999997901741718
100
AcDbArc
 50
230.3346328544
 51
290.334656692
  0
ARC
  5
EB
330
1F
100
AcDbEntity
  8
0
  6
Continuous
 62
     7
100
AcDbCircle
 10
5532.6774510722
 20
4388.1904376385
 30
0.0
 40
4.999997901741325
100
AcDbArc
 50
290.334656692
 51
350.3346438117
  0
ARC
  5
EC
330
1F
100
AcDbEntity
  8
0
  6
Continuous
 62
     7
100
AcDbCircle
 10
5532.6774510722
 20
4388.1904376385
 30
0.0
 40
4.999997901741691
100
AcDbArc
 50
110.3346805177
 51
170.3346285657
  0
CIRCLE
  5
ED
330
1F
100
AcDbEntity
  8
0
  6
Continuous
 62
     7
100
AcDbCircle
 10
5532.6774510722
 20
4388.1904376385
 30
0.0
 40
3.0
  0
ARC
  5
EE
330
1F
100
AcDbEntity
  8
0
  6
Continuous
 62
     7
100
AcDbCircle
 10
5532.6774510722
 20
4388.1904376385
 30
0.0
 40
2.500000000000997
100
AcDbArc
 50
315.2413983269
 51
12.8633538064
  0
ARC
  5
EF
330
1F
100
AcDbEntity
  8
0
  6
Continuous
 62
     7
100
AcDbCircle
 10
5532.6774510722
 20
4388.1904376385
 30
0.0
 40
2.500000000000152
100
AcDbArc
 50
115.2780062828
 51
170.3346004137
  0
ARC
  5
F0
330
1F
100
AcDbEntity
  8
0
  6
Continuous
 62
     7
100
AcDbCircle
 10
5572.6774510722
 20
4388.1904376385
 30
0.0
 40
4.99999902496624
100
AcDbArc
 50
0.0000352939
 51
59.9999875512
  0
ARC
  5
F1
330
1F
100
AcDbEntity
  8
0
  6
Continuous
 62
     7
100
AcDbCircle
 10
5572.6774510722
 20
4388.1904376385
 30
0.0
 40
4.999999024966476
100
AcDbArc
 50
179.9999605546
 51
240.0000021126
  0
ARC
  5
F2
330
1F
100
AcDbEntity
  8
0
  6
Continuous
 62
     7
100
AcDbCircle
 10
5572.6774510722
 20
4388.1904376385
 30
0.0
 40
4.999999024967026
100
AcDbArc
 50
59.9999875512
 51
120.0000011307
  0
ARC
  5
F3
330
1F
100
AcDbEntity
  8
0
  6
Continuous
 62
     7
100
AcDbCircle
 10
5572.6774510722
 20
4388.1904376385
 30
0.0
 40
4.999999024967035
100
AcDbArc
 50
240.0000021126
 51
300.0000188657
  0
ARC
  5
F4
330
1F
100
AcDbEntity
  8
0
  6
Continuous
 62
     7
100
AcDbCircle
 10
5572.6774510722
 20
4388.1904376385
 30
0.0
 40
4.999999024967026
100
AcDbArc
 50
120.0000011307
 51
179.9999605546
  0
ARC
  5
F5
330
1F
100
AcDbEntity
  8
0
  6
Continuous
 62
     7
100
AcDbCircle
 10
5572.6774510722
 20
4388.1904376385
 30
0.0
 40
4.999999024967035
100
AcDbArc
 50
300.0000188657
 51
0.0000352939
  0
CIRCLE
  5
F6
330
1F
100
AcDbEntity
  8
0
  6
Continuous
 62
     7
100
AcDbCircle
 10
5572.6774510722
 20
4388.1904376385
 30
0.0
 40
3.0
  0
CIRCLE
  5
F7
330
1F
100
AcDbEntity
  8
0
  6
Continuous
 62
     7
100
AcDbCircle
 10
5532.6774510722
 20
4321.1904376385
 30
0.0
 40
6.0
  0
CIRCLE
  5
F8
330
1F
100
AcDbEntity
  8
0
  6
Continuous
 62
     7
100
AcDbCircle
 10
5532.6774510722
 20
4388.1904376385
 30
0.0
 40
6.0
  0
CIRCLE
  5
F9
330
1F
100
AcDbEntity
  8
0
  6
Continuous
 62
     7
100
AcDbCircle
 10
5572.6774510722
 20
4321.1904376385
 30
0.0
 40
6.0
  0
CIRCLE
  5
FA
330
1F
100
AcDbEntity
  8
0
  6
Continuous
 62
     7
100
AcDbCircle
 10
5572.6774510722
 20
4388.1904376385
 30
0.0
 40
6.0
  0
ARC
  5
FB
330
1F
100
AcDbEntity
  8
0
  6
Continuous
 62
     7
100
AcDbCircle
 10
5701.6774510723
 20
4468.1904376386
 30
0.0
 40
1.000000000000909
100
AcDbArc
 50
0.0
 51
36.9594728055
  0
ARC
  5
FC
330
1F
100
AcDbEntity
  8
0
  6
Continuous
 62
     7
100
AcDbCircle
 10
5701.6774510723
 20
4468.1904376386
 30
0.0
 40
2.500000774800355
100
AcDbArc
 50
359.9999952181
 51
90.0
  0
ARC
  5
FD
330
1F
100
AcDbEntity
  8
0
  6
Continuous
 62
     7
100
AcDbCircle
 10
5403.6774510723
 20
4468.1904376385
 30
0.0
 40
2.500000774949521
100
AcDbArc
 50
90.0
 51
180.0000047785
  0
ARC
  5
FE
330
1F
100
AcDbEntity
  8
0
  6
Continuous
 62
     7
100
AcDbCircle
 10
5403.6774510723
 20
4468.1904376385
 30
0.0
 40
1.000000000100044
100
AcDbArc
 50
143.0405271958
 51
180.0
  0
ELLIPSE
  5
FF
330
1F
100
AcDbEntity
  8
0
  6
Continuous
 62
     7
100
AcDbEllipse
 10
6195.5162426349
 20
5371.2668450774
 30
0.0
 11
2.500000000000909
 21
0.0
 31
0.0
210
0.0
220
0.0
230
1.0
 40
0.3292893219
 41
1.570796326794897
 42
3.141592653589793
  0
ELLIPSE
  5
100
330
1F
100
AcDbEntity
  8
0
  6
Continuous
 62
     7
100
AcDbEllipse
 10
5701.6774510723
 20
4468.1904376386
 30
0.0
 11
0.0
 21
2.500000774800355
 31
0.0
210
0.0
220
0.0
230
1.0
 40
0.3292893219
 41
4.712388980325032
 42
6.283185307179586
  0
ELLIPSE
  5
101
330
1F
100
AcDbEntity
  8
0
  6
Continuous
 62
     7
100
AcDbEllipse
 10
5403.6774510723
 20
4468.1904376385
 30
0.0
 11
0.0
 21
2.500000774949513
 31
0.0
210
0.0
220
0.0
230
1.0
 40
0.3292893219
 41
0.0
 42
1.570796326794897
  0
LINE
  5
102
330
1F
100
AcDbEntity
  8
0
  6
Continuous
 62
     7
100
AcDbLine
 10
6193.0162426349
 20
5371.2668450774
 30
0.0
 11
6193.0869533014
 21
5176.2668422241
 31
0.0
  0
LINE
  5
103
330
1F
100
AcDbEntity
  8
0
  6
Continuous
 62
     7
100
AcDbLine
 10
6207.3084194914
 20
5089.0641069789
 30
0.0
 11
6195.490633806
 21
5089.0641069789
 31
0.0
  0
LINE
  5
104
330
1F
100
AcDbEntity
  8
0
  6
Continuous
 62
     7
100
AcDbLine
 10
6211.8409082459
 20
5086.4171840198
 30
0.0
 11
6195.490633806
 21
5086.4171840198
 31
0.0
  0
LINE
  5
105
330
1F
100
AcDbEntity
  8
0
  6
Continuous
 62
     7
100
AcDbLine
 10
6213.5942482555
 20
5083.4171928413
 30
0.0
 11
6195.490633806
 21
5083.4171928413
 31
0.0
  0
LINE
  5
106
330
1F
100
AcDbEntity
  8
0
  6
Continuous
 62
     7
100
AcDbLine
 10
6202.905702338
 20
5069.6641064067
 30
0.0
 11
6230.620739777
 21
5069.6641064067
 31
0.0
  0
LINE
  5
107
330
1F
100
AcDbEntity
  8
0
  6
Continuous
 62
     7
100
AcDbLine
 10
6203.9664159812
 20
5067.6641023536
 30
0.0
 11
6231.0509338943
 21
5067.6641023536
 31
0.0
  0
LINE
  5
108
330
1F
100
AcDbEntity
  8
0
  6
Continuous
 62
     7
100
AcDbLine
 10
6214.8493509073
 20
5074.9991840501
 30
0.0
 11
6214.8493509073
 21
5069.6641064067
 31
0.0
  0
LINE
  5
109
330
1F
100
AcDbEntity
  8
0
  6
Continuous
 62
     7
100
AcDbLine
 10
6216.783941355
 20
5071.3436907907
 30
0.0
 11
6216.7632210575
 21
5069.6641064067
 31
0.0
  0
LINE
  5
10A
330
1F
100
AcDbEntity
  8
0
  6
Continuous
 62
     7
100
AcDbLine
 10
6217.2691639777
 20
5070.4268372436
 30
0.0
 11
6217.2691639777
 21
5069.6641064067
 31
0.0
  0
LINE
  5
10B
330
1F
100
AcDbEntity
  8
0
  6
Continuous
 62
     7
100
AcDbLine
 10
6220.3911751773
 20
5064.4641077895
 30
0.0
 11
6195.1052924275
 21
5064.4641077895
 31
0.0
  0
LINE
  5
10C
330
1F
100
AcDbEntity
  8
0
  6
Continuous
 62
     7
100
AcDbLine
 10
6221.3427372541
 20
5062.4641037364
 30
0.0
 11
6195.3806182634
 21
5062.4641037364
 31
0.0
  0
LINE
  5
10D
330
1F
100
AcDbEntity
  8
0
  6
Continuous
 62
     7
100
AcDbLine
 10
6230.3805271428
 20
5010.9641111274
 30
0.0
 11
6244.0847283494
 21
5010.9641111274
 31
0.0
  0
LINE
  5
10E
330
1F
100
AcDbEntity
  8
0
  6
Continuous
 62
     7
100
AcDbLine
 10
6242.4619695436
 20
5015.964106359
 30
0.0
 11
6228.5292161893
 21
5015.964106359
 31
0.0
  0
LINE
  5
10F
330
1F
100
AcDbEntity
  8
0
  6
Continuous
 62
     7
100
AcDbLine
 10
6234.8849730831
 20
5034.9641001601
 30
0.0
 11
6220.4782193791
 21
5034.9641001601
 31
0.0
  0
LINE
  5
110
330
1F
100
AcDbEntity
  8
0
  6
Continuous
 62
     7
100
AcDbLine
 10
6205.5162428211
 20
5139.2668417473
 30
0.0
 11
6234.3960417699
 21
5139.2668417473
 31
0.0
  0
LINE
  5
111
330
1F
100
AcDbEntity
  8
0
  6
Continuous
 62
     7
100
AcDbLine
 10
6261.0960429799
 20
5139.2668417473
 30
0.0
 11
6395.5162367117
 21
5139.2668417473
 31
0.0
  0
LINE
  5
112
330
1F
100
AcDbEntity
  8
0
  6
Continuous
 62
     7
100
AcDbLine
 10
6395.5162367117
 20
5145.2668464561
 30
0.0
 11
6261.0960429799
 21
5145.2668464561
 31
0.0
  0
LINE
  5
113
330
1F
100
AcDbEntity
  8
0
  6
Continuous
 62
     7
100
AcDbLine
 10
6234.3960417699
 20
5145.2668464561
 30
0.0
 11
6205.5162428211
 21
5145.2668464561
 31
0.0
  0
LINE
  5
114
330
1F
100
AcDbEntity
  8
0
  6
Continuous
 62
     7
100
AcDbLine
 10
6205.5162428211
 20
5145.2668464561
 30
0.0
 11
6204.5162428901
 21
5144.2668444295
 31
0.0
  0
LINE
  5
115
330
1F
100
AcDbEntity
  8
0
  6
Continuous
 62
     7
100
AcDbLine
 10
6204.5162428901
 20
5140.2668437739
 30
0.0
 11
6205.5162428211
 21
5139.2668417473
 31
0.0
  0
LINE
  5
116
330
1F
100
AcDbEntity
  8
0
  6
Continuous
 62
     7
100
AcDbLine
 10
6205.5162428211
 20
5415.2668422837
 30
0.0
 11
6204.5162428901
 21
5414.2668402572
 31
0.0
  0
LINE
  5
117
330
1F
100
AcDbEntity
  8
0
  6
Continuous
 62
     7
100
AcDbLine
 10
6204.5162428901
 20
5410.2668470521
 30
0.0
 11
6205.5162428211
 21
5409.2668450256
 31
0.0
  0
LINE
  5
118
330
1F
100
AcDbEntity
  8
0
  6
Continuous
 62
     7
100
AcDbLine
 10
6205.5162428211
 20
5409.2668450256
 30
0.0
 11
6234.3960417699
 21
5409.2668450256
 31
0.0
  0
LINE
  5
119
330
1F
100
AcDbEntity
  8
0
  6
Continuous
 62
     7
100
AcDbLine
 10
6261.0960429799
 20
5409.2668450256
 30
0.0
 11
6395.5162367117
 21
5409.2668450256
 31
0.0
  0
LINE
  5
11A
330
1F
100
AcDbEntity
  8
0
  6
Continuous
 62
     7
100
AcDbLine
 10
6395.5162367117
 20
5415.2668422837
 30
0.0
 11
6261.0960429799
 21
5415.2668422837
 31
0.0
  0
LINE
  5
11B
330
1F
100
AcDbEntity
  8
0
  6
Continuous
 62
     7
100
AcDbLine
 10
6234.3960417699
 20
5415.2668422837
 30
0.0
 11
6205.5162428211
 21
5415.2668422837
 31
0.0
  0
LINE
  5
11C
330
1F
100
AcDbEntity
  8
0
  6
Continuous
 62
     7
100
AcDbLine
 10
6232.731632356
 20
5039.6478480477
 30
0.0
 11
6218.3367483582
 21
5039.6478480477
 31
0.0
  0
LINE
  5
11D
330
1F
100
AcDbEntity
  8
0
  6
Continuous
 62
     7
100
AcDbLine
 10
6215.7795917507
 20
5044.9641055246
 30
0.0
 11
6241.0960397016
 21
5044.9641055246
 31
0.0
  0
LINE
  5
11E
330
1F
100
AcDbEntity
  8
0
  6
Continuous
 62
     7
100
AcDbLine
 10
6217.5935743641
 20
5041.2637150664
 30
0.0
 11
6221.1516551458
 21
5044.9641055246
 31
0.0
  0
LINE
  5
11F
330
1F
100
AcDbEntity
  8
0
  6
Continuous
 62
     7
100
AcDbLine
 10
6217.9610165101
 20
5040.5205196519
 30
0.0
 11
6222.999178226
 21
5044.9641055246
 31
0.0
  0
LINE
  5
120
330
1F
100
AcDbEntity
  8
0
  6
Continuous
 62
     7
100
AcDbLine
 10
6230.5038286638
 20
5044.3315959354
 30
0.0
 11
6222.2820354299
 21
5044.3315959354
 31
0.0
  0
LINE
  5
121
330
1F
100
AcDbEntity
  8
0
  6
Continuous
 62
     7
100
AcDbLine
 10
6187.5960411768
 20
5051.1641061683
 30
0.0
 11
6193.711031551
 21
5051.1641061683
 31
0.0
  0
LINE
  5
122
330
1F
100
AcDbEntity
  8
0
  6
Continuous
 62
     7
100
AcDbLine
 10
6193.711031551
 20
5051.1641061683
 30
0.0
 11
6193.596041229
 21
5045.9641075511
 31
0.0
  0
LINE
  5
123
330
1F
100
AcDbEntity
  8
0
  6
Continuous
 62
     7
100
AcDbLine
 10
6211.1151841734
 20
5054.164112248
 30
0.0
 11
6241.0960397016
 21
5054.164112248
 31
0.0
  0
LINE
  5
124
330
1F
100
AcDbEntity
  8
0
  6
Continuous
 62
     7
100
AcDbLine
 10
6201.4463161383
 20
5134.7696265955
 30
0.0
 11
6201.4463161383
 21
5135.2668485422
 31
0.0
  0
LINE
  5
125
330
1F
100
AcDbEntity
  8
0
  6
Continuous
 62
     7
100
AcDbLine
 10
5403.6774510723
 20
4470.6904384134
 30
0.0
 11
5701.6774510723
 21
4470.6904384134
 31
0.0
  0
LINE
  5
126
330
1F
100
AcDbEntity
  8
0
  6
Continuous
 62
     7
100
AcDbLine
 10
5521.3251319936
 20
4468.1904376385
 30
0.0
 11
5535.539417222
 21
4468.1904376385
 31
0.0
  0
LINE
  5
127
330
1F
100
AcDbEntity
  8
0
  6
Continuous
 62
     7
100
AcDbLine
 10
5401.2481555323
 20
4471.6904387787
 30
0.0
 11
5704.106746612
 21
4471.6904387787
 31
0.0
  0
LINE
  5
128
330
1F
100
AcDbEntity
  8
0
  6
Continuous
 62
     7
100
AcDbLine
 10
6195.490633806
 20
5075.1171864517
 30
0.0
 11
6195.490633806
 21
5069.6641064067
 31
0.0
  0
LINE
  5
129
330
1F
100
AcDbEntity
  8
0
  6
Continuous
 62
     7
100
AcDbLine
 10
6214.8493509073
 20
5077.9641127963
 30
0.0
 11
6214.8493509073
 21
5083.4171928413
 31
0.0
  0
LINE
  5
12A
330
1F
100
AcDbEntity
  8
0
  6
Continuous
 62
     7
100
AcDbLine
 10
6216.783941355
 20
5077.9641127963
 30
0.0
 11
6216.783941355
 21
5083.4171928413
 31
0.0
  0
LINE
  5
12B
330
1F
100
AcDbEntity
  8
0
  6
Continuous
 62
     7
100
AcDbLine
 10
6217.346669551
 20
5077.9641127963
 30
0.0
 11
6217.346669551
 21
5083.4171928413
 31
0.0
  0
LINE
  5
12C
330
1F
100
AcDbEntity
  8
0
  6
Continuous
 62
     7
100
AcDbLine
 10
6215.9463161867
 20
5080.9641039748
 30
0.0
 11
6215.9463161867
 21
5069.6641064067
 31
0.0
  0
LINE
  5
12D
330
1F
100
AcDbEntity
  8
0
  6
Continuous
 62
     7
100
AcDbLine
 10
6230.620739777
 20
5077.9641127963
 30
0.0
 11
6230.620739777
 21
5083.4171928413
 31
0.0
  0
LINE
  5
12E
330
1F
100
AcDbEntity
  8
0
  6
Continuous
 62
     7
100
AcDbLine
 10
6234.3967294138
 20
5077.9641127963
 30
0.0
 11
6234.3967294138
 21
5083.4171928413
 31
0.0
  0
LINE
  5
12F
330
1F
100
AcDbEntity
  8
0
  6
Continuous
 62
     7
100
AcDbLine
 10
6234.2602478158
 20
5077.9641127963
 30
0.0
 11
6234.2602478158
 21
5083.4171928413
 31
0.0
  0
LINE
  5
130
330
1F
100
AcDbEntity
  8
0
  6
Continuous
 62
     7
100
AcDbLine
 10
6195.490633806
 20
5089.0641069789
 30
0.0
 11
6205.6134332003
 21
5127.0339644332
 31
0.0
  0
LINE
  5
131
330
1F
100
AcDbEntity
  8
0
  6
Continuous
 62
     7
100
AcDbLine
 10
6276.4463177215
 20
5131.9641030212
 30
0.0
 11
6276.4463177215
 21
5134.7696265955
 31
0.0
  0
LINE
  5
132
330
1F
100
AcDbEntity
  8
0
  6
Continuous
 62
     7
100
AcDbLine
 10
6201.4463161383
 20
5134.7696265955
 30
0.0
 11
6201.4463161383
 21
5131.9641030212
 31
0.0
  0
LINE
  5
133
330
1F
100
AcDbEntity
  8
0
  6
Continuous
 62
     7
100
AcDbLine
 10
6205.6134332003
 20
5127.0339644332
 30
0.0
 11
6211.9463159967
 21
5125.964105763
 31
0.0
  0
LINE
  5
134
330
1F
100
AcDbEntity
  8
0
  6
Continuous
 62
     7
100
AcDbLine
 10
6265.9463150691
 20
5125.964105763
 30
0.0
 11
6272.2792005431
 21
5127.0339644332
 31
0.0
  0
LINE
  5
135
330
1F
100
AcDbEntity
  8
0
  6
Continuous
 62
     7
100
AcDbLine
 10
6211.9463159967
 20
5125.964105763
 30
0.0
 11
6215.9463161867
 21
5090.9641093392
 31
0.0
  0
LINE
  5
136
330
1F
100
AcDbEntity
  8
0
  6
Continuous
 62
     7
100
AcDbLine
 10
6261.9463144135
 20
5090.9641093392
 30
0.0
 11
6265.9463150691
 21
5125.964105763
 31
0.0
  0
LINE
  5
137
330
1F
100
AcDbEntity
  8
0
  6
Continuous
 62
     7
100
AcDbLine
 10
6261.9463144135
 20
5080.9641039748
 30
0.0
 11
6261.9463144135
 21
5090.9641093392
 31
0.0
  0
LINE
  5
138
330
1F
100
AcDbEntity
  8
0
  6
Continuous
 62
     7
100
AcDbLine
 10
6215.9463161867
 20
5090.9641093392
 30
0.0
 11
6215.9463161867
 21
5080.9641039748
 31
0.0
  0
LINE
  5
139
330
1F
100
AcDbEntity
  8
0
  6
Continuous
 62
     7
100
AcDbLine
 10
6187.5960411768
 20
5054.164112248
 30
0.0
 11
6187.5960411768
 21
5051.1641061683
 31
0.0
  0
LINE
  5
13A
330
1F
100
AcDbEntity
  8
0
  6
Continuous
 62
     7
100
AcDbLine
 10
6188.5960416686
 20
5067.6641023536
 30
0.0
 11
6188.5960416686
 21
5054.164112248
 31
0.0
  0
LINE
  5
13B
330
1F
100
AcDbEntity
  8
0
  6
Continuous
 62
     7
100
AcDbLine
 10
6194.1772610214
 20
5065.1641047378
 30
0.0
 11
6193.7824519616
 21
5065.1641047378
 31
0.0
  0
LINE
  5
13C
330
1F
100
AcDbEntity
  8
0
  6
Continuous
 62
     7
100
AcDbLine
 10
6188.5960413408
 20
5065.1641047378
 30
0.0
 11
6188.304757167
 21
5065.1641047378
 31
0.0
  0
LINE
  5
13D
330
1F
100
AcDbEntity
  8
0
  6
Continuous
 62
     7
100
AcDbLine
 10
6266.4463160824
 20
5077.9641127963
 30
0.0
 11
6266.4463160824
 21
5080.9641039748
 31
0.0
  0
LINE
  5
13E
330
1F
100
AcDbEntity
  8
0
  6
Continuous
 62
     7
100
AcDbLine
 10
6265.4463177811
 20
5064.4641077895
 30
0.0
 11
6265.4463177811
 21
5067.4208856006
 31
0.0
  0
LINE
  5
13F
330
1F
100
AcDbEntity
  8
0
  6
Continuous
 62
     7
100
AcDbLine
 10
6232.4404934686
 20
5066.9641054053
 30
0.0
 11
6232.5610066097
 21
5066.9641054053
 31
0.0
  0
LINE
  5
140
330
1F
100
AcDbEntity
  8
0
  6
Continuous
 62
     7
100
AcDbLine
 10
6264.6653777253
 20
5066.9641054053
 30
0.0
 11
6265.1507867765
 21
5066.9641054053
 31
0.0
  0
LINE
  5
141
330
1F
100
AcDbEntity
  8
0
  6
Continuous
 62
     7
100
AcDbLine
 10
6309.3960410249
 20
5062.0641118665
 30
0.0
 11
6311.0960399997
 21
5062.0641118665
 31
0.0
  0
LINE
  5
142
330
1F
100
AcDbEntity
  8
0
  6
Continuous
 62
     7
100
AcDbLine
 10
6311.0960399997
 20
5116.0641020913
 30
0.0
 11
6309.3960410249
 21
5116.0641020913
 31
0.0
  0
LINE
  5
143
330
1F
100
AcDbEntity
  8
0
  6
Continuous
 62
     7
100
AcDbLine
 10
6309.3960410249
 20
5116.0641020913
 30
0.0
 11
6305.8960413825
 21
5109.0641028066
 31
0.0
  0
LINE
  5
144
330
1F
100
AcDbEntity
  8
0
  6
Continuous
 62
     7
100
AcDbLine
 10
6305.8960413825
 20
5069.0641111512
 30
0.0
 11
6309.3960410249
 21
5062.0641118665
 31
0.0
  0
LINE
  5
145
330
1F
100
AcDbEntity
  8
0
  6
Continuous
 62
     7
100
AcDbLine
 10
6311.0960399997
 20
5064.0641010184
 30
0.0
 11
6358.0960383903
 21
5064.0641010184
 31
0.0
  0
LINE
  5
146
330
1F
100
AcDbEntity
  8
0
  6
Continuous
 62
     7
100
AcDbLine
 10
6358.0960383903
 20
5114.0641129394
 30
0.0
 11
6311.0960399997
 21
5114.0641129394
 31
0.0
  0
LINE
  5
147
330
1F
100
AcDbEntity
  8
0
  6
Continuous
 62
     7
100
AcDbLine
 10
6358.0960383903
 20
5064.0641010184
 30
0.0
 11
6361.09604447
 21
5065.5641115089
 31
0.0
  0
LINE
  5
148
330
1F
100
AcDbEntity
  8
0
  6
Continuous
 62
     7
100
AcDbLine
 10
6361.09604447
 20
5112.564102449
 30
0.0
 11
6358.0960383903
 21
5114.0641129394
 31
0.0
  0
LINE
  5
149
330
1F
100
AcDbEntity
  8
0
  6
Continuous
 62
     7
100
AcDbLine
 10
6195.490633806
 20
5089.0641056597
 30
0.0
 11
6195.490633806
 21
5075.1171864517
 31
0.0
  0
LINE
  5
14A
330
1F
100
AcDbEntity
  8
0
  6
Continuous
 62
     7
100
AcDbLine
 10
6265.602578808
 20
5069.0641111512
 30
0.0
 11
6305.8960413825
 21
5069.0641111512
 31
0.0
  0
LINE
  5
14B
330
1F
100
AcDbEntity
  8
0
  6
Continuous
 62
     7
100
AcDbLine
 10
6305.8960413825
 20
5109.0641028066
 30
0.0
 11
6264.0148861598
 21
5109.0641028066
 31
0.0
  0
LINE
  5
14C
330
1F
100
AcDbEntity
  8
0
  6
Continuous
 62
     7
100
AcDbLine
 10
6268.9463174235
 20
5010.9641111274
 30
0.0
 11
6268.9463174235
 21
5015.964106359
 31
0.0
  0
LINE
  5
14D
330
1F
100
AcDbEntity
  8
0
  6
Continuous
 62
     7
100
AcDbLine
 10
6265.4463177811
 20
5015.964106359
 30
0.0
 11
6265.4463177811
 21
5034.9641001601
 31
0.0
  0
LINE
  5
14E
330
1F
100
AcDbEntity
  8
0
  6
Continuous
 62
     7
100
AcDbLine
 10
6262.1963149201
 20
5039.6478480477
 30
0.0
 11
6261.5088163208
 21
5039.9659878392
 31
0.0
  0
LINE
  5
14F
330
1F
100
AcDbEntity
  8
0
  6
Continuous
 62
     7
100
AcDbLine
 10
6261.5088163208
 20
5039.9659878392
 30
0.0
 11
6261.0960429799
 21
5040.2235693116
 31
0.0
  0
LINE
  5
150
330
1F
100
AcDbEntity
  8
0
  6
Continuous
 62
     7
100
AcDbLine
 10
6193.596041229
 20
5045.9641075511
 30
0.0
 11
6193.596041229
 21
5043.6243570228
 31
0.0
  0
LINE
  5
151
330
1F
100
AcDbEntity
  8
0
  6
Continuous
 62
     7
100
AcDbLine
 10
6185.0960416984
 20
5015.964106359
 30
0.0
 11
6185.0960416984
 21
5010.9641111274
 31
0.0
  0
LINE
  5
152
330
1F
100
AcDbEntity
  8
0
  6
Continuous
 62
     7
100
AcDbLine
 10
6188.5960413408
 20
5034.9641001601
 30
0.0
 11
6188.5960413408
 21
5015.964106359
 31
0.0
  0
LINE
  5
153
330
1F
100
AcDbEntity
  8
0
  6
Continuous
 62
     7
100
AcDbLine
 10
6263.8162425052
 20
5379.0168470521
 30
0.0
 11
6267.5162418079
 21
5379.0168470521
 31
0.0
  0
LINE
  5
154
330
1F
100
AcDbEntity
  8
0
  6
Continuous
 62
     7
100
AcDbLine
 10
6267.5162418079
 20
5389.5168459792
 30
0.0
 11
6263.8162425052
 21
5389.5168459792
 31
0.0
  0
LINE
  5
155
330
1F
100
AcDbEntity
  8
0
  6
Continuous
 62
     7
100
AcDbLine
 10
6281.1739569794
 20
5394.1687947888
 30
0.0
 11
6281.2024927031
 21
5394.1920256991
 31
0.0
  0
LINE
  5
156
330
1F
100
AcDbEntity
  8
0
  6
Continuous
 62
     7
100
AcDbLine
 10
6281.2024927031
 20
5394.1920256991
 30
0.0
 11
6281.2897464525
 21
5394.2668444295
 31
0.0
  0
LINE
  5
157
330
1F
100
AcDbEntity
  8
0
  6
Continuous
 62
     7
100
AcDbLine
 10
6348.5162457716
 20
5392.2668403764
 30
0.0
 11
6348.5162457716
 21
5393.7668508668
 31
0.0
  0
LINE
  5
158
330
1F
100
AcDbEntity
  8
0
  6
Continuous
 62
     7
100
AcDbLine
 10
6336.516236354
 20
5393.7668508668
 30
0.0
 11
6336.516236354
 21
5392.2668403764
 31
0.0
  0
LINE
  5
159
330
1F
100
AcDbEntity
  8
0
  6
Continuous
 62
     7
100
AcDbLine
 10
6281.5162441026
 20
5392.2668403764
 30
0.0
 11
6281.5162441026
 21
5393.7668508668
 31
0.0
  0
LINE
  5
15A
330
1F
100
AcDbEntity
  8
0
  6
Continuous
 62
     7
100
AcDbLine
 10
6269.5162421357
 20
5393.7668508668
 30
0.0
 11
6269.5162421357
 21
5392.2668403764
 31
0.0
  0
LINE
  5
15B
330
1F
100
AcDbEntity
  8
0
  6
Continuous
 62
     7
100
AcDbLine
 10
6241.0960397016
 20
5148.2668450852
 30
0.0
 11
6239.5960403871
 21
5148.2668450852
 31
0.0
  0
LINE
  5
15C
330
1F
100
AcDbEntity
  8
0
  6
Continuous
 62
     7
100
AcDbLine
 10
6239.5960403871
 20
5136.2668431182
 30
0.0
 11
6241.0960397016
 21
5136.2668431182
 31
0.0
  0
LINE
  5
15D
330
1F
100
AcDbEntity
  8
0
  6
Continuous
 62
     7
100
AcDbLine
 10
6239.5960403871
 20
5406.2668389459
 30
0.0
 11
6241.0960397016
 21
5406.2668389459
 31
0.0
  0
LINE
  5
15E
330
1F
100
AcDbEntity
  8
0
  6
Continuous
 62
     7
100
AcDbLine
 10
6241.0960397016
 20
5418.2668483634
 30
0.0
 11
6239.5960403871
 21
5418.2668483634
 31
0.0
  0
LINE
  5
15F
330
1F
100
AcDbEntity
  8
0
  6
Continuous
 62
     7
100
AcDbLine
 10
6261.0960429799
 20
5527.2668308396
 30
0.0
 11
6261.0960429799
 21
5027.2668457408
 31
0.0
  0
LINE
  5
160
330
1F
100
AcDbEntity
  8
0
  6
Continuous
 62
     7
100
AcDbLine
 10
6261.0960429799
 20
5027.2668457408
 30
0.0
 11
6258.0960406255
 21
5027.2668457408
 31
0.0
  0
LINE
  5
161
330
1F
100
AcDbEntity
  8
0
  6
Continuous
 62
     7
100
AcDbLine
 10
6258.0960406255
 20
5027.2668457408
 30
0.0
 11
6258.0960406255
 21
5527.2668308396
 31
0.0
  0
LINE
  5
162
330
1F
100
AcDbEntity
  8
0
  6
Continuous
 62
     7
100
AcDbLine
 10
6258.0960406255
 20
5527.2668308396
 30
0.0
 11
6261.0960429799
 21
5527.2668308396
 31
0.0
  0
LINE
  5
163
330
1F
100
AcDbEntity
  8
0
  6
Continuous
 62
     7
100
AcDbLine
 10
6244.096042056
 20
5027.2668457408
 30
0.0
 11
6258.0960406255
 21
5027.2668457408
 31
0.0
  0
LINE
  5
164
330
1F
100
AcDbEntity
  8
0
  6
Continuous
 62
     7
100
AcDbLine
 10
6244.096042056
 20
5527.2668308396
 30
0.0
 11
6244.096042056
 21
5027.2668457408
 31
0.0
  0
LINE
  5
165
330
1F
100
AcDbEntity
  8
0
  6
Continuous
 62
     7
100
AcDbLine
 10
6244.096042056
 20
5527.2668308396
 30
0.0
 11
6258.0960406255
 21
5527.2668308396
 31
0.0
  0
LINE
  5
166
330
1F
100
AcDbEntity
  8
0
  6
Continuous
 62
     7
100
AcDbLine
 10
6241.0960397016
 20
5027.2668457408
 30
0.0
 11
6241.0960397016
 21
5527.2668308396
 31
0.0
  0
LINE
  5
167
330
1F
100
AcDbEntity
  8
0
  6
Continuous
 62
     7
100
AcDbLine
 10
6241.0960397016
 20
5527.2668308396
 30
0.0
 11
6244.096042056
 21
5527.2668308396
 31
0.0
  0
LINE
  5
168
330
1F
100
AcDbEntity
  8
0
  6
Continuous
 62
     7
100
AcDbLine
 10
6244.096042056
 20
5027.2668457408
 30
0.0
 11
6241.0960397016
 21
5027.2668457408
 31
0.0
  0
LINE
  5
169
330
1F
100
AcDbEntity
  8
0
  6
Continuous
 62
     7
100
AcDbLine
 10
6205.5162428211
 20
5140.182600059
 30
0.0
 11
6205.5162428211
 21
5139.2668417473
 31
0.0
  0
LINE
  5
16A
330
1F
100
AcDbEntity
  8
0
  6
Continuous
 62
     7
100
AcDbLine
 10
6205.5162428211
 20
5145.2668464561
 30
0.0
 11
6205.5162428211
 21
5140.182600059
 31
0.0
  0
LINE
  5
16B
330
1F
100
AcDbEntity
  8
0
  6
Continuous
 62
     7
100
AcDbLine
 10
6204.5162428901
 20
5140.8773517985
 30
0.0
 11
6204.5162428901
 21
5144.2668444295
 31
0.0
  0
LINE
  5
16C
330
1F
100
AcDbEntity
  8
0
  6
Continuous
 62
     7
100
AcDbLine
 10
6204.5162428901
 20
5140.2668437739
 30
0.0
 11
6204.5162428901
 21
5140.8773517985
 31
0.0
  0
LINE
  5
16D
330
1F
100
AcDbEntity
  8
0
  6
Continuous
 62
     7
100
AcDbLine
 10
6205.5162428211
 20
5415.2668422837
 30
0.0
 11
6205.5162428211
 21
5409.2668450256
 31
0.0
  0
LINE
  5
16E
330
1F
100
AcDbEntity
  8
0
  6
Continuous
 62
     7
100
AcDbLine
 10
6204.5162428901
 20
5410.2668470521
 30
0.0
 11
6204.5162428901
 21
5414.2668402572
 31
0.0
  0
LINE
  5
16F
330
1F
100
AcDbEntity
  8
0
  6
Continuous
 62
     7
100
AcDbLine
 10
6411.0960414898
 20
5144.4252661247
 30
0.0
 11
6396.0162451755
 21
5144.4252661247
 31
0.0
  0
LINE
  5
170
330
1F
100
AcDbEntity
  8
0
  6
Continuous
 62
     7
100
AcDbLine
 10
6411.0960414898
 20
5138.7086069961
 30
0.0
 11
6396.0162451755
 21
5138.7086069961
 31
0.0
  0
LINE
  5
171
330
1F
100
AcDbEntity
  8
0
  6
Continuous
 62
     7
100
AcDbLine
 10
6395.5162367117
 20
5146.2043828149
 30
0.0
 11
6395.5162367117
 21
5141.5669328351
 31
0.0
  0
LINE
  5
172
330
1F
100
AcDbEntity
  8
0
  6
Continuous
 62
     7
100
AcDbLine
 10
6395.5162367117
 20
5141.5669328351
 30
0.0
 11
6395.5162367117
 21
5137.6293978472
 31
0.0
  0
LINE
  5
173
330
1F
100
AcDbEntity
  8
0
  6
Continuous
 62
     7
100
AcDbLine
 10
6411.0960414898
 20
5147.9834995051
 30
0.0
 11
6396.0162451755
 21
5147.9834995051
 31
0.0
  0
LINE
  5
174
330
1F
100
AcDbEntity
  8
0
  6
Continuous
 62
     7
100
AcDbLine
 10
6411.0960414898
 20
5136.5501886983
 30
0.0
 11
6396.0162451755
 21
5136.5501886983
 31
0.0
  0
LINE
  5
175
330
1F
100
AcDbEntity
  8
0
  6
Continuous
 62
     7
100
AcDbLine
 10
6395.5162367117
 20
5147.2668430586
 30
0.0
 11
6395.5162367117
 21
5146.2043828149
 31
0.0
  0
LINE
  5
176
330
1F
100
AcDbEntity
  8
0
  6
Continuous
 62
     7
100
AcDbLine
 10
6395.5162367117
 20
5137.6293978472
 30
0.0
 11
6395.5162367117
 21
5137.2668451448
 31
0.0
  0
LINE
  5
177
330
1F
100
AcDbEntity
  8
0
  6
Continuous
 62
     7
100
AcDbLine
 10
6411.0960414898
 20
5406.9118059058
 30
0.0
 11
6396.0162451755
 21
5406.9118059058
 31
0.0
  0
LINE
  5
178
330
1F
100
AcDbEntity
  8
0
  6
Continuous
 62
     7
100
AcDbLine
 10
6396.0162451755
 20
5406.9118059058
 30
0.0
 11
6395.9623476755
 21
5407.0844656606
 31
0.0
  0
LINE
  5
179
330
1F
100
AcDbEntity
  8
0
  6
Continuous
 62
     7
100
AcDbLine
 10
6411.0960414898
 20
5417.6218814035
 30
0.0
 11
6396.0162451755
 21
5417.6218814035
 31
0.0
  0
LINE
  5
17A
330
1F
100
AcDbEntity
  8
0
  6
Continuous
 62
     7
100
AcDbLine
 10
6411.0960414898
 20
5412.6907891412
 30
0.0
 11
6396.0162451755
 21
5412.6907891412
 31
0.0
  0
LINE
  5
17B
330
1F
100
AcDbEntity
  8
0
  6
Continuous
 62
     7
100
AcDbLine
 10
6411.0960414898
 20
5407.4923104425
 30
0.0
 11
6396.0162451755
 21
5407.4923104425
 31
0.0
  0
LINE
  5
17C
330
1F
100
AcDbEntity
  8
0
  6
Continuous
 62
     7
100
AcDbLine
 10
6395.5162367117
 20
5415.0780594726
 30
0.0
 11
6395.5162367117
 21
5410.0915497918
 31
0.0
  0
LINE
  5
17D
330
1F
100
AcDbEntity
  8
0
  6
Continuous
 62
     7
100
AcDbLine
 10
6411.0960414898
 20
5417.4653149028
 30
0.0
 11
6396.0162451755
 21
5417.4653149028
 31
0.0
  0
LINE
  5
17E
330
1F
100
AcDbEntity
  8
0
  6
Continuous
 62
     7
100
AcDbLine
 10
6395.5162367117
 20
5410.0915497918
 30
0.0
 11
6395.5162367117
 21
5407.2803414245
 31
0.0
  0
LINE
  5
17F
330
1F
100
AcDbEntity
  8
0
  6
Continuous
 62
     7
100
AcDbLine
 10
6395.5162367117
 20
5415.0780594726
 30
0.0
 11
6395.5162428361
 21
5417.2668450775
 31
0.0
  0
LINE
  5
180
330
1F
100
AcDbEntity
  8
0
  6
Continuous
 62
     7
100
AcDbLine
 10
6411.0960414898
 20
5407.0683724065
 30
0.0
 11
6396.0162451755
 21
5407.0683724065
 31
0.0
  0
LINE
  5
181
330
1F
100
AcDbEntity
  8
0
  6
Continuous
 62
     7
100
AcDbLine
 10
6396.0162451755
 20
5407.0683724065
 30
0.0
 11
6395.5695828687
 21
5407.2017974038
 31
0.0
  0
LINE
  5
182
330
1F
100
AcDbEntity
  8
0
  6
Continuous
 62
     7
100
AcDbLine
 10
6395.5345949423
 20
5407.2533107181
 30
0.0
 11
6395.5162367117
 21
5407.2803414245
 31
0.0
  0
LINE
  5
183
330
1F
100
AcDbEntity
  8
0
  6
Continuous
 62
     7
100
AcDbLine
 10
6395.5162367117
 20
5407.2803414245
 30
0.0
 11
6395.5162367117
 21
5407.2668409724
 31
0.0
  0
LINE
  5
184
330
1F
100
AcDbEntity
  8
0
  6
Continuous
 62
     7
100
AcDbLine
 10
6265.9463150691
 20
5125.964105763
 30
0.0
 11
6261.0960429799
 21
5125.964105763
 31
0.0
  0
LINE
  5
185
330
1F
100
AcDbEntity
  8
0
  6
Continuous
 62
     7
100
AcDbLine
 10
6241.0960397016
 20
5125.964105763
 30
0.0
 11
6211.9463159967
 21
5125.964105763
 31
0.0
  0
LINE
  5
186
330
1F
100
AcDbEntity
  8
0
  6
Continuous
 62
     7
100
AcDbLine
 10
6261.9463144135
 20
5090.9641093392
 30
0.0
 11
6261.0960429799
 21
5090.9641093392
 31
0.0
  0
LINE
  5
187
330
1F
100
AcDbEntity
  8
0
  6
Continuous
 62
     7
100
AcDbLine
 10
6241.0960397016
 20
5090.9641093392
 30
0.0
 11
6215.9463161867
 21
5090.9641093392
 31
0.0
  0
LINE
  5
188
330
1F
100
AcDbEntity
  8
0
  6
Continuous
 62
     7
100
AcDbLine
 10
6211.1151841734
 20
5054.164112248
 30
0.0
 11
6187.5960411768
 21
5054.164112248
 31
0.0
  0
LINE
  5
189
330
1F
100
AcDbEntity
  8
0
  6
Continuous
 62
     7
100
AcDbLine
 10
6202.905702338
 20
5069.6641064067
 30
0.0
 11
6190.5960416686
 21
5069.6641064067
 31
0.0
  0
LINE
  5
18A
330
1F
100
AcDbEntity
  8
0
  6
Continuous
 62
     7
100
AcDbLine
 10
6195.3806182634
 20
5054.164112248
 30
0.0
 11
6195.3806182634
 21
5063.2891065259
 31
0.0
  0
LINE
  5
18B
330
1F
100
AcDbEntity
  8
0
  6
Continuous
 62
     7
100
AcDbLine
 10
6194.9334940206
 20
5063.2891065259
 30
0.0
 11
6194.8458761241
 21
5064.0066421409
 31
0.0
  0
LINE
  5
18C
330
1F
100
AcDbEntity
  8
0
  6
Continuous
 62
     7
100
AcDbLine
 10
6194.8458761241
 20
5064.0066421409
 30
0.0
 11
6194.5963617679
 21
5064.6149373431
 31
0.0
  0
LINE
  5
18D
330
1F
100
AcDbEntity
  8
0
  6
Continuous
 62
     7
100
AcDbLine
 10
6194.5963617679
 20
5064.6149373431
 30
0.0
 11
6194.2229368057
 21
5065.0213814159
 31
0.0
  0
LINE
  5
18E
330
1F
100
AcDbEntity
  8
0
  6
Continuous
 62
     7
100
AcDbLine
 10
6194.2229368057
 20
5065.0213814159
 30
0.0
 11
6193.7824519616
 21
5065.1641047378
 31
0.0
  0
LINE
  5
18F
330
1F
100
AcDbEntity
  8
0
  6
Continuous
 62
     7
100
AcDbLine
 10
6193.7824519616
 20
5065.1641047378
 30
0.0
 11
6193.3419671174
 21
5065.0213814159
 31
0.0
  0
LINE
  5
190
330
1F
100
AcDbEntity
  8
0
  6
Continuous
 62
     7
100
AcDbLine
 10
6193.3419671174
 20
5065.0213814159
 30
0.0
 11
6192.9685421553
 21
5064.6149373431
 31
0.0
  0
LINE
  5
191
330
1F
100
AcDbEntity
  8
0
  6
Continuous
 62
     7
100
AcDbLine
 10
6192.9685421553
 20
5064.6149373431
 30
0.0
 11
6192.719027799
 21
5064.0066421409
 31
0.0
  0
LINE
  5
192
330
1F
100
AcDbEntity
  8
0
  6
Continuous
 62
     7
100
AcDbLine
 10
6192.719027799
 20
5064.0066421409
 30
0.0
 11
6192.6314099025
 21
5063.2891065259
 31
0.0
  0
LINE
  5
193
330
1F
100
AcDbEntity
  8
0
  6
Continuous
 62
     7
100
AcDbLine
 10
6195.3806182634
 20
5063.2891065259
 30
0.0
 11
6194.9334940206
 21
5063.2891065259
 31
0.0
  0
LINE
  5
194
330
1F
100
AcDbEntity
  8
0
  6
Continuous
 62
     7
100
AcDbLine
 10
6194.9334940206
 20
5054.164112248
 30
0.0
 11
6194.9334940206
 21
5063.2891065259
 31
0.0
  0
LINE
  5
195
330
1F
100
AcDbEntity
  8
0
  6
Continuous
 62
     7
100
AcDbLine
 10
6192.6314099025
 20
5063.2891065259
 30
0.0
 11
6192.6314099025
 21
5054.164112248
 31
0.0
  0
LINE
  5
196
330
1F
100
AcDbEntity
  8
0
  6
Continuous
 62
     7
100
AcDbLine
 10
6188.0720699471
 20
5054.164112248
 30
0.0
 11
6188.0720699471
 21
5063.2891065259
 31
0.0
  0
LINE
  5
197
330
1F
100
AcDbEntity
  8
0
  6
Continuous
 62
     7
100
AcDbLine
 10
6211.8409082459
 20
5086.4171840198
 30
0.0
 11
6241.4906320327
 21
5086.4171840198
 31
0.0
  0
LINE
  5
198
330
1F
100
AcDbEntity
  8
0
  6
Continuous
 62
     7
100
AcDbLine
 10
6261.0960429799
 20
5080.9641039748
 30
0.0
 11
6266.4463160824
 21
5080.9641039748
 31
0.0
  0
LINE
  5
199
330
1F
100
AcDbEntity
  8
0
  6
Continuous
 62
     7
100
AcDbLine
 10
6213.5942482555
 20
5083.4171928413
 30
0.0
 11
6241.4906320327
 21
5083.4171928413
 31
0.0
  0
LINE
  5
19A
330
1F
100
AcDbEntity
  8
0
  6
Continuous
 62
     7
100
AcDbLine
 10
6261.0960429799
 20
5077.9641127963
 30
0.0
 11
6266.4463160824
 21
5077.9641127963
 31
0.0
  0
LINE
  5
19B
330
1F
100
AcDbEntity
  8
0
  6
Continuous
 62
     7
100
AcDbLine
 10
6217.2691639777
 20
5070.4268372436
 30
0.0
 11
6217.2691639777
 21
5077.9641127963
 31
0.0
  0
LINE
  5
19C
330
1F
100
AcDbEntity
  8
0
  6
Continuous
 62
     7
100
AcDbLine
 10
6234.3967294138
 20
5068.8391036172
 30
0.0
 11
6234.3967294138
 21
5077.9641127963
 31
0.0
  0
LINE
  5
19D
330
1F
100
AcDbEntity
  8
0
  6
Continuous
 62
     7
100
AcDbLine
 10
6264.1492648315
 20
5077.9641127963
 30
0.0
 11
6264.1492648315
 21
5068.8391036172
 31
0.0
  0
LINE
  5
19E
330
1F
100
AcDbEntity
  8
0
  6
Continuous
 62
     7
100
AcDbLine
 10
6221.3427372541
 20
5062.4641037364
 30
0.0
 11
6241.0926012587
 21
5062.4641037364
 31
0.0
  0
LINE
  5
19F
330
1F
100
AcDbEntity
  8
0
  6
Continuous
 62
     7
100
AcDbLine
 10
6261.0960429799
 20
5062.4641037364
 30
0.0
 11
6263.4463174533
 21
5062.4641037364
 31
0.0
  0
LINE
  5
1A0
330
1F
100
AcDbEntity
  8
0
  6
Continuous
 62
     7
100
AcDbLine
 10
6230.620739777
 20
5077.9641127963
 30
0.0
 11
6230.620739777
 21
5068.8391036172
 31
0.0
  0
LINE
  5
1A1
330
1F
100
AcDbEntity
  8
0
  6
Continuous
 62
     7
100
AcDbLine
 10
6234.2602478158
 20
5068.8391036172
 30
0.0
 11
6234.2602478158
 21
5077.9641127963
 31
0.0
  0
LINE
  5
1A2
330
1F
100
AcDbEntity
  8
0
  6
Continuous
 62
     7
100
AcDbLine
 10
6234.3967294138
 20
5068.8391036172
 30
0.0
 11
6234.2602478158
 21
5068.8391036172
 31
0.0
  0
LINE
  5
1A3
330
1F
100
AcDbEntity
  8
0
  6
Continuous
 62
     7
100
AcDbLine
 10
6214.8493509073
 20
5077.9641127963
 30
0.0
 11
6214.8493509073
 21
5074.9991840501
 31
0.0
  0
LINE
  5
1A4
330
1F
100
AcDbEntity
  8
0
  6
Continuous
 62
     7
100
AcDbLine
 10
6216.783941355
 20
5071.3436907907
 30
0.0
 11
6216.783941355
 21
5077.9641127963
 31
0.0
  0
LINE
  5
1A5
330
1F
100
AcDbEntity
  8
0
  6
Continuous
 62
     7
100
AcDbLine
 10
6264.6989947449
 20
5068.8391036172
 30
0.0
 11
6264.7333828997
 21
5068.1215680022
 31
0.0
  0
LINE
  5
1A6
330
1F
100
AcDbEntity
  8
0
  6
Continuous
 62
     7
100
AcDbLine
 10
6264.7333828997
 20
5068.1215680022
 30
0.0
 11
6264.8313207816
 21
5067.5132877011
 31
0.0
  0
LINE
  5
1A7
330
1F
100
AcDbEntity
  8
0
  6
Continuous
 62
     7
100
AcDbLine
 10
6264.8313207816
 20
5067.5132877011
 30
0.0
 11
6264.9778923284
 21
5067.1068287273
 31
0.0
  0
LINE
  5
1A8
330
1F
100
AcDbEntity
  8
0
  6
Continuous
 62
     7
100
AcDbLine
 10
6264.9778923284
 20
5067.1068287273
 30
0.0
 11
6265.1507867765
 21
5066.9641054053
 31
0.0
  0
LINE
  5
1A9
330
1F
100
AcDbEntity
  8
0
  6
Continuous
 62
     7
100
AcDbLine
 10
6265.1507867765
 20
5066.9641054053
 30
0.0
 11
6265.3236812245
 21
5067.1068287273
 31
0.0
  0
LINE
  5
1AA
330
1F
100
AcDbEntity
  8
0
  6
Continuous
 62
     7
100
AcDbLine
 10
6265.3236812245
 20
5067.1068287273
 30
0.0
 11
6265.4702527713
 21
5067.5132877011
 31
0.0
  0
LINE
  5
1AB
330
1F
100
AcDbEntity
  8
0
  6
Continuous
 62
     7
100
AcDbLine
 10
6265.4702527713
 20
5067.5132877011
 30
0.0
 11
6265.5681906533
 21
5068.1215680022
 31
0.0
  0
LINE
  5
1AC
330
1F
100
AcDbEntity
  8
0
  6
Continuous
 62
     7
100
AcDbLine
 10
6265.5681906533
 20
5068.1215680022
 30
0.0
 11
6265.602578808
 21
5068.8391036172
 31
0.0
  0
LINE
  5
1AD
330
1F
100
AcDbEntity
  8
0
  6
Continuous
 62
     7
100
AcDbLine
 10
6264.1492648315
 20
5068.8391036172
 30
0.0
 11
6264.6989947449
 21
5068.8391036172
 31
0.0
  0
LINE
  5
1AE
330
1F
100
AcDbEntity
  8
0
  6
Continuous
 62
     7
100
AcDbLine
 10
6264.6989947449
 20
5077.9641127963
 30
0.0
 11
6264.6989947449
 21
5068.8391036172
 31
0.0
  0
LINE
  5
1AF
330
1F
100
AcDbEntity
  8
0
  6
Continuous
 62
     7
100
AcDbLine
 10
6265.602578808
 20
5068.8391036172
 30
0.0
 11
6265.602578808
 21
5077.9641127963
 31
0.0
  0
LINE
  5
1B0
330
1F
100
AcDbEntity
  8
0
  6
Continuous
 62
     7
100
AcDbLine
 10
6309.3960410249
 20
5089.0641069789
 30
0.0
 11
6309.3960410249
 21
5116.0641020913
 31
0.0
  0
LINE
  5
1B1
330
1F
100
AcDbEntity
  8
0
  6
Continuous
 62
     7
100
AcDbLine
 10
6309.3960410249
 20
5062.0641118665
 30
0.0
 11
6309.3960410249
 21
5089.0641069789
 31
0.0
  0
LINE
  5
1B2
330
1F
100
AcDbEntity
  8
0
  6
Continuous
 62
     7
100
AcDbLine
 10
6311.0960399997
 20
5089.0641069789
 30
0.0
 11
6311.0960399997
 21
5116.0641020913
 31
0.0
  0
LINE
  5
1B3
330
1F
100
AcDbEntity
  8
0
  6
Continuous
 62
     7
100
AcDbLine
 10
6311.0960399997
 20
5062.0641118665
 30
0.0
 11
6311.0960399997
 21
5089.0641069789
 31
0.0
  0
LINE
  5
1B4
330
1F
100
AcDbEntity
  8
0
  6
Continuous
 62
     7
100
AcDbLine
 10
6305.8960413825
 20
5089.0641069789
 30
0.0
 11
6305.8960413825
 21
5109.0641028066
 31
0.0
  0
LINE
  5
1B5
330
1F
100
AcDbEntity
  8
0
  6
Continuous
 62
     7
100
AcDbLine
 10
6305.8960413825
 20
5069.0641111512
 30
0.0
 11
6305.8960413825
 21
5089.0641069789
 31
0.0
  0
LINE
  5
1B6
330
1F
100
AcDbEntity
  8
0
  6
Continuous
 62
     7
100
AcDbLine
 10
6358.0960383903
 20
5089.0641069789
 30
0.0
 11
6358.0960383903
 21
5114.0641129394
 31
0.0
  0
LINE
  5
1B7
330
1F
100
AcDbEntity
  8
0
  6
Continuous
 62
     7
100
AcDbLine
 10
6358.0960383903
 20
5064.0641010184
 30
0.0
 11
6358.0960383903
 21
5089.0641069789
 31
0.0
  0
LINE
  5
1B8
330
1F
100
AcDbEntity
  8
0
  6
Continuous
 62
     7
100
AcDbLine
 10
6361.09604447
 20
5089.0641069789
 30
0.0
 11
6361.09604447
 21
5112.564102449
 31
0.0
  0
LINE
  5
1B9
330
1F
100
AcDbEntity
  8
0
  6
Continuous
 62
     7
100
AcDbLine
 10
6361.09604447
 20
5065.5641115089
 30
0.0
 11
6361.09604447
 21
5089.0641069789
 31
0.0
  0
LINE
  5
1BA
330
1F
100
AcDbEntity
  8
0
  6
Continuous
 62
     7
100
AcDbLine
 10
6210.0188887477
 20
5015.964106359
 30
0.0
 11
6210.0188887477
 21
5010.9641111274
 31
0.0
  0
LINE
  5
1BB
330
1F
100
AcDbEntity
  8
0
  6
Continuous
 62
     7
100
AcDbLine
 10
6210.0188887477
 20
5010.9641111274
 30
0.0
 11
6230.3805271428
 21
5010.9641111274
 31
0.0
  0
LINE
  5
1BC
330
1F
100
AcDbEntity
  8
0
  6
Continuous
 62
     7
100
AcDbLine
 10
6244.0847283494
 20
5010.9641111274
 30
0.0
 11
6268.9463174235
 21
5010.9641111274
 31
0.0
  0
LINE
  5
1BD
330
1F
100
AcDbEntity
  8
0
  6
Continuous
 62
     7
100
AcDbLine
 10
6210.0188887477
 20
5015.964106359
 30
0.0
 11
6228.5292161893
 21
5015.964106359
 31
0.0
  0
LINE
  5
1BE
330
1F
100
AcDbEntity
  8
0
  6
Continuous
 62
     7
100
AcDbLine
 10
6242.4619695436
 20
5015.964106359
 30
0.0
 11
6268.9463174235
 21
5015.964106359
 31
0.0
  0
LINE
  5
1BF
330
1F
100
AcDbEntity
  8
0
  6
Continuous
 62
     7
100
AcDbLine
 10
6213.3937551905
 20
5034.9641001601
 30
0.0
 11
6213.3937551905
 21
5015.964106359
 31
0.0
  0
LINE
  5
1C0
330
1F
100
AcDbEntity
  8
0
  6
Continuous
 62
     7
100
AcDbLine
 10
6186.1686142426
 20
5015.964106359
 30
0.0
 11
6186.1686142426
 21
5010.9641111274
 31
0.0
  0
LINE
  5
1C1
330
1F
100
AcDbEntity
  8
0
  6
Continuous
 62
     7
100
AcDbLine
 10
6186.1686142426
 20
5010.9641111274
 30
0.0
 11
6210.0188887477
 21
5010.9641111274
 31
0.0
  0
LINE
  5
1C2
330
1F
100
AcDbEntity
  8
0
  6
Continuous
 62
     7
100
AcDbLine
 10
6186.1686142426
 20
5015.964106359
 30
0.0
 11
6210.0188887477
 21
5015.964106359
 31
0.0
  0
LINE
  5
1C3
330
1F
100
AcDbEntity
  8
0
  6
Continuous
 62
     7
100
AcDbLine
 10
6213.3937551905
 20
5034.9641001601
 30
0.0
 11
6189.5434813838
 21
5034.9641001601
 31
0.0
  0
LINE
  5
1C4
330
1F
100
AcDbEntity
  8
0
  6
Continuous
 62
     7
100
AcDbLine
 10
6198.4701281678
 20
5039.9641102929
 30
0.0
 11
6214.8342564967
 21
5039.9641102929
 31
0.0
  0
LINE
  5
1C5
330
1F
100
AcDbEntity
  8
0
  6
Continuous
 62
     7
100
AcDbLine
 10
6189.5434813838
 20
5034.9641001601
 30
0.0
 11
6189.5434813838
 21
5015.964106359
 31
0.0
  0
LINE
  5
1C6
330
1F
100
AcDbEntity
  8
0
  6
Continuous
 62
     7
100
AcDbLine
 10
6201.6070931483
 20
5044.9641055246
 30
0.0
 11
6201.54681702
 21
5043.9886606116
 31
0.0
  0
LINE
  5
1C7
330
1F
100
AcDbEntity
  8
0
  6
Continuous
 62
     7
100
AcDbLine
 10
6201.54681702
 20
5043.9886606116
 30
0.0
 11
6201.3683057655
 21
5043.0506921191
 31
0.0
  0
LINE
  5
1C8
330
1F
100
AcDbEntity
  8
0
  6
Continuous
 62
     7
100
AcDbLine
 10
6201.3683057655
 20
5043.0506921191
 30
0.0
 11
6201.0784190413
 21
5042.1862608571
 31
0.0
  0
LINE
  5
1C9
330
1F
100
AcDbEntity
  8
0
  6
Continuous
 62
     7
100
AcDbLine
 10
6201.0784190413
 20
5042.1862608571
 30
0.0
 11
6200.688297328
 21
5041.4285666127
 31
0.0
  0
LINE
  5
1CA
330
1F
100
AcDbEntity
  8
0
  6
Continuous
 62
     7
100
AcDbLine
 10
6200.688297328
 20
5041.4285666127
 30
0.0
 11
6200.2129325908
 21
5040.8067560573
 31
0.0
  0
LINE
  5
1CB
330
1F
100
AcDbEntity
  8
0
  6
Continuous
 62
     7
100
AcDbLine
 10
6200.2129325908
 20
5040.8067560573
 30
0.0
 11
6199.6705927219
 21
5040.344700851
 31
0.0
  0
LINE
  5
1CC
330
1F
100
AcDbEntity
  8
0
  6
Continuous
 62
     7
100
AcDbLine
 10
6199.6705927219
 20
5040.344700851
 30
0.0
 11
6199.0821197894
 21
5040.0601780791
 31
0.0
  0
LINE
  5
1CD
330
1F
100
AcDbEntity
  8
0
  6
Continuous
 62
     7
100
AcDbLine
 10
6199.0821197894
 20
5040.0601780791
 30
0.0
 11
6198.4701281678
 21
5039.9641102929
 31
0.0
  0
LINE
  5
1CE
330
1F
100
AcDbEntity
  8
0
  6
Continuous
 62
     7
100
AcDbLine
 10
6185.0960416984
 20
5010.9641111274
 30
0.0
 11
6186.1686142426
 21
5010.9641111274
 31
0.0
  0
LINE
  5
1CF
330
1F
100
AcDbEntity
  8
0
  6
Continuous
 62
     7
100
AcDbLine
 10
6185.0960416984
 20
5015.964106359
 30
0.0
 11
6186.1686142426
 21
5015.964106359
 31
0.0
  0
LINE
  5
1D0
330
1F
100
AcDbEntity
  8
0
  6
Continuous
 62
     7
100
AcDbLine
 10
6263.8162425052
 20
5387.4422765155
 30
0.0
 11
6261.0960429799
 21
5387.4422765155
 31
0.0
  0
LINE
  5
1D1
330
1F
100
AcDbEntity
  8
0
  6
Continuous
 62
     7
100
AcDbLine
 10
6263.8162425052
 20
5387.4422765155
 30
0.0
 11
6263.8162425052
 21
5381.0914165158
 31
0.0
  0
LINE
  5
1D2
330
1F
100
AcDbEntity
  8
0
  6
Continuous
 62
     7
100
AcDbLine
 10
6263.8162425052
 20
5381.0914165158
 30
0.0
 11
6261.0960429799
 21
5381.0914165158
 31
0.0
  0
LINE
  5
1D3
330
1F
100
AcDbEntity
  8
0
  6
Continuous
 62
     7
100
AcDbLine
 10
6263.8162425052
 20
5381.0914165158
 30
0.0
 11
6263.8162425052
 21
5377.9159939666
 31
0.0
  0
LINE
  5
1D4
330
1F
100
AcDbEntity
  8
0
  6
Continuous
 62
     7
100
AcDbLine
 10
6263.8162425052
 20
5377.9159939666
 30
0.0
 11
6261.0960429799
 21
5377.9159939666
 31
0.0
  0
LINE
  5
1D5
330
1F
100
AcDbEntity
  8
0
  6
Continuous
 62
     7
100
AcDbLine
 10
6263.8162425052
 20
5390.6176990647
 30
0.0
 11
6261.0960429799
 21
5390.6176990647
 31
0.0
  0
LINE
  5
1D6
330
1F
100
AcDbEntity
  8
0
  6
Continuous
 62
     7
100
AcDbLine
 10
6263.8162425052
 20
5390.6176990647
 30
0.0
 11
6263.8162425052
 21
5387.4422765155
 31
0.0
  0
LINE
  5
1D7
330
1F
100
AcDbEntity
  8
0
  6
Continuous
 62
     7
100
AcDbLine
 10
6338.1861200821
 20
5398.966849484
 30
0.0
 11
6342.5162485134
 21
5398.966849484
 31
0.0
  0
LINE
  5
1D8
330
1F
100
AcDbEntity
  8
0
  6
Continuous
 62
     7
100
AcDbLine
 10
6342.5162485134
 20
5398.966849484
 30
0.0
 11
6346.8463769447
 21
5398.966849484
 31
0.0
  0
LINE
  5
1D9
330
1F
100
AcDbEntity
  8
0
  6
Continuous
 62
     7
100
AcDbLine
 10
6336.7427340042
 20
5398.4668410201
 30
0.0
 11
6336.7427340042
 21
5394.2668444295
 31
0.0
  0
LINE
  5
1DA
330
1F
100
AcDbEntity
  8
0
  6
Continuous
 62
     7
100
AcDbLine
 10
6339.6294912588
 20
5398.4668410201
 30
0.0
 11
6339.6294912588
 21
5394.2668444295
 31
0.0
  0
LINE
  5
1DB
330
1F
100
AcDbEntity
  8
0
  6
Continuous
 62
     7
100
AcDbLine
 10
6345.4029908668
 20
5398.4668410201
 30
0.0
 11
6345.4029908668
 21
5394.2668444295
 31
0.0
  0
LINE
  5
1DC
330
1F
100
AcDbEntity
  8
0
  6
Continuous
 62
     7
100
AcDbLine
 10
6348.2897481214
 20
5398.4668410201
 30
0.0
 11
6348.2897481214
 21
5394.2668444295
 31
0.0
  0
LINE
  5
1DD
330
1F
100
AcDbEntity
  8
0
  6
Continuous
 62
     7
100
AcDbLine
 10
6337.5162383806
 20
5398.966849484
 30
0.0
 11
6338.1861200821
 21
5398.966849484
 31
0.0
  0
LINE
  5
1DE
330
1F
100
AcDbEntity
  8
0
  6
Continuous
 62
     7
100
AcDbLine
 10
6346.8463769447
 20
5398.966849484
 30
0.0
 11
6347.516243745
 21
5398.966849484
 31
0.0
  0
LINE
  5
1DF
330
1F
100
AcDbEntity
  8
0
  6
Continuous
 62
     7
100
AcDbLine
 10
6234.8960409205
 20
5414.7344983001
 30
0.0
 11
6239.0960430991
 21
5414.7344983001
 31
0.0
  0
LINE
  5
1E0
330
1F
100
AcDbEntity
  8
0
  6
Continuous
 62
     7
100
AcDbLine
 10
6234.8960409205
 20
5418.0209643026
 30
0.0
 11
6239.0960430991
 21
5418.0209643026
 31
0.0
  0
LINE
  5
1E1
330
1F
100
AcDbEntity
  8
0
  6
Continuous
 62
     7
100
AcDbLine
 10
6234.3960417699
 20
5411.8574417014
 30
0.0
 11
6234.3960417699
 21
5416.3777387519
 31
0.0
  0
LINE
  5
1E2
330
1F
100
AcDbEntity
  8
0
  6
Continuous
 62
     7
100
AcDbLine
 10
6234.8960409205
 20
5408.9803851028
 30
0.0
 11
6239.0960430991
 21
5408.9803851028
 31
0.0
  0
LINE
  5
1E3
330
1F
100
AcDbEntity
  8
0
  6
Continuous
 62
     7
100
AcDbLine
 10
6234.3960417699
 20
5411.8574417014
 30
0.0
 11
6234.3960417699
 21
5407.7465540547
 31
0.0
  0
LINE
  5
1E4
330
1F
100
AcDbEntity
  8
0
  6
Continuous
 62
     7
100
AcDbLine
 10
6234.8960409205
 20
5406.5127230067
 30
0.0
 11
6239.0960430991
 21
5406.5127230067
 31
0.0
  0
LINE
  5
1E5
330
1F
100
AcDbEntity
  8
0
  6
Continuous
 62
     7
100
AcDbLine
 10
6234.8960409205
 20
5418.0209643026
 30
0.0
 11
6234.7675295811
 21
5417.7975064893
 31
0.0
  0
LINE
  5
1E6
330
1F
100
AcDbEntity
  8
0
  6
Continuous
 62
     7
100
AcDbLine
 10
6234.3960417699
 20
5416.3777387519
 30
0.0
 11
6234.3960417699
 21
5417.2668463369
 31
0.0
  0
LINE
  5
1E7
330
1F
100
AcDbEntity
  8
0
  6
Continuous
 62
     7
100
AcDbLine
 10
6239.2571879815
 20
5417.7976704021
 30
0.0
 11
6239.0960430991
 21
5418.0209643026
 31
0.0
  0
LINE
  5
1E8
330
1F
100
AcDbEntity
  8
0
  6
Continuous
 62
     7
100
AcDbLine
 10
6234.3960417699
 20
5407.2668409724
 30
0.0
 11
6234.3960417699
 21
5407.7465540547
 31
0.0
  0
LINE
  5
1E9
330
1F
100
AcDbEntity
  8
0
  6
Continuous
 62
     7
100
AcDbLine
 10
6234.8960409205
 20
5144.7345024724
 30
0.0
 11
6239.0960430991
 21
5144.7345024724
 31
0.0
  0
LINE
  5
1EA
330
1F
100
AcDbEntity
  8
0
  6
Continuous
 62
     7
100
AcDbLine
 10
6234.8960409205
 20
5148.0209610243
 30
0.0
 11
6239.0960430991
 21
5148.0209610243
 31
0.0
  0
LINE
  5
1EB
330
1F
100
AcDbEntity
  8
0
  6
Continuous
 62
     7
100
AcDbLine
 10
6234.3960417699
 20
5141.8574458737
 30
0.0
 11
6234.3960417699
 21
5146.3777354736
 31
0.0
  0
LINE
  5
1EC
330
1F
100
AcDbEntity
  8
0
  6
Continuous
 62
     7
100
AcDbLine
 10
6234.8960409205
 20
5138.9803892751
 30
0.0
 11
6239.0960430991
 21
5138.9803892751
 31
0.0
  0
LINE
  5
1ED
330
1F
100
AcDbEntity
  8
0
  6
Continuous
 62
     7
100
AcDbLine
 10
6234.3960417699
 20
5141.8574458737
 30
0.0
 11
6234.3960417699
 21
5137.7465582271
 31
0.0
  0
LINE
  5
1EE
330
1F
100
AcDbEntity
  8
0
  6
Continuous
 62
     7
100
AcDbLine
 10
6234.8960409205
 20
5136.5127271791
 30
0.0
 11
6239.0960430991
 21
5136.5127271791
 31
0.0
  0
LINE
  5
1EF
330
1F
100
AcDbEntity
  8
0
  6
Continuous
 62
     7
100
AcDbLine
 10
6234.8960409205
 20
5148.0209610243
 30
0.0
 11
6234.7675295811
 21
5147.797503211
 31
0.0
  0
LINE
  5
1F0
330
1F
100
AcDbEntity
  8
0
  6
Continuous
 62
     7
100
AcDbLine
 10
6234.3960417699
 20
5146.3777354736
 30
0.0
 11
6234.3960417699
 21
5147.2668430586
 31
0.0
  0
LINE
  5
1F1
330
1F
100
AcDbEntity
  8
0
  6
Continuous
 62
     7
100
AcDbLine
 10
6239.2571879815
 20
5147.7976745744
 30
0.0
 11
6239.0960430991
 21
5148.0209610243
 31
0.0
  0
LINE
  5
1F2
330
1F
100
AcDbEntity
  8
0
  6
Continuous
 62
     7
100
AcDbLine
 10
6234.3960417699
 20
5137.2668451448
 30
0.0
 11
6234.3960417699
 21
5137.7465582271
 31
0.0
  0
LINE
  5
1F3
330
1F
100
AcDbEntity
  8
0
  6
Continuous
 62
     7
100
AcDbLine
 10
6277.5225466382
 20
5398.4668410201
 30
0.0
 11
6277.5225466382
 21
5394.2668444295
 31
0.0
  0
LINE
  5
1F4
330
1F
100
AcDbEntity
  8
0
  6
Continuous
 62
     7
100
AcDbLine
 10
6281.2077900659
 20
5398.4668410201
 30
0.0
 11
6281.2077900659
 21
5394.2668444295
 31
0.0
  0
LINE
  5
1F5
330
1F
100
AcDbEntity
  8
0
  6
Continuous
 62
     7
100
AcDbLine
 10
6274.6767750274
 20
5398.966849484
 30
0.0
 11
6279.3651720773
 21
5398.966849484
 31
0.0
  0
LINE
  5
1F6
330
1F
100
AcDbEntity
  8
0
  6
Continuous
 62
     7
100
AcDbLine
 10
6271.8309959661
 20
5398.4668410201
 30
0.0
 11
6271.8309959661
 21
5394.2668444295
 31
0.0
  0
LINE
  5
1F7
330
1F
100
AcDbEntity
  8
0
  6
Continuous
 62
     7
100
AcDbLine
 10
6270.8278497946
 20
5398.966849484
 30
0.0
 11
6274.6767750274
 21
5398.966849484
 31
0.0
  0
LINE
  5
1F8
330
1F
100
AcDbEntity
  8
0
  6
Continuous
 62
     7
100
AcDbLine
 10
6270.1820930731
 20
5393.9495987077
 30
0.0
 11
6269.8246961724
 21
5394.2668444295
 31
0.0
  0
LINE
  5
1F9
330
1F
100
AcDbEntity
  8
0
  6
Continuous
 62
     7
100
AcDbLine
 10
6269.8246961724
 20
5398.4668410201
 30
0.0
 11
6269.8246961724
 21
5394.2668444295
 31
0.0
  0
LINE
  5
1FA
330
1F
100
AcDbEntity
  8
0
  6
Continuous
 62
     7
100
AcDbLine
 10
6279.3651720773
 20
5398.966849484
 30
0.0
 11
6280.5162420761
 21
5398.966849484
 31
0.0
  0
LINE
  5
1FB
330
1F
100
AcDbEntity
  8
0
  6
Continuous
 62
     7
100
AcDbLine
 10
6270.5162441622
 20
5398.966849484
 30
0.0
 11
6270.8278497946
 21
5398.966849484
 31
0.0
  0
LINE
  5
1FC
330
1F
100
AcDbEntity
  8
0
  6
Continuous
 62
     7
100
AcDbLine
 10
6269.7427397858
 20
5398.4668410201
 30
0.0
 11
6269.7427397858
 21
5394.2668444295
 31
0.0
  0
LINE
  5
1FD
330
1F
100
AcDbEntity
  8
0
  6
Continuous
 62
     7
100
AcDbLine
 10
6281.2897464525
 20
5398.4668410201
 30
0.0
 11
6281.2897464525
 21
5394.2668444295
 31
0.0
  0
LINE
  5
1FE
330
1F
100
AcDbEntity
  8
0
  6
Continuous
 62
     7
100
AcDbLine
 10
6336.516236354
 20
5393.7668508668
 30
0.0
 11
6348.5162457716
 21
5393.7668508668
 31
0.0
  0
LINE
  5
1FF
330
1F
100
AcDbEntity
  8
0
  6
Continuous
 62
     7
100
AcDbLine
 10
6269.5162421357
 20
5393.7668508668
 30
0.0
 11
6281.5162441026
 21
5393.7668508668
 31
0.0
  0
LINE
  5
200
330
1F
100
AcDbEntity
  8
0
  6
Continuous
 62
     7
100
AcDbLine
 10
6239.5960403871
 20
5136.2668431182
 30
0.0
 11
6239.5960403871
 21
5148.2668450852
 31
0.0
  0
LINE
  5
201
330
1F
100
AcDbEntity
  8
0
  6
Continuous
 62
     7
100
AcDbLine
 10
6239.5960403871
 20
5418.2668483634
 30
0.0
 11
6239.5960403871
 21
5406.2668389459
 31
0.0
  0
LINE
  5
202
330
1F
100
AcDbEntity
  8
0
  6
Continuous
 62
     7
100
AcDbLine
 10
6267.5162418079
 20
5392.2668403764
 30
0.0
 11
6267.5162418079
 21
5373.7668475886
 31
0.0
  0
LINE
  5
203
330
1F
100
AcDbEntity
  8
0
  6
Continuous
 62
     7
100
AcDbLine
 10
6352.5162389766
 20
5392.2668403764
 30
0.0
 11
6352.5162389766
 21
5373.7668475886
 31
0.0
  0
LINE
  5
204
330
1F
100
AcDbEntity
  8
0
  6
Continuous
 62
     7
100
AcDbLine
 10
6267.5162418079
 20
5392.2668403764
 30
0.0
 11
6352.5162389766
 21
5392.2668403764
 31
0.0
  0
LINE
  5
205
330
1F
100
AcDbEntity
  8
0
  6
Continuous
 62
     7
100
AcDbLine
 10
6416.3353195678
 20
5121.9955391069
 30
0.0
 11
6412.975420643
 21
5112.7642995496
 31
0.0
  0
LINE
  5
206
330
1F
100
AcDbEntity
  8
0
  6
Continuous
 62
     7
100
AcDbLine
 10
6412.975420643
 20
5112.7642995496
 30
0.0
 11
6412.975420643
 21
5441.769391932
 31
0.0
  0
LINE
  5
207
330
1F
100
AcDbEntity
  8
0
  6
Continuous
 62
     7
100
AcDbLine
 10
6416.3353195678
 20
5432.5381523748
 30
0.0
 11
6412.975420643
 21
5441.769391932
 31
0.0
  0
LINE
  5
208
330
1F
100
AcDbEntity
  8
0
  6
Continuous
 62
     7
100
AcDbLine
 10
6416.3353195678
 20
5432.5381523748
 30
0.0
 11
6416.3353195678
 21
5121.9955391069
 31
0.0
  0
LINE
  5
209
330
1F
100
AcDbEntity
  8
0
  6
Continuous
 62
     7
100
AcDbLine
 10
6411.0960414898
 20
5112.7642995496
 30
0.0
 11
6411.0960414898
 21
5441.769391932
 31
0.0
  0
LINE
  5
20A
330
1F
100
AcDbEntity
  8
0
  6
Continuous
 62
     7
100
AcDbLine
 10
6412.975420643
 20
5441.769391932
 30
0.0
 11
6411.0960414898
 21
5441.769391932
 31
0.0
  0
LINE
  5
20B
330
1F
100
AcDbEntity
  8
0
  6
Continuous
 62
     7
100
AcDbLine
 10
6412.975420643
 20
5112.7642995496
 30
0.0
 11
6411.0960414898
 21
5112.7642995496
 31
0.0
  0
LINE
  5
20C
330
1F
100
AcDbEntity
  8
0
  6
Continuous
 62
     7
100
AcDbLine
 10
6416.3353195678
 20
5121.2407803912
 30
0.0
 11
6416.0927435648
 21
5121.3290697713
 31
0.0
  0
LINE
  5
20D
330
1F
100
AcDbEntity
  8
0
  6
Continuous
 62
     7
100
AcDbLine
 10
6416.3353195678
 20
5121.2407803912
 30
0.0
 11
6412.975420643
 21
5112.0095557351
 31
0.0
  0
LINE
  5
20E
330
1F
100
AcDbEntity
  8
0
  6
Continuous
 62
     7
100
AcDbLine
 10
6412.975420643
 20
5112.0095557351
 30
0.0
 11
6411.0960414898
 21
5112.6935935397
 31
0.0
  0
LINE
  5
20F
330
1F
100
AcDbEntity
  8
0
  6
Continuous
 62
     7
100
AcDbLine
 10
6411.1217757951
 20
5112.7642995496
 30
0.0
 11
6411.0960414898
 21
5112.6935935397
 31
0.0
  0
LINE
  5
210
330
1F
100
AcDbEntity
  8
0
  6
Continuous
 62
     7
100
AcDbLine
 10
6412.975420643
 20
5442.5241357465
 30
0.0
 11
6411.0960414898
 21
5441.8400979419
 31
0.0
  0
LINE
  5
211
330
1F
100
AcDbEntity
  8
0
  6
Continuous
 62
     7
100
AcDbLine
 10
6416.3353195678
 20
5433.2929110904
 30
0.0
 11
6412.975420643
 21
5442.5241357465
 31
0.0
  0
LINE
  5
212
330
1F
100
AcDbEntity
  8
0
  6
Continuous
 62
     7
100
AcDbLine
 10
6416.3353195678
 20
5433.2929110904
 30
0.0
 11
6416.0927435648
 21
5433.2046217103
 31
0.0
  0
LINE
  5
213
330
1F
100
AcDbEntity
  8
0
  6
Continuous
 62
     7
100
AcDbLine
 10
6411.1217757951
 20
5441.769391932
 30
0.0
 11
6411.0960414898
 21
5441.8400979419
 31
0.0
  0
LINE
  5
214
330
1F
100
AcDbEntity
  8
0
  6
Continuous
 62
     7
100
AcDbLine
 10
6416.5162494671
 20
5122.2668445487
 30
0.0
 11
6416.3353195678
 21
5121.9955391069
 31
0.0
  0
LINE
  5
215
330
1F
100
AcDbEntity
  8
0
  6
Continuous
 62
     7
100
AcDbLine
 10
6416.3353195678
 20
5432.5381523748
 30
0.0
 11
6416.5162494671
 21
5432.2668469329
 31
0.0
  0
LINE
  5
216
330
1F
100
AcDbEntity
  8
0
  6
Continuous
 62
     7
100
AcDbLine
 10
6416.5162494671
 20
5432.2668469329
 30
0.0
 11
6416.5162494671
 21
5122.2668445487
 31
0.0
  0
LINE
  5
217
330
1F
100
AcDbEntity
  8
0
  6
Continuous
 62
     7
100
AcDbLine
 10
6411.0960414898
 20
5153.1267470498
 30
0.0
 11
6355.1699420702
 21
5145.2668464561
 31
0.0
  0
LINE
  5
218
330
1F
100
AcDbEntity
  8
0
  6
Continuous
 62
     7
100
AcDbLine
 10
6312.477720369
 20
5139.2668417473
 30
0.0
 11
6284.1547331106
 21
5135.2863094587
 31
0.0
  0
LINE
  5
219
330
1F
100
AcDbEntity
  8
0
  6
Continuous
 62
     7
100
AcDbLine
 10
6281.2184890997
 20
5176.276580133
 30
0.0
 11
6283.386898626
 21
5145.2668464561
 31
0.0
  0
LINE
  5
21A
330
1F
100
AcDbEntity
  8
0
  6
Continuous
 62
     7
100
AcDbLine
 10
6283.8064631712
 20
5139.2668417473
 30
0.0
 11
6283.9456325661
 21
5137.276575603
 31
0.0
  0
LINE
  5
21B
330
1F
100
AcDbEntity
  8
0
  6
Continuous
 62
     7
100
AcDbLine
 10
6411.0960414898
 20
5194.529675581
 30
0.0
 11
6281.2184890997
 21
5176.276580133
 31
0.0
  0
LINE
  5
21C
330
1F
100
AcDbEntity
  8
0
  6
Continuous
 62
     7
100
AcDbLine
 10
6284.0155637156
 20
5136.2765735765
 30
0.0
 11
6284.1547331106
 21
5135.2863094587
 31
0.0
  0
LINE
  5
21D
330
1F
100
AcDbEntity
  8
0
  6
Continuous
 62
     7
100
AcDbLine
 10
6283.8763868701
 20
5135.2668475464
 30
0.0
 11
6261.0960429799
 21
5135.2668475464
 31
0.0
  0
LINE
  5
21E
330
1F
100
AcDbEntity
  8
0
  6
Continuous
 62
     7
100
AcDbLine
 10
6241.0960397016
 20
5135.2668485422
 30
0.0
 11
6194.0162427988
 21
5135.2668485422
 31
0.0
  0
LINE
  5
21F
330
1F
100
AcDbEntity
  8
0
  6
Continuous
 62
     7
100
AcDbLine
 10
6193.0869533014
 20
5137.2668451448
 30
0.0
 11
6193.0869533014
 21
5176.2668422241
 31
0.0
  0
LINE
  5
220
330
1F
100
AcDbEntity
  8
0
  6
Continuous
 62
     7
100
AcDbLine
 10
6281.0793197047
 20
5176.2668422241
 30
0.0
 11
6261.0960429799
 21
5176.2668422241
 31
0.0
  0
LINE
  5
221
330
1F
100
AcDbEntity
  8
0
  6
Continuous
 62
     7
100
AcDbLine
 10
6241.0960397016
 20
5176.2668422241
 30
0.0
 11
6193.0869533014
 21
5176.2668422241
 31
0.0
  0
LINE
  5
222
330
1F
100
AcDbEntity
  8
0
  6
Continuous
 62
     7
100
AcDbLine
 10
6283.8064631712
 20
5137.266844149
 30
0.0
 11
6283.6666083228
 21
5139.2668407515
 31
0.0
  0
LINE
  5
223
330
1F
100
AcDbEntity
  8
0
  6
Continuous
 62
     7
100
AcDbLine
 10
6283.2470512282
 20
5145.2668464561
 30
0.0
 11
6281.0793197047
 21
5176.2668422241
 31
0.0
  0
LINE
  5
224
330
1F
100
AcDbEntity
  8
0
  6
Continuous
 62
     7
100
AcDbLine
 10
6283.8763868701
 20
5135.2668475464
 30
0.0
 11
6283.8764011082
 21
5136.2668431181
 31
0.0
  0
LINE
  5
225
330
1F
100
AcDbEntity
  8
0
  6
Continuous
 62
     7
100
AcDbLine
 10
6192.016242471
 20
5137.2668451448
 30
0.0
 11
6193.0162426349
 21
5137.2668451448
 31
0.0
  0
LINE
  5
226
330
1F
100
AcDbEntity
  8
0
  6
Continuous
 62
     7
100
AcDbLine
 10
6192.016242471
 20
5176.2668422241
 30
0.0
 11
6193.0162426349
 21
5176.2668422241
 31
0.0
  0
LINE
  5
227
330
1F
100
AcDbEntity
  8
0
  6
Continuous
 62
     7
100
AcDbLine
 10
6193.0162426349
 20
5137.2668451448
 30
0.0
 11
6193.0162426349
 21
5176.2668422241
 31
0.0
  0
LINE
  5
228
330
1F
100
AcDbEntity
  8
0
  6
Continuous
 62
     7
100
AcDbLine
 10
6192.016242471
 20
5137.2668451448
 30
0.0
 11
6192.016242471
 21
5176.2668422241
 31
0.0
  0
LINE
  5
229
330
1F
100
AcDbEntity
  8
0
  6
Continuous
 62
     7
100
AcDbLine
 10
6283.8904163133
 20
5135.2668932457
 30
0.0
 11
6261.0960429799
 21
5133.7442255397
 31
0.0
  0
LINE
  5
22A
330
1F
100
AcDbEntity
  8
0
  6
Continuous
 62
     7
100
AcDbLine
 10
6195.5162426349
 20
5372.0900683822
 30
0.0
 11
6241.0960395004
 21
5372.0900720735
 31
0.0
  0
LINE
  5
22B
330
1F
100
AcDbEntity
  8
0
  6
Continuous
 62
     7
100
AcDbLine
 10
6261.0960429799
 20
5372.0900720735
 30
0.0
 11
6411.0960414898
 21
5372.0900720735
 31
0.0
  0
LINE
  5
22C
330
1F
100
AcDbEntity
  8
0
  6
Continuous
 62
     7
100
AcDbLine
 10
6195.5162428435
 20
5372.2668420375
 30
0.0
 11
6241.0960395004
 21
5372.2668420375
 31
0.0
  0
LINE
  5
22D
330
1F
100
AcDbEntity
  8
0
  6
Continuous
 62
     7
100
AcDbLine
 10
6261.0960429799
 20
5372.2668445487
 30
0.0
 11
6411.0960414898
 21
5372.2668445487
 31
0.0
  0
LINE
  5
22E
330
1F
100
AcDbEntity
  8
0
  6
Continuous
 62
     7
100
AcDbLine
 10
6195.5162428435
 20
5372.2668420375
 30
0.0
 11
6195.5162428435
 21
5373.7668450774
 31
0.0
  0
LINE
  5
22F
330
1F
100
AcDbEntity
  8
0
  6
Continuous
 62
     7
100
AcDbLine
 10
6195.5162428435
 20
5373.7668450774
 30
0.0
 11
6241.0960395004
 21
5373.7668450774
 31
0.0
  0
LINE
  5
230
330
1F
100
AcDbEntity
  8
0
  6
Continuous
 62
     7
100
AcDbLine
 10
6261.0960429799
 20
5373.7668475886
 30
0.0
 11
6411.0960414898
 21
5373.7668475886
 31
0.0
  0
LINE
  5
231
330
1F
100
AcDbEntity
  8
0
  6
Continuous
 62
     7
100
AcDbLine
 10
6282.968362261
 20
5149.2521992703
 30
0.0
 11
6283.1073677432
 21
5149.2643586178
 31
0.0
  0
LINE
  5
232
330
1F
100
AcDbEntity
  8
0
  6
Continuous
 62
     7
100
AcDbLine
 10
6276.4463177215
 20
5131.9641030212
 30
0.0
 11
6261.0960429799
 21
5131.9641030212
 31
0.0
  0
LINE
  5
233
330
1F
100
AcDbEntity
  8
0
  6
Continuous
 62
     7
100
AcDbLine
 10
6241.0960397016
 20
5131.9641030212
 30
0.0
 11
6201.4463161383
 21
5131.9641030212
 31
0.0
  0
LINE
  5
234
330
1F
100
AcDbEntity
  8
0
  6
Continuous
 62
     7
100
AcDbLine
 10
6272.2792005431
 20
5127.0339644332
 30
0.0
 11
6261.0960429799
 21
5127.0339644332
 31
0.0
  0
LINE
  5
235
330
1F
100
AcDbEntity
  8
0
  6
Continuous
 62
     7
100
AcDbLine
 10
6241.0960397016
 20
5127.0339644332
 30
0.0
 11
6205.6134332003
 21
5127.0339644332
 31
0.0
  0
LINE
  5
236
330
1F
100
AcDbEntity
  8
0
  6
Continuous
 62
     7
100
AcDbLine
 10
6203.9664159812
 20
5067.6641023536
 30
0.0
 11
6188.5960416686
 21
5067.6641023536
 31
0.0
  0
LINE
  5
237
330
1F
100
AcDbEntity
  8
0
  6
Continuous
 62
     7
100
AcDbLine
 10
6188.5960413408
 20
5063.2891065259
 30
0.0
 11
6188.0720699471
 21
5063.2891065259
 31
0.0
  0
LINE
  5
238
330
1F
100
AcDbEntity
  8
0
  6
Continuous
 62
     7
100
AcDbLine
 10
6220.3911751773
 20
5064.4641077895
 30
0.0
 11
6241.0960397016
 21
5064.4641077895
 31
0.0
  0
LINE
  5
239
330
1F
100
AcDbEntity
  8
0
  6
Continuous
 62
     7
100
AcDbLine
 10
6261.0960429799
 20
5064.4641077895
 30
0.0
 11
6265.4463177811
 21
5064.4641077895
 31
0.0
  0
LINE
  5
23A
330
1F
100
AcDbEntity
  8
0
  6
Continuous
 62
     7
100
AcDbLine
 10
6215.9463161867
 20
5088.0862927814
 30
0.0
 11
6215.0960414028
 21
5089.0641056728
 31
0.0
  0
LINE
  5
23B
330
1F
100
AcDbEntity
  8
0
  6
Continuous
 62
     7
100
AcDbLine
 10
6215.0960414028
 20
5089.0641056728
 30
0.0
 11
6215.9463161867
 21
5088.3247411628
 31
0.0
  0
LINE
  5
23C
330
1F
100
AcDbEntity
  8
0
  6
Continuous
 62
     7
100
AcDbLine
 10
6207.3084194914
 20
5089.0641069789
 30
0.0
 11
6215.0960414028
 21
5089.0641056728
 31
0.0
  0
LINE
  5
23D
330
1F
100
AcDbEntity
  8
0
  6
Continuous
 62
     7
100
AcDbLine
 10
6215.0960414028
 20
5089.0641056728
 30
0.0
 11
6215.0960410278
 21
5098.4040058036
 31
0.0
  0
LINE
  5
23E
330
1F
100
AcDbEntity
  8
0
  6
Continuous
 62
     7
100
AcDbLine
 10
6265.4463177811
 20
5034.9641001601
 30
0.0
 11
6261.0960429799
 21
5034.9641001601
 31
0.0
  0
LINE
  5
23F
330
1F
100
AcDbEntity
  8
0
  6
Continuous
 62
     7
100
AcDbLine
 10
6241.0960397016
 20
5034.9641001601
 30
0.0
 11
6234.8849730831
 21
5034.9641001601
 31
0.0
  0
LINE
  5
240
330
1F
100
AcDbEntity
  8
0
  6
Continuous
 62
     7
100
AcDbLine
 10
6220.4782193791
 20
5034.9641001601
 30
0.0
 11
6213.3937551905
 21
5034.9641001601
 31
0.0
  0
LINE
  5
241
330
1F
100
AcDbEntity
  8
0
  6
Continuous
 62
     7
100
AcDbLine
 10
6262.1963149201
 20
5039.6478480477
 30
0.0
 11
6261.0960429799
 21
5039.6478480477
 31
0.0
  0
LINE
  5
242
330
1F
100
AcDbEntity
  8
0
  6
Continuous
 62
     7
100
AcDbLine
 10
6241.0960397016
 20
5039.6478480477
 30
0.0
 11
6232.731632356
 21
5039.6478480477
 31
0.0
  0
LINE
  5
243
330
1F
100
AcDbEntity
  8
0
  6
Continuous
 62
     7
100
AcDbLine
 10
6218.3367483582
 20
5039.6478480477
 30
0.0
 11
6216.5275601935
 21
5039.6478480477
 31
0.0
  0
LINE
  5
244
330
1F
100
AcDbEntity
  8
0
  6
Continuous
 62
     7
100
AcDbLine
 10
6230.5038286638
 20
5044.3315959354
 30
0.0
 11
6241.0960397016
 21
5044.3315959354
 31
0.0
  0
LINE
  5
245
330
1F
100
AcDbEntity
  8
0
  6
Continuous
 62
     7
100
AcDbLine
 10
6201.6070931483
 20
5044.9641055246
 30
0.0
 11
6215.7795917507
 21
5044.9641055246
 31
0.0
  0
LINE
  5
246
330
1F
100
AcDbEntity
  8
0
  6
Continuous
 62
     7
100
AcDbLine
 10
6193.596041229
 20
5043.6243570228
 30
0.0
 11
6194.3647185605
 21
5043.6243570228
 31
0.0
  0
LINE
  5
247
330
1F
100
AcDbEntity
  8
0
  6
Continuous
 62
     7
100
AcDbLine
 10
6189.5434813838
 20
5034.9641001601
 30
0.0
 11
6188.5960413408
 21
5034.9641001601
 31
0.0
  0
LINE
  5
248
330
1F
100
AcDbEntity
  8
0
  6
Continuous
 62
     7
100
AcDbLine
 10
6191.9540999722
 20
5039.2942285915
 30
0.0
 11
6191.0960414028
 21
5039.2942326918
 31
0.0
  0
LINE
  5
249
330
1F
100
AcDbEntity
  8
0
  6
Continuous
 62
     7
100
AcDbLine
 10
6411.0960414898
 20
5155.146398284
 30
0.0
 11
6340.7993516218
 21
5145.2668464561
 31
0.0
  0
LINE
  5
24A
330
1F
100
AcDbEntity
  8
0
  6
Continuous
 62
     7
100
AcDbLine
 10
6298.1071299206
 20
5139.2668417473
 30
0.0
 11
6283.9456325661
 21
5137.276575603
 31
0.0
  0
LINE
  5
24B
330
1F
100
AcDbEntity
  8
0
  6
Continuous
 62
     7
100
AcDbLine
 10
6283.8064631712
 20
5137.266844149
 30
0.0
 11
6261.0960429799
 21
5137.266844149
 31
0.0
  0
LINE
  5
24C
330
1F
100
AcDbEntity
  8
0
  6
Continuous
 62
     7
100
AcDbLine
 10
6234.3960417699
 20
5137.2668451448
 30
0.0
 11
6193.0869533014
 21
5137.2668451448
 31
0.0
  0
LINE
  5
24D
330
1F
100
AcDbEntity
  8
0
  6
Continuous
 62
     7
100
AcDbLine
 10
6261.0960429799
 20
5133.7490833182
 30
0.0
 11
6283.8169684898
 21
5135.2668485422
 31
0.0
  0
LINE
  5
24E
330
1F
100
AcDbEntity
  8
0
  6
Continuous
 62
     7
100
AcDbLine
 10
6282.7939441692
 20
5151.7464897413
 30
0.0
 11
6282.9329496514
 21
5151.7586490889
 31
0.0
  0
LINE
  5
24F
330
1F
100
AcDbEntity
  8
0
  6
Continuous
 62
     7
100
AcDbLine
 10
6195.5162426349
 20
5176.2668422241
 30
0.0
 11
6195.5162426349
 21
5372.0900683822
 31
0.0
  0
LINE
  5
250
330
1F
100
AcDbEntity
  8
0
  6
Continuous
 62
     7
100
AcDbLine
 10
5527.2722564618
 20
5112.0095557351
 30
0.0
 11
5529.6774510275
 21
5090.9641093392
 31
0.0
  0
LINE
  5
251
330
1F
100
AcDbEntity
  8
0
  6
Continuous
 62
     7
100
AcDbLine
 10
5575.6774511169
 20
5090.9641093392
 30
0.0
 11
5578.0826456825
 21
5112.0095557351
 31
0.0
  0
LINE
  5
252
330
1F
100
AcDbEntity
  8
0
  6
Continuous
 62
     7
100
AcDbLine
 10
5575.6774511169
 20
5080.9641039748
 30
0.0
 11
5575.6774511169
 21
5090.9641093392
 31
0.0
  0
LINE
  5
253
330
1F
100
AcDbEntity
  8
0
  6
Continuous
 62
     7
100
AcDbLine
 10
5529.6774510275
 20
5090.9641093392
 30
0.0
 11
5529.6774510275
 21
5080.9641039748
 31
0.0
  0
LINE
  5
254
330
1F
100
AcDbEntity
  8
0
  6
Continuous
 62
     7
100
AcDbLine
 10
5666.9597312788
 20
5051.1641061683
 30
0.0
 11
5666.9597312788
 21
5054.164112248
 31
0.0
  0
LINE
  5
255
330
1F
100
AcDbEntity
  8
0
  6
Continuous
 62
     7
100
AcDbLine
 10
5611.9597315769
 20
5054.164112248
 30
0.0
 11
5611.9597315769
 21
5051.1641061683
 31
0.0
  0
LINE
  5
256
330
1F
100
AcDbEntity
  8
0
  6
Continuous
 62
     7
100
AcDbLine
 10
5665.9597292523
 20
5065.1641047378
 30
0.0
 11
5665.9597292523
 21
5067.6641023536
 31
0.0
  0
LINE
  5
257
330
1F
100
AcDbEntity
  8
0
  6
Continuous
 62
     7
100
AcDbLine
 10
5612.9597336034
 20
5067.6641023536
 30
0.0
 11
5612.9597336034
 21
5054.164112248
 31
0.0
  0
LINE
  5
258
330
1F
100
AcDbEntity
  8
0
  6
Continuous
 62
     7
100
AcDbLine
 10
5656.0347437839
 20
5065.1641047378
 30
0.0
 11
5655.7277053575
 21
5065.1641047378
 31
0.0
  0
LINE
  5
259
330
1F
100
AcDbEntity
  8
0
  6
Continuous
 62
     7
100
AcDbLine
 10
5618.540956078
 20
5065.1641047378
 30
0.0
 11
5618.1461423616
 21
5065.1641047378
 31
0.0
  0
LINE
  5
25A
330
1F
100
AcDbEntity
  8
0
  6
Continuous
 62
     7
100
AcDbLine
 10
5666.2510171513
 20
5065.1641047378
 30
0.0
 11
5665.7547414283
 21
5065.1641047378
 31
0.0
  0
LINE
  5
25B
330
1F
100
AcDbEntity
  8
0
  6
Continuous
 62
     7
100
AcDbLine
 10
5612.9597336034
 20
5065.1641047378
 30
0.0
 11
5612.6684494297
 21
5065.1641047378
 31
0.0
  0
LINE
  5
25C
330
1F
100
AcDbEntity
  8
0
  6
Continuous
 62
     7
100
AcDbLine
 10
5525.1774512212
 20
5080.9641039748
 30
0.0
 11
5525.1774512212
 21
5077.9641127963
 31
0.0
  0
LINE
  5
25D
330
1F
100
AcDbEntity
  8
0
  6
Continuous
 62
     7
100
AcDbLine
 10
5580.1774509232
 20
5077.9641127963
 30
0.0
 11
5580.1774509232
 21
5080.9641039748
 31
0.0
  0
LINE
  5
25E
330
1F
100
AcDbEntity
  8
0
  6
Continuous
 62
     7
100
AcDbLine
 10
5526.1774513851
 20
5077.9641127963
 30
0.0
 11
5526.1774513851
 21
5064.4641077895
 31
0.0
  0
LINE
  5
25F
330
1F
100
AcDbEntity
  8
0
  6
Continuous
 62
     7
100
AcDbLine
 10
5579.1774507592
 20
5064.4641077895
 30
0.0
 11
5579.1774507592
 21
5067.4208856006
 31
0.0
  0
LINE
  5
260
330
1F
100
AcDbEntity
  8
0
  6
Continuous
 62
     7
100
AcDbLine
 10
5546.171628775
 20
5066.9641054053
 30
0.0
 11
5546.2921414505
 21
5066.9641054053
 31
0.0
  0
LINE
  5
261
330
1F
100
AcDbEntity
  8
0
  6
Continuous
 62
     7
100
AcDbLine
 10
5566.3484794999
 20
5066.9641054053
 30
0.0
 11
5566.606498694
 21
5066.9641054053
 31
0.0
  0
LINE
  5
262
330
1F
100
AcDbEntity
  8
0
  6
Continuous
 62
     7
100
AcDbLine
 10
5529.5477811228
 20
5066.9641054053
 30
0.0
 11
5529.9762304853
 21
5066.9641054053
 31
0.0
  0
LINE
  5
263
330
1F
100
AcDbEntity
  8
0
  6
Continuous
 62
     7
100
AcDbLine
 10
5578.3965144287
 20
5066.9641054053
 30
0.0
 11
5578.8819216172
 21
5066.9641054053
 31
0.0
  0
LINE
  5
264
330
1F
100
AcDbEntity
  8
0
  6
Continuous
 62
     7
100
AcDbLine
 10
5619.4597318749
 20
5070.9257430215
 30
0.0
 11
5619.4597318749
 21
5069.6641064067
 31
0.0
  0
LINE
  5
265
330
1F
100
AcDbEntity
  8
0
  6
Continuous
 62
     7
100
AcDbLine
 10
5659.4597309808
 20
5069.6641064067
 30
0.0
 11
5659.4597309808
 21
5070.9257430215
 31
0.0
  0
LINE
  5
266
330
1F
100
AcDbEntity
  8
0
  6
Continuous
 62
     7
100
AcDbLine
 10
5522.6774517427
 20
5015.964106359
 30
0.0
 11
5522.6774517427
 21
5010.9641111274
 31
0.0
  0
LINE
  5
267
330
1F
100
AcDbEntity
  8
0
  6
Continuous
 62
     7
100
AcDbLine
 10
5526.1774513851
 20
5034.9641001601
 30
0.0
 11
5526.1774513851
 21
5015.964106359
 31
0.0
  0
LINE
  5
268
330
1F
100
AcDbEntity
  8
0
  6
Continuous
 62
     7
100
AcDbLine
 10
5572.6774506251
 20
5044.9641055246
 30
0.0
 11
5572.6774506251
 21
5062.4641037364
 31
0.0
  0
LINE
  5
269
330
1F
100
AcDbEntity
  8
0
  6
Continuous
 62
     7
100
AcDbLine
 10
5532.6774515192
 20
5062.4641037363
 30
0.0
 11
5532.6774515192
 21
5044.3315959353
 31
0.0
  0
LINE
  5
26A
330
1F
100
AcDbEntity
  8
0
  6
Continuous
 62
     7
100
AcDbLine
 10
5663.4597316365
 20
5050.753176846
 30
0.0
 11
5663.4597316365
 21
5050.9517497201
 31
0.0
  0
LINE
  5
26B
330
1F
100
AcDbEntity
  8
0
  6
Continuous
 62
     7
100
AcDbLine
 10
5663.4597316365
 20
5049.1656816383
 30
0.0
 11
5663.4597316365
 21
5049.3642545123
 31
0.0
  0
LINE
  5
26C
330
1F
100
AcDbEntity
  8
0
  6
Continuous
 62
     7
100
AcDbLine
 10
5663.4597316365
 20
5047.5781715293
 30
0.0
 11
5663.4597316365
 21
5047.7767593045
 31
0.0
  0
LINE
  5
26D
330
1F
100
AcDbEntity
  8
0
  6
Continuous
 62
     7
100
AcDbLine
 10
5663.4597316365
 20
5045.9641075511
 30
0.0
 11
5663.4597316365
 21
5046.1892491956
 31
0.0
  0
LINE
  5
26E
330
1F
100
AcDbEntity
  8
0
  6
Continuous
 62
     7
100
AcDbLine
 10
5615.4597312192
 20
5046.9829893489
 30
0.0
 11
5615.4597312192
 21
5046.7843568702
 31
0.0
  0
LINE
  5
26F
330
1F
100
AcDbEntity
  8
0
  6
Continuous
 62
     7
100
AcDbLine
 10
5615.4597312192
 20
5048.5704845567
 30
0.0
 11
5615.4597312192
 21
5048.3718669791
 31
0.0
  0
LINE
  5
270
330
1F
100
AcDbEntity
  8
0
  6
Continuous
 62
     7
100
AcDbLine
 10
5615.4597312192
 20
5050.1579946656
 30
0.0
 11
5615.4597312192
 21
5049.9593621869
 31
0.0
  0
LINE
  5
271
330
1F
100
AcDbEntity
  8
0
  6
Continuous
 62
     7
100
AcDbLine
 10
5616.11882448
 20
5051.1641061683
 30
0.0
 11
5616.3189992289
 21
5051.0485178609
 31
0.0
  0
LINE
  5
272
330
1F
100
AcDbEntity
  8
0
  6
Continuous
 62
     7
100
AcDbLine
 10
5663.4561181049
 20
5050.9562200685
 30
0.0
 11
5663.0961284022
 21
5051.1641061683
 31
0.0
  0
LINE
  5
273
330
1F
100
AcDbEntity
  8
0
  6
Continuous
 62
     7
100
AcDbLine
 10
5669.4597363452
 20
5010.9641111274
 30
0.0
 11
5669.4597363452
 21
5015.964106359
 31
0.0
  0
LINE
  5
274
330
1F
100
AcDbEntity
  8
0
  6
Continuous
 62
     7
100
AcDbLine
 10
5616.3189992289
 20
5051.0508275409
 30
0.0
 11
5616.3189992289
 21
5050.656572618
 31
0.0
  0
LINE
  5
275
330
1F
100
AcDbEntity
  8
0
  6
Continuous
 62
     7
100
AcDbLine
 10
5616.3189992289
 20
5049.4633323331
 30
0.0
 11
5616.3189992289
 21
5049.0690774102
 31
0.0
  0
LINE
  5
276
330
1F
100
AcDbEntity
  8
0
  6
Continuous
 62
     7
100
AcDbLine
 10
5616.3189992289
 20
5047.8758371253
 30
0.0
 11
5616.3189992289
 21
5047.4815822024
 31
0.0
  0
LINE
  5
277
330
1F
100
AcDbEntity
  8
0
  6
Continuous
 62
     7
100
AcDbLine
 10
5616.3189992289
 20
5046.2883270164
 30
0.0
 11
5616.3189992289
 21
5045.8914643903
 31
0.0
  0
LINE
  5
278
330
1F
100
AcDbEntity
  8
0
  6
Continuous
 62
     7
100
AcDbLine
 10
5662.6004710774
 20
5049.8602098603
 30
0.0
 11
5662.6004710774
 21
5050.2547628064
 31
0.0
  0
LINE
  5
279
330
1F
100
AcDbEntity
  8
0
  6
Continuous
 62
     7
100
AcDbLine
 10
5662.6004710774
 20
5048.2727146525
 30
0.0
 11
5662.6004710774
 21
5048.6672675986
 31
0.0
  0
LINE
  5
27A
330
1F
100
AcDbEntity
  8
0
  6
Continuous
 62
     7
100
AcDbLine
 10
5662.6004710774
 20
5046.6852045436
 30
0.0
 11
5662.6004710774
 21
5047.0797723909
 31
0.0
  0
LINE
  5
27B
330
1F
100
AcDbEntity
  8
0
  6
Continuous
 62
     7
100
AcDbLine
 10
5660.9597340207
 20
5043.6243570228
 30
0.0
 11
5660.9597340207
 21
5045.9641075511
 31
0.0
  0
LINE
  5
27C
330
1F
100
AcDbEntity
  8
0
  6
Continuous
 62
     7
100
AcDbLine
 10
5617.9597362856
 20
5045.9641075511
 30
0.0
 11
5617.9597362856
 21
5044.9641055246
 31
0.0
  0
LINE
  5
27D
330
1F
100
AcDbEntity
  8
0
  6
Continuous
 62
     7
100
AcDbLine
 10
5665.9597292523
 20
5015.964106359
 30
0.0
 11
5665.9597292523
 21
5034.9641001601
 31
0.0
  0
LINE
  5
27E
330
1F
100
AcDbEntity
  8
0
  6
Continuous
 62
     7
100
AcDbLine
 10
5720.6774488072
 20
5527.2668308396
 30
0.0
 11
5744.6774527411
 21
5527.2668308396
 31
0.0
  0
LINE
  5
27F
330
1F
100
AcDbEntity
  8
0
  6
Continuous
 62
     7
100
AcDbLine
 10
5720.6774488072
 20
5027.2668457408
 30
0.0
 11
5744.6774527411
 21
5027.2668457408
 31
0.0
  0
LINE
  5
280
330
1F
100
AcDbEntity
  8
0
  6
Continuous
 62
     7
100
AcDbLine
 10
5747.6774439196
 20
5527.2668308396
 30
0.0
 11
5747.6774439196
 21
5442.5241357465
 31
0.0
  0
LINE
  5
281
330
1F
100
AcDbEntity
  8
0
  6
Continuous
 62
     7
100
AcDbLine
 10
5747.6774439196
 20
5112.0095557351
 30
0.0
 11
5747.6774439196
 21
5027.2668457408
 31
0.0
  0
LINE
  5
282
330
1F
100
AcDbEntity
  8
0
  6
Continuous
 62
     7
100
AcDbLine
 10
5747.6774439196
 20
5027.2668457408
 30
0.0
 11
5744.6774527411
 21
5027.2668457408
 31
0.0
  0
LINE
  5
283
330
1F
100
AcDbEntity
  8
0
  6
Continuous
 62
     7
100
AcDbLine
 10
5744.6774527411
 20
5527.2668308396
 30
0.0
 11
5747.6774439196
 21
5527.2668308396
 31
0.0
  0
LINE
  5
284
330
1F
100
AcDbEntity
  8
0
  6
Continuous
 62
     7
100
AcDbLine
 10
5720.6774488072
 20
5027.2668457408
 30
0.0
 11
5717.6774576287
 21
5027.2668457408
 31
0.0
  0
LINE
  5
285
330
1F
100
AcDbEntity
  8
0
  6
Continuous
 62
     7
100
AcDbLine
 10
5717.6774576287
 20
5027.2668457408
 30
0.0
 11
5717.6774576287
 21
5112.0095557351
 31
0.0
  0
LINE
  5
286
330
1F
100
AcDbEntity
  8
0
  6
Continuous
 62
     7
100
AcDbLine
 10
5717.6774576287
 20
5442.5241357465
 30
0.0
 11
5717.6774576287
 21
5527.2668308396
 31
0.0
  0
LINE
  5
287
330
1F
100
AcDbEntity
  8
0
  6
Continuous
 62
     7
100
AcDbLine
 10
5717.6774576287
 20
5527.2668308396
 30
0.0
 11
5720.6774488072
 21
5527.2668308396
 31
0.0
  0
LINE
  5
288
330
1F
100
AcDbEntity
  8
0
  6
Continuous
 62
     7
100
AcDbLine
 10
5360.6774494032
 20
5027.2668457408
 30
0.0
 11
5384.6774533371
 21
5027.2668457408
 31
0.0
  0
LINE
  5
289
330
1F
100
AcDbEntity
  8
0
  6
Continuous
 62
     7
100
AcDbLine
 10
5360.6774494032
 20
5527.2668308396
 30
0.0
 11
5384.6774533371
 21
5527.2668308396
 31
0.0
  0
LINE
  5
28A
330
1F
100
AcDbEntity
  8
0
  6
Continuous
 62
     7
100
AcDbLine
 10
5387.6774445157
 20
5527.2668308396
 30
0.0
 11
5387.6774445157
 21
5442.5241357465
 31
0.0
  0
LINE
  5
28B
330
1F
100
AcDbEntity
  8
0
  6
Continuous
 62
     7
100
AcDbLine
 10
5387.6774445157
 20
5112.0095557351
 30
0.0
 11
5387.6774445157
 21
5027.2668457408
 31
0.0
  0
LINE
  5
28C
330
1F
100
AcDbEntity
  8
0
  6
Continuous
 62
     7
100
AcDbLine
 10
5387.6774445157
 20
5027.2668457408
 30
0.0
 11
5384.6774533371
 21
5027.2668457408
 31
0.0
  0
LINE
  5
28D
330
1F
100
AcDbEntity
  8
0
  6
Continuous
 62
     7
100
AcDbLine
 10
5384.6774533371
 20
5527.2668308396
 30
0.0
 11
5387.6774445157
 21
5527.2668308396
 31
0.0
  0
LINE
  5
28E
330
1F
100
AcDbEntity
  8
0
  6
Continuous
 62
     7
100
AcDbLine
 10
5360.6774494032
 20
5027.2668457408
 30
0.0
 11
5357.6774582247
 21
5027.2668457408
 31
0.0
  0
LINE
  5
28F
330
1F
100
AcDbEntity
  8
0
  6
Continuous
 62
     7
100
AcDbLine
 10
5357.6774582247
 20
5027.2668457408
 30
0.0
 11
5357.6774582247
 21
5112.0095557351
 31
0.0
  0
LINE
  5
290
330
1F
100
AcDbEntity
  8
0
  6
Continuous
 62
     7
100
AcDbLine
 10
5357.6774582247
 20
5442.5241357465
 30
0.0
 11
5357.6774582247
 21
5527.2668308396
 31
0.0
  0
LINE
  5
291
330
1F
100
AcDbEntity
  8
0
  6
Continuous
 62
     7
100
AcDbLine
 10
5357.6774582247
 20
5527.2668308396
 30
0.0
 11
5360.6774494032
 21
5527.2668308396
 31
0.0
  0
LINE
  5
292
330
1F
100
AcDbEntity
  8
0
  6
Continuous
 62
     7
100
AcDbLine
 10
5575.6774511169
 20
5090.9641093392
 30
0.0
 11
5529.6774510275
 21
5090.9641093392
 31
0.0
  0
LINE
  5
293
330
1F
100
AcDbEntity
  8
0
  6
Continuous
 62
     7
100
AcDbLine
 10
5666.9597312788
 20
5051.1641061683
 30
0.0
 11
5611.9597315769
 21
5051.1641061683
 31
0.0
  0
LINE
  5
294
330
1F
100
AcDbEntity
  8
0
  6
Continuous
 62
     7
100
AcDbLine
 10
5666.9597312788
 20
5054.164112248
 30
0.0
 11
5611.9597315769
 21
5054.164112248
 31
0.0
  0
LINE
  5
295
330
1F
100
AcDbEntity
  8
0
  6
Continuous
 62
     7
100
AcDbLine
 10
5663.9597326498
 20
5069.6641064067
 30
0.0
 11
5658.2384467105
 21
5069.6641064067
 31
0.0
  0
LINE
  5
296
330
1F
100
AcDbEntity
  8
0
  6
Continuous
 62
     7
100
AcDbLine
 10
5620.6810235958
 20
5069.6641064067
 30
0.0
 11
5614.9597339313
 21
5069.6641064067
 31
0.0
  0
LINE
  5
297
330
1F
100
AcDbEntity
  8
0
  6
Continuous
 62
     7
100
AcDbLine
 10
5665.4562935214
 20
5063.2891065259
 30
0.0
 11
5665.4562935214
 21
5054.164112248
 31
0.0
  0
LINE
  5
298
330
1F
100
AcDbEntity
  8
0
  6
Continuous
 62
     7
100
AcDbLine
 10
5654.2069151978
 20
5063.2891065259
 30
0.0
 11
5654.2069151978
 21
5054.164112248
 31
0.0
  0
LINE
  5
299
330
1F
100
AcDbEntity
  8
0
  6
Continuous
 62
     7
100
AcDbLine
 10
5638.0398482065
 20
5054.164112248
 30
0.0
 11
5638.0398482065
 21
5062.1014690776
 31
0.0
  0
LINE
  5
29A
330
1F
100
AcDbEntity
  8
0
  6
Continuous
 62
     7
100
AcDbLine
 10
5619.7443068008
 20
5054.164112248
 30
0.0
 11
5619.7443068008
 21
5063.2891065259
 31
0.0
  0
LINE
  5
29B
330
1F
100
AcDbEntity
  8
0
  6
Continuous
 62
     7
100
AcDbLine
 10
5637.9695594291
 20
5054.164112248
 30
0.0
 11
5637.9695594291
 21
5062.1052539725
 31
0.0
  0
LINE
  5
29C
330
1F
100
AcDbEntity
  8
0
  6
Continuous
 62
     7
100
AcDbLine
 10
5634.2485457639
 20
5062.5717795272
 30
0.0
 11
5634.2485457639
 21
5054.164112248
 31
0.0
  0
LINE
  5
29D
330
1F
100
AcDbEntity
  8
0
  6
Continuous
 62
     7
100
AcDbLine
 10
5657.5148537735
 20
5063.2891065259
 30
0.0
 11
5657.4021860938
 21
5064.0066421409
 31
0.0
  0
LINE
  5
29E
330
1F
100
AcDbEntity
  8
0
  6
Continuous
 62
     7
100
AcDbLine
 10
5657.4021860938
 20
5064.0066421409
 30
0.0
 11
5657.0813342909
 21
5064.6149373431
 31
0.0
  0
LINE
  5
29F
330
1F
100
AcDbEntity
  8
0
  6
Continuous
 62
     7
100
AcDbLine
 10
5657.0813342909
 20
5064.6149373431
 30
0.0
 11
5656.601151822
 21
5065.0213814159
 31
0.0
  0
LINE
  5
2A0
330
1F
100
AcDbEntity
  8
0
  6
Continuous
 62
     7
100
AcDbLine
 10
5656.601151822
 20
5065.0213814159
 30
0.0
 11
5656.0347437839
 21
5065.1641047378
 31
0.0
  0
LINE
  5
2A1
330
1F
100
AcDbEntity
  8
0
  6
Continuous
 62
     7
100
AcDbLine
 10
5656.0347437839
 20
5065.1641047378
 30
0.0
 11
5655.4683282952
 21
5065.0213814159
 31
0.0
  0
LINE
  5
2A2
330
1F
100
AcDbEntity
  8
0
  6
Continuous
 62
     7
100
AcDbLine
 10
5655.4683282952
 20
5065.0213814159
 30
0.0
 11
5654.9881458263
 21
5064.6149373431
 31
0.0
  0
LINE
  5
2A3
330
1F
100
AcDbEntity
  8
0
  6
Continuous
 62
     7
100
AcDbLine
 10
5654.9881458263
 20
5064.6149373431
 30
0.0
 11
5654.6672940235
 21
5064.0066421409
 31
0.0
  0
LINE
  5
2A4
330
1F
100
AcDbEntity
  8
0
  6
Continuous
 62
     7
100
AcDbLine
 10
5654.6672940235
 20
5064.0066421409
 30
0.0
 11
5654.5546337943
 21
5063.2891065259
 31
0.0
  0
LINE
  5
2A5
330
1F
100
AcDbEntity
  8
0
  6
Continuous
 62
     7
100
AcDbLine
 10
5657.5148537735
 20
5054.164112248
 30
0.0
 11
5657.5148537735
 21
5063.2891065259
 31
0.0
  0
LINE
  5
2A6
330
1F
100
AcDbEntity
  8
0
  6
Continuous
 62
     7
100
AcDbLine
 10
5654.5546337943
 20
5063.2891065259
 30
0.0
 11
5654.5546337943
 21
5054.164112248
 31
0.0
  0
LINE
  5
2A7
330
1F
100
AcDbEntity
  8
0
  6
Continuous
 62
     7
100
AcDbLine
 10
5654.2069151978
 20
5063.2891065259
 30
0.0
 11
5654.5546337943
 21
5063.2891065259
 31
0.0
  0
LINE
  5
2A8
330
1F
100
AcDbEntity
  8
0
  6
Continuous
 62
     7
100
AcDbLine
 10
5619.297182558
 20
5063.2891065259
 30
0.0
 11
5619.2095711808
 21
5064.0066421409
 31
0.0
  0
LINE
  5
2A9
330
1F
100
AcDbEntity
  8
0
  6
Continuous
 62
     7
100
AcDbLine
 10
5619.2095711808
 20
5064.0066421409
 30
0.0
 11
5618.9600512366
 21
5064.6149373431
 31
0.0
  0
LINE
  5
2AA
330
1F
100
AcDbEntity
  8
0
  6
Continuous
 62
     7
100
AcDbLine
 10
5618.9600512366
 20
5064.6149373431
 30
0.0
 11
5618.5866281371
 21
5065.0213814159
 31
0.0
  0
LINE
  5
2AB
330
1F
100
AcDbEntity
  8
0
  6
Continuous
 62
     7
100
AcDbLine
 10
5618.5866281371
 20
5065.0213814159
 30
0.0
 11
5618.1461423616
 21
5065.1641047378
 31
0.0
  0
LINE
  5
2AC
330
1F
100
AcDbEntity
  8
0
  6
Continuous
 62
     7
100
AcDbLine
 10
5618.1461423616
 20
5065.1641047378
 30
0.0
 11
5617.7056565861
 21
5065.0213814159
 31
0.0
  0
LINE
  5
2AD
330
1F
100
AcDbEntity
  8
0
  6
Continuous
 62
     7
100
AcDbLine
 10
5617.7056565861
 20
5065.0213814159
 30
0.0
 11
5617.3322334866
 21
5064.6149373431
 31
0.0
  0
LINE
  5
2AE
330
1F
100
AcDbEntity
  8
0
  6
Continuous
 62
     7
100
AcDbLine
 10
5617.3322334866
 20
5064.6149373431
 30
0.0
 11
5617.082720993
 21
5064.0066421409
 31
0.0
  0
LINE
  5
2AF
330
1F
100
AcDbEntity
  8
0
  6
Continuous
 62
     7
100
AcDbLine
 10
5617.082720993
 20
5064.0066421409
 30
0.0
 11
5616.9951021652
 21
5063.2891065259
 31
0.0
  0
LINE
  5
2B0
330
1F
100
AcDbEntity
  8
0
  6
Continuous
 62
     7
100
AcDbLine
 10
5619.7443068008
 20
5063.2891065259
 30
0.0
 11
5619.297182558
 21
5063.2891065259
 31
0.0
  0
LINE
  5
2B1
330
1F
100
AcDbEntity
  8
0
  6
Continuous
 62
     7
100
AcDbLine
 10
5619.297182558
 20
5054.164112248
 30
0.0
 11
5619.297182558
 21
5063.2891065259
 31
0.0
  0
LINE
  5
2B2
330
1F
100
AcDbEntity
  8
0
  6
Continuous
 62
     7
100
AcDbLine
 10
5616.9951021652
 20
5063.2891065259
 30
0.0
 11
5616.9951021652
 21
5054.164112248
 31
0.0
  0
LINE
  5
2B3
330
1F
100
AcDbEntity
  8
0
  6
Continuous
 62
     7
100
AcDbLine
 10
5666.4837062339
 20
5063.2891065259
 30
0.0
 11
5666.4659887533
 21
5064.0066421409
 31
0.0
  0
LINE
  5
2B4
330
1F
100
AcDbEntity
  8
0
  6
Continuous
 62
     7
100
AcDbLine
 10
5666.4659887533
 20
5064.0066421409
 30
0.0
 11
5666.4155483226
 21
5064.6149373431
 31
0.0
  0
LINE
  5
2B5
330
1F
100
AcDbEntity
  8
0
  6
Continuous
 62
     7
100
AcDbLine
 10
5666.4155483226
 20
5064.6149373431
 30
0.0
 11
5666.34005904
 21
5065.0213814159
 31
0.0
  0
LINE
  5
2B6
330
1F
100
AcDbEntity
  8
0
  6
Continuous
 62
     7
100
AcDbLine
 10
5666.34005904
 20
5065.0213814159
 30
0.0
 11
5666.2510171513
 21
5065.1641047378
 31
0.0
  0
LINE
  5
2B7
330
1F
100
AcDbEntity
  8
0
  6
Continuous
 62
     7
100
AcDbLine
 10
5666.2510171513
 20
5065.1641047378
 30
0.0
 11
5666.1619752626
 21
5065.0213814159
 31
0.0
  0
LINE
  5
2B8
330
1F
100
AcDbEntity
  8
0
  6
Continuous
 62
     7
100
AcDbLine
 10
5666.1619752626
 20
5065.0213814159
 30
0.0
 11
5666.08648598
 21
5064.6149373431
 31
0.0
  0
LINE
  5
2B9
330
1F
100
AcDbEntity
  8
0
  6
Continuous
 62
     7
100
AcDbLine
 10
5666.08648598
 20
5064.6149373431
 30
0.0
 11
5666.0360455493
 21
5064.0066421409
 31
0.0
  0
LINE
  5
2BA
330
1F
100
AcDbEntity
  8
0
  6
Continuous
 62
     7
100
AcDbLine
 10
5666.0360455493
 20
5064.0066421409
 30
0.0
 11
5666.0183280687
 21
5063.2891065259
 31
0.0
  0
LINE
  5
2BB
330
1F
100
AcDbEntity
  8
0
  6
Continuous
 62
     7
100
AcDbLine
 10
5666.4837062339
 20
5054.164112248
 30
0.0
 11
5666.4837062339
 21
5063.2891065259
 31
0.0
  0
LINE
  5
2BC
330
1F
100
AcDbEntity
  8
0
  6
Continuous
 62
     7
100
AcDbLine
 10
5666.0183280687
 20
5063.2891065259
 30
0.0
 11
5666.0183280687
 21
5054.164112248
 31
0.0
  0
LINE
  5
2BD
330
1F
100
AcDbEntity
  8
0
  6
Continuous
 62
     7
100
AcDbLine
 10
5665.4562935214
 20
5063.2891065259
 30
0.0
 11
5666.0183280687
 21
5063.2891065259
 31
0.0
  0
LINE
  5
2BE
330
1F
100
AcDbEntity
  8
0
  6
Continuous
 62
     7
100
AcDbLine
 10
5612.4357603471
 20
5054.164112248
 30
0.0
 11
5612.4357603471
 21
5063.2891065259
 31
0.0
  0
LINE
  5
2BF
330
1F
100
AcDbEntity
  8
0
  6
Continuous
 62
     7
100
AcDbLine
 10
5525.1774512212
 20
5080.9641039748
 30
0.0
 11
5580.1774509232
 21
5080.9641039748
 31
0.0
  0
LINE
  5
2C0
330
1F
100
AcDbEntity
  8
0
  6
Continuous
 62
     7
100
AcDbLine
 10
5525.1774512212
 20
5077.9641127963
 30
0.0
 11
5580.1774509232
 21
5077.9641127963
 31
0.0
  0
LINE
  5
2C1
330
1F
100
AcDbEntity
  8
0
  6
Continuous
 62
     7
100
AcDbLine
 10
5528.1774517129
 20
5062.4641037364
 30
0.0
 11
5577.1774504314
 21
5062.4641037364
 31
0.0
  0
LINE
  5
2C2
330
1F
100
AcDbEntity
  8
0
  6
Continuous
 62
     7
100
AcDbLine
 10
5531.0002978872
 20
5068.8391036172
 30
0.0
 11
5531.0002978872
 21
5077.9641127963
 31
0.0
  0
LINE
  5
2C3
330
1F
100
AcDbEntity
  8
0
  6
Continuous
 62
     7
100
AcDbLine
 10
5548.127864858
 20
5068.8391036172
 30
0.0
 11
5548.127864858
 21
5077.9641127963
 31
0.0
  0
LINE
  5
2C4
330
1F
100
AcDbEntity
  8
0
  6
Continuous
 62
     7
100
AcDbLine
 10
5564.7080628182
 20
5077.9641127963
 30
0.0
 11
5564.7080628182
 21
5068.8391036172
 31
0.0
  0
LINE
  5
2C5
330
1F
100
AcDbEntity
  8
0
  6
Continuous
 62
     7
100
AcDbLine
 10
5577.8804015349
 20
5077.9641127963
 30
0.0
 11
5577.8804015349
 21
5068.8391036172
 31
0.0
  0
LINE
  5
2C6
330
1F
100
AcDbEntity
  8
0
  6
Continuous
 62
     7
100
AcDbLine
 10
5544.3518733586
 20
5077.9641127963
 30
0.0
 11
5544.3518733586
 21
5068.8391036172
 31
0.0
  0
LINE
  5
2C7
330
1F
100
AcDbEntity
  8
0
  6
Continuous
 62
     7
100
AcDbLine
 10
5547.99138326
 20
5068.8391036172
 30
0.0
 11
5547.99138326
 21
5077.9641127963
 31
0.0
  0
LINE
  5
2C8
330
1F
100
AcDbEntity
  8
0
  6
Continuous
 62
     7
100
AcDbLine
 10
5548.127864858
 20
5068.8391036172
 30
0.0
 11
5547.99138326
 21
5068.8391036172
 31
0.0
  0
LINE
  5
2C9
330
1F
100
AcDbEntity
  8
0
  6
Continuous
 62
     7
100
AcDbLine
 10
5565.0002717952
 20
5077.9641127963
 30
0.0
 11
5565.0002717952
 21
5068.8391036172
 31
0.0
  0
LINE
  5
2CA
330
1F
100
AcDbEntity
  8
0
  6
Continuous
 62
     7
100
AcDbLine
 10
5564.7080628182
 20
5068.8391036172
 30
0.0
 11
5565.0002717952
 21
5068.8391036172
 31
0.0
  0
LINE
  5
2CB
330
1F
100
AcDbEntity
  8
0
  6
Continuous
 62
     7
100
AcDbLine
 10
5565.0002717952
 20
5068.8391036172
 30
0.0
 11
5565.1225386168
 21
5068.1215680022
 31
0.0
  0
LINE
  5
2CC
330
1F
100
AcDbEntity
  8
0
  6
Continuous
 62
     7
100
AcDbLine
 10
5565.1225386168
 20
5068.1215680022
 30
0.0
 11
5565.4707247372
 21
5067.5132877011
 31
0.0
  0
LINE
  5
2CD
330
1F
100
AcDbEntity
  8
0
  6
Continuous
 62
     7
100
AcDbLine
 10
5565.4707247372
 20
5067.5132877011
 30
0.0
 11
5565.9918220694
 21
5067.1068287273
 31
0.0
  0
LINE
  5
2CE
330
1F
100
AcDbEntity
  8
0
  6
Continuous
 62
     7
100
AcDbLine
 10
5565.9918220694
 20
5067.1068287273
 30
0.0
 11
5566.606498694
 21
5066.9641054053
 31
0.0
  0
LINE
  5
2CF
330
1F
100
AcDbEntity
  8
0
  6
Continuous
 62
     7
100
AcDbLine
 10
5566.606498694
 20
5066.9641054053
 30
0.0
 11
5567.2211753185
 21
5067.1068287273
 31
0.0
  0
LINE
  5
2D0
330
1F
100
AcDbEntity
  8
0
  6
Continuous
 62
     7
100
AcDbLine
 10
5567.2211753185
 20
5067.1068287273
 30
0.0
 11
5567.7422726507
 21
5067.5132877011
 31
0.0
  0
LINE
  5
2D1
330
1F
100
AcDbEntity
  8
0
  6
Continuous
 62
     7
100
AcDbLine
 10
5567.7422726507
 20
5067.5132877011
 30
0.0
 11
5568.0904587711
 21
5068.1215680022
 31
0.0
  0
LINE
  5
2D2
330
1F
100
AcDbEntity
  8
0
  6
Continuous
 62
     7
100
AcDbLine
 10
5568.0904587711
 20
5068.1215680022
 30
0.0
 11
5568.2127255927
 21
5068.8391036172
 31
0.0
  0
LINE
  5
2D3
330
1F
100
AcDbEntity
  8
0
  6
Continuous
 62
     7
100
AcDbLine
 10
5568.2127255927
 20
5068.8391036172
 30
0.0
 11
5568.2127255927
 21
5077.9641127963
 31
0.0
  0
LINE
  5
2D4
330
1F
100
AcDbEntity
  8
0
  6
Continuous
 62
     7
100
AcDbLine
 10
5530.5150769631
 20
5068.8391036172
 30
0.0
 11
5530.5150769631
 21
5077.9641127963
 31
0.0
  0
LINE
  5
2D5
330
1F
100
AcDbEntity
  8
0
  6
Continuous
 62
     7
100
AcDbLine
 10
5531.0002978872
 20
5068.8391036172
 30
0.0
 11
5530.5150769631
 21
5068.8391036172
 31
0.0
  0
LINE
  5
2D6
330
1F
100
AcDbEntity
  8
0
  6
Continuous
 62
     7
100
AcDbLine
 10
5528.5804852824
 20
5068.8391036172
 30
0.0
 11
5528.6541175078
 21
5068.1215680022
 31
0.0
  0
LINE
  5
2D7
330
1F
100
AcDbEntity
  8
0
  6
Continuous
 62
     7
100
AcDbLine
 10
5528.6541175078
 20
5068.1215680022
 30
0.0
 11
5528.8638010602
 21
5067.5132877011
 31
0.0
  0
LINE
  5
2D8
330
1F
100
AcDbEntity
  8
0
  6
Continuous
 62
     7
100
AcDbLine
 10
5528.8638010602
 20
5067.5132877011
 30
0.0
 11
5529.177613927
 21
5067.1068287273
 31
0.0
  0
LINE
  5
2D9
330
1F
100
AcDbEntity
  8
0
  6
Continuous
 62
     7
100
AcDbLine
 10
5529.177613927
 20
5067.1068287273
 30
0.0
 11
5529.5477811228
 21
5066.9641054053
 31
0.0
  0
LINE
  5
2DA
330
1F
100
AcDbEntity
  8
0
  6
Continuous
 62
     7
100
AcDbLine
 10
5529.5477811228
 20
5066.9641054053
 30
0.0
 11
5529.9179483186
 21
5067.1068287273
 31
0.0
  0
LINE
  5
2DB
330
1F
100
AcDbEntity
  8
0
  6
Continuous
 62
     7
100
AcDbLine
 10
5529.9179483186
 20
5067.1068287273
 30
0.0
 11
5530.2317611854
 21
5067.5132877011
 31
0.0
  0
LINE
  5
2DC
330
1F
100
AcDbEntity
  8
0
  6
Continuous
 62
     7
100
AcDbLine
 10
5530.2317611854
 20
5067.5132877011
 30
0.0
 11
5530.4414447377
 21
5068.1215680022
 31
0.0
  0
LINE
  5
2DD
330
1F
100
AcDbEntity
  8
0
  6
Continuous
 62
     7
100
AcDbLine
 10
5530.4414447377
 20
5068.1215680022
 30
0.0
 11
5530.5150769631
 21
5068.8391036172
 31
0.0
  0
LINE
  5
2DE
330
1F
100
AcDbEntity
  8
0
  6
Continuous
 62
     7
100
AcDbLine
 10
5528.5804852824
 20
5077.9641127963
 30
0.0
 11
5528.5804852824
 21
5068.8391036172
 31
0.0
  0
LINE
  5
2DF
330
1F
100
AcDbEntity
  8
0
  6
Continuous
 62
     7
100
AcDbLine
 10
5578.4301277231
 20
5068.8391036172
 30
0.0
 11
5578.4645196031
 21
5068.1215680022
 31
0.0
  0
LINE
  5
2E0
330
1F
100
AcDbEntity
  8
0
  6
Continuous
 62
     7
100
AcDbLine
 10
5578.4645196031
 20
5068.1215680022
 30
0.0
 11
5578.5624556224
 21
5067.5132877011
 31
0.0
  0
LINE
  5
2E1
330
1F
100
AcDbEntity
  8
0
  6
Continuous
 62
     7
100
AcDbLine
 10
5578.5624556224
 20
5067.5132877011
 30
0.0
 11
5578.7090271692
 21
5067.1068287273
 31
0.0
  0
LINE
  5
2E2
330
1F
100
AcDbEntity
  8
0
  6
Continuous
 62
     7
100
AcDbLine
 10
5578.7090271692
 20
5067.1068287273
 30
0.0
 11
5578.8819216172
 21
5066.9641054053
 31
0.0
  0
LINE
  5
2E3
330
1F
100
AcDbEntity
  8
0
  6
Continuous
 62
     7
100
AcDbLine
 10
5578.8819216172
 20
5066.9641054053
 30
0.0
 11
5579.0548160653
 21
5067.1068287273
 31
0.0
  0
LINE
  5
2E4
330
1F
100
AcDbEntity
  8
0
  6
Continuous
 62
     7
100
AcDbLine
 10
5579.0548160653
 20
5067.1068287273
 30
0.0
 11
5579.2013876121
 21
5067.5132877011
 31
0.0
  0
LINE
  5
2E5
330
1F
100
AcDbEntity
  8
0
  6
Continuous
 62
     7
100
AcDbLine
 10
5579.2013876121
 20
5067.5132877011
 30
0.0
 11
5579.2993236314
 21
5068.1215680022
 31
0.0
  0
LINE
  5
2E6
330
1F
100
AcDbEntity
  8
0
  6
Continuous
 62
     7
100
AcDbLine
 10
5579.2993236314
 20
5068.1215680022
 30
0.0
 11
5579.3337155114
 21
5068.8391036172
 31
0.0
  0
LINE
  5
2E7
330
1F
100
AcDbEntity
  8
0
  6
Continuous
 62
     7
100
AcDbLine
 10
5577.8804015349
 20
5068.8391036172
 30
0.0
 11
5578.4301277231
 21
5068.8391036172
 31
0.0
  0
LINE
  5
2E8
330
1F
100
AcDbEntity
  8
0
  6
Continuous
 62
     7
100
AcDbLine
 10
5578.4301277231
 20
5077.9641127963
 30
0.0
 11
5578.4301277231
 21
5068.8391036172
 31
0.0
  0
LINE
  5
2E9
330
1F
100
AcDbEntity
  8
0
  6
Continuous
 62
     7
100
AcDbLine
 10
5579.3337155114
 20
5068.8391036172
 30
0.0
 11
5579.3337155114
 21
5077.9641127963
 31
0.0
  0
LINE
  5
2EA
330
1F
100
AcDbEntity
  8
0
  6
Continuous
 62
     7
100
AcDbLine
 10
5526.0211866329
 20
5068.8391036172
 30
0.0
 11
5526.0211866329
 21
5077.9641127963
 31
0.0
  0
LINE
  5
2EB
330
1F
100
AcDbEntity
  8
0
  6
Continuous
 62
     7
100
AcDbLine
 10
5623.1864377837
 20
5083.1261283536
 30
0.0
 11
5655.7330325226
 21
5083.1261283536
 31
0.0
  0
LINE
  5
2EC
330
1F
100
AcDbEntity
  8
0
  6
Continuous
 62
     7
100
AcDbLine
 10
5656.1929345111
 20
5084.56410531
 30
0.0
 11
5622.7265357952
 21
5084.56410531
 31
0.0
  0
LINE
  5
2ED
330
1F
100
AcDbEntity
  8
0
  6
Continuous
 62
     7
100
AcDbLine
 10
5657.9597353916
 20
5089.0641069789
 30
0.0
 11
5620.9597349147
 21
5089.0641069789
 31
0.0
  0
LINE
  5
2EE
330
1F
100
AcDbEntity
  8
0
  6
Continuous
 62
     7
100
AcDbLine
 10
5522.6774517427
 20
5015.964106359
 30
0.0
 11
5560.6275428067
 21
5015.964106359
 31
0.0
  0
LINE
  5
2EF
330
1F
100
AcDbEntity
  8
0
  6
Continuous
 62
     7
100
AcDbLine
 10
5560.6275428067
 20
5015.964106359
 30
0.0
 11
5560.6275428067
 21
5010.9641111274
 31
0.0
  0
LINE
  5
2F0
330
1F
100
AcDbEntity
  8
0
  6
Continuous
 62
     7
100
AcDbLine
 10
5522.6774517427
 20
5010.9641111274
 30
0.0
 11
5560.6275428067
 21
5010.9641111274
 31
0.0
  0
LINE
  5
2F1
330
1F
100
AcDbEntity
  8
0
  6
Continuous
 62
     7
100
AcDbLine
 10
5559.7000321354
 20
5034.9641001601
 30
0.0
 11
5559.7000321354
 21
5015.964106359
 31
0.0
  0
LINE
  5
2F2
330
1F
100
AcDbEntity
  8
0
  6
Continuous
 62
     7
100
AcDbLine
 10
5647.409825025
 20
5015.964106359
 30
0.0
 11
5647.409825025
 21
5010.9641111274
 31
0.0
  0
LINE
  5
2F3
330
1F
100
AcDbEntity
  8
0
  6
Continuous
 62
     7
100
AcDbLine
 10
5560.6275428067
 20
5010.9641111274
 30
0.0
 11
5647.409825025
 21
5010.9641111274
 31
0.0
  0
LINE
  5
2F4
330
1F
100
AcDbEntity
  8
0
  6
Continuous
 62
     7
100
AcDbLine
 10
5560.6275428067
 20
5015.964106359
 30
0.0
 11
5647.409825025
 21
5015.964106359
 31
0.0
  0
LINE
  5
2F5
330
1F
100
AcDbEntity
  8
0
  6
Continuous
 62
     7
100
AcDbLine
 10
5646.4823171477
 20
5034.9641001601
 30
0.0
 11
5559.7000321354
 21
5034.9641001601
 31
0.0
  0
LINE
  5
2F6
330
1F
100
AcDbEntity
  8
0
  6
Continuous
 62
     7
100
AcDbLine
 10
5570.6762619297
 20
5039.9641102929
 30
0.0
 11
5630.2192419748
 21
5039.9641102929
 31
0.0
  0
LINE
  5
2F7
330
1F
100
AcDbEntity
  8
0
  6
Continuous
 62
     7
100
AcDbLine
 10
5646.4823171477
 20
5034.9641001601
 30
0.0
 11
5646.4823171477
 21
5015.964106359
 31
0.0
  0
LINE
  5
2F8
330
1F
100
AcDbEntity
  8
0
  6
Continuous
 62
     7
100
AcDbLine
 10
5567.0764990131
 20
5044.9641055246
 30
0.0
 11
5567.1456674094
 21
5043.9886606116
 31
0.0
  0
LINE
  5
2F9
330
1F
100
AcDbEntity
  8
0
  6
Continuous
 62
     7
100
AcDbLine
 10
5567.1456674094
 20
5043.9886606116
 30
0.0
 11
5567.3505146037
 21
5043.0506921191
 31
0.0
  0
LINE
  5
2FA
330
1F
100
AcDbEntity
  8
0
  6
Continuous
 62
     7
100
AcDbLine
 10
5567.3505146037
 20
5043.0506921191
 30
0.0
 11
5567.6831681262
 21
5042.1862608571
 31
0.0
  0
LINE
  5
2FB
330
1F
100
AcDbEntity
  8
0
  6
Continuous
 62
     7
100
AcDbLine
 10
5567.6831681262
 20
5042.1862608571
 30
0.0
 11
5568.1308446432
 21
5041.4285666127
 31
0.0
  0
LINE
  5
2FC
330
1F
100
AcDbEntity
  8
0
  6
Continuous
 62
     7
100
AcDbLine
 10
5568.1308446432
 20
5041.4285666127
 30
0.0
 11
5568.676339833
 21
5040.8067560573
 31
0.0
  0
LINE
  5
2FD
330
1F
100
AcDbEntity
  8
0
  6
Continuous
 62
     7
100
AcDbLine
 10
5568.676339833
 20
5040.8067560573
 30
0.0
 11
5569.2986924182
 21
5040.344700851
 31
0.0
  0
LINE
  5
2FE
330
1F
100
AcDbEntity
  8
0
  6
Continuous
 62
     7
100
AcDbLine
 10
5569.2986924182
 20
5040.344700851
 30
0.0
 11
5569.9739832412
 21
5040.0601780791
 31
0.0
  0
LINE
  5
2FF
330
1F
100
AcDbEntity
  8
0
  6
Continuous
 62
     7
100
AcDbLine
 10
5569.9739832412
 20
5040.0601780791
 30
0.0
 11
5570.6762619297
 21
5039.9641102929
 31
0.0
  0
LINE
  5
300
330
1F
100
AcDbEntity
  8
0
  6
Continuous
 62
     7
100
AcDbLine
 10
5654.5880645494
 20
5045.9641075511
 30
0.0
 11
5663.3315518479
 21
5045.9641075511
 31
0.0
  0
LINE
  5
301
330
1F
100
AcDbEntity
  8
0
  6
Continuous
 62
     7
100
AcDbLine
 10
5647.409825025
 20
5010.9641111274
 30
0.0
 11
5669.4597363452
 21
5010.9641111274
 31
0.0
  0
LINE
  5
302
330
1F
100
AcDbEntity
  8
0
  6
Continuous
 62
     7
100
AcDbLine
 10
5647.409825025
 20
5015.964106359
 30
0.0
 11
5669.4597363452
 21
5015.964106359
 31
0.0
  0
LINE
  5
303
330
1F
100
AcDbEntity
  8
0
  6
Continuous
 62
     7
100
AcDbLine
 10
5631.9627299885
 20
5044.9641055246
 30
0.0
 11
5631.9292247276
 21
5043.9886606116
 31
0.0
  0
LINE
  5
304
330
1F
100
AcDbEntity
  8
0
  6
Continuous
 62
     7
100
AcDbLine
 10
5631.9292247276
 20
5043.9886606116
 30
0.0
 11
5631.8300127964
 21
5043.0506921191
 31
0.0
  0
LINE
  5
305
330
1F
100
AcDbEntity
  8
0
  6
Continuous
 62
     7
100
AcDbLine
 10
5631.8300127964
 20
5043.0506921191
 30
0.0
 11
5631.6688939909
 21
5042.1862608571
 31
0.0
  0
LINE
  5
306
330
1F
100
AcDbEntity
  8
0
  6
Continuous
 62
     7
100
AcDbLine
 10
5631.6688939909
 20
5042.1862608571
 30
0.0
 11
5631.452074645
 21
5041.4285666127
 31
0.0
  0
LINE
  5
307
330
1F
100
AcDbEntity
  8
0
  6
Continuous
 62
     7
100
AcDbLine
 10
5631.452074645
 20
5041.4285666127
 30
0.0
 11
5631.1878696064
 21
5040.8067560573
 31
0.0
  0
LINE
  5
308
330
1F
100
AcDbEntity
  8
0
  6
Continuous
 62
     7
100
AcDbLine
 10
5631.1878696064
 20
5040.8067560573
 30
0.0
 11
5630.8864414672
 21
5040.344700851
 31
0.0
  0
LINE
  5
309
330
1F
100
AcDbEntity
  8
0
  6
Continuous
 62
     7
100
AcDbLine
 10
5630.8864414672
 20
5040.344700851
 30
0.0
 11
5630.5593758802
 21
5040.0601780791
 31
0.0
  0
LINE
  5
30A
330
1F
100
AcDbEntity
  8
0
  6
Continuous
 62
     7
100
AcDbLine
 10
5630.5593758802
 20
5040.0601780791
 30
0.0
 11
5630.2192419748
 21
5039.9641102929
 31
0.0
  0
LINE
  5
30B
330
1F
100
AcDbEntity
  8
0
  6
Continuous
 62
     7
100
AcDbLine
 10
5752.6774540524
 20
5432.2668469329
 30
0.0
 11
5352.6774480919
 21
5432.2668469329
 31
0.0
  0
LINE
  5
30C
330
1F
100
AcDbEntity
  8
0
  6
Continuous
 62
     7
100
AcDbLine
 10
5752.6774540524
 20
5122.2668445487
 30
0.0
 11
5752.6774540524
 21
5432.2668469329
 31
0.0
  0
LINE
  5
30D
330
1F
100
AcDbEntity
  8
0
  6
Continuous
 62
     7
100
AcDbLine
 10
5352.6774480919
 20
5122.2668445487
 30
0.0
 11
5752.6774540524
 21
5122.2668445487
 31
0.0
  0
LINE
  5
30E
330
1F
100
AcDbEntity
  8
0
  6
Continuous
 62
     7
100
AcDbLine
 10
5352.6774480919
 20
5432.2668469329
 30
0.0
 11
5352.6774480919
 21
5122.2668445487
 31
0.0
  0
LINE
  5
30F
330
1F
100
AcDbEntity
  8
0
  6
Continuous
 62
     7
100
AcDbLine
 10
5702.6774570326
 20
5182.2668469329
 30
0.0
 11
5702.6774570326
 21
5372.2668445487
 31
0.0
  0
LINE
  5
310
330
1F
100
AcDbEntity
  8
0
  6
Continuous
 62
     7
100
AcDbLine
 10
5702.6774570326
 20
5372.2668445487
 30
0.0
 11
5402.6774451117
 21
5372.2668445487
 31
0.0
  0
LINE
  5
311
330
1F
100
AcDbEntity
  8
0
  6
Continuous
 62
     7
100
AcDbLine
 10
5402.6774451117
 20
5372.2668445487
 30
0.0
 11
5402.6774451117
 21
5182.2668469329
 31
0.0
  0
LINE
  5
312
330
1F
100
AcDbEntity
  8
0
  6
Continuous
 62
     7
100
AcDbLine
 10
5402.6774451117
 20
5182.2668469329
 30
0.0
 11
5702.6774570326
 21
5182.2668469329
 31
0.0
  0
LINE
  5
313
330
1F
100
AcDbEntity
  8
0
  6
Continuous
 62
     7
100
AcDbLine
 10
5752.9487594943
 20
5433.2929110904
 30
0.0
 11
5352.4061426501
 21
5433.2929110904
 31
0.0
  0
LINE
  5
314
330
1F
100
AcDbEntity
  8
0
  6
Continuous
 62
     7
100
AcDbLine
 10
5752.9487594943
 20
5433.2929110904
 30
0.0
 11
5752.6774540524
 21
5432.2668469329
 31
0.0
  0
LINE
  5
315
330
1F
100
AcDbEntity
  8
0
  6
Continuous
 62
     7
100
AcDbLine
 10
5753.7035182099
 20
5432.5381523748
 30
0.0
 11
5753.7035182099
 21
5121.9955391069
 31
0.0
  0
LINE
  5
316
330
1F
100
AcDbEntity
  8
0
  6
Continuous
 62
     7
100
AcDbLine
 10
5752.6774540524
 20
5122.2668445487
 30
0.0
 11
5752.9487594943
 21
5121.2407803912
 31
0.0
  0
LINE
  5
317
330
1F
100
AcDbEntity
  8
0
  6
Continuous
 62
     7
100
AcDbLine
 10
5352.4061426501
 20
5121.2407803912
 30
0.0
 11
5752.9487594943
 21
5121.2407803912
 31
0.0
  0
LINE
  5
318
330
1F
100
AcDbEntity
  8
0
  6
Continuous
 62
     7
100
AcDbLine
 10
5752.6774540524
 20
5432.2668469329
 30
0.0
 11
5753.0194655041
 21
5432.5381523748
 31
0.0
  0
LINE
  5
319
330
1F
100
AcDbEntity
  8
0
  6
Continuous
 62
     7
100
AcDbLine
 10
5753.7035182099
 20
5432.5381523748
 30
0.0
 11
5753.0194655041
 21
5432.5381523748
 31
0.0
  0
LINE
  5
31A
330
1F
100
AcDbEntity
  8
0
  6
Continuous
 62
     7
100
AcDbLine
 10
5752.9487594943
 20
5432.6088583846
 30
0.0
 11
5752.6774540524
 21
5432.2668469329
 31
0.0
  0
LINE
  5
31B
330
1F
100
AcDbEntity
  8
0
  6
Continuous
 62
     7
100
AcDbLine
 10
5752.9487594943
 20
5433.2929110904
 30
0.0
 11
5752.9487594943
 21
5432.6088583846
 31
0.0
  0
LINE
  5
31C
330
1F
100
AcDbEntity
  8
0
  6
Continuous
 62
     7
100
AcDbLine
 10
5752.6774540524
 20
5122.2668445487
 30
0.0
 11
5752.9487594943
 21
5121.9248181958
 31
0.0
  0
LINE
  5
31D
330
1F
100
AcDbEntity
  8
0
  6
Continuous
 62
     7
100
AcDbLine
 10
5752.9487594943
 20
5121.2407803912
 30
0.0
 11
5752.9487594943
 21
5121.9248181958
 31
0.0
  0
LINE
  5
31E
330
1F
100
AcDbEntity
  8
0
  6
Continuous
 62
     7
100
AcDbLine
 10
5753.0194655041
 20
5121.9955391069
 30
0.0
 11
5752.6774540524
 21
5122.2668445487
 31
0.0
  0
LINE
  5
31F
330
1F
100
AcDbEntity
  8
0
  6
Continuous
 62
     7
100
AcDbLine
 10
5753.7035182099
 20
5121.9955391069
 30
0.0
 11
5753.0194655041
 21
5121.9955391069
 31
0.0
  0
LINE
  5
320
330
1F
100
AcDbEntity
  8
0
  6
Continuous
 62
     7
100
AcDbLine
 10
5352.6774480919
 20
5122.2668445487
 30
0.0
 11
5351.6513839345
 21
5121.9955391069
 31
0.0
  0
LINE
  5
321
330
1F
100
AcDbEntity
  8
0
  6
Continuous
 62
     7
100
AcDbLine
 10
5351.6513839345
 20
5432.5381523748
 30
0.0
 11
5351.6513839345
 21
5121.9955391069
 31
0.0
  0
LINE
  5
322
330
1F
100
AcDbEntity
  8
0
  6
Continuous
 62
     7
100
AcDbLine
 10
5351.6513839345
 20
5432.5381523748
 30
0.0
 11
5352.6774480919
 21
5432.2668469329
 31
0.0
  0
LINE
  5
323
330
1F
100
AcDbEntity
  8
0
  6
Continuous
 62
     7
100
AcDbLine
 10
5352.3354366402
 20
5432.5381523748
 30
0.0
 11
5352.6774480919
 21
5432.2668469329
 31
0.0
  0
LINE
  5
324
330
1F
100
AcDbEntity
  8
0
  6
Continuous
 62
     7
100
AcDbLine
 10
5351.6513839345
 20
5432.5381523748
 30
0.0
 11
5352.3354366402
 21
5432.5381523748
 31
0.0
  0
LINE
  5
325
330
1F
100
AcDbEntity
  8
0
  6
Continuous
 62
     7
100
AcDbLine
 10
5352.6774480919
 20
5432.2668469329
 30
0.0
 11
5352.4061426501
 21
5432.6088583846
 31
0.0
  0
LINE
  5
326
330
1F
100
AcDbEntity
  8
0
  6
Continuous
 62
     7
100
AcDbLine
 10
5352.4061426501
 20
5433.2929110904
 30
0.0
 11
5352.4061426501
 21
5432.6088583846
 31
0.0
  0
LINE
  5
327
330
1F
100
AcDbEntity
  8
0
  6
Continuous
 62
     7
100
AcDbLine
 10
5352.4061426501
 20
5121.9248181958
 30
0.0
 11
5352.6774480919
 21
5122.2668445487
 31
0.0
  0
LINE
  5
328
330
1F
100
AcDbEntity
  8
0
  6
Continuous
 62
     7
100
AcDbLine
 10
5352.4061426501
 20
5121.2407803912
 30
0.0
 11
5352.4061426501
 21
5121.9248181958
 31
0.0
  0
LINE
  5
329
330
1F
100
AcDbEntity
  8
0
  6
Continuous
 62
     7
100
AcDbLine
 10
5352.6774480919
 20
5122.2668445487
 30
0.0
 11
5352.3354366402
 21
5121.9955391069
 31
0.0
  0
LINE
  5
32A
330
1F
100
AcDbEntity
  8
0
  6
Continuous
 62
     7
100
AcDbLine
 10
5351.6513839345
 20
5121.9955391069
 30
0.0
 11
5352.3354366402
 21
5121.9955391069
 31
0.0
  0
LINE
  5
32B
330
1F
100
AcDbEntity
  8
0
  6
Continuous
 62
     7
100
AcDbLine
 10
5762.934742866
 20
5441.769391932
 30
0.0
 11
5762.2507050613
 21
5441.7693919321
 31
0.0
  0
LINE
  5
32C
330
1F
100
AcDbEntity
  8
0
  6
Continuous
 62
     7
100
AcDbLine
 10
5753.7035182099
 20
5432.5381523748
 30
0.0
 11
5762.934742866
 21
5441.769391932
 31
0.0
  0
LINE
  5
32D
330
1F
100
AcDbEntity
  8
0
  6
Continuous
 62
     7
100
AcDbLine
 10
5753.0194655041
 20
5432.5381523748
 30
0.0
 11
5762.2507050613
 21
5441.7693919321
 31
0.0
  0
LINE
  5
32E
330
1F
100
AcDbEntity
  8
0
  6
Continuous
 62
     7
100
AcDbLine
 10
5762.1799990515
 20
5112.0095557351
 30
0.0
 11
5762.1799990515
 21
5112.6935935397
 31
0.0
  0
LINE
  5
32F
330
1F
100
AcDbEntity
  8
0
  6
Continuous
 62
     7
100
AcDbLine
 10
5752.9487594943
 20
5121.2407803912
 30
0.0
 11
5762.1799990515
 21
5112.0095557351
 31
0.0
  0
LINE
  5
330
330
1F
100
AcDbEntity
  8
0
  6
Continuous
 62
     7
100
AcDbLine
 10
5752.9487594943
 20
5121.9248181958
 30
0.0
 11
5762.1799990515
 21
5112.6935935397
 31
0.0
  0
LINE
  5
331
330
1F
100
AcDbEntity
  8
0
  6
Continuous
 62
     7
100
AcDbLine
 10
5351.6513839345
 20
5432.5381523748
 30
0.0
 11
5342.4201592783
 21
5441.769391932
 31
0.0
  0
LINE
  5
332
330
1F
100
AcDbEntity
  8
0
  6
Continuous
 62
     7
100
AcDbLine
 10
5342.4201592783
 20
5441.769391932
 30
0.0
 11
5343.1041970829
 21
5441.769391932
 31
0.0
  0
LINE
  5
333
330
1F
100
AcDbEntity
  8
0
  6
Continuous
 62
     7
100
AcDbLine
 10
5352.3354366402
 20
5432.5381523748
 30
0.0
 11
5343.1041970829
 21
5441.769391932
 31
0.0
  0
LINE
  5
334
330
1F
100
AcDbEntity
  8
0
  6
Continuous
 62
     7
100
AcDbLine
 10
5352.4061426501
 20
5121.2407803912
 30
0.0
 11
5343.1749030928
 21
5112.0095557351
 31
0.0
  0
LINE
  5
335
330
1F
100
AcDbEntity
  8
0
  6
Continuous
 62
     7
100
AcDbLine
 10
5343.1749030928
 20
5112.0095557351
 30
0.0
 11
5343.1749030928
 21
5112.6935935397
 31
0.0
  0
LINE
  5
336
330
1F
100
AcDbEntity
  8
0
  6
Continuous
 62
     7
100
AcDbLine
 10
5352.4061426501
 20
5121.9248181958
 30
0.0
 11
5343.1749030928
 21
5112.6935935397
 31
0.0
  0
LINE
  5
337
330
1F
100
AcDbEntity
  8
0
  6
Continuous
 62
     7
100
AcDbLine
 10
5753.7035182099
 20
5121.9955391069
 30
0.0
 11
5762.934742866
 21
5112.7642995496
 31
0.0
  0
LINE
  5
338
330
1F
100
AcDbEntity
  8
0
  6
Continuous
 62
     7
100
AcDbLine
 10
5762.934742866
 20
5441.769391932
 30
0.0
 11
5762.934742866
 21
5112.7642995496
 31
0.0
  0
LINE
  5
339
330
1F
100
AcDbEntity
  8
0
  6
Continuous
 62
     7
100
AcDbLine
 10
5752.9487594943
 20
5433.2929110904
 30
0.0
 11
5762.1799990515
 21
5442.5241357465
 31
0.0
  0
LINE
  5
33A
330
1F
100
AcDbEntity
  8
0
  6
Continuous
 62
     7
100
AcDbLine
 10
5762.1799990515
 20
5442.5241357465
 30
0.0
 11
5762.1799990515
 21
5441.8400979419
 31
0.0
  0
LINE
  5
33B
330
1F
100
AcDbEntity
  8
0
  6
Continuous
 62
     7
100
AcDbLine
 10
5752.9487594943
 20
5432.6088583846
 30
0.0
 11
5762.1799990515
 21
5441.8400979419
 31
0.0
  0
LINE
  5
33C
330
1F
100
AcDbEntity
  8
0
  6
Continuous
 62
     7
100
AcDbLine
 10
5352.4061426501
 20
5433.2929110904
 30
0.0
 11
5343.1749030928
 21
5442.5241357465
 31
0.0
  0
LINE
  5
33D
330
1F
100
AcDbEntity
  8
0
  6
Continuous
 62
     7
100
AcDbLine
 10
5343.1749030928
 20
5442.5241357465
 30
0.0
 11
5762.1799990515
 21
5442.5241357465
 31
0.0
  0
LINE
  5
33E
330
1F
100
AcDbEntity
  8
0
  6
Continuous
 62
     7
100
AcDbLine
 10
5762.934742866
 20
5112.7642995496
 30
0.0
 11
5762.2507050614
 21
5112.7642995496
 31
0.0
  0
LINE
  5
33F
330
1F
100
AcDbEntity
  8
0
  6
Continuous
 62
     7
100
AcDbLine
 10
5753.0194655041
 20
5121.9955391069
 30
0.0
 11
5762.2507050614
 21
5112.7642995496
 31
0.0
  0
LINE
  5
340
330
1F
100
AcDbEntity
  8
0
  6
Continuous
 62
     7
100
AcDbLine
 10
5762.1799990515
 20
5112.0095557351
 30
0.0
 11
5343.1749030928
 21
5112.0095557351
 31
0.0
  0
LINE
  5
341
330
1F
100
AcDbEntity
  8
0
  6
Continuous
 62
     7
100
AcDbLine
 10
5351.6513839345
 20
5121.9955391069
 30
0.0
 11
5342.4201592783
 21
5112.7642995496
 31
0.0
  0
LINE
  5
342
330
1F
100
AcDbEntity
  8
0
  6
Continuous
 62
     7
100
AcDbLine
 10
5342.4201592783
 20
5112.7642995496
 30
0.0
 11
5342.4201592783
 21
5441.769391932
 31
0.0
  0
LINE
  5
343
330
1F
100
AcDbEntity
  8
0
  6
Continuous
 62
     7
100
AcDbLine
 10
5343.1749030928
 20
5442.5241357465
 30
0.0
 11
5343.1749030928
 21
5441.8400979419
 31
0.0
  0
LINE
  5
344
330
1F
100
AcDbEntity
  8
0
  6
Continuous
 62
     7
100
AcDbLine
 10
5352.4061426501
 20
5432.6088583846
 30
0.0
 11
5343.1749030928
 21
5441.8400979419
 31
0.0
  0
LINE
  5
345
330
1F
100
AcDbEntity
  8
0
  6
Continuous
 62
     7
100
AcDbLine
 10
5342.4201592783
 20
5112.7642995496
 30
0.0
 11
5343.1041970829
 21
5112.7642995496
 31
0.0
  0
LINE
  5
346
330
1F
100
AcDbEntity
  8
0
  6
Continuous
 62
     7
100
AcDbLine
 10
5352.3354366402
 20
5121.9955391069
 30
0.0
 11
5343.1041970829
 21
5112.7642995496
 31
0.0
  0
LINE
  5
347
330
1F
100
AcDbEntity
  8
0
  6
Continuous
 62
     7
100
AcDbLine
 10
5702.6774570326
 20
5372.0900720735
 30
0.0
 11
5702.6622578482
 21
5372.0775625486
 31
0.0
  0
LINE
  5
348
330
1F
100
AcDbEntity
  8
0
  6
Continuous
 62
     7
100
AcDbLine
 10
5702.6622578482
 20
5372.0775625486
 30
0.0
 11
5702.6171371321
 21
5372.0404214044
 31
0.0
  0
LINE
  5
349
330
1F
100
AcDbEntity
  8
0
  6
Continuous
 62
     7
100
AcDbLine
 10
5702.6171371321
 20
5372.0404214044
 30
0.0
 11
5702.5434806923
 21
5371.9797736783
 31
0.0
  0
LINE
  5
34A
330
1F
100
AcDbEntity
  8
0
  6
Continuous
 62
     7
100
AcDbLine
 10
5702.5434806923
 20
5371.9797736783
 30
0.0
 11
5702.4434939007
 21
5371.8974671145
 31
0.0
  0
LINE
  5
34B
330
1F
100
AcDbEntity
  8
0
  6
Continuous
 62
     7
100
AcDbLine
 10
5702.4434939007
 20
5371.8974671145
 30
0.0
 11
5702.3202314953
 21
5371.7960051079
 31
0.0
  0
LINE
  5
34C
330
1F
100
AcDbEntity
  8
0
  6
Continuous
 62
     7
100
AcDbLine
 10
5702.3202314953
 20
5371.7960051079
 30
0.0
 11
5702.1774485688
 21
5371.6784572978
 31
0.0
  0
LINE
  5
34D
330
1F
100
AcDbEntity
  8
0
  6
Continuous
 62
     7
100
AcDbLine
 10
5702.1774485688
 20
5371.6784572978
 30
0.0
 11
5702.0194664578
 21
5371.5484074135
 31
0.0
  0
LINE
  5
34E
330
1F
100
AcDbEntity
  8
0
  6
Continuous
 62
     7
100
AcDbLine
 10
5702.0194664578
 20
5371.5484074135
 30
0.0
 11
5701.8510982375
 21
5371.4097968121
 31
0.0
  0
LINE
  5
34F
330
1F
100
AcDbEntity
  8
0
  6
Continuous
 62
     7
100
AcDbLine
 10
5701.8510982375
 20
5371.4097968121
 30
0.0
 11
5701.6774550061
 21
5371.2668425222
 31
0.0
  0
LINE
  5
350
330
1F
100
AcDbEntity
  8
0
  6
Continuous
 62
     7
100
AcDbLine
 10
5402.8542324881
 20
5372.2668445487
 30
0.0
 11
5402.8700426201
 21
5372.2476295014
 31
0.0
  0
LINE
  5
351
330
1F
100
AcDbEntity
  8
0
  6
Continuous
 62
     7
100
AcDbLine
 10
5402.8700426201
 20
5372.2476295014
 30
0.0
 11
5402.9168918709
 21
5372.1907219668
 31
0.0
  0
LINE
  5
352
330
1F
100
AcDbEntity
  8
0
  6
Continuous
 62
     7
100
AcDbLine
 10
5402.9168918709
 20
5372.1907219668
 30
0.0
 11
5402.9929622988
 21
5372.0983124156
 31
0.0
  0
LINE
  5
353
330
1F
100
AcDbEntity
  8
0
  6
Continuous
 62
     7
100
AcDbLine
 10
5402.9929622988
 20
5372.0983124156
 30
0.0
 11
5403.0953481774
 21
5371.9739547749
 31
0.0
  0
LINE
  5
354
330
1F
100
AcDbEntity
  8
0
  6
Continuous
 62
     7
100
AcDbLine
 10
5403.0953481774
 20
5371.9739547749
 30
0.0
 11
5403.2200857977
 21
5371.8224174161
 31
0.0
  0
LINE
  5
355
330
1F
100
AcDbEntity
  8
0
  6
Continuous
 62
     7
100
AcDbLine
 10
5403.2200857977
 20
5371.8224174161
 30
0.0
 11
5403.3624216895
 21
5371.6495266934
 31
0.0
  0
LINE
  5
356
330
1F
100
AcDbEntity
  8
0
  6
Continuous
 62
     7
100
AcDbLine
 10
5403.3624216895
 20
5371.6495266934
 30
0.0
 11
5403.5168424229
 21
5371.4619359751
 31
0.0
  0
LINE
  5
357
330
1F
100
AcDbEntity
  8
0
  6
Continuous
 62
     7
100
AcDbLine
 10
5403.5168424229
 20
5371.4619359751
 30
0.0
 11
5403.6774471383
 21
5371.2668425222
 31
0.0
  0
LINE
  5
358
330
1F
100
AcDbEntity
  8
0
  6
Continuous
 62
     7
100
AcDbLine
 10
5701.6774550061
 20
5371.2668425222
 30
0.0
 11
5403.6774471383
 21
5371.2668425222
 31
0.0
  0
LINE
  5
359
330
1F
100
AcDbEntity
  8
0
  6
Continuous
 62
     7
100
AcDbLine
 10
5701.6774550061
 20
5371.2668425222
 30
0.0
 11
5701.8380597214
 21
5371.4619359751
 31
0.0
  0
LINE
  5
35A
330
1F
100
AcDbEntity
  8
0
  6
Continuous
 62
     7
100
AcDbLine
 10
5701.8380597214
 20
5371.4619359751
 30
0.0
 11
5701.9924804549
 21
5371.6495266934
 31
0.0
  0
LINE
  5
35B
330
1F
100
AcDbEntity
  8
0
  6
Continuous
 62
     7
100
AcDbLine
 10
5701.9924804549
 20
5371.6495266934
 30
0.0
 11
5702.1348163466
 21
5371.8224174161
 31
0.0
  0
LINE
  5
35C
330
1F
100
AcDbEntity
  8
0
  6
Continuous
 62
     7
100
AcDbLine
 10
5702.1348163466
 20
5371.8224174161
 30
0.0
 11
5702.259553967
 21
5371.9739547749
 31
0.0
  0
LINE
  5
35D
330
1F
100
AcDbEntity
  8
0
  6
Continuous
 62
     7
100
AcDbLine
 10
5702.259553967
 20
5371.9739547749
 30
0.0
 11
5702.3619398455
 21
5372.0983124156
 31
0.0
  0
LINE
  5
35E
330
1F
100
AcDbEntity
  8
0
  6
Continuous
 62
     7
100
AcDbLine
 10
5702.3619398455
 20
5372.0983124156
 30
0.0
 11
5702.4380102734
 21
5372.1907219668
 31
0.0
  0
LINE
  5
35F
330
1F
100
AcDbEntity
  8
0
  6
Continuous
 62
     7
100
AcDbLine
 10
5702.4380102734
 20
5372.1907219668
 30
0.0
 11
5702.4848595242
 21
5372.2476295014
 31
0.0
  0
LINE
  5
360
330
1F
100
AcDbEntity
  8
0
  6
Continuous
 62
     7
100
AcDbLine
 10
5702.4848595242
 20
5372.2476295014
 30
0.0
 11
5702.5006696562
 21
5372.2668445487
 31
0.0
  0
LINE
  5
361
330
1F
100
AcDbEntity
  8
0
  6
Continuous
 62
     7
100
AcDbLine
 10
5403.6774471383
 20
5371.2668425222
 30
0.0
 11
5403.4823611359
 21
5371.4274472375
 31
0.0
  0
LINE
  5
362
330
1F
100
AcDbEntity
  8
0
  6
Continuous
 62
     7
100
AcDbLine
 10
5403.4823611359
 20
5371.4274472375
 30
0.0
 11
5403.2947704176
 21
5371.5818754215
 31
0.0
  0
LINE
  5
363
330
1F
100
AcDbEntity
  8
0
  6
Continuous
 62
     7
100
AcDbLine
 10
5403.2947704176
 20
5371.5818754215
 30
0.0
 11
5403.1218871455
 21
5371.7242038627
 31
0.0
  0
LINE
  5
364
330
1F
100
AcDbEntity
  8
0
  6
Continuous
 62
     7
100
AcDbLine
 10
5403.1218871455
 20
5371.7242038627
 30
0.0
 11
5402.9703423361
 21
5371.8489489336
 31
0.0
  0
LINE
  5
365
330
1F
100
AcDbEntity
  8
0
  6
Continuous
 62
     7
100
AcDbLine
 10
5402.9703423361
 20
5371.8489489336
 30
0.0
 11
5402.8459772448
 21
5371.9513273616
 31
0.0
  0
LINE
  5
366
330
1F
100
AcDbEntity
  8
0
  6
Continuous
 62
     7
100
AcDbLine
 10
5402.8459772448
 20
5371.9513273616
 30
0.0
 11
5402.7535751442
 21
5372.0274052401
 31
0.0
  0
LINE
  5
367
330
1F
100
AcDbEntity
  8
0
  6
Continuous
 62
     7
100
AcDbLine
 10
5402.7535751442
 20
5372.0274052401
 30
0.0
 11
5402.6966676096
 21
5372.0742470403
 31
0.0
  0
LINE
  5
368
330
1F
100
AcDbEntity
  8
0
  6
Continuous
 62
     7
100
AcDbLine
 10
5402.6966676096
 20
5372.0742470403
 30
0.0
 11
5402.6774451117
 21
5372.0900720735
 31
0.0
  0
LINE
  5
369
330
1F
100
AcDbEntity
  8
0
  6
Continuous
 62
     7
100
AcDbLine
 10
5720.6774488072
 20
5527.2668308396
 30
0.0
 11
5720.6774488072
 21
5442.5241357465
 31
0.0
  0
LINE
  5
36A
330
1F
100
AcDbEntity
  8
0
  6
Continuous
 62
     7
100
AcDbLine
 10
5720.6774488072
 20
5112.0095557351
 30
0.0
 11
5720.6774488072
 21
5027.2668457408
 31
0.0
  0
LINE
  5
36B
330
1F
100
AcDbEntity
  8
0
  6
Continuous
 62
     7
100
AcDbLine
 10
5744.6774527411
 20
5027.2668457408
 30
0.0
 11
5744.6774527411
 21
5112.0095557351
 31
0.0
  0
LINE
  5
36C
330
1F
100
AcDbEntity
  8
0
  6
Continuous
 62
     7
100
AcDbLine
 10
5744.6774527411
 20
5442.5241357465
 30
0.0
 11
5744.6774527411
 21
5527.2668308396
 31
0.0
  0
LINE
  5
36D
330
1F
100
AcDbEntity
  8
0
  6
Continuous
 62
     7
100
AcDbLine
 10
5360.6774494032
 20
5527.2668308396
 30
0.0
 11
5360.6774494032
 21
5442.5241357465
 31
0.0
  0
LINE
  5
36E
330
1F
100
AcDbEntity
  8
0
  6
Continuous
 62
     7
100
AcDbLine
 10
5360.6774494032
 20
5112.0095557351
 30
0.0
 11
5360.6774494032
 21
5027.2668457408
 31
0.0
  0
LINE
  5
36F
330
1F
100
AcDbEntity
  8
0
  6
Continuous
 62
     7
100
AcDbLine
 10
5384.6774533371
 20
5027.2668457408
 30
0.0
 11
5384.6774533371
 21
5112.0095557351
 31
0.0
  0
LINE
  5
370
330
1F
100
AcDbEntity
  8
0
  6
Continuous
 62
     7
100
AcDbLine
 10
5384.6774533371
 20
5442.5241357465
 30
0.0
 11
5384.6774533371
 21
5527.2668308396
 31
0.0
  0
LINE
  5
371
330
1F
100
AcDbEntity
  8
0
  6
Continuous
 62
     7
100
AcDbLine
 10
5665.9597292523
 20
5067.6641023536
 30
0.0
 11
5655.9230223279
 21
5067.6641023536
 31
0.0
  0
LINE
  5
372
330
1F
100
AcDbEntity
  8
0
  6
Continuous
 62
     7
100
AcDbLine
 10
5622.9964405279
 20
5067.6641023536
 30
0.0
 11
5612.9597336034
 21
5067.6641023536
 31
0.0
  0
LINE
  5
373
330
1F
100
AcDbEntity
  8
0
  6
Continuous
 62
     7
100
AcDbLine
 10
5612.9597336034
 20
5063.2891065259
 30
0.0
 11
5612.4357603471
 21
5063.2891065259
 31
0.0
  0
LINE
  5
374
330
1F
100
AcDbEntity
  8
0
  6
Continuous
 62
     7
100
AcDbLine
 10
5526.1774513851
 20
5064.4641077895
 30
0.0
 11
5579.1774507592
 21
5064.4641077895
 31
0.0
  0
LINE
  5
375
330
1F
100
AcDbEntity
  8
0
  6
Continuous
 62
     7
100
AcDbLine
 10
5526.1774513851
 20
5068.8391036172
 30
0.0
 11
5526.0211866329
 21
5068.8391036172
 31
0.0
  0
LINE
  5
376
330
1F
100
AcDbEntity
  8
0
  6
Continuous
 62
     7
100
AcDbLine
 10
5559.7000321354
 20
5034.9641001601
 30
0.0
 11
5526.1774513851
 21
5034.9641001601
 31
0.0
  0
LINE
  5
377
330
1F
100
AcDbEntity
  8
0
  6
Continuous
 62
     7
100
AcDbLine
 10
5558.8387720267
 20
5039.6478480477
 30
0.0
 11
5529.4274510722
 21
5039.6478541716
 31
0.0
  0
LINE
  5
378
330
1F
100
AcDbEntity
  8
0
  6
Continuous
 62
     7
100
AcDbLine
 10
5532.6774515192
 20
5044.3315959353
 30
0.0
 11
5557.9775119181
 21
5044.3315959353
 31
0.0
  0
LINE
  5
379
330
1F
100
AcDbEntity
  8
0
  6
Continuous
 62
     7
100
AcDbLine
 10
5567.0764990131
 20
5044.9641055246
 30
0.0
 11
5572.6774506251
 21
5044.9641055246
 31
0.0
  0
LINE
  5
37A
330
1F
100
AcDbEntity
  8
0
  6
Continuous
 62
     7
100
AcDbLine
 10
5617.9597362856
 20
5044.9641055246
 30
0.0
 11
5631.9627299885
 21
5044.9641055246
 31
0.0
  0
LINE
  5
37B
330
1F
100
AcDbEntity
  8
0
  6
Continuous
 62
     7
100
AcDbLine
 10
5645.1572984437
 20
5043.6243570228
 30
0.0
 11
5660.9597340207
 21
5043.6243570228
 31
0.0
  0
LINE
  5
37C
330
1F
100
AcDbEntity
  8
0
  6
Continuous
 62
     7
100
AcDbLine
 10
5665.9597292523
 20
5034.9641001601
 30
0.0
 11
5646.4823171477
 21
5034.9641001601
 31
0.0
  0
LINE
  5
37D
330
1F
100
AcDbEntity
  8
0
  6
Continuous
 62
     7
100
AcDbLine
 10
5663.4597326768
 20
5039.2942326918
 30
0.0
 11
5645.8198040704
 21
5039.2942285914
 31
0.0
  0
LINE
  5
37E
330
1F
100
AcDbEntity
  8
0
  6
Continuous
 62
     7
100
AcDbLine
 10
5701.6774550061
 20
5182.2668469329
 30
0.0
 11
5701.6774550061
 21
5371.2668425222
 31
0.0
  0
LINE
  5
37F
330
1F
100
AcDbEntity
  8
0
  6
Continuous
 62
     7
100
AcDbLine
 10
5403.6774471383
 20
5371.2668425222
 30
0.0
 11
5403.6774471383
 21
5182.2668469329
 31
0.0
  0
LINE
  5
380
330
1F
100
AcDbEntity
  8
0
  6
Continuous
 62
     7
100
AcDbLine
 10
5375.6774499993
 20
4458.1904376535
 30
0.0
 11
5374.6774479727
 21
4459.1904375846
 31
0.0
  0
LINE
  5
381
330
1F
100
AcDbEntity
  8
0
  6
Continuous
 62
     7
100
AcDbLine
 10
5370.6774547677
 20
4459.1904375846
 30
0.0
 11
5369.6774527411
 21
4458.1904376535
 31
0.0
  0
LINE
  5
382
330
1F
100
AcDbEntity
  8
0
  6
Continuous
 62
     7
100
AcDbLine
 10
5369.6774527411
 20
4458.1904376535
 30
0.0
 11
5369.6774527411
 21
4429.3106387047
 31
0.0
  0
LINE
  5
383
330
1F
100
AcDbEntity
  8
0
  6
Continuous
 62
     7
100
AcDbLine
 10
5369.6774527411
 20
4420.6106404452
 30
0.0
 11
5369.6774527411
 21
4404.6106378226
 31
0.0
  0
LINE
  5
384
330
1F
100
AcDbEntity
  8
0
  6
Continuous
 62
     7
100
AcDbLine
 10
5369.6774527411
 20
4402.6106374948
 30
0.0
 11
5369.6774527411
 21
4268.190443763
 31
0.0
  0
LINE
  5
385
330
1F
100
AcDbEntity
  8
0
  6
Continuous
 62
     7
100
AcDbLine
 10
5375.6774499993
 20
4268.190443763
 30
0.0
 11
5375.6774499993
 21
4402.6106374948
 31
0.0
  0
LINE
  5
386
330
1F
100
AcDbEntity
  8
0
  6
Continuous
 62
     7
100
AcDbLine
 10
5375.6774499993
 20
4404.6106378226
 30
0.0
 11
5375.6774499993
 21
4420.6106404452
 31
0.0
  0
LINE
  5
387
330
1F
100
AcDbEntity
  8
0
  6
Continuous
 62
     7
100
AcDbLine
 10
5375.6774499993
 20
4429.3106387047
 30
0.0
 11
5375.6774499993
 21
4458.1904376535
 31
0.0
  0
LINE
  5
388
330
1F
100
AcDbEntity
  8
0
  6
Continuous
 62
     7
100
AcDbLine
 10
5729.6774521451
 20
4458.1904376535
 30
0.0
 11
5729.6774521451
 21
4429.3106387047
 31
0.0
  0
LINE
  5
389
330
1F
100
AcDbEntity
  8
0
  6
Continuous
 62
     7
100
AcDbLine
 10
5729.6774521451
 20
4420.6106404452
 30
0.0
 11
5729.6774521451
 21
4404.6106378226
 31
0.0
  0
LINE
  5
38A
330
1F
100
AcDbEntity
  8
0
  6
Continuous
 62
     7
100
AcDbLine
 10
5729.6774521451
 20
4402.6106374948
 30
0.0
 11
5729.6774521451
 21
4268.190443763
 31
0.0
  0
LINE
  5
38B
330
1F
100
AcDbEntity
  8
0
  6
Continuous
 62
     7
100
AcDbLine
 10
5735.6774494032
 20
4268.190443763
 30
0.0
 11
5735.6774494032
 21
4402.6106374948
 31
0.0
  0
LINE
  5
38C
330
1F
100
AcDbEntity
  8
0
  6
Continuous
 62
     7
100
AcDbLine
 10
5735.6774494032
 20
4404.6106378226
 30
0.0
 11
5735.6774494032
 21
4420.6106404452
 31
0.0
  0
LINE
  5
38D
330
1F
100
AcDbEntity
  8
0
  6
Continuous
 62
     7
100
AcDbLine
 10
5735.6774494032
 20
4429.3106387047
 30
0.0
 11
5735.6774494032
 21
4458.1904376535
 31
0.0
  0
LINE
  5
38E
330
1F
100
AcDbEntity
  8
0
  6
Continuous
 62
     7
100
AcDbLine
 10
5735.6774494032
 20
4458.1904376535
 30
0.0
 11
5734.6774473767
 21
4459.1904375846
 31
0.0
  0
LINE
  5
38F
330
1F
100
AcDbEntity
  8
0
  6
Continuous
 62
     7
100
AcDbLine
 10
5730.6774541716
 20
4459.1904375846
 30
0.0
 11
5729.6774521451
 21
4458.1904376535
 31
0.0
  0
LINE
  5
390
330
1F
100
AcDbEntity
  8
0
  6
Continuous
 62
     7
100
AcDbLine
 10
5558.6774511243
 20
4413.6404360322
 30
0.0
 11
5558.6774511243
 21
4418.9904371886
 31
0.0
  0
LINE
  5
391
330
1F
100
AcDbEntity
  8
0
  6
Continuous
 62
     7
100
AcDbLine
 10
5546.67745102
 20
4418.9904371886
 30
0.0
 11
5546.67745102
 21
4413.6404360322
 31
0.0
  0
LINE
  5
392
330
1F
100
AcDbEntity
  8
0
  6
Continuous
 62
     7
100
AcDbLine
 10
5558.5274509135
 20
4405.6904392926
 30
0.0
 11
5558.5274509135
 21
4413.4904372184
 31
0.0
  0
LINE
  5
393
330
1F
100
AcDbEntity
  8
0
  6
Continuous
 62
     7
100
AcDbLine
 10
5546.8274512309
 20
4413.4904372184
 30
0.0
 11
5546.8274512309
 21
4405.6904392926
 31
0.0
  0
LINE
  5
394
330
1F
100
AcDbEntity
  8
0
  6
Continuous
 62
     7
100
AcDbLine
 10
5547.4274511429
 20
4399.8904379694
 30
0.0
 11
5547.4274511429
 21
4396.1904386668
 31
0.0
  0
LINE
  5
395
330
1F
100
AcDbEntity
  8
0
  6
Continuous
 62
     7
100
AcDbLine
 10
5557.9274510014
 20
4396.1904386668
 30
0.0
 11
5557.9274510014
 21
4399.8904379694
 31
0.0
  0
LINE
  5
396
330
1F
100
AcDbEntity
  8
0
  6
Continuous
 62
     7
100
AcDbLine
 10
5738.6774554829
 20
4422.610640773
 30
0.0
 11
5738.6774554829
 21
4424.1106400876
 31
0.0
  0
LINE
  5
397
330
1F
100
AcDbEntity
  8
0
  6
Continuous
 62
     7
100
AcDbLine
 10
5726.6774460654
 20
4424.1106400876
 30
0.0
 11
5726.6774460654
 21
4422.610640773
 31
0.0
  0
LINE
  5
398
330
1F
100
AcDbEntity
  8
0
  6
Continuous
 62
     7
100
AcDbLine
 10
5366.6774466614
 20
4424.1106400876
 30
0.0
 11
5366.6774466614
 21
4422.610640773
 31
0.0
  0
LINE
  5
399
330
1F
100
AcDbEntity
  8
0
  6
Continuous
 62
     7
100
AcDbLine
 10
5378.677456079
 20
4422.610640773
 30
0.0
 11
5378.677456079
 21
4424.1106400876
 31
0.0
  0
LINE
  5
39A
330
1F
100
AcDbEntity
  8
0
  6
Continuous
 62
     7
100
AcDbLine
 10
5719.6774467806
 20
4419.6106384186
 30
0.0
 11
5719.6774467806
 21
4405.6106398491
 31
0.0
  0
LINE
  5
39B
330
1F
100
AcDbEntity
  8
0
  6
Continuous
 62
     7
100
AcDbLine
 10
5720.6774488072
 20
4404.6106378226
 30
0.0
 11
5744.6774527411
 21
4404.6106378226
 31
0.0
  0
LINE
  5
39C
330
1F
100
AcDbEntity
  8
0
  6
Continuous
 62
     7
100
AcDbLine
 10
5745.6774547677
 20
4405.6106398491
 30
0.0
 11
5745.6774547677
 21
4419.6106384186
 31
0.0
  0
LINE
  5
39D
330
1F
100
AcDbEntity
  8
0
  6
Continuous
 62
     7
100
AcDbLine
 10
5744.6774527411
 20
4420.6106404452
 30
0.0
 11
5720.6774488072
 21
4420.6106404452
 31
0.0
  0
LINE
  5
39E
330
1F
100
AcDbEntity
  8
0
  6
Continuous
 62
     7
100
AcDbLine
 10
5720.6774488072
 20
4402.6106374948
 30
0.0
 11
5744.6774527411
 21
4402.6106374948
 31
0.0
  0
LINE
  5
39F
330
1F
100
AcDbEntity
  8
0
  6
Continuous
 62
     7
100
AcDbLine
 10
5717.6774576287
 20
4419.6106384186
 30
0.0
 11
5717.6774576287
 21
4405.6106398491
 31
0.0
  0
LINE
  5
3A0
330
1F
100
AcDbEntity
  8
0
  6
Continuous
 62
     7
100
AcDbLine
 10
5744.6774527411
 20
4422.610640773
 30
0.0
 11
5720.6774488072
 21
4422.610640773
 31
0.0
  0
LINE
  5
3A1
330
1F
100
AcDbEntity
  8
0
  6
Continuous
 62
     7
100
AcDbLine
 10
5747.6774439196
 20
4405.6106398491
 30
0.0
 11
5747.6774439196
 21
4419.6106384186
 31
0.0
  0
LINE
  5
3A2
330
1F
100
AcDbEntity
  8
0
  6
Continuous
 62
     7
100
AcDbLine
 10
5359.6774473767
 20
4419.6106384186
 30
0.0
 11
5359.6774473767
 21
4405.6106398491
 31
0.0
  0
LINE
  5
3A3
330
1F
100
AcDbEntity
  8
0
  6
Continuous
 62
     7
100
AcDbLine
 10
5360.6774494032
 20
4404.6106378226
 30
0.0
 11
5384.6774533371
 21
4404.6106378226
 31
0.0
  0
LINE
  5
3A4
330
1F
100
AcDbEntity
  8
0
  6
Continuous
 62
     7
100
AcDbLine
 10
5385.6774553637
 20
4405.6106398491
 30
0.0
 11
5385.6774553637
 21
4419.6106384186
 31
0.0
  0
LINE
  5
3A5
330
1F
100
AcDbEntity
  8
0
  6
Continuous
 62
     7
100
AcDbLine
 10
5384.6774533371
 20
4420.6106404452
 30
0.0
 11
5360.6774494032
 21
4420.6106404452
 31
0.0
  0
LINE
  5
3A6
330
1F
100
AcDbEntity
  8
0
  6
Continuous
 62
     7
100
AcDbLine
 10
5360.6774494032
 20
4402.6106374948
 30
0.0
 11
5384.6774533371
 21
4402.6106374948
 31
0.0
  0
LINE
  5
3A7
330
1F
100
AcDbEntity
  8
0
  6
Continuous
 62
     7
100
AcDbLine
 10
5357.6774582247
 20
4419.6106384186
 30
0.0
 11
5357.6774582247
 21
4405.6106398491
 31
0.0
  0
LINE
  5
3A8
330
1F
100
AcDbEntity
  8
0
  6
Continuous
 62
     7
100
AcDbLine
 10
5384.6774533371
 20
4422.610640773
 30
0.0
 11
5360.6774494032
 21
4422.610640773
 31
0.0
  0
LINE
  5
3A9
330
1F
100
AcDbEntity
  8
0
  6
Continuous
 62
     7
100
AcDbLine
 10
5387.6774445157
 20
4405.6106398491
 30
0.0
 11
5387.6774445157
 21
4419.6106384186
 31
0.0
  0
LINE
  5
3AA
330
1F
100
AcDbEntity
  8
0
  6
Continuous
 62
     7
100
AcDbLine
 10
5375.6774499993
 20
4458.1904376535
 30
0.0
 11
5369.6774527411
 21
4458.1904376535
 31
0.0
  0
LINE
  5
3AB
330
1F
100
AcDbEntity
  8
0
  6
Continuous
 62
     7
100
AcDbLine
 10
5370.6774547677
 20
4459.1904375846
 30
0.0
 11
5374.6774479727
 21
4459.1904375846
 31
0.0
  0
LINE
  5
3AC
330
1F
100
AcDbEntity
  8
0
  6
Continuous
 62
     7
100
AcDbLine
 10
5735.6774494032
 20
4458.1904376535
 30
0.0
 11
5729.6774521451
 21
4458.1904376535
 31
0.0
  0
LINE
  5
3AD
330
1F
100
AcDbEntity
  8
0
  6
Continuous
 62
     7
100
AcDbLine
 10
5730.6774541716
 20
4459.1904375846
 30
0.0
 11
5734.6774473767
 21
4459.1904375846
 31
0.0
  0
LINE
  5
3AE
330
1F
100
AcDbEntity
  8
0
  6
Continuous
 62
     7
100
AcDbLine
 10
5738.3940502982
 20
4252.6106389849
 30
0.0
 11
5738.3940502982
 21
4267.6904352991
 31
0.0
  0
LINE
  5
3AF
330
1F
100
AcDbEntity
  8
0
  6
Continuous
 62
     7
100
AcDbLine
 10
5734.8354443888
 20
4252.6106389849
 30
0.0
 11
5734.8354443888
 21
4267.6904352991
 31
0.0
  0
LINE
  5
3B0
330
1F
100
AcDbEntity
  8
0
  6
Continuous
 62
     7
100
AcDbLine
 10
5736.6147473435
 20
4268.190443763
 30
0.0
 11
5731.9771483521
 21
4268.190443763
 31
0.0
  0
LINE
  5
3B1
330
1F
100
AcDbEntity
  8
0
  6
Continuous
 62
     7
100
AcDbLine
 10
5729.1188523154
 20
4252.6106389849
 30
0.0
 11
5729.1188523154
 21
4267.6904352991
 31
0.0
  0
LINE
  5
3B2
330
1F
100
AcDbEntity
  8
0
  6
Continuous
 62
     7
100
AcDbLine
 10
5731.9771483521
 20
4268.190443763
 30
0.0
 11
5728.0398592333
 21
4268.190443763
 31
0.0
  0
LINE
  5
3B3
330
1F
100
AcDbEntity
  8
0
  6
Continuous
 62
     7
100
AcDbLine
 10
5726.9608512501
 20
4252.6106389849
 30
0.0
 11
5726.9608512501
 21
4267.6904352991
 31
0.0
  0
LINE
  5
3B4
330
1F
100
AcDbEntity
  8
0
  6
Continuous
 62
     7
100
AcDbLine
 10
5737.6774534564
 20
4268.190443763
 30
0.0
 11
5736.6147473435
 21
4268.190443763
 31
0.0
  0
LINE
  5
3B5
330
1F
100
AcDbEntity
  8
0
  6
Continuous
 62
     7
100
AcDbLine
 10
5728.0398592333
 20
4268.190443763
 30
0.0
 11
5727.6774480919
 21
4268.190443763
 31
0.0
  0
LINE
  5
3B6
330
1F
100
AcDbEntity
  8
0
  6
Continuous
 62
     7
100
AcDbLine
 10
5375.9235575776
 20
4252.6106389849
 30
0.0
 11
5375.9235575776
 21
4267.6904352991
 31
0.0
  0
LINE
  5
3B7
330
1F
100
AcDbEntity
  8
0
  6
Continuous
 62
     7
100
AcDbLine
 10
5370.1656445841
 20
4252.6106389849
 30
0.0
 11
5370.1656445841
 21
4267.6904352991
 31
0.0
  0
LINE
  5
3B8
330
1F
100
AcDbEntity
  8
0
  6
Continuous
 62
     7
100
AcDbLine
 10
5368.5425803046
 20
4268.190443763
 30
0.0
 11
5373.0445936303
 21
4268.190443763
 31
0.0
  0
LINE
  5
3B9
330
1F
100
AcDbEntity
  8
0
  6
Continuous
 62
     7
100
AcDbLine
 10
5377.1794572453
 20
4268.190443763
 30
0.0
 11
5373.0445936303
 21
4268.190443763
 31
0.0
  0
LINE
  5
3BA
330
1F
100
AcDbEntity
  8
0
  6
Continuous
 62
     7
100
AcDbLine
 10
5366.9195309262
 20
4252.6106389849
 30
0.0
 11
5366.9195309262
 21
4267.6904352991
 31
0.0
  0
LINE
  5
3BB
330
1F
100
AcDbEntity
  8
0
  6
Continuous
 62
     7
100
AcDbLine
 10
5378.4353718142
 20
4252.6106389849
 30
0.0
 11
5378.4353718142
 21
4267.6904352991
 31
0.0
  0
LINE
  5
3BC
330
1F
100
AcDbEntity
  8
0
  6
Continuous
 62
     7
100
AcDbLine
 10
5367.1242430787
 20
4267.8355726091
 30
0.0
 11
5366.9195309262
 21
4267.6904352991
 31
0.0
  0
LINE
  5
3BD
330
1F
100
AcDbEntity
  8
0
  6
Continuous
 62
     7
100
AcDbLine
 10
5368.5425803046
 20
4268.190443763
 30
0.0
 11
5367.677448688
 21
4268.190443763
 31
0.0
  0
LINE
  5
3BE
330
1F
100
AcDbEntity
  8
0
  6
Continuous
 62
     7
100
AcDbLine
 10
5377.6774540524
 20
4268.190443763
 30
0.0
 11
5377.1794572453
 21
4268.190443763
 31
0.0
  0
LINE
  5
3BF
330
1F
100
AcDbEntity
  8
0
  6
Continuous
 62
     7
100
AcDbLine
 10
5548.6477822046
 20
4420.4904365031
 30
0.0
 11
5548.5930409263
 21
4420.492757359
 31
0.0
  0
LINE
  5
3C0
330
1F
100
AcDbEntity
  8
0
  6
Continuous
 62
     7
100
AcDbLine
 10
5548.5930409263
 20
4420.492757359
 30
0.0
 11
5547.9666529204
 21
4420.5260800807
 31
0.0
  0
LINE
  5
3C1
330
1F
100
AcDbEntity
  8
0
  6
Continuous
 62
     7
100
AcDbLine
 10
5547.9666529204
 20
4420.5260800807
 30
0.0
 11
5547.6896435934
 21
4420.5567578463
 31
0.0
  0
LINE
  5
3C2
330
1F
100
AcDbEntity
  8
0
  6
Continuous
 62
     7
100
AcDbLine
 10
5547.6896435934
 20
4420.5567578463
 30
0.0
 11
5547.7825569901
 21
4420.5825182287
 31
0.0
  0
LINE
  5
3C3
330
1F
100
AcDbEntity
  8
0
  6
Continuous
 62
     7
100
AcDbLine
 10
5547.7825569901
 20
4420.5825182287
 30
0.0
 11
5548.2385022546
 21
4420.6014464287
 31
0.0
  0
LINE
  5
3C4
330
1F
100
AcDbEntity
  8
0
  6
Continuous
 62
     7
100
AcDbLine
 10
5548.2385022546
 20
4420.6014464287
 30
0.0
 11
5549.0236642285
 21
4420.6121454625
 31
0.0
  0
LINE
  5
3C5
330
1F
100
AcDbEntity
  8
0
  6
Continuous
 62
     7
100
AcDbLine
 10
5549.0236642285
 20
4420.6121454625
 30
0.0
 11
5550.0798105708
 21
4420.6138143925
 31
0.0
  0
LINE
  5
3C6
330
1F
100
AcDbEntity
  8
0
  6
Continuous
 62
     7
100
AcDbLine
 10
5550.0798105708
 20
4420.6138143925
 30
0.0
 11
5551.32861228
 21
4420.6063340096
 31
0.0
  0
LINE
  5
3C7
330
1F
100
AcDbEntity
  8
0
  6
Continuous
 62
     7
100
AcDbLine
 10
5551.32861228
 20
4420.6063340096
 30
0.0
 11
5552.6774510722
 21
4420.590259382
 31
0.0
  0
LINE
  5
3C8
330
1F
100
AcDbEntity
  8
0
  6
Continuous
 62
     7
100
AcDbLine
 10
5560.1774499732
 20
4420.4904365031
 30
0.0
 11
5545.1774512398
 21
4420.4904365031
 31
0.0
  0
LINE
  5
3C9
330
1F
100
AcDbEntity
  8
0
  6
Continuous
 62
     7
100
AcDbLine
 10
5558.5274509135
 20
4403.3904376118
 30
0.0
 11
5558.1774510424
 21
4403.3904376118
 31
0.0
  0
LINE
  5
3CA
330
1F
100
AcDbEntity
  8
0
  6
Continuous
 62
     7
100
AcDbLine
 10
5557.1535377744
 20
4403.3904376118
 30
0.0
 11
5553.7013644566
 21
4403.3904376118
 31
0.0
  0
LINE
  5
3CB
330
1F
100
AcDbEntity
  8
0
  6
Continuous
 62
     7
100
AcDbLine
 10
5551.6535376878
 20
4403.3904376118
 30
0.0
 11
5548.20136437
 21
4403.3904376118
 31
0.0
  0
LINE
  5
3CC
330
1F
100
AcDbEntity
  8
0
  6
Continuous
 62
     7
100
AcDbLine
 10
5547.177451102
 20
4403.3904376118
 30
0.0
 11
5546.8274512309
 21
4403.3904376118
 31
0.0
  0
LINE
  5
3CD
330
1F
100
AcDbEntity
  8
0
  6
Continuous
 62
     7
100
AcDbLine
 10
5558.5274509135
 20
4405.6904392926
 30
0.0
 11
5546.8274512309
 21
4405.6904392926
 31
0.0
  0
LINE
  5
3CE
330
1F
100
AcDbEntity
  8
0
  6
Continuous
 62
     7
100
AcDbLine
 10
5558.1774510424
 20
4399.8904379694
 30
0.0
 11
5558.1774510424
 21
4403.3904376118
 31
0.0
  0
LINE
  5
3CF
330
1F
100
AcDbEntity
  8
0
  6
Continuous
 62
     7
100
AcDbLine
 10
5558.1774510424
 20
4399.8904379694
 30
0.0
 11
5552.6774510722
 21
4399.8904379694
 31
0.0
  0
LINE
  5
3D0
330
1F
100
AcDbEntity
  8
0
  6
Continuous
 62
     7
100
AcDbLine
 10
5552.6774510722
 20
4399.8904379694
 30
0.0
 11
5552.6774510722
 21
4403.3904376118
 31
0.0
  0
LINE
  5
3D1
330
1F
100
AcDbEntity
  8
0
  6
Continuous
 62
     7
100
AcDbLine
 10
5558.1774510424
 20
4403.3904376118
 30
0.0
 11
5557.1535377744
 21
4403.3904376118
 31
0.0
  0
LINE
  5
3D2
330
1F
100
AcDbEntity
  8
0
  6
Continuous
 62
     7
100
AcDbLine
 10
5553.7013644566
 20
4403.3904376118
 30
0.0
 11
5552.6774510722
 21
4403.3904376118
 31
0.0
  0
LINE
  5
3D3
330
1F
100
AcDbEntity
  8
0
  6
Continuous
 62
     7
100
AcDbLine
 10
5552.6774510722
 20
4399.8904379694
 30
0.0
 11
5547.177451102
 21
4399.8904379694
 31
0.0
  0
LINE
  5
3D4
330
1F
100
AcDbEntity
  8
0
  6
Continuous
 62
     7
100
AcDbLine
 10
5547.177451102
 20
4399.8904379694
 30
0.0
 11
5547.177451102
 21
4403.3904376118
 31
0.0
  0
LINE
  5
3D5
330
1F
100
AcDbEntity
  8
0
  6
Continuous
 62
     7
100
AcDbLine
 10
5548.20136437
 20
4403.3904376118
 30
0.0
 11
5547.177451102
 21
4403.3904376118
 31
0.0
  0
LINE
  5
3D6
330
1F
100
AcDbEntity
  8
0
  6
Continuous
 62
     7
100
AcDbLine
 10
5552.6774510722
 20
4403.3904376118
 30
0.0
 11
5551.6535376878
 21
4403.3904376118
 31
0.0
  0
LINE
  5
3D7
330
1F
100
AcDbEntity
  8
0
  6
Continuous
 62
     7
100
AcDbLine
 10
5558.5274509135
 20
4413.4904372184
 30
0.0
 11
5546.8274512309
 21
4413.4904372184
 31
0.0
  0
LINE
  5
3D8
330
1F
100
AcDbEntity
  8
0
  6
Continuous
 62
     7
100
AcDbLine
 10
5535.110623015
 20
4321.7646035044
 30
0.0
 11
5534.9871501307
 21
4322.1471461145
 31
0.0
  0
LINE
  5
3D9
330
1F
100
AcDbEntity
  8
0
  6
Continuous
 62
     7
100
AcDbLine
 10
5534.9871501307
 20
4322.1471461145
 30
0.0
 11
5534.517595915
 21
4322.8827270357
 31
0.0
  0
LINE
  5
3DA
330
1F
100
AcDbEntity
  8
0
  6
Continuous
 62
     7
100
AcDbLine
 10
5372.2047194819
 20
4428.8106395541
 30
0.0
 11
5372.2047194819
 21
4424.6106373755
 31
0.0
  0
LINE
  5
3DB
330
1F
100
AcDbEntity
  8
0
  6
Continuous
 62
     7
100
AcDbLine
 10
5377.4242982249
 20
4428.8106395541
 30
0.0
 11
5377.4242982249
 21
4424.6106373755
 31
0.0
  0
LINE
  5
3DC
330
1F
100
AcDbEntity
  8
0
  6
Continuous
 62
     7
100
AcDbLine
 10
5369.8312923293
 20
4429.3106387047
 30
0.0
 11
5374.8145088534
 21
4429.3106387047
 31
0.0
  0
LINE
  5
3DD
330
1F
100
AcDbEntity
  8
0
  6
Continuous
 62
     7
100
AcDbLine
 10
5367.4578800778
 20
4428.8106395541
 30
0.0
 11
5367.4578800778
 21
4424.6106373755
 31
0.0
  0
LINE
  5
3DE
330
1F
100
AcDbEntity
  8
0
  6
Continuous
 62
     7
100
AcDbLine
 10
5374.8145088534
 20
4429.3106387047
 30
0.0
 11
5377.6606604437
 21
4429.3106387047
 31
0.0
  0
LINE
  5
3DF
330
1F
100
AcDbEntity
  8
0
  6
Continuous
 62
     7
100
AcDbLine
 10
5367.677448688
 20
4429.3106387047
 30
0.0
 11
5369.8312923293
 21
4429.3106387047
 31
0.0
  0
LINE
  5
3E0
330
1F
100
AcDbEntity
  8
0
  6
Continuous
 62
     7
100
AcDbLine
 10
5377.6606604437
 20
4429.3106387047
 30
0.0
 11
5377.6942625622
 21
4429.2495178668
 31
0.0
  0
LINE
  5
3E1
330
1F
100
AcDbEntity
  8
0
  6
Continuous
 62
     7
100
AcDbLine
 10
5377.8970226626
 20
4428.8106395541
 30
0.0
 11
5377.8970226626
 21
4424.6106373755
 31
0.0
  0
LINE
  5
3E2
330
1F
100
AcDbEntity
  8
0
  6
Continuous
 62
     7
100
AcDbLine
 10
5377.8970226626
 20
4424.6106373755
 30
0.0
 11
5377.8232619147
 21
4424.3140595643
 31
0.0
  0
LINE
  5
3E3
330
1F
100
AcDbEntity
  8
0
  6
Continuous
 62
     7
100
AcDbLine
 10
5377.6606604437
 20
4429.3106387047
 30
0.0
 11
5377.6774540524
 21
4429.3106387047
 31
0.0
  0
LINE
  5
3E4
330
1F
100
AcDbEntity
  8
0
  6
Continuous
 62
     7
100
AcDbLine
 10
5732.2047188859
 20
4428.8106395541
 30
0.0
 11
5732.2047188859
 21
4424.6106373755
 31
0.0
  0
LINE
  5
3E5
330
1F
100
AcDbEntity
  8
0
  6
Continuous
 62
     7
100
AcDbLine
 10
5737.4242976288
 20
4428.8106395541
 30
0.0
 11
5737.4242976288
 21
4424.6106373755
 31
0.0
  0
LINE
  5
3E6
330
1F
100
AcDbEntity
  8
0
  6
Continuous
 62
     7
100
AcDbLine
 10
5729.8312917332
 20
4429.3106387047
 30
0.0
 11
5734.8145082573
 21
4429.3106387047
 31
0.0
  0
LINE
  5
3E7
330
1F
100
AcDbEntity
  8
0
  6
Continuous
 62
     7
100
AcDbLine
 10
5727.4578794817
 20
4428.8106395541
 30
0.0
 11
5727.4578794817
 21
4424.6106373755
 31
0.0
  0
LINE
  5
3E8
330
1F
100
AcDbEntity
  8
0
  6
Continuous
 62
     7
100
AcDbLine
 10
5734.8145082573
 20
4429.3106387047
 30
0.0
 11
5737.6606598477
 21
4429.3106387047
 31
0.0
  0
LINE
  5
3E9
330
1F
100
AcDbEntity
  8
0
  6
Continuous
 62
     7
100
AcDbLine
 10
5727.6774480919
 20
4429.3106387047
 30
0.0
 11
5729.8312917332
 21
4429.3106387047
 31
0.0
  0
LINE
  5
3EA
330
1F
100
AcDbEntity
  8
0
  6
Continuous
 62
     7
100
AcDbLine
 10
5737.6606598477
 20
4429.3106387047
 30
0.0
 11
5737.6942619662
 21
4429.2495178668
 31
0.0
  0
LINE
  5
3EB
330
1F
100
AcDbEntity
  8
0
  6
Continuous
 62
     7
100
AcDbLine
 10
5737.8970220665
 20
4428.8106395541
 30
0.0
 11
5737.8970220665
 21
4424.6106373755
 31
0.0
  0
LINE
  5
3EC
330
1F
100
AcDbEntity
  8
0
  6
Continuous
 62
     7
100
AcDbLine
 10
5737.8970220665
 20
4424.6106373755
 30
0.0
 11
5737.8232613186
 21
4424.3140595643
 31
0.0
  0
LINE
  5
3ED
330
1F
100
AcDbEntity
  8
0
  6
Continuous
 62
     7
100
AcDbLine
 10
5737.6606598477
 20
4429.3106387047
 30
0.0
 11
5737.6774534564
 21
4429.3106387047
 31
0.0
  0
LINE
  5
3EE
330
1F
100
AcDbEntity
  8
0
  6
Continuous
 62
     7
100
AcDbLine
 10
5575.1106239836
 20
4321.7646035044
 30
0.0
 11
5574.9871492366
 21
4322.1471461145
 31
0.0
  0
LINE
  5
3EF
330
1F
100
AcDbEntity
  8
0
  6
Continuous
 62
     7
100
AcDbLine
 10
5574.9871492366
 20
4322.1471461145
 30
0.0
 11
5574.5175968836
 21
4322.8827270357
 31
0.0
  0
LINE
  5
3F0
330
1F
100
AcDbEntity
  8
0
  6
Continuous
 62
     7
100
AcDbLine
 10
5532.1866538356
 20
4390.6417864053
 30
0.0
 11
5532.1221075933
 21
4390.6279730288
 31
0.0
  0
LINE
  5
3F1
330
1F
100
AcDbEntity
  8
0
  6
Continuous
 62
     7
100
AcDbLine
 10
5532.1221075933
 20
4390.6279730288
 30
0.0
 11
5531.872965766
 21
4390.5574607341
 31
0.0
  0
LINE
  5
3F2
330
1F
100
AcDbEntity
  8
0
  6
Continuous
 62
     7
100
AcDbLine
 10
5575.1106239836
 20
4388.7646051733
 30
0.0
 11
5574.9871492366
 21
4389.1471477835
 31
0.0
  0
LINE
  5
3F3
330
1F
100
AcDbEntity
  8
0
  6
Continuous
 62
     7
100
AcDbLine
 10
5574.9871492366
 20
4389.1471477835
 30
0.0
 11
5574.5175968836
 21
4389.8827361552
 31
0.0
  0
LINE
  5
3F4
330
1F
100
AcDbEntity
  8
0
  6
Continuous
 62
     7
100
AcDbLine
 10
5738.2227912526
 20
4424.1106400876
 30
0.0
 11
5738.6774554829
 21
4424.1106400876
 31
0.0
  0
LINE
  5
3F5
330
1F
100
AcDbEntity
  8
0
  6
Continuous
 62
     7
100
AcDbLine
 10
5726.6774460654
 20
4424.1106400876
 30
0.0
 11
5738.2227912526
 21
4424.1106400876
 31
0.0
  0
LINE
  5
3F6
330
1F
100
AcDbEntity
  8
0
  6
Continuous
 62
     7
100
AcDbLine
 10
5378.2227918486
 20
4424.1106400876
 30
0.0
 11
5366.6774466614
 21
4424.1106400876
 31
0.0
  0
LINE
  5
3F7
330
1F
100
AcDbEntity
  8
0
  6
Continuous
 62
     7
100
AcDbLine
 10
5378.677456079
 20
4424.1106400876
 30
0.0
 11
5378.2227918486
 21
4424.1106400876
 31
0.0
  0
LINE
  5
3F8
330
1F
100
AcDbEntity
  8
0
  6
Continuous
 62
     7
100
AcDbLine
 10
5525.1774512212
 20
4311.190441498
 30
0.0
 11
5580.1774509232
 21
4311.190441498
 31
0.0
  0
LINE
  5
3F9
330
1F
100
AcDbEntity
  8
0
  6
Continuous
 62
     7
100
AcDbLine
 10
5525.1774512212
 20
4396.1904386668
 30
0.0
 11
5525.1774512212
 21
4311.190441498
 31
0.0
  0
LINE
  5
3FA
330
1F
100
AcDbEntity
  8
0
  6
Continuous
 62
     7
100
AcDbLine
 10
5580.1774509232
 20
4311.190441498
 30
0.0
 11
5580.1774509232
 21
4396.1904386668
 31
0.0
  0
LINE
  5
3FB
330
1F
100
AcDbEntity
  8
0
  6
Continuous
 62
     7
100
AcDbLine
 10
5580.1774509232
 20
4396.1904386668
 30
0.0
 11
5525.1774512212
 21
4396.1904386668
 31
0.0
  0
LINE
  5
3FC
330
1F
100
AcDbEntity
  8
0
  6
Continuous
 62
     7
100
AcDbLine
 10
5570.1477531324
 20
4319.6803035824
 30
0.0
 11
5570.5561306308
 21
4319.0691175549
 31
0.0
  0
LINE
  5
3FD
330
1F
100
AcDbEntity
  8
0
  6
Continuous
 62
     7
100
AcDbLine
 10
5570.1477531324
 20
4386.6802978007
 30
0.0
 11
5570.5561306308
 21
4386.0691192238
 31
0.0
  0
LINE
  5
3FE
330
1F
100
AcDbEntity
  8
0
  6
Continuous
 62
     7
100
AcDbLine
 10
5343.1749030928
 20
4250.7312598316
 30
0.0
 11
5762.1799990515
 21
4250.7312598316
 31
0.0
  0
LINE
  5
3FF
330
1F
100
AcDbEntity
  8
0
  6
Continuous
 62
     7
100
AcDbLine
 10
5752.9487594943
 20
4247.3713609068
 30
0.0
 11
5762.1799990515
 21
4250.7312598316
 31
0.0
  0
LINE
  5
400
330
1F
100
AcDbEntity
  8
0
  6
Continuous
 62
     7
100
AcDbLine
 10
5752.9487594943
 20
4247.3713609068
 30
0.0
 11
5352.4061426501
 21
4247.3713609068
 31
0.0
  0
LINE
  5
401
330
1F
100
AcDbEntity
  8
0
  6
Continuous
 62
     7
100
AcDbLine
 10
5352.4061426501
 20
4247.3713609068
 30
0.0
 11
5343.1749030928
 21
4250.7312598316
 31
0.0
  0
LINE
  5
402
330
1F
100
AcDbEntity
  8
0
  6
Continuous
 62
     7
100
AcDbLine
 10
5343.1749030928
 20
4252.6106389849
 30
0.0
 11
5762.1799990515
 21
4252.6106389849
 31
0.0
  0
LINE
  5
403
330
1F
100
AcDbEntity
  8
0
  6
Continuous
 62
     7
100
AcDbLine
 10
5762.1799990515
 20
4250.7312598316
 30
0.0
 11
5762.1799990515
 21
4252.6106389849
 31
0.0
  0
LINE
  5
404
330
1F
100
AcDbEntity
  8
0
  6
Continuous
 62
     7
100
AcDbLine
 10
5343.1749030928
 20
4250.7312598316
 30
0.0
 11
5343.1749030928
 21
4252.6106389849
 31
0.0
  0
LINE
  5
405
330
1F
100
AcDbEntity
  8
0
  6
Continuous
 62
     7
100
AcDbLine
 10
5762.934742866
 20
4250.7312598316
 30
0.0
 11
5762.2507050614
 21
4252.6106389849
 31
0.0
  0
LINE
  5
406
330
1F
100
AcDbEntity
  8
0
  6
Continuous
 62
     7
100
AcDbLine
 10
5753.7035182099
 20
4247.3713609068
 30
0.0
 11
5753.6152288298
 21
4247.6139369099
 31
0.0
  0
LINE
  5
407
330
1F
100
AcDbEntity
  8
0
  6
Continuous
 62
     7
100
AcDbLine
 10
5762.1799990515
 20
4252.5849046795
 30
0.0
 11
5762.2507050614
 21
4252.6106389849
 31
0.0
  0
LINE
  5
408
330
1F
100
AcDbEntity
  8
0
  6
Continuous
 62
     7
100
AcDbLine
 10
5753.7035182099
 20
4247.3713609068
 30
0.0
 11
5762.934742866
 21
4250.7312598316
 31
0.0
  0
LINE
  5
409
330
1F
100
AcDbEntity
  8
0
  6
Continuous
 62
     7
100
AcDbLine
 10
5351.6513839345
 20
4247.3713609068
 30
0.0
 11
5351.7396733145
 21
4247.6139369099
 31
0.0
  0
LINE
  5
40A
330
1F
100
AcDbEntity
  8
0
  6
Continuous
 62
     7
100
AcDbLine
 10
5342.4201592783
 20
4250.7312598316
 30
0.0
 11
5343.1041970829
 21
4252.6106389849
 31
0.0
  0
LINE
  5
40B
330
1F
100
AcDbEntity
  8
0
  6
Continuous
 62
     7
100
AcDbLine
 10
5343.1749030928
 20
4252.5849046795
 30
0.0
 11
5343.1041970829
 21
4252.6106389849
 31
0.0
  0
LINE
  5
40C
330
1F
100
AcDbEntity
  8
0
  6
Continuous
 62
     7
100
AcDbLine
 10
5351.6513839345
 20
4247.3713609068
 30
0.0
 11
5342.4201592783
 21
4250.7312598316
 31
0.0
  0
LINE
  5
40D
330
1F
100
AcDbEntity
  8
0
  6
Continuous
 62
     7
100
AcDbLine
 10
5752.6774540524
 20
4247.1904310076
 30
0.0
 11
5352.6774480919
 21
4247.1904310076
 31
0.0
  0
LINE
  5
40E
330
1F
100
AcDbEntity
  8
0
  6
Continuous
 62
     7
100
AcDbLine
 10
5752.9487594943
 20
4247.3713609068
 30
0.0
 11
5752.6774540524
 21
4247.1904310076
 31
0.0
  0
LINE
  5
40F
330
1F
100
AcDbEntity
  8
0
  6
Continuous
 62
     7
100
AcDbLine
 10
5351.6513839345
 20
4247.3713609068
 30
0.0
 11
5352.6774480919
 21
4247.1904310076
 31
0.0
  0
LINE
  5
410
330
1F
100
AcDbEntity
  8
0
  6
Continuous
 62
     7
100
AcDbLine
 10
5705.1774538736
 20
4382.488191375
 30
0.0
 11
5704.1774518471
 21
4382.488191375
 31
0.0
  0
LINE
  5
411
330
1F
100
AcDbEntity
  8
0
  6
Continuous
 62
     7
100
AcDbLine
 10
5705.1774538736
 20
4252.6106389849
 30
0.0
 11
5705.1774538736
 21
4382.488191375
 31
0.0
  0
LINE
  5
412
330
1F
100
AcDbEntity
  8
0
  6
Continuous
 62
     7
100
AcDbLine
 10
5400.1774482708
 20
4382.488191375
 30
0.0
 11
5401.1774502974
 21
4382.488191375
 31
0.0
  0
LINE
  5
413
330
1F
100
AcDbEntity
  8
0
  6
Continuous
 62
     7
100
AcDbLine
 10
5400.1774482708
 20
4252.6106389849
 30
0.0
 11
5400.1774482708
 21
4382.488191375
 31
0.0
  0
LINE
  5
414
330
1F
100
AcDbEntity
  8
0
  6
Continuous
 62
     7
100
AcDbLine
 10
5400.1774482708
 20
4382.6273607699
 30
0.0
 11
5401.1774502974
 21
4382.6273607699
 31
0.0
  0
LINE
  5
415
330
1F
100
AcDbEntity
  8
0
  6
Continuous
 62
     7
100
AcDbLine
 10
5400.1774482708
 20
4382.488191375
 30
0.0
 11
5400.1774482708
 21
4382.6273607699
 31
0.0
  0
LINE
  5
416
330
1F
100
AcDbEntity
  8
0
  6
Continuous
 62
     7
100
AcDbLine
 10
5705.1774538736
 20
4382.6273607699
 30
0.0
 11
5704.1774518471
 21
4382.6273607699
 31
0.0
  0
LINE
  5
417
330
1F
100
AcDbEntity
  8
0
  6
Continuous
 62
     7
100
AcDbLine
 10
5705.1774538736
 20
4382.488191375
 30
0.0
 11
5705.1774538736
 21
4382.6273607699
 31
0.0
  0
LINE
  5
418
330
1F
100
AcDbEntity
  8
0
  6
Continuous
 62
     7
100
AcDbLine
 10
5400.1774482708
 20
4470.6197271733
 30
0.0
 11
5401.1774502974
 21
4470.6197271733
 31
0.0
  0
LINE
  5
419
330
1F
100
AcDbEntity
  8
0
  6
Continuous
 62
     7
100
AcDbLine
 10
5400.1774482708
 20
4382.6273607699
 30
0.0
 11
5400.1774482708
 21
4470.6197271733
 31
0.0
  0
LINE
  5
41A
330
1F
100
AcDbEntity
  8
0
  6
Continuous
 62
     7
100
AcDbLine
 10
5401.1774502974
 20
4468.19043743
 30
0.0
 11
5401.1774502974
 21
4470.6197271733
 31
0.0
  0
LINE
  5
41B
330
1F
100
AcDbEntity
  8
0
  6
Continuous
 62
     7
100
AcDbLine
 10
5705.1774538736
 20
4470.6197271733
 30
0.0
 11
5704.1774518471
 21
4470.6197271733
 31
0.0
  0
LINE
  5
41C
330
1F
100
AcDbEntity
  8
0
  6
Continuous
 62
     7
100
AcDbLine
 10
5705.1774538736
 20
4382.6273607699
 30
0.0
 11
5705.1774538736
 21
4470.6197271733
 31
0.0
  0
LINE
  5
41D
330
1F
100
AcDbEntity
  8
0
  6
Continuous
 62
     7
100
AcDbLine
 10
5704.1774518471
 20
4468.19043743
 30
0.0
 11
5704.1774518471
 21
4470.6197271733
 31
0.0
  0
LINE
  5
41E
330
1F
100
AcDbEntity
  8
0
  6
Continuous
 62
     7
100
AcDbLine
 10
5401.2481555323
 20
4470.6904386147
 30
0.0
 11
5403.6774510723
 21
4470.6904384134
 31
0.0
  0
LINE
  5
41F
330
1F
100
AcDbEntity
  8
0
  6
Continuous
 62
     7
100
AcDbLine
 10
5701.6774510723
 20
4470.6904384134
 30
0.0
 11
5704.106746612
 21
4470.6904386147
 31
0.0
  0
LINE
  5
420
330
1F
100
AcDbEntity
  8
0
  6
Continuous
 62
     7
100
AcDbLine
 10
5401.2481555323
 20
4471.6904387787
 30
0.0
 11
5401.2481555323
 21
4470.6904386147
 31
0.0
  0
LINE
  5
421
330
1F
100
AcDbEntity
  8
0
  6
Continuous
 62
     7
100
AcDbLine
 10
5704.106746612
 20
4471.6904387787
 30
0.0
 11
5704.106746612
 21
4470.6904386147
 31
0.0
  0
LINE
  5
422
330
1F
100
AcDbEntity
  8
0
  6
Continuous
 62
     7
100
AcDbLine
 10
5401.1774502974
 20
4468.19043743
 30
0.0
 11
5401.1774502974
 21
4252.6106389849
 31
0.0
  0
LINE
  5
423
330
1F
100
AcDbEntity
  8
0
  6
Continuous
 62
     7
100
AcDbLine
 10
5402.8542275124
 20
4468.1904376385
 30
0.0
 11
5401.1774502974
 21
4468.19043743
 31
0.0
  0
LINE
  5
424
330
1F
100
AcDbEntity
  8
0
  6
Continuous
 62
     7
100
AcDbLine
 10
5704.1774518471
 20
4252.6106389849
 30
0.0
 11
5704.1774518471
 21
4468.19043743
 31
0.0
  0
LINE
  5
425
330
1F
100
AcDbEntity
  8
0
  6
Continuous
 62
     7
100
AcDbLine
 10
5704.1774518471
 20
4468.19043743
 30
0.0
 11
5702.5006746322
 21
4468.1904376385
 31
0.0
  0
LINE
  5
426
330
1F
100
AcDbEntity
  8
0
  6
Continuous
 62
     7
100
AcDbLine
 10
5558.6774511243
 20
4418.9904371886
 30
0.0
 11
5546.67745102
 21
4418.9904371886
 31
0.0
  0
LINE
  5
427
330
1F
100
AcDbEntity
  8
0
  6
Continuous
 62
     7
100
AcDbLine
 10
5558.6774511243
 20
4413.6404360322
 30
0.0
 11
5546.67745102
 21
4413.6404360322
 31
0.0
  0
LINE
  5
428
330
1F
100
AcDbEntity
  8
0
  6
Continuous
 62
     7
100
AcDbLine
 10
5402.8542275124
 20
4468.1904376385
 30
0.0
 11
5521.3251319936
 21
4468.1904376385
 31
0.0
  0
LINE
  5
429
330
1F
100
AcDbEntity
  8
0
  6
Continuous
 62
     7
100
AcDbLine
 10
5535.539417222
 20
4468.1904376385
 30
0.0
 11
5702.5006746322
 21
4468.1904376385
 31
0.0
  0
LWPOLYLINE
  5
42A
330
1F
100
AcDbEntity
  8
0
  6
Continuous
 62
     7
100
AcDbPolyline
 90
        3
 70
   128
 43
0.0
 10
6217.5903320312
 20
5041.2637150664
 10
6215.6571021899
 20
5040.0865907254
 10
6214.7946492102
 20
5039.9659133334
  0
LWPOLYLINE
  5
42B
330
1F
100
AcDbEntity
  8
0
  6
Continuous
 62
     7
100
AcDbPolyline
 90
        3
 70
   128
 43
0.0
 10
6339.5614624023
 20
5394.2940390487
 10
6339.7445183401
 20
5394.1856717479
 10
6339.8882052194
 20
5394.1005325694
  0
LWPOLYLINE
  5
42C
330
1F
100
AcDbEntity
  8
0
  6
Continuous
 62
     7
100
AcDbPolyline
 90
        3
 70
   128
 43
0.0
 10
6395.5154418945
 20
5141.5669328351
 10
6395.6477412244
 20
5143.1965313412
 10
6396.0162451755
 20
5144.4252661247
  0
LWPOLYLINE
  5
42D
330
1F
100
AcDbEntity
  8
0
  6
Continuous
 62
     7
100
AcDbPolyline
 90
        3
 70
   128
 43
0.0
 10
6396.0151672363
 20
5138.7086069961
 10
6395.6007198207
 20
5140.2896163011
 10
6395.5162367117
 20
5141.5669328351
  0
LWPOLYLINE
  5
42E
330
1F
100
AcDbEntity
  8
0
  6
Continuous
 62
     7
100
AcDbPolyline
 90
        3
 70
   128
 43
0.0
 10
6396.0151672363
 20
5144.4252661247
 10
6395.6007190319
 20
5145.4093423992
 10
6395.5162367117
 20
5146.2043828149
  0
LWPOLYLINE
  5
42F
330
1F
100
AcDbEntity
  8
0
  6
Continuous
 62
     7
100
AcDbPolyline
 90
        3
 70
   128
 43
0.0
 10
6395.5154418945
 20
5137.6293978472
 10
6395.655120921
 20
5138.2481537424
 10
6396.0162451755
 20
5138.7086069961
  0
LWPOLYLINE
  5
430
330
1F
100
AcDbEntity
  8
0
  6
Continuous
 62
     7
100
AcDbPolyline
 90
        3
 70
   128
 43
0.0
 10
6395.5154418945
 20
5146.2043828149
 10
6395.6477400507
 20
5147.2186971488
 10
6396.0162451755
 20
5147.9834995051
  0
LWPOLYLINE
  5
431
330
1F
100
AcDbEntity
  8
0
  6
Continuous
 62
     7
100
AcDbPolyline
 90
        3
 70
   128
 43
0.0
 10
6396.0151672363
 20
5136.5501886983
 10
6395.5947199678
 20
5137.1432657062
 10
6395.5162367117
 20
5137.6293978472
  0
LWPOLYLINE
  5
432
330
1F
100
AcDbEntity
  8
0
  6
Continuous
 62
     7
100
AcDbPolyline
 90
        3
 70
   128
 43
0.0
 10
6395.6680297852
 20
5407.1719205756
 10
6395.7686763934
 20
5407.0226246949
 10
6396.0162451755
 20
5406.9118059058
  0
LWPOLYLINE
  5
433
330
1F
100
AcDbEntity
  8
0
  6
Continuous
 62
     7
100
AcDbPolyline
 90
        3
 70
   128
 43
0.0
 10
6395.5154418945
 20
5410.0915497918
 10
6395.6477392941
 20
5411.5734330106
 10
6396.0162451755
 20
5412.6907891412
  0
LWPOLYLINE
  5
434
330
1F
100
AcDbEntity
  8
0
  6
Continuous
 62
     7
100
AcDbPolyline
 90
        3
 70
   128
 43
0.0
 10
6396.0151672363
 20
5407.4923104425
 10
6395.6007206484
 20
5408.9300102532
 10
6395.5162367117
 20
5410.0915497918
  0
LWPOLYLINE
  5
435
330
1F
100
AcDbEntity
  8
0
  6
Continuous
 62
     7
100
AcDbPolyline
 90
        3
 70
   128
 43
0.0
 10
6396.0151672363
 20
5412.6907891412
 10
6395.5947220291
 20
5414.0027100114
 10
6395.5162367117
 20
5415.0780594726
  0
LWPOLYLINE
  5
436
330
1F
100
AcDbEntity
  8
0
  6
Continuous
 62
     7
100
AcDbPolyline
 90
        3
 70
   128
 43
0.0
 10
6395.5154418945
 20
5415.0780594726
 10
6395.65511841
 20
5416.4467699884
 10
6396.0162451755
 20
5417.4653149028
  0
LWPOLYLINE
  5
437
330
1F
100
AcDbEntity
  8
0
  6
Continuous
 62
     7
100
AcDbPolyline
 90
        3
 70
   128
 43
0.0
 10
6395.5154418945
 20
5407.2803414245
 10
6395.6477413129
 20
5407.4011945073
 10
6396.0162451755
 20
5407.4923104425
  0
LWPOLYLINE
  5
438
330
1F
100
AcDbEntity
  8
0
  6
Continuous
 62
     7
100
AcDbPolyline
 90
        3
 70
   128
 43
0.0
 10
6396.0151672363
 20
5417.4653149028
 10
6395.6319833148
 20
5417.3629932481
 10
6395.5346098434
 20
5417.2803914924
  0
LWPOLYLINE
  5
439
330
1F
100
AcDbEntity
  8
0
  6
Continuous
 62
     7
100
AcDbPolyline
 90
        3
 70
   128
 43
0.0
 10
6195.3773498535
 20
5063.2891065259
 10
6194.932347322
 20
5064.733225784
 10
6194.1770524051
 20
5065.1620334764
  0
LWPOLYLINE
  5
43A
330
1F
100
AcDbEntity
  8
0
  6
Continuous
 62
     7
100
AcDbPolyline
 90
        3
 70
   128
 43
0.0
 10
6232.5592041016
 20
5066.9661766667
 10
6233.9722573502
 20
5067.6434076113
 10
6234.3967294138
 20
5068.8391036172
  0
LWPOLYLINE
  5
43B
330
1F
100
AcDbEntity
  8
0
  6
Continuous
 62
     7
100
AcDbPolyline
 90
        3
 70
   128
 43
0.0
 10
6264.1487121582
 20
5068.8391036172
 10
6264.3512600032
 20
5067.3949831015
 10
6264.6654596817
 20
5066.9661766667
  0
LWPOLYLINE
  5
43C
330
1F
100
AcDbEntity
  8
0
  6
Continuous
 62
     7
100
AcDbPolyline
 90
        3
 70
   128
 43
0.0
 10
6198.4672546387
 20
5039.9641102929
 10
6194.2434408182
 20
5039.5343997964
 10
6191.9540999722
 20
5039.2942285915
  0
LWPOLYLINE
  5
43D
330
1F
100
AcDbEntity
  8
0
  6
Continuous
 62
     7
100
AcDbPolyline
 90
        3
 70
   128
 43
0.0
 10
6216.5260314941
 20
5039.6478480477
 10
6215.1200906227
 20
5039.8142836474
 10
6214.8342564967
 20
5039.9641102929
  0
LWPOLYLINE
  5
43E
330
1F
100
AcDbEntity
  8
0
  6
Continuous
 62
     7
100
AcDbPolyline
 90
        3
 70
   128
 43
0.0
 10
6194.3626403809
 20
5043.6243570228
 10
6197.5691786597
 20
5044.3758829015
 10
6201.6070931483
 20
5044.9641055246
  0
LWPOLYLINE
  5
43F
330
1F
100
AcDbEntity
  8
0
  6
Continuous
 62
     7
100
AcDbPolyline
 90
        3
 70
   128
 43
0.0
 10
6339.6263122559
 20
5398.4668410201
 10
6341.2159044307
 20
5398.8883680103
 10
6342.5162485134
 20
5398.966849484
  0
LWPOLYLINE
  5
440
330
1F
100
AcDbEntity
  8
0
  6
Continuous
 62
     7
100
AcDbPolyline
 90
        3
 70
   128
 43
0.0
 10
6338.1843566895
 20
5398.966849484
 10
6339.0090200189
 20
5398.8353450471
 10
6339.6294912588
 20
5398.4668410201
  0
LWPOLYLINE
  5
441
330
1F
100
AcDbEntity
  8
0
  6
Continuous
 62
     7
100
AcDbPolyline
 90
        3
 70
   128
 43
0.0
 10
6345.401763916
 20
5398.4668410201
 10
6346.2013552518
 20
5398.8823668333
 10
6346.8463769447
 20
5398.966849484
  0
LWPOLYLINE
  5
442
330
1F
100
AcDbEntity
  8
0
  6
Continuous
 62
     7
100
AcDbPolyline
 90
        3
 70
   128
 43
0.0
 10
6342.5140380859
 20
5398.966849484
 10
6344.1713424736
 20
5398.8279753609
 10
6345.4029908668
 20
5398.4668410201
  0
LWPOLYLINE
  5
443
330
1F
100
AcDbEntity
  8
0
  6
Continuous
 62
     7
100
AcDbPolyline
 90
        3
 70
   128
 43
0.0
 10
6346.8437194824
 20
5393.7668508668
 10
6346.0234755628
 20
5393.898341975
 10
6345.4029908668
 20
5394.2668444295
  0
LWPOLYLINE
  5
444
330
1F
100
AcDbEntity
  8
0
  6
Continuous
 62
     7
100
AcDbPolyline
 90
        3
 70
   128
 43
0.0
 10
6345.401763916
 20
5394.2668444295
 10
6343.8165863583
 20
5393.8453219757
 10
6342.5162485134
 20
5393.7668508668
  0
LWPOLYLINE
  5
445
330
1F
100
AcDbEntity
  8
0
  6
Continuous
 62
     7
100
AcDbPolyline
 90
        3
 70
   128
 43
0.0
 10
6342.5140380859
 20
5393.7668508668
 10
6340.8611498196
 20
5393.905723055
 10
6339.6294912588
 20
5394.2668444295
  0
LWPOLYLINE
  5
446
330
1F
100
AcDbEntity
  8
0
  6
Continuous
 62
     7
100
AcDbPolyline
 90
        3
 70
   128
 43
0.0
 10
6339.6263122559
 20
5394.2668444295
 10
6338.8311279413
 20
5393.8513176899
 10
6338.1861200821
 20
5393.7668508668
  0
LWPOLYLINE
  5
447
330
1F
100
AcDbEntity
  8
0
  6
Continuous
 62
     7
100
AcDbPolyline
 90
        3
 70
   128
 43
0.0
 10
6338.1843566895
 20
5393.7668508668
 10
6337.3632190155
 20
5393.8983418416
 10
6336.7427340042
 20
5394.2668444295
  0
LWPOLYLINE
  5
448
330
1F
100
AcDbEntity
  8
0
  6
Continuous
 62
     7
100
AcDbPolyline
 90
        3
 70
   128
 43
0.0
 10
6336.742401123
 20
5398.4668410201
 10
6337.5411107887
 20
5398.8823659659
 10
6338.1861200821
 20
5398.966849484
  0
LWPOLYLINE
  5
449
330
1F
100
AcDbEntity
  8
0
  6
Continuous
 62
     7
100
AcDbPolyline
 90
        3
 70
   128
 43
0.0
 10
6346.8437194824
 20
5398.966849484
 10
6347.6692765662
 20
5398.8353451805
 10
6348.2897481214
 20
5398.4668410201
  0
LWPOLYLINE
  5
44A
330
1F
100
AcDbEntity
  8
0
  6
Continuous
 62
     7
100
AcDbPolyline
 90
        3
 70
   128
 43
0.0
 10
6348.2894897461
 20
5394.2668444295
 10
6347.4913842713
 20
5393.8513175498
 10
6346.8463769447
 20
5393.7668508668
  0
LWPOLYLINE
  5
44B
330
1F
100
AcDbEntity
  8
0
  6
Continuous
 62
     7
100
AcDbPolyline
 90
        3
 70
   128
 43
0.0
 10
6239.5935058594
 20
5416.3777387519
 10
6239.4645469284
 20
5415.4408878294
 10
6239.0960430991
 20
5414.7344983001
  0
LWPOLYLINE
  5
44C
330
1F
100
AcDbEntity
  8
0
  6
Continuous
 62
     7
100
AcDbPolyline
 90
        3
 70
   128
 43
0.0
 10
6234.8937988281
 20
5414.7344983001
 10
6234.4805143394
 20
5415.6434134139
 10
6234.3960417699
 20
5416.3777387519
  0
LWPOLYLINE
  5
44D
330
1F
100
AcDbEntity
  8
0
  6
Continuous
 62
     7
100
AcDbPolyline
 90
        3
 70
   128
 43
0.0
 10
6234.3940734863
 20
5416.3777387519
 10
6234.5275348647
 20
5417.3145746699
 10
6234.8960409205
 20
5418.0209643026
  0
LWPOLYLINE
  5
44E
330
1F
100
AcDbEntity
  8
0
  6
Continuous
 62
     7
100
AcDbPolyline
 90
        3
 70
   128
 43
0.0
 10
6239.0937805176
 20
5418.0209643026
 10
6239.511564684
 20
5417.1120530757
 10
6239.5960403871
 20
5416.3777387519
  0
LWPOLYLINE
  5
44F
330
1F
100
AcDbEntity
  8
0
  6
Continuous
 62
     7
100
AcDbPolyline
 90
        3
 70
   128
 43
0.0
 10
6239.0937805176
 20
5414.7344983001
 10
6239.5175670534
 20
5413.1534156275
 10
6239.5960403871
 20
5411.8574417014
  0
LWPOLYLINE
  5
450
330
1F
100
AcDbEntity
  8
0
  6
Continuous
 62
     7
100
AcDbPolyline
 90
        3
 70
   128
 43
0.0
 10
6234.3940734863
 20
5411.8574417014
 10
6234.5349098718
 20
5413.5069794753
 10
6234.8960409205
 20
5414.7344983001
  0
LWPOLYLINE
  5
451
330
1F
100
AcDbEntity
  8
0
  6
Continuous
 62
     7
100
AcDbPolyline
 90
        3
 70
   128
 43
0.0
 10
6234.8937988281
 20
5408.9803851028
 10
6234.4745182406
 20
5410.5614672948
 10
6234.3960417699
 20
5411.8574417014
  0
LWPOLYLINE
  5
452
330
1F
100
AcDbEntity
  8
0
  6
Continuous
 62
     7
100
AcDbPolyline
 90
        3
 70
   128
 43
0.0
 10
6239.5935058594
 20
5411.8574417014
 10
6239.4571690249
 20
5410.2079028193
 10
6239.0960430991
 20
5408.9803851028
  0
LWPOLYLINE
  5
453
330
1F
100
AcDbEntity
  8
0
  6
Continuous
 62
     7
100
AcDbPolyline
 90
        3
 70
   128
 43
0.0
 10
6234.3940734863
 20
5407.7465540547
 10
6234.5275353052
 20
5408.4499898504
 10
6234.8960409205
 20
5408.9803851028
  0
LWPOLYLINE
  5
454
330
1F
100
AcDbEntity
  8
0
  6
Continuous
 62
     7
100
AcDbPolyline
 90
        3
 70
   128
 43
0.0
 10
6239.0937805176
 20
5408.9803851028
 10
6239.5115649916
 20
5408.2979298303
 10
6239.5960403871
 20
5407.7465540547
  0
LWPOLYLINE
  5
455
330
1F
100
AcDbEntity
  8
0
  6
Continuous
 62
     7
100
AcDbPolyline
 90
        3
 70
   128
 43
0.0
 10
6239.5935058594
 20
5407.7465540547
 10
6239.5212352511
 20
5407.170814082
 10
6239.2569942664
 20
5406.7357486863
  0
LWPOLYLINE
  5
456
330
1F
100
AcDbEntity
  8
0
  6
Continuous
 62
     7
100
AcDbPolyline
 90
        3
 70
   128
 43
0.0
 10
6234.7640991211
 20
5406.7363149305
 10
6234.4476029927
 20
5407.2950569365
 10
6234.3960417699
 20
5407.7465540547
  0
LWPOLYLINE
  5
457
330
1F
100
AcDbEntity
  8
0
  6
Continuous
 62
     7
100
AcDbPolyline
 90
        3
 70
   128
 43
0.0
 10
6239.5935058594
 20
5146.3777354736
 10
6239.4645465778
 20
5145.4408907852
 10
6239.0960430991
 20
5144.7345024724
  0
LWPOLYLINE
  5
458
330
1F
100
AcDbEntity
  8
0
  6
Continuous
 62
     7
100
AcDbPolyline
 90
        3
 70
   128
 43
0.0
 10
6234.8937988281
 20
5144.7345024724
 10
6234.4805147079
 20
5145.643416811
 10
6234.3960417699
 20
5146.3777354736
  0
LWPOLYLINE
  5
459
330
1F
100
AcDbEntity
  8
0
  6
Continuous
 62
     7
100
AcDbPolyline
 90
        3
 70
   128
 43
0.0
 10
6234.3940734863
 20
5146.3777354736
 10
6234.5275348647
 20
5147.3145713917
 10
6234.8960409205
 20
5148.0209610243
  0
LWPOLYLINE
  5
45A
330
1F
100
AcDbEntity
  8
0
  6
Continuous
 62
     7
100
AcDbPolyline
 90
        3
 70
   128
 43
0.0
 10
6239.0937805176
 20
5148.0209610243
 10
6239.5115652575
 20
5147.112055164
 10
6239.5960403871
 20
5146.3777354736
  0
LWPOLYLINE
  5
45B
330
1F
100
AcDbEntity
  8
0
  6
Continuous
 62
     7
100
AcDbPolyline
 90
        3
 70
   128
 43
0.0
 10
6239.0937805176
 20
5144.7345024724
 10
6239.5175670534
 20
5143.1534197998
 10
6239.5960403871
 20
5141.8574458737
  0
LWPOLYLINE
  5
45C
330
1F
100
AcDbEntity
  8
0
  6
Continuous
 62
     7
100
AcDbPolyline
 90
        3
 70
   128
 43
0.0
 10
6234.3940734863
 20
5141.8574458737
 10
6234.5349098718
 20
5143.5069836477
 10
6234.8960409205
 20
5144.7345024724
  0
LWPOLYLINE
  5
45D
330
1F
100
AcDbEntity
  8
0
  6
Continuous
 62
     7
100
AcDbPolyline
 90
        3
 70
   128
 43
0.0
 10
6234.8937988281
 20
5138.9803892751
 10
6234.4745166023
 20
5140.5614709144
 10
6234.3960417699
 20
5141.8574458737
  0
LWPOLYLINE
  5
45E
330
1F
100
AcDbEntity
  8
0
  6
Continuous
 62
     7
100
AcDbPolyline
 90
        3
 70
   128
 43
0.0
 10
6239.5935058594
 20
5141.8574458737
 10
6239.4571690249
 20
5140.2079069917
 10
6239.0960430991
 20
5138.9803892751
  0
LWPOLYLINE
  5
45F
330
1F
100
AcDbEntity
  8
0
  6
Continuous
 62
     7
100
AcDbPolyline
 90
        3
 70
   128
 43
0.0
 10
6239.0937805176
 20
5138.9803892751
 10
6239.511564561
 20
5138.2979275535
 10
6239.5960403871
 20
5137.7465582271
  0
LWPOLYLINE
  5
460
330
1F
100
AcDbEntity
  8
0
  6
Continuous
 62
     7
100
AcDbPolyline
 90
        3
 70
   128
 43
0.0
 10
6234.3940734863
 20
5137.7465582271
 10
6234.5275353052
 20
5138.4499940228
 10
6234.8960409205
 20
5138.9803892751
  0
LWPOLYLINE
  5
461
330
1F
100
AcDbEntity
  8
0
  6
Continuous
 62
     7
100
AcDbPolyline
 90
        3
 70
   128
 43
0.0
 10
6239.5935058594
 20
5137.7465582271
 10
6239.5212346284
 20
5137.1708197805
 10
6239.2569942664
 20
5136.7357454081
  0
LWPOLYLINE
  5
462
330
1F
100
AcDbEntity
  8
0
  6
Continuous
 62
     7
100
AcDbPolyline
 90
        3
 70
   128
 43
0.0
 10
6234.7640991211
 20
5136.7363116522
 10
6234.4476027589
 20
5137.2950544524
 10
6234.3960417699
 20
5137.7465582271
  0
LWPOLYLINE
  5
463
330
1F
100
AcDbEntity
  8
0
  6
Continuous
 62
     7
100
AcDbPolyline
 90
        3
 70
   128
 43
0.0
 10
6279.3617248535
 20
5393.7668508668
 10
6278.3146506922
 20
5393.89834122
 10
6277.5225466382
 20
5394.2668444295
  0
LWPOLYLINE
  5
464
330
1F
100
AcDbEntity
  8
0
  6
Continuous
 62
     7
100
AcDbPolyline
 90
        3
 70
   128
 43
0.0
 10
6277.5192260742
 20
5398.4668410201
 10
6278.5417438382
 20
5398.8823666915
 10
6279.3651720773
 20
5398.966849484
  0
LWPOLYLINE
  5
465
330
1F
100
AcDbEntity
  8
0
  6
Continuous
 62
     7
100
AcDbPolyline
 90
        3
 70
   128
 43
0.0
 10
6279.3617248535
 20
5398.966849484
 10
6280.4156871382
 20
5398.8353444921
 10
6281.2077900659
 20
5398.4668410201
  0
LWPOLYLINE
  5
466
330
1F
100
AcDbEntity
  8
0
  6
Continuous
 62
     7
100
AcDbPolyline
 90
        3
 70
   128
 43
0.0
 10
6281.2042236328
 20
5394.2668444295
 10
6280.1885943648
 20
5393.8513175976
 10
6279.3651720773
 20
5393.7668508668
  0
LWPOLYLINE
  5
467
330
1F
100
AcDbEntity
  8
0
  6
Continuous
 62
     7
100
AcDbPolyline
 90
        3
 70
   128
 43
0.0
 10
6274.6734619141
 20
5398.966849484
 10
6276.308374729
 20
5398.8279664166
 10
6277.5225466382
 20
5398.4668410201
  0
LWPOLYLINE
  5
468
330
1F
100
AcDbEntity
  8
0
  6
Continuous
 62
     7
100
AcDbPolyline
 90
        3
 70
   128
 43
0.0
 10
6277.5192260742
 20
5394.2668444295
 10
6275.9586572442
 20
5393.8453224405
 10
6274.6767750274
 20
5393.7668508668
  0
LWPOLYLINE
  5
469
330
1F
100
AcDbEntity
  8
0
  6
Continuous
 62
     7
100
AcDbPolyline
 90
        3
 70
   128
 43
0.0
 10
6271.8276977539
 20
5398.4668410201
 10
6273.3948904734
 20
5398.888365348
 10
6274.6767750274
 20
5398.966849484
  0
LWPOLYLINE
  5
46A
330
1F
100
AcDbEntity
  8
0
  6
Continuous
 62
     7
100
AcDbPolyline
 90
        3
 70
   128
 43
0.0
 10
6274.6734619141
 20
5393.7668508668
 10
6273.0451704397
 20
5393.9057217285
 10
6271.8309959661
 20
5394.2668444295
  0
LWPOLYLINE
  5
46B
330
1F
100
AcDbEntity
  8
0
  6
Continuous
 62
     7
100
AcDbPolyline
 90
        3
 70
   128
 43
0.0
 10
6270.824432373
 20
5398.966849484
 10
6271.3997648817
 20
5398.8353450961
 10
6271.8309959661
 20
5398.4668410201
  0
LWPOLYLINE
  5
46C
330
1F
100
AcDbEntity
  8
0
  6
Continuous
 62
     7
100
AcDbPolyline
 90
        3
 70
   128
 43
0.0
 10
6271.8276977539
 20
5394.2668444295
 10
6271.2761296456
 20
5393.851317687
 10
6270.8278497946
 20
5393.7668508668
  0
LWPOLYLINE
  5
46D
330
1F
100
AcDbEntity
  8
0
  6
Continuous
 62
     7
100
AcDbPolyline
 90
        3
 70
   128
 43
0.0
 10
6269.8211669922
 20
5398.4668410201
 10
6270.3795628394
 20
5398.8823665655
 10
6270.8278497946
 20
5398.966849484
  0
LWPOLYLINE
  5
46E
330
1F
100
AcDbEntity
  8
0
  6
Continuous
 62
     7
100
AcDbPolyline
 90
        3
 70
   128
 43
0.0
 10
6416.5153503418
 20
5432.2668469329
 10
6416.4584220349
 20
5432.849108392
 10
6416.3353195678
 20
5433.2929110904
  0
LWPOLYLINE
  5
46F
330
1F
100
AcDbEntity
  8
0
  6
Continuous
 62
     7
100
AcDbPolyline
 90
        3
 70
   128
 43
0.0
 10
6416.332244873
 20
5121.2407803912
 10
6416.4801333504
 20
5121.8077043637
 10
6416.5162494671
 20
5122.2668445487
  0
LWPOLYLINE
  5
470
330
1F
100
AcDbEntity
  8
0
  6
Continuous
 62
     7
100
AcDbPolyline
 90
        3
 70
   128
 43
0.0
 10
6283.9431762695
 20
5137.276575603
 10
6284.1215896152
 20
5135.7432199268
 10
6284.1547331106
 20
5135.2863094587
  0
LWPOLYLINE
  5
471
330
1F
100
AcDbEntity
  8
0
  6
Continuous
 62
     7
100
AcDbPolyline
 90
        3
 70
   128
 43
0.0
 10
6283.9431762695
 20
5137.276575603
 10
6284.0142250033
 20
5136.5071730354
 10
6284.0155637156
 20
5136.2765735765
  0
LWPOLYLINE
  5
472
330
1F
100
AcDbEntity
  8
0
  6
Continuous
 62
     7
100
AcDbPolyline
 90
        3
 70
   128
 43
0.0
 10
6193.0847167969
 20
5137.2668451448
 10
6193.4161814538
 20
5135.6904798524
 10
6194.0162427988
 20
5135.2668485422
  0
LWPOLYLINE
  5
473
330
1F
100
AcDbEntity
  8
0
  6
Continuous
 62
     7
100
AcDbPolyline
 90
        3
 70
   128
 43
0.0
 10
6283.8745117188
 20
5135.2668475464
 10
6283.8372321325
 20
5135.9930122694
 10
6283.8064631712
 20
5137.266844149
  0
LWPOLYLINE
  5
474
330
1F
100
AcDbEntity
  8
0
  6
Continuous
 62
     7
100
AcDbPolyline
 90
        3
 70
   128
 43
0.0
 10
6283.8745117188
 20
5136.2668431181
 10
6283.8372412929
 20
5136.6299305942
 10
6283.8064631712
 20
5137.266844149
  0
LWPOLYLINE
  5
475
330
1F
100
AcDbEntity
  8
0
  6
Continuous
 62
     7
100
AcDbPolyline
 90
        3
 70
   128
 43
0.0
 10
6193.115234375
 20
5136.8539637704
 10
6193.0344618761
 20
5137.0729368253
 10
6193.0162426349
 20
5137.2668451448
  0
LWPOLYLINE
  5
476
330
1F
100
AcDbEntity
  8
0
  6
Continuous
 62
     7
100
AcDbPolyline
 90
        3
 70
   128
 43
0.0
 10
6194.0155029297
 20
5135.2668485422
 10
6192.4995872383
 20
5135.9627905161
 10
6192.016242471
 20
5137.2668451448
  0
LWPOLYLINE
  5
477
330
1F
100
AcDbEntity
  8
0
  6
Continuous
 62
     7
100
AcDbPolyline
 90
        3
 70
   128
 43
0.0
 10
5615.4632568359
 20
5049.9544150014
 10
5615.9430465163
 20
5049.6781051098
 10
5616.3189992289
 20
5049.4610226531
  0
LWPOLYLINE
  5
478
330
1F
100
AcDbEntity
  8
0
  6
Continuous
 62
     7
100
AcDbPolyline
 90
        3
 70
   128
 43
0.0
 10
5615.4632568359
 20
5048.3669048925
 10
5615.9430526752
 20
5048.0906057609
 10
5616.3189992289
 20
5047.8735125442
  0
LWPOLYLINE
  5
479
330
1F
100
AcDbEntity
  8
0
  6
Continuous
 62
     7
100
AcDbPolyline
 90
        3
 70
   128
 43
0.0
 10
5615.4632568359
 20
5046.7794096847
 10
5615.9430526752
 20
5046.5031105532
 10
5616.3189992289
 20
5046.2860173364
  0
LWPOLYLINE
  5
47A
330
1F
100
AcDbEntity
  8
0
  6
Continuous
 62
     7
100
AcDbPolyline
 90
        3
 70
   128
 43
0.0
 10
5662.5938415527
 20
5050.2518868823
 10
5663.0767519054
 20
5050.5297982344
 10
5663.4548962097
 20
5050.7481551547
  0
LWPOLYLINE
  5
47B
330
1F
100
AcDbEntity
  8
0
  6
Continuous
 62
     7
100
AcDbPolyline
 90
        3
 70
   128
 43
0.0
 10
5662.5938415527
 20
5048.6643916745
 10
5663.0767519054
 20
5048.9423030266
 10
5663.4548962097
 20
5049.1606599469
  0
LWPOLYLINE
  5
47C
330
1F
100
AcDbEntity
  8
0
  6
Continuous
 62
     7
100
AcDbPolyline
 90
        3
 70
   128
 43
0.0
 10
5662.5938415527
 20
5047.0768815656
 10
5663.0767542904
 20
5047.3547971322
 10
5663.4548962097
 20
5047.5731647391
  0
LWPOLYLINE
  5
47D
330
1F
100
AcDbEntity
  8
0
  6
Continuous
 62
     7
100
AcDbPolyline
 90
        3
 70
   128
 43
0.0
 10
5616.3215637207
 20
5050.6587481876
 10
5615.84148881
 20
5050.3808366939
 10
5615.4633447508
 20
5050.1624799152
  0
LWPOLYLINE
  5
47E
330
1F
100
AcDbEntity
  8
0
  6
Continuous
 62
     7
100
AcDbPolyline
 90
        3
 70
   128
 43
0.0
 10
5616.3215637207
 20
5049.0712529798
 10
5615.841486425
 20
5048.7933372716
 10
5615.4633447508
 20
5048.5749698062
  0
LWPOLYLINE
  5
47F
330
1F
100
AcDbEntity
  8
0
  6
Continuous
 62
     7
100
AcDbPolyline
 90
        3
 70
   128
 43
0.0
 10
5616.3215637207
 20
5047.4837428708
 10
5615.84148881
 20
5047.2058313772
 10
5615.4633447508
 20
5046.9874745984
  0
LWPOLYLINE
  5
480
330
1F
100
AcDbEntity
  8
0
  6
Continuous
 62
     7
100
AcDbPolyline
 90
        3
 70
   128
 43
0.0
 10
5663.4559631348
 20
5049.3687248607
 10
5662.9769539549
 20
5049.6454217031
 10
5662.6004710774
 20
5049.8628324647
  0
LWPOLYLINE
  5
481
330
1F
100
AcDbEntity
  8
0
  6
Continuous
 62
     7
100
AcDbPolyline
 90
        3
 70
   128
 43
0.0
 10
5663.4559631348
 20
5047.7812296529
 10
5662.9769563509
 20
5048.0579222998
 10
5662.6004710774
 20
5048.2753223558
  0
LWPOLYLINE
  5
482
330
1F
100
AcDbEntity
  8
0
  6
Continuous
 62
     7
100
AcDbPolyline
 90
        3
 70
   128
 43
0.0
 10
5663.4559631348
 20
5046.1937195439
 10
5662.9769587259
 20
5046.4704246483
 10
5662.6004710774
 20
5046.687827148
  0
LWPOLYLINE
  5
483
330
1F
100
AcDbEntity
  8
0
  6
Continuous
 62
     7
100
AcDbPolyline
 90
        5
 70
   128
 43
0.0
 10
5665.7524108887
 20
5065.1620334764
 10
5665.7441041077
 20
5065.1719476649
 10
5665.7327113178
 20
5065.1710853928
 10
5665.6558689875
 20
5065.0181319392
 10
5665.4562935214
 20
5063.2891065259
  0
LWPOLYLINE
  5
484
330
1F
100
AcDbEntity
  8
0
  6
Continuous
 62
     7
100
AcDbPolyline
 90
        4
 70
   128
 43
0.0
 10
5655.7273864746
 20
5065.1620334764
 10
5655.1546173567
 20
5065.0181298499
 10
5654.6609672324
 20
5064.6157067425
 10
5654.2069151978
 20
5063.2891065259
  0
LWPOLYLINE
  5
485
330
1F
100
AcDbEntity
  8
0
  6
Continuous
 62
     7
100
AcDbPolyline
 90
        3
 70
   128
 43
0.0
 10
5619.743347168
 20
5063.2891065259
 10
5619.2960392286
 20
5064.733226986
 10
5618.5407474617
 20
5065.1620334764
  0
LWPOLYLINE
  5
486
330
1F
100
AcDbEntity
  8
0
  6
Continuous
 62
     7
100
AcDbPolyline
 90
        4
 70
   128
 43
0.0
 10
5529.9758911133
 20
5066.9661766667
 10
5530.3552216811
 20
5067.1100780233
 10
5530.6883871604
 20
5067.5125011898
 10
5531.0002978872
 20
5068.8391036172
  0
LWPOLYLINE
  5
487
330
1F
100
AcDbEntity
  8
0
  6
Continuous
 62
     7
100
AcDbPolyline
 90
        3
 70
   128
 43
0.0
 10
5546.2913513184
 20
5066.9661766667
 10
5547.7033917659
 20
5067.6434075204
 10
5548.127864858
 20
5068.8391036172
  0
LWPOLYLINE
  5
488
330
1F
100
AcDbEntity
  8
0
  6
Continuous
 62
     7
100
AcDbPolyline
 90
        3
 70
   128
 43
0.0
 10
5564.7048950195
 20
5068.8391036172
 10
5565.3105212241
 20
5067.3949827016
 10
5566.3487700726
 20
5066.9661766667
  0
LWPOLYLINE
  5
489
330
1F
100
AcDbEntity
  8
0
  6
Continuous
 62
     7
100
AcDbPolyline
 90
        3
 70
   128
 43
0.0
 10
5577.8770446777
 20
5068.8391036172
 10
5578.0823969188
 20
5067.3949826783
 10
5578.3965963851
 20
5066.9661766667
  0
LWPOLYLINE
  5
48A
330
1F
100
AcDbEntity
  8
0
  6
Continuous
 62
     7
100
AcDbPolyline
 90
        3
 70
   128
 43
0.0
 10
5656.192779541
 20
5084.56410531
 10
5656.0684122491
 20
5084.0904875571
 10
5655.7330325226
 20
5083.1261283536
  0
LWPOLYLINE
  5
48B
330
1F
100
AcDbEntity
  8
0
  6
Continuous
 62
     7
100
AcDbPolyline
 90
        3
 70
   128
 43
0.0
 10
5622.7264404297
 20
5084.56410531
 10
5622.8502837787
 20
5084.0941324505
 10
5623.1864377837
 20
5083.1261283536
  0
LWPOLYLINE
  5
48C
330
1F
100
AcDbEntity
  8
0
  6
Continuous
 62
     7
100
AcDbPolyline
 90
        3
 70
   128
 43
0.0
 10
5570.6748962402
 20
5039.9641102929
 10
5564.2256585459
 20
5039.784542725
 10
5558.8387720267
 20
5039.6478480477
  0
LWPOLYLINE
  5
48D
330
1F
100
AcDbEntity
  8
0
  6
Continuous
 62
     7
100
AcDbPolyline
 90
        3
 70
   128
 43
0.0
 10
5645.8168029785
 20
5039.2942285914
 10
5637.1473361963
 20
5039.6480701101
 10
5630.2192419748
 20
5039.9641102929
  0
LWPOLYLINE
  5
48E
330
1F
100
AcDbEntity
  8
0
  6
Continuous
 62
     7
100
AcDbPolyline
 90
        3
 70
   128
 43
0.0
 10
5557.975769043
 20
5044.3315959353
 10
5563.4402458468
 20
5044.6784302803
 10
5567.0764990131
 20
5044.9641055246
  0
LWPOLYLINE
  5
48F
330
1F
100
AcDbEntity
  8
0
  6
Continuous
 62
     7
100
AcDbPolyline
 90
       10
 70
   128
 43
0.0
 10
5663.4292602539
 20
5050.7481253524
 10
5663.4714264706
 20
5050.7419452326
 10
5663.4780658275
 20
5050.7384433991
 10
5663.4779067535
 20
5050.7372723806
 10
5663.3920889435
 20
5050.7231057231
 10
5661.4512546652
 20
5050.6481335987
 10
5639.2179321229
 20
5050.3538697857
 10
5617.2615275116
 20
5050.0564825407
 10
5615.6440329856
 20
5049.9843601144
 10
5615.56971669
 20
5049.9593621869
  0
LWPOLYLINE
  5
490
330
1F
100
AcDbEntity
  8
0
  6
Continuous
 62
     7
100
AcDbPolyline
 90
       10
 70
   128
 43
0.0
 10
5663.4292602539
 20
5049.1606152434
 10
5663.4714264699
 20
5049.1544353216
 10
5663.4780658257
 20
5049.1509338752
 10
5663.4779067512
 20
5049.1497630261
 10
5663.3920889319
 20
5049.1355996368
 10
5661.4512546069
 20
5049.060639794
 10
5639.2179320431
 20
5048.7663747584
 10
5617.261527504
 20
5048.4689873565
 10
5615.6440329857
 20
5048.3968648738
 10
5615.56971669
 20
5048.3718669791
  0
LWPOLYLINE
  5
491
330
1F
100
AcDbEntity
  8
0
  6
Continuous
 62
     7
100
AcDbPolyline
 90
       10
 70
   128
 43
0.0
 10
5663.4292602539
 20
5047.5731200357
 10
5663.4714264709
 20
5047.5669398436
 10
5663.4780658285
 20
5047.5634378752
 10
5663.4779067548
 20
5047.5622667996
 10
5663.3920889494
 20
5047.5480992273
 10
5661.4512546039
 20
5047.4731408563
 10
5639.2179321329
 20
5047.1788633899
 10
5617.2615275104
 20
5046.8814772898
 10
5615.644032968
 20
5046.8093662811
 10
5615.56971669
 20
5046.7843568702
  0
LWPOLYLINE
  5
492
330
1F
100
AcDbEntity
  8
0
  6
Continuous
 62
     7
100
AcDbPolyline
 90
        7
 70
   128
 43
0.0
 10
5663.3911132812
 20
5045.9906763215
 10
5663.4468087918
 20
5045.9841415115
 10
5663.4549777339
 20
5045.9813617566
 10
5663.4552169134
 20
5045.9808967367
 10
5663.4551570324
 20
5045.9804312565
 10
5663.4535990429
 20
5045.9791878236
 10
5663.3315518479
 20
5045.9641075511
  0
LWPOLYLINE
  5
493
330
1F
100
AcDbEntity
  8
0
  6
Continuous
 62
     7
100
AcDbPolyline
 90
        3
 70
   128
 43
0.0
 10
5663.4101867676
 20
5050.9517497201
 10
5634.9628291651
 20
5050.5061185664
 10
5615.471354125
 20
5050.1579946656
  0
LWPOLYLINE
  5
494
330
1F
100
AcDbEntity
  8
0
  6
Continuous
 62
     7
100
AcDbPolyline
 90
        3
 70
   128
 43
0.0
 10
5663.4101867676
 20
5049.3642545123
 10
5634.9628290751
 20
5048.9186240571
 10
5615.471354125
 20
5048.5704845567
  0
LWPOLYLINE
  5
495
330
1F
100
AcDbEntity
  8
0
  6
Continuous
 62
     7
100
AcDbPolyline
 90
        3
 70
   128
 43
0.0
 10
5663.4101867676
 20
5047.7767593045
 10
5634.9628290937
 20
5047.3311267537
 10
5615.471354125
 20
5046.9829893489
  0
LWPOLYLINE
  5
496
330
1F
100
AcDbEntity
  8
0
  6
Continuous
 62
     7
100
AcDbPolyline
 90
        3
 70
   128
 43
0.0
 10
5663.4101867676
 20
5046.1892491956
 10
5660.5432914708
 20
5046.0624791667
 10
5654.5880645494
 20
5045.9641075511
  0
LWPOLYLINE
  5
497
330
1F
100
AcDbEntity
  8
0
  6
Continuous
 62
     7
100
AcDbPolyline
 90
        3
 70
   128
 43
0.0
 10
5618.7286376953
 20
5051.1641061683
 10
5616.7947962786
 20
5051.101308418
 10
5616.328714786
 20
5051.0508126397
  0
LWPOLYLINE
  5
498
330
1F
100
AcDbEntity
  8
0
  6
Continuous
 62
     7
100
AcDbPolyline
 90
        9
 70
   128
 43
0.0
 10
5662.5747680664
 20
5050.2517825742
 10
5662.6128316973
 20
5050.2455762805
 10
5662.6170553313
 20
5050.2438219163
 10
5662.6186666649
 20
5050.2420639659
 10
5662.6183231021
 20
5050.2408901166
 10
5662.5333066311
 20
5050.2267113167
 10
5660.6553278532
 20
5050.151819598
 10
5639.2077837884
 20
5049.8575714642
 10
5616.328714786
 20
5049.4633025308
  0
LWPOLYLINE
  5
499
330
1F
100
AcDbEntity
  8
0
  6
Continuous
 62
     7
100
AcDbPolyline
 90
        9
 70
   128
 43
0.0
 10
5662.5747680664
 20
5048.6642873664
 10
5662.6128316984
 20
5048.6580807813
 10
5662.6170553333
 20
5048.6563261804
 10
5662.6186666679
 20
5048.654567932
 10
5662.6183231059
 20
5048.6533938524
 10
5662.5333066502
 20
5048.6392108373
 10
5660.6553278583
 20
5048.5643207377
 10
5639.2077839672
 20
5048.2700601128
 10
5616.328714786
 20
5047.875807323
  0
LWPOLYLINE
  5
49A
330
1F
100
AcDbEntity
  8
0
  6
Continuous
 62
     7
100
AcDbPolyline
 90
        9
 70
   128
 43
0.0
 10
5662.5747680664
 20
5047.0767772575
 10
5662.6128317315
 20
5047.0706135753
 10
5662.6170553726
 20
5047.0688682709
 10
5662.6186667123
 20
5047.0671181599
 10
5662.618323153
 20
5047.0659488856
 10
5662.5333066983
 20
5047.051790404
 10
5660.6553278539
 20
5046.976800585
 10
5639.2077838727
 20
5046.6825659932
 10
5616.328714786
 20
5046.2883121152
  0
LWPOLYLINE
  5
49B
330
1F
100
AcDbEntity
  8
0
  6
Continuous
 62
     7
100
AcDbPolyline
 90
        3
 70
   128
 43
0.0
 10
5649.6162414551
 20
5051.1641061683
 10
5625.0941741527
 20
5050.8820252534
 10
5616.3744837026
 20
5050.6585395713
  0
LWPOLYLINE
  5
49C
330
1F
100
AcDbEntity
  8
0
  6
Continuous
 62
     7
100
AcDbPolyline
 90
       11
 70
   128
 43
0.0
 10
5662.5328063965
 20
5049.8600757499
 10
5662.6052641589
 20
5049.8496162348
 10
5662.6090309051
 20
5049.8478607862
 10
5662.610378829
 20
5049.8461017708
 10
5662.6099621173
 20
5049.844927222
 10
5662.6085130675
 20
5049.8437512528
 10
5662.6025862637
 20
5049.8413953164
 10
5662.5679664599
 20
5049.8350903408
 10
5660.833476237
 20
5049.760007848
 10
5639.6574842326
 20
5049.4656864732
 10
5616.3744837026
 20
5049.0710443635
  0
LWPOLYLINE
  5
49D
330
1F
100
AcDbEntity
  8
0
  6
Continuous
 62
     7
100
AcDbPolyline
 90
       11
 70
   128
 43
0.0
 10
5662.5328063965
 20
5048.2725656409
 10
5662.6052641706
 20
5048.2621265706
 10
5662.6090309173
 20
5048.260373543
 10
5662.6103788414
 20
5048.2586166499
 10
5662.6099621298
 20
5048.2574433567
 10
5662.6085130798
 20
5048.25626852
 10
5662.6025862755
 20
5048.2539144951
 10
5662.5679664687
 20
5048.247612521
 10
5660.8334761648
 20
5048.1725102775
 10
5639.6574843131
 20
5047.8781763189
 10
5616.3744837026
 20
5047.4835491557
  0
LWPOLYLINE
  5
49E
330
1F
100
AcDbEntity
  8
0
  6
Continuous
 62
     7
100
AcDbPolyline
 90
        9
 70
   128
 43
0.0
 10
5662.5328063965
 20
5046.6850704332
 10
5662.6074134095
 20
5046.6737735629
 10
5662.6102303085
 20
5046.6716373872
 10
5662.6103733572
 20
5046.6708348669
 10
5662.6100267657
 20
5046.6700315888
 10
5662.5979713898
 20
5046.6651972772
 10
5662.2881289536
 20
5046.6391700798
 10
5656.9598868285
 20
5046.5053320928
 10
5617.2914415578
 20
5045.9641075511
  0
LINE
  5
49F
330
1F
100
AcDbEntity
  8
0
  6
Continuous
 62
     7
100
AcDbLine
 10
5617.2904968262
 20
5045.9641075511
 30
0.0
 11
5654.5880645494
 21
5045.9641075511
 31
0.0
  0
LINE
  5
4A0
330
1F
100
AcDbEntity
  8
0
  6
Continuous
 62
     7
100
AcDbLine
 10
5617.2914415578
 20
5045.9641075511
 30
0.0
 11
5616.3060493099
 21
5045.9641075511
 31
0.0
  0
LWPOLYLINE
  5
4A1
330
1F
100
AcDbEntity
  8
0
  6
Continuous
 62
     7
100
AcDbPolyline
 90
        3
 70
   128
 43
0.0
 10
5631.9618225098
 20
5044.9641055246
 10
5639.3118603074
 20
5044.121690784
 10
5645.1572984437
 20
5043.6243570228
  0
LWPOLYLINE
  5
4A2
330
1F
100
AcDbEntity
  8
0
  6
Continuous
 62
     7
100
AcDbPolyline
 90
        3
 70
   128
 43
0.0
 10
5352.6763916016
 20
5432.2668469329
 10
5352.5255709603
 20
5432.849108392
 10
5352.4061426501
 20
5433.2929110904
  0
LWPOLYLINE
  5
4A3
330
1F
100
AcDbEntity
  8
0
  6
Continuous
 62
     7
100
AcDbPolyline
 90
        3
 70
   128
 43
0.0
 10
5752.6741027832
 20
5432.2668469329
 10
5753.2597155115
 20
5432.4187240646
 10
5753.7035182099
 20
5432.5381523748
  0
LWPOLYLINE
  5
4A4
330
1F
100
AcDbEntity
  8
0
  6
Continuous
 62
     7
100
AcDbPolyline
 90
        3
 70
   128
 43
0.0
 10
5753.7002563477
 20
5121.9955391069
 10
5753.1365942374
 20
5122.1474127503
 10
5752.6774540524
 20
5122.2668445487
  0
LWPOLYLINE
  5
4A5
330
1F
100
AcDbEntity
  8
0
  6
Continuous
 62
     7
100
AcDbPolyline
 90
        3
 70
   128
 43
0.0
 10
5352.4055480957
 20
5121.2407803912
 10
5352.5580162935
 20
5121.8077043637
 10
5352.6774480919
 20
5122.2668445487
  0
LWPOLYLINE
  5
4A6
330
1F
100
AcDbEntity
  8
0
  6
Continuous
 62
     7
100
AcDbPolyline
 90
        3
 70
   128
 43
0.0
 10
5736.6142272949
 20
4268.190443763
 10
5737.6291637214
 20
4268.058938034
 10
5738.3940502982
 20
4267.6904352991
  0
LWPOLYLINE
  5
4A7
330
1F
100
AcDbEntity
  8
0
  6
Continuous
 62
     7
100
AcDbPolyline
 90
        3
 70
   128
 43
0.0
 10
5734.8327636719
 20
4267.6904352991
 10
5735.8196201197
 20
4268.1059602398
 10
5736.6147473435
 20
4268.190443763
  0
LWPOLYLINE
  5
4A8
330
1F
100
AcDbEntity
  8
0
  6
Continuous
 62
     7
100
AcDbPolyline
 90
        3
 70
   128
 43
0.0
 10
5731.9755554199
 20
4268.190443763
 10
5733.6159336329
 20
4268.0515725547
 10
5734.8354443888
 20
4267.6904352991
  0
LWPOLYLINE
  5
4A9
330
1F
100
AcDbEntity
  8
0
  6
Continuous
 62
     7
100
AcDbPolyline
 90
        3
 70
   128
 43
0.0
 10
5729.118347168
 20
4267.6904352991
 10
5730.689624899
 20
4268.1119583346
 10
5731.9771483521
 20
4268.190443763
  0
LWPOLYLINE
  5
4AA
330
1F
100
AcDbEntity
  8
0
  6
Continuous
 62
     7
100
AcDbPolyline
 90
        3
 70
   128
 43
0.0
 10
5728.0387878418
 20
4268.190443763
 10
5728.6550217051
 20
4268.0589407508
 10
5729.1188523154
 20
4267.6904352991
  0
LWPOLYLINE
  5
4AB
330
1F
100
AcDbEntity
  8
0
  6
Continuous
 62
     7
100
AcDbPolyline
 90
        3
 70
   128
 43
0.0
 10
5726.9592285156
 20
4267.6904352991
 10
5727.5576735996
 20
4268.1059595719
 10
5728.0398592333
 20
4268.190443763
  0
LWPOLYLINE
  5
4AC
330
1F
100
AcDbEntity
  8
0
  6
Continuous
 62
     7
100
AcDbPolyline
 90
        3
 70
   128
 43
0.0
 10
5373.0430603027
 20
4268.190443763
 10
5374.6859532363
 20
4268.0589391617
 10
5375.9235575776
 20
4267.6904352991
  0
LWPOLYLINE
  5
4AD
330
1F
100
AcDbEntity
  8
0
  6
Continuous
 62
     7
100
AcDbPolyline
 90
        3
 70
   128
 43
0.0
 10
5370.1629638672
 20
4267.6904352991
 10
5371.7580611854
 20
4268.1059600359
 10
5373.0445936303
 20
4268.190443763
  0
LWPOLYLINE
  5
4AE
330
1F
100
AcDbEntity
  8
0
  6
Continuous
 62
     7
100
AcDbPolyline
 90
        3
 70
   128
 43
0.0
 10
5368.5417175293
 20
4268.190443763
 10
5369.4731562168
 20
4268.0515620647
 10
5370.1656445841
 20
4267.6904352991
  0
LWPOLYLINE
  5
4AF
330
1F
100
AcDbEntity
  8
0
  6
Continuous
 62
     7
100
AcDbPolyline
 90
        3
 70
   128
 43
0.0
 10
5375.9231567383
 20
4267.6904352991
 10
5376.6182309982
 20
4268.1059598262
 10
5377.1794572453
 20
4268.190443763
  0
LWPOLYLINE
  5
4B0
330
1F
100
AcDbEntity
  8
0
  6
Continuous
 62
     7
100
AcDbPolyline
 90
        3
 70
   128
 43
0.0
 10
5366.9166564941
 20
4267.6904352991
 10
5367.8114772875
 20
4268.1119584456
 10
5368.5425803046
 20
4268.190443763
  0
LWPOLYLINE
  5
4B1
330
1F
100
AcDbEntity
  8
0
  6
Continuous
 62
     7
100
AcDbPolyline
 90
        3
 70
   128
 43
0.0
 10
5377.1781921387
 20
4268.190443763
 10
5377.7784438522
 20
4268.1102616724
 10
5378.2309278826
 20
4267.8353937952
  0
LWPOLYLINE
  5
4B2
330
1F
100
AcDbEntity
  8
0
  6
Continuous
 62
     7
100
AcDbPolyline
 90
        3
 70
   128
 43
0.0
 10
5537.6739501953
 20
4321.1904423568
 10
5537.6774496353
 20
4322.845540569
 10
5537.6774496353
 20
4324.0771996114
  0
LWPOLYLINE
  5
4B3
330
1F
100
AcDbEntity
  8
0
  6
Continuous
 62
     7
100
AcDbPolyline
 90
        3
 70
   128
 43
0.0
 10
5537.6739501953
 20
4324.0771996114
 10
5536.2946379047
 20
4324.8755610658
 10
5535.177446314
 20
4325.5205657453
  0
LWPOLYLINE
  5
4B4
330
1F
100
AcDbEntity
  8
0
  6
Continuous
 62
     7
100
AcDbPolyline
 90
        3
 70
   128
 43
0.0
 10
5527.6756286621
 20
4318.3036896078
 10
5529.0602687637
 20
4317.5053286331
 10
5530.1774555471
 20
4316.8603096952
  0
LWPOLYLINE
  5
4B5
330
1F
100
AcDbEntity
  8
0
  6
Continuous
 62
     7
100
AcDbPolyline
 90
        3
 70
   128
 43
0.0
 10
5527.6756286621
 20
4321.1904319612
 10
5527.6774525091
 20
4319.535338001
 10
5527.6774525091
 20
4318.3036896078
  0
LWPOLYLINE
  5
4B6
330
1F
100
AcDbEntity
  8
0
  6
Continuous
 62
     7
100
AcDbPolyline
 90
        3
 70
   128
 43
0.0
 10
5535.1753234863
 20
4325.5205657453
 10
5533.752140166
 20
4326.3434677614
 10
5532.6774485369
 20
4326.96395477
  0
LWPOLYLINE
  5
4B7
330
1F
100
AcDbEntity
  8
0
  6
Continuous
 62
     7
100
AcDbPolyline
 90
        3
 70
   128
 43
0.0
 10
5532.6766967773
 20
4326.96395477
 10
5531.2946420659
 20
4326.165574695
 10
5530.1774506305
 20
4325.5205627432
  0
LWPOLYLINE
  5
4B8
330
1F
100
AcDbEntity
  8
0
  6
Continuous
 62
     7
100
AcDbPolyline
 90
        3
 70
   128
 43
0.0
 10
5530.1742553711
 20
4316.8603096952
 10
5531.602759599
 20
4316.0374100738
 10
5532.6774568882
 20
4315.4169385185
  0
LWPOLYLINE
  5
4B9
330
1F
100
AcDbEntity
  8
0
  6
Continuous
 62
     7
100
AcDbPolyline
 90
        3
 70
   128
 43
0.0
 10
5532.6766967773
 20
4315.4169385185
 10
5534.0602650356
 20
4316.2153052503
 10
5535.1774539243
 20
4316.8603139255
  0
LWPOLYLINE
  5
4BA
330
1F
100
AcDbEntity
  8
0
  6
Continuous
 62
     7
100
AcDbPolyline
 90
        3
 70
   128
 43
0.0
 10
5530.1742553711
 20
4325.5205627432
 10
5528.7521486006
 20
4324.6976614662
 10
5527.6774525091
 20
4324.0771892158
  0
LWPOLYLINE
  5
4BB
330
1F
100
AcDbEntity
  8
0
  6
Continuous
 62
     7
100
AcDbPolyline
 90
        3
 70
   128
 43
0.0
 10
5527.6756286621
 20
4324.0771892158
 10
5527.6774525091
 20
4322.4907760439
 10
5527.6774525091
 20
4321.1904319612
  0
LWPOLYLINE
  5
4BC
330
1F
100
AcDbEntity
  8
0
  6
Continuous
 62
     7
100
AcDbPolyline
 90
        3
 70
   128
 43
0.0
 10
5535.1753234863
 20
4316.8603139255
 10
5536.6027613875
 20
4317.6832144963
 10
5537.6774543341
 20
4318.3037000034
  0
LWPOLYLINE
  5
4BD
330
1F
100
AcDbEntity
  8
0
  6
Continuous
 62
     7
100
AcDbPolyline
 90
        3
 70
   128
 43
0.0
 10
5537.6739501953
 20
4318.3037000034
 10
5537.6774517519
 20
4319.8901050073
 10
5537.6774496353
 20
4321.1904423568
  0
LWPOLYLINE
  5
4BE
330
1F
100
AcDbEntity
  8
0
  6
Continuous
 62
     7
100
AcDbPolyline
 90
        3
 70
   128
 43
0.0
 10
5374.813079834
 20
4424.1106400876
 10
5373.3266113557
 20
4424.2421336752
 10
5372.2047194819
 20
4424.6106373755
  0
LWPOLYLINE
  5
4BF
330
1F
100
AcDbEntity
  8
0
  6
Continuous
 62
     7
100
AcDbPolyline
 90
        3
 70
   128
 43
0.0
 10
5372.2038269043
 20
4428.8106395541
 10
5373.648256816
 20
4429.2261669353
 10
5374.8145088534
 20
4429.3106387047
  0
LWPOLYLINE
  5
4C0
330
1F
100
AcDbEntity
  8
0
  6
Continuous
 62
     7
100
AcDbPolyline
 90
        3
 70
   128
 43
0.0
 10
5374.813079834
 20
4429.3106387047
 10
5376.3024066534
 20
4429.1791451695
 10
5377.4242982249
 20
4428.8106395541
  0
LWPOLYLINE
  5
4C1
330
1F
100
AcDbEntity
  8
0
  6
Continuous
 62
     7
100
AcDbPolyline
 90
        3
 70
   128
 43
0.0
 10
5377.4223327637
 20
4424.6106373755
 10
5375.9807573541
 20
4424.1951154831
 10
5374.8145088534
 20
4424.1106400876
  0
LWPOLYLINE
  5
4C2
330
1F
100
AcDbEntity
  8
0
  6
Continuous
 62
     7
100
AcDbPolyline
 90
        3
 70
   128
 43
0.0
 10
5369.8310852051
 20
4429.3106387047
 10
5371.1844378679
 20
4429.17914561
 10
5372.2047194819
 20
4428.8106395541
  0
LWPOLYLINE
  5
4C3
330
1F
100
AcDbEntity
  8
0
  6
Continuous
 62
     7
100
AcDbPolyline
 90
        3
 70
   128
 43
0.0
 10
5372.2038269043
 20
4424.6106373755
 10
5370.8919216231
 20
4424.1951157906
 10
5369.8312923293
 20
4424.1106400876
  0
LWPOLYLINE
  5
4C4
330
1F
100
AcDbEntity
  8
0
  6
Continuous
 62
     7
100
AcDbPolyline
 90
        3
 70
   128
 43
0.0
 10
5369.8310852051
 20
4424.1106400876
 10
5368.47816021
 20
4424.2421335462
 10
5367.4578800778
 20
4424.6106373755
  0
LWPOLYLINE
  5
4C5
330
1F
100
AcDbEntity
  8
0
  6
Continuous
 62
     7
100
AcDbPolyline
 90
        3
 70
   128
 43
0.0
 10
5367.4545288086
 20
4428.8106395541
 10
5368.7706718591
 20
4429.2261661352
 10
5369.8312923293
 20
4429.3106387047
  0
LWPOLYLINE
  5
4C6
330
1F
100
AcDbEntity
  8
0
  6
Continuous
 62
     7
100
AcDbPolyline
 90
        3
 70
   128
 43
0.0
 10
5377.4223327637
 20
4428.8106395541
 10
5377.5541954203
 20
4429.2321655106
 10
5377.6606604437
 20
4429.3106387047
  0
LWPOLYLINE
  5
4C7
330
1F
100
AcDbEntity
  8
0
  6
Continuous
 62
     7
100
AcDbPolyline
 90
        3
 70
   128
 43
0.0
 10
5377.6588439941
 20
4424.1106400876
 10
5377.5251487771
 20
4424.2495114497
 10
5377.4242982249
 20
4424.6106373755
  0
LWPOLYLINE
  5
4C8
330
1F
100
AcDbEntity
  8
0
  6
Continuous
 62
     7
100
AcDbPolyline
 90
        3
 70
   128
 43
0.0
 10
5367.6605224609
 20
4429.2498028515
 10
5367.5443895305
 20
4429.1267630955
 10
5367.4578800778
 20
4428.8106395541
  0
LWPOLYLINE
  5
4C9
330
1F
100
AcDbEntity
  8
0
  6
Continuous
 62
     7
100
AcDbPolyline
 90
        3
 70
   128
 43
0.0
 10
5367.4545288086
 20
4424.6106373755
 10
5367.5691909144
 20
4424.2292263466
 10
5367.6605656723
 20
4424.1527731208
  0
LWPOLYLINE
  5
4CA
330
1F
100
AcDbEntity
  8
0
  6
Continuous
 62
     7
100
AcDbPolyline
 90
        3
 70
   128
 43
0.0
 10
5377.8610229492
 20
4428.9428109912
 10
5377.8825067905
 20
4428.8918109382
 10
5377.8970226626
 20
4428.8106395541
  0
LWPOLYLINE
  5
4CB
330
1F
100
AcDbEntity
  8
0
  6
Continuous
 62
     7
100
AcDbPolyline
 90
        3
 70
   128
 43
0.0
 10
5734.8136901855
 20
4424.1106400876
 10
5733.3266107597
 20
4424.2421336752
 10
5732.2047188859
 20
4424.6106373755
  0
LWPOLYLINE
  5
4CC
330
1F
100
AcDbEntity
  8
0
  6
Continuous
 62
     7
100
AcDbPolyline
 90
        3
 70
   128
 43
0.0
 10
5732.2044372559
 20
4428.8106395541
 10
5733.6482562199
 20
4429.2261669353
 10
5734.8145082573
 20
4429.3106387047
  0
LWPOLYLINE
  5
4CD
330
1F
100
AcDbEntity
  8
0
  6
Continuous
 62
     7
100
AcDbPolyline
 90
        3
 70
   128
 43
0.0
 10
5734.8136901855
 20
4429.3106387047
 10
5736.3024060574
 20
4429.1791451695
 10
5737.4242976288
 20
4428.8106395541
  0
LWPOLYLINE
  5
4CE
330
1F
100
AcDbEntity
  8
0
  6
Continuous
 62
     7
100
AcDbPolyline
 90
        3
 70
   128
 43
0.0
 10
5737.4229431152
 20
4424.6106373755
 10
5735.9807567581
 20
4424.1951154831
 10
5734.8145082573
 20
4424.1106400876
  0
LWPOLYLINE
  5
4CF
330
1F
100
AcDbEntity
  8
0
  6
Continuous
 62
     7
100
AcDbPolyline
 90
        3
 70
   128
 43
0.0
 10
5729.8278808594
 20
4429.3106387047
 10
5731.1844372718
 20
4429.17914561
 10
5732.2047188859
 20
4428.8106395541
  0
LWPOLYLINE
  5
4D0
330
1F
100
AcDbEntity
  8
0
  6
Continuous
 62
     7
100
AcDbPolyline
 90
        3
 70
   128
 43
0.0
 10
5732.2044372559
 20
4424.6106373755
 10
5730.891921027
 20
4424.1951157906
 10
5729.8312917332
 20
4424.1106400876
  0
LWPOLYLINE
  5
4D1
330
1F
100
AcDbEntity
  8
0
  6
Continuous
 62
     7
100
AcDbPolyline
 90
        3
 70
   128
 43
0.0
 10
5729.8278808594
 20
4424.1106400876
 10
5728.4781596139
 20
4424.2421335462
 10
5727.4578794817
 20
4424.6106373755
  0
LWPOLYLINE
  5
4D2
330
1F
100
AcDbEntity
  8
0
  6
Continuous
 62
     7
100
AcDbPolyline
 90
        3
 70
   128
 43
0.0
 10
5727.4551391602
 20
4428.8106395541
 10
5728.7706712631
 20
4429.2261661352
 10
5729.8312917332
 20
4429.3106387047
  0
LWPOLYLINE
  5
4D3
330
1F
100
AcDbEntity
  8
0
  6
Continuous
 62
     7
100
AcDbPolyline
 90
        3
 70
   128
 43
0.0
 10
5737.4229431152
 20
4428.8106395541
 10
5737.5541948242
 20
4429.2321655106
 10
5737.6606598477
 20
4429.3106387047
  0
LWPOLYLINE
  5
4D4
330
1F
100
AcDbEntity
  8
0
  6
Continuous
 62
     7
100
AcDbPolyline
 90
        3
 70
   128
 43
0.0
 10
5737.6594543457
 20
4424.1106400876
 10
5737.5251481811
 20
4424.2495114497
 10
5737.4242976288
 20
4424.6106373755
  0
LWPOLYLINE
  5
4D5
330
1F
100
AcDbEntity
  8
0
  6
Continuous
 62
     7
100
AcDbPolyline
 90
        3
 70
   128
 43
0.0
 10
5727.6573181152
 20
4429.2498028515
 10
5727.5444195549
 20
4429.1267623173
 10
5727.4578794817
 20
4428.8106395541
  0
LWPOLYLINE
  5
4D6
330
1F
100
AcDbEntity
  8
0
  6
Continuous
 62
     7
100
AcDbPolyline
 90
        3
 70
   128
 43
0.0
 10
5727.4551391602
 20
4424.6106373755
 10
5727.5691903183
 20
4424.2292263466
 10
5727.6605650763
 20
4424.1527731208
  0
LWPOLYLINE
  5
4D7
330
1F
100
AcDbEntity
  8
0
  6
Continuous
 62
     7
100
AcDbPolyline
 90
        3
 70
   128
 43
0.0
 10
5737.8616333008
 20
4428.9428109912
 10
5737.8825215321
 20
4428.8918112443
 10
5737.8970220665
 20
4428.8106395541
  0
LWPOLYLINE
  5
4D8
330
1F
100
AcDbEntity
  8
0
  6
Continuous
 62
     7
100
AcDbPolyline
 90
        3
 70
   128
 43
0.0
 10
5577.6748657227
 20
4321.1904429537
 10
5577.6774493745
 20
4322.8455411658
 10
5577.6774493745
 20
4324.0772002083
  0
LWPOLYLINE
  5
4D9
330
1F
100
AcDbEntity
  8
0
  6
Continuous
 62
     7
100
AcDbPolyline
 90
        3
 70
   128
 43
0.0
 10
5577.6748657227
 20
4324.0772002083
 10
5576.294637432
 20
4324.8755604487
 10
5575.1774464281
 20
4325.5205653783
  0
LWPOLYLINE
  5
4DA
330
1F
100
AcDbEntity
  8
0
  6
Continuous
 62
     7
100
AcDbPolyline
 90
        3
 70
   128
 43
0.0
 10
5567.6765441895
 20
4318.3036896078
 10
5569.0602690276
 20
4317.5053277916
 10
5570.1774565716
 20
4316.8603094048
  0
LWPOLYLINE
  5
4DB
330
1F
100
AcDbEntity
  8
0
  6
Continuous
 62
     7
100
AcDbPolyline
 90
        3
 70
   128
 43
0.0
 10
5567.6765441895
 20
4321.1904319612
 10
5567.6774527699
 20
4319.535338001
 10
5567.6774527699
 20
4318.3036896078
  0
LWPOLYLINE
  5
4DC
330
1F
100
AcDbEntity
  8
0
  6
Continuous
 62
     7
100
AcDbPolyline
 90
        3
 70
   128
 43
0.0
 10
5572.6737976074
 20
4326.9639555201
 10
5571.294642353
 20
4326.1655748944
 10
5570.1774516549
 20
4325.5205630335
  0
LWPOLYLINE
  5
4DD
330
1F
100
AcDbEntity
  8
0
  6
Continuous
 62
     7
100
AcDbPolyline
 90
        3
 70
   128
 43
0.0
 10
5575.1762390137
 20
4325.5205653783
 10
5573.7521399576
 20
4326.3434685008
 10
5572.6774474333
 20
4326.9639555201
  0
LWPOLYLINE
  5
4DE
330
1F
100
AcDbEntity
  8
0
  6
Continuous
 62
     7
100
AcDbPolyline
 90
        3
 70
   128
 43
0.0
 10
5570.1751708984
 20
4316.8603094048
 10
5571.6027599333
 20
4316.0374102529
 10
5572.67745605
 20
4315.4169382281
  0
LWPOLYLINE
  5
4DF
330
1F
100
AcDbEntity
  8
0
  6
Continuous
 62
     7
100
AcDbPolyline
 90
        3
 70
   128
 43
0.0
 10
5572.6737976074
 20
4315.4169382281
 10
5574.0602651579
 20
4316.2153051543
 10
5575.1774544366
 20
4316.8603145223
  0
LWPOLYLINE
  5
4E0
330
1F
100
AcDbEntity
  8
0
  6
Continuous
 62
     7
100
AcDbPolyline
 90
        3
 70
   128
 43
0.0
 10
5570.1751708984
 20
4325.5205630335
 10
5568.7521488174
 20
4324.6976621412
 10
5567.6774527699
 20
4324.0771892158
  0
LWPOLYLINE
  5
4E1
330
1F
100
AcDbEntity
  8
0
  6
Continuous
 62
     7
100
AcDbPolyline
 90
        3
 70
   128
 43
0.0
 10
5567.6765441895
 20
4324.0771892159
 10
5567.6774527699
 20
4322.4907760439
 10
5567.6774527699
 20
4321.1904319612
  0
LWPOLYLINE
  5
4E2
330
1F
100
AcDbEntity
  8
0
  6
Continuous
 62
     7
100
AcDbPolyline
 90
        3
 70
   128
 43
0.0
 10
5575.1762390137
 20
4316.8603145223
 10
5576.6027609965
 20
4317.6832156433
 10
5577.677453915
 20
4318.3037006002
  0
LWPOLYLINE
  5
4E3
330
1F
100
AcDbEntity
  8
0
  6
Continuous
 62
     7
100
AcDbPolyline
 90
        3
 70
   128
 43
0.0
 10
5577.6748657227
 20
4318.3037006002
 10
5577.6774514198
 20
4319.8901056041
 10
5577.6774493745
 20
4321.1904429537
  0
LWPOLYLINE
  5
4E4
330
1F
100
AcDbEntity
  8
0
  6
Continuous
 62
     7
100
AcDbPolyline
 90
        3
 70
   128
 43
0.0
 10
5537.6052856445
 20
4387.3509712678
 10
5537.8843544604
 20
4388.9825736039
 10
5538.0911434823
 20
4390.1967428785
  0
LWPOLYLINE
  5
4E5
330
1F
100
AcDbEntity
  8
0
  6
Continuous
 62
     7
100
AcDbPolyline
 90
        3
 70
   128
 43
0.0
 10
5538.0897521973
 20
4390.1967428785
 10
5536.8619988022
 20
4391.2159378916
 10
5535.868962379
 20
4392.0393640597
  0
LWPOLYLINE
  5
4E6
330
1F
100
AcDbEntity
  8
0
  6
Continuous
 62
     7
100
AcDbPolyline
 90
        3
 70
   128
 43
0.0
 10
5527.2636413574
 20
4386.1841337101
 10
5528.4929029033
 20
4385.1649383746
 10
5529.4859392533
 20
4384.3415116419
  0
LWPOLYLINE
  5
4E7
330
1F
100
AcDbEntity
  8
0
  6
Continuous
 62
     7
100
AcDbPolyline
 90
        3
 70
   128
 43
0.0
 10
5527.7481079102
 20
4389.0299053208
 10
5527.4705446593
 20
4387.3983056192
 10
5527.2637579542
 20
4386.1841337101
  0
LWPOLYLINE
  5
4E8
330
1F
100
AcDbEntity
  8
0
  6
Continuous
 62
     7
100
AcDbPolyline
 90
        3
 70
   128
 43
0.0
 10
5533.6456298828
 20
4393.8819820483
 10
5532.1495599414
 20
4393.3271159769
 10
5530.9399353911
 20
4392.878829503
  0
LWPOLYLINE
  5
4E9
330
1F
100
AcDbEntity
  8
0
  6
Continuous
 62
     7
100
AcDbPolyline
 90
        3
 70
   128
 43
0.0
 10
5535.8657836914
 20
4392.0393640597
 10
5534.60204789
 20
4393.08987823
 10
5533.6467838751
 20
4393.8819820483
  0
LWPOLYLINE
  5
4EA
330
1F
100
AcDbEntity
  8
0
  6
Continuous
 62
     7
100
AcDbPolyline
 90
        3
 70
   128
 43
0.0
 10
5529.483795166
 20
4384.3415116419
 10
5530.7528528988
 20
4383.290996581
 10
5531.7081177572
 20
4382.4988936533
  0
LWPOLYLINE
  5
4EB
330
1F
100
AcDbEntity
  8
0
  6
Continuous
 62
     7
100
AcDbPolyline
 90
        3
 70
   128
 43
0.0
 10
5531.7077636719
 20
4382.4988936533
 10
5533.2053410493
 20
4383.0537586893
 10
5534.4149648037
 20
4383.5020450514
  0
LWPOLYLINE
  5
4EC
330
1F
100
AcDbEntity
  8
0
  6
Continuous
 62
     7
100
AcDbPolyline
 90
        3
 70
   128
 43
0.0
 10
5534.4123840332
 20
4383.5020450514
 10
5535.9581974982
 20
4384.0739603153
 10
5537.1218119573
 20
4384.505191223
  0
LWPOLYLINE
  5
4ED
330
1F
100
AcDbEntity
  8
0
  6
Continuous
 62
     7
100
AcDbPolyline
 90
        3
 70
   128
 43
0.0
 10
5537.1208190918
 20
4384.505191223
 10
5537.3881572177
 20
4386.0690863208
 10
5537.6064748325
 20
4387.3509712678
  0
LWPOLYLINE
  5
4EE
330
1F
100
AcDbEntity
  8
0
  6
Continuous
 62
     7
100
AcDbPolyline
 90
        3
 70
   128
 43
0.0
 10
5530.9371948242
 20
4392.878829503
 10
5529.3967026411
 20
4392.3069156858
 10
5528.2330883433
 20
4391.875685559
  0
LWPOLYLINE
  5
4EF
330
1F
100
AcDbEntity
  8
0
  6
Continuous
 62
     7
100
AcDbPolyline
 90
        3
 70
   128
 43
0.0
 10
5528.2325744629
 20
4391.875685559
 10
5527.9667439239
 20
4390.311790405
 10
5527.7484275352
 20
4389.0299053208
  0
LWPOLYLINE
  5
4F0
330
1F
100
AcDbEntity
  8
0
  6
Continuous
 62
     7
100
AcDbPolyline
 90
        3
 70
   128
 43
0.0
 10
5577.6748657227
 20
4388.1904407185
 10
5577.6774500972
 20
4389.8455368046
 10
5577.6774500972
 20
4391.0771905225
  0
LWPOLYLINE
  5
4F1
330
1F
100
AcDbEntity
  8
0
  6
Continuous
 62
     7
100
AcDbPolyline
 90
        3
 70
   128
 43
0.0
 10
5577.6748657227
 20
4391.0771905225
 10
5576.2946405745
 20
4391.8755549541
 10
5575.1774515255
 20
4392.5205632698
  0
LWPOLYLINE
  5
4F2
330
1F
100
AcDbEntity
  8
0
  6
Continuous
 62
     7
100
AcDbPolyline
 90
        3
 70
   128
 43
0.0
 10
5567.6765441895
 20
4385.3036838262
 10
5569.0602617594
 20
4384.5053188757
 10
5570.1774517194
 20
4383.8603113718
  0
LWPOLYLINE
  5
4F3
330
1F
100
AcDbEntity
  8
0
  6
Continuous
 62
     7
100
AcDbPolyline
 90
        3
 70
   128
 43
0.0
 10
5567.6765441895
 20
4388.1904410808
 10
5567.6774520472
 20
4386.5353428686
 10
5567.6774520472
 20
4385.3036838262
  0
LWPOLYLINE
  5
4F4
330
1F
100
AcDbEntity
  8
0
  6
Continuous
 62
     7
100
AcDbPolyline
 90
        3
 70
   128
 43
0.0
 10
5572.6737976074
 20
4393.9639428094
 10
5571.2946392158
 20
4393.165577775
 10
5570.1774514743
 20
4392.5205637637
  0
LWPOLYLINE
  5
4F5
330
1F
100
AcDbEntity
  8
0
  6
Continuous
 62
     7
100
AcDbPolyline
 90
        3
 70
   128
 43
0.0
 10
5575.1762390137
 20
4392.5205632698
 10
5573.7521458958
 20
4393.3434640035
 10
5572.6774507111
 20
4393.9639428094
  0
LWPOLYLINE
  5
4F6
330
1F
100
AcDbEntity
  8
0
  6
Continuous
 62
     7
100
AcDbPolyline
 90
        3
 70
   128
 43
0.0
 10
5570.1751708984
 20
4383.8603113718
 10
5571.6027569592
 20
4383.0374116279
 10
5572.6774511978
 20
4382.4169327445
  0
LWPOLYLINE
  5
4F7
330
1F
100
AcDbEntity
  8
0
  6
Continuous
 62
     7
100
AcDbPolyline
 90
        3
 70
   128
 43
0.0
 10
5572.6737976074
 20
4382.4169327445
 10
5574.0602637783
 20
4383.2152977574
 10
5575.1774520105
 20
4383.8603122872
  0
LWPOLYLINE
  5
4F8
330
1F
100
AcDbEntity
  8
0
  6
Continuous
 62
     7
100
AcDbPolyline
 90
        3
 70
   128
 43
0.0
 10
5570.1751708984
 20
4392.5205637637
 10
5568.7521483278
 20
4391.6976634066
 10
5567.6774520472
 20
4391.0771908848
  0
LWPOLYLINE
  5
4F9
330
1F
100
AcDbEntity
  8
0
  6
Continuous
 62
     7
100
AcDbPolyline
 90
        3
 70
   128
 43
0.0
 10
5567.6765441895
 20
4391.0771908848
 10
5567.6774520472
 20
4389.4907812929
 10
5567.6774520472
 20
4388.1904410808
  0
LWPOLYLINE
  5
4FA
330
1F
100
AcDbEntity
  8
0
  6
Continuous
 62
     7
100
AcDbPolyline
 90
        3
 70
   128
 43
0.0
 10
5575.1762390137
 20
4383.8603122872
 10
5576.6027548141
 20
4384.683212224
 10
5577.6774514889
 20
4385.3036834639
  0
LWPOLYLINE
  5
4FB
330
1F
100
AcDbEntity
  8
0
  6
Continuous
 62
     7
100
AcDbPolyline
 90
        3
 70
   128
 43
0.0
 10
5577.6748657227
 20
4385.3036834639
 10
5577.6774507241
 20
4386.8900971398
 10
5577.6774500972
 20
4388.1904407185
  0
LWPOLYLINE
  5
4FC
330
1F
100
AcDbEntity
  8
0
  6
Continuous
 62
     7
100
AcDbPolyline
 90
        3
 70
   128
 43
0.0
 10
5571.7353820801
 20
4323.4620096771
 10
5573.8305996405
 20
4323.3631203371
 10
5574.9490246157
 20
4322.1313508837
  0
LWPOLYLINE
  5
4FD
330
1F
100
AcDbEntity
  8
0
  6
Continuous
 62
     7
100
AcDbPolyline
 90
        3
 70
   128
 43
0.0
 10
5570.5528259277
 20
4319.0691175549
 10
5570.0621301356
 20
4321.9039370603
 10
5571.7365335654
 20
4323.4620096771
  0
LWPOLYLINE
  5
4FE
330
1F
100
AcDbEntity
  8
0
  6
Continuous
 62
     7
100
AcDbPolyline
 90
        3
 70
   128
 43
0.0
 10
5571.7353820801
 20
4323.4620096771
 10
5573.8271706311
 20
4323.363803283
 10
5574.9490246157
 20
4322.1313508837
  0
LWPOLYLINE
  5
4FF
330
1F
100
AcDbEntity
  8
0
  6
Continuous
 62
     7
100
AcDbPolyline
 90
        3
 70
   128
 43
0.0
 10
5574.9473571777
 20
4322.1313508837
 10
5574.7000289835
 20
4319.2902760339
 10
5572.6774506251
 20
4318.1904407827
  0
LWPOLYLINE
  5
500
330
1F
100
AcDbEntity
  8
0
  6
Continuous
 62
     7
100
AcDbPolyline
 90
        3
 70
   128
 43
0.0
 10
5571.7353820801
 20
4390.4620113461
 10
5573.8305996405
 20
4390.363122006
 10
5574.9490246157
 20
4389.1313525526
  0
LWPOLYLINE
  5
501
330
1F
100
AcDbEntity
  8
0
  6
Continuous
 62
     7
100
AcDbPolyline
 90
        3
 70
   128
 43
0.0
 10
5570.5528259277
 20
4386.0691192238
 10
5570.0621331062
 20
4388.9039380094
 10
5571.7365335654
 20
4390.4620113461
  0
LWPOLYLINE
  5
502
330
1F
100
AcDbEntity
  8
0
  6
Continuous
 62
     7
100
AcDbPolyline
 90
        3
 70
   128
 43
0.0
 10
5571.7353820801
 20
4390.4620113461
 10
5573.8271691947
 20
4390.3637982471
 10
5574.9490246157
 20
4389.1313525526
  0
LWPOLYLINE
  5
503
330
1F
100
AcDbEntity
  8
0
  6
Continuous
 62
     7
100
AcDbPolyline
 90
        3
 70
   128
 43
0.0
 10
5574.9473571777
 20
4389.1313525526
 10
5574.7000285131
 20
4386.2902771999
 10
5572.6774506251
 20
4385.1904350011
  0
LWPOLYLINE
  5
504
330
1F
100
AcDbEntity
  8
0
  6
Continuous
 62
     7
100
AcDbPolyline
 90
        3
 70
   128
 43
0.0
 10
5529.6974182129
 20
4388.0761789767
 10
5529.9844101662
 20
4386.8714115951
 10
5530.5561315249
 20
4386.0691192238
  0
LWPOLYLINE
  5
505
330
1F
100
AcDbEntity
  8
0
  6
Continuous
 62
     7
100
AcDbPolyline
 90
        3
 70
   128
 43
0.0
 10
5531.7344665527
 20
4390.4620113461
 10
5533.8306005346
 20
4390.363122006
 10
5534.9490255098
 20
4389.1313525526
  0
LWPOLYLINE
  5
506
330
1F
100
AcDbEntity
  8
0
  6
Continuous
 62
     7
100
AcDbPolyline
 90
        3
 70
   128
 43
0.0
 10
5530.5557250977
 20
4386.0691192238
 10
5530.0621340806
 20
4388.9039381475
 10
5531.7365344594
 20
4390.4620113461
  0
LWPOLYLINE
  5
507
330
1F
100
AcDbEntity
  8
0
  6
Continuous
 62
     7
100
AcDbPolyline
 90
        3
 70
   128
 43
0.0
 10
5531.7344665527
 20
4390.4620113461
 10
5533.8271696672
 20
4390.3637974959
 10
5534.9490255098
 20
4389.1313525526
  0
LWPOLYLINE
  5
508
330
1F
100
AcDbEntity
  8
0
  6
Continuous
 62
     7
100
AcDbPolyline
 90
        3
 70
   128
 43
0.0
 10
5534.9464416504
 20
4389.1313525526
 10
5534.7000292023
 20
4386.2902770601
 10
5532.6774515192
 20
4385.1904350011
  0
LWPOLYLINE
  5
509
330
1F
100
AcDbEntity
  8
0
  6
Continuous
 62
     7
100
AcDbPolyline
 90
        3
 70
   128
 43
0.0
 10
5531.7344665527
 20
4323.4620096771
 10
5533.8306005346
 20
4323.3631203371
 10
5534.9490255098
 20
4322.1313508837
  0
LWPOLYLINE
  5
50A
330
1F
100
AcDbEntity
  8
0
  6
Continuous
 62
     7
100
AcDbPolyline
 90
        3
 70
   128
 43
0.0
 10
5530.5557250977
 20
4319.0691175549
 10
5530.0621311101
 20
4321.9039371983
 10
5531.7365344594
 20
4323.4620096771
  0
LWPOLYLINE
  5
50B
330
1F
100
AcDbEntity
  8
0
  6
Continuous
 62
     7
100
AcDbPolyline
 90
        3
 70
   128
 43
0.0
 10
5531.7344665527
 20
4323.4620096771
 10
5533.8271711036
 20
4323.3638025318
 10
5534.9490255098
 20
4322.1313508837
  0
LWPOLYLINE
  5
50C
330
1F
100
AcDbEntity
  8
0
  6
Continuous
 62
     7
100
AcDbPolyline
 90
        3
 70
   128
 43
0.0
 10
5534.9464416504
 20
4322.1313508837
 10
5534.7000296727
 20
4319.2902758942
 10
5532.6774515192
 20
4318.1904407827
  0
LWPOLYLINE
  5
50D
330
1F
100
AcDbEntity
  8
0
  6
Continuous
 62
     7
100
AcDbPolyline
 90
        3
 70
   128
 43
0.0
 10
5352.6763916016
 20
4247.1904310076
 10
5352.5255709603
 20
4247.2482584397
 10
5352.4061426501
 20
4247.3713609068
  0
LWPOLYLINE
  5
50E
330
1F
100
AcDbEntity
  8
0
  6
Continuous
 62
     7
100
AcDbPolyline
 90
        3
 70
   128
 43
0.0
 10
5752.6741027832
 20
4247.1904310076
 10
5753.2597155115
 20
4247.2482584397
 10
5753.7035182099
 20
4247.3713609068
  0
LWPOLYLINE
  5
50F
330
1F
100
AcDbEntity
  8
0
  6
Continuous
 62
     7
100
AcDbPolyline
 90
        3
 70
   128
 43
0.0
 10
5401.1764526367
 20
4470.6197271733
 10
5401.5014878047
 20
4470.3456634018
 10
5401.9674800616
 20
4469.8965542628
  0
LWPOLYLINE
  5
510
330
1F
100
AcDbEntity
  8
0
  6
Continuous
 62
     7
100
AcDbPolyline
 90
        3
 70
   128
 43
0.0
 10
5704.1053771973
 20
4470.6904386147
 10
5703.8327211974
 20
4470.3664406377
 10
5703.3836528639
 20
4469.9004963949
  0
LWPOLYLINE
  5
511
330
1F
100
AcDbEntity
  8
0
  6
Continuous
 62
     7
100
AcDbPolyline
 90
        3
 70
   128
 43
0.0
 10
5402.1759033203
 20
4469.6904384508
 10
5401.5424780561
 20
4470.4197038675
 10
5401.2481555323
 20
4470.6904386147
  0
LWPOLYLINE
  5
512
330
1F
100
AcDbEntity
  8
0
  6
Continuous
 62
     7
100
AcDbPolyline
 90
        3
 70
   128
 43
0.0
 10
5703.1745910645
 20
4469.6904376758
 10
5703.8894102039
 20
4470.3773665201
 10
5704.1774518471
 20
4470.6197271733
  0
ENDSEC
  0
SECTION
  2
OBJECTS
  0
DICTIONARY
  5
C
330
0
100
AcDbDictionary
281
     1
  3
ACAD_GROUP
350
D
  3
ACAD_LAYOUT
350
1A
  3
ACAD_MLINESTYLE
350
17
  3
ACAD_PLOTSETTINGS
350
19
  3
ACAD_PLOTSTYLENAME
350
E
  3
ACAD_SCALELIST
350
47
  3
DWGPROPS
350
513
  0
DICTIONARY
  5
D
102
{ACAD_REACTORS
330
C
102
}
330
C
100
AcDbDictionary
281
     1
  0
DICTIONARY
  5
1A
102
{ACAD_REACTORS
330
C
102
}
330
C
100
AcDbDictionary
281
     1
  3
Layout1
350
1E
  3
Layout2
350
26
  3
Model
350
22
  0
DICTIONARY
  5
17
102
{ACAD_REACTORS
330
C
102
}
330
C
100
AcDbDictionary
281
     1
  3
Standard
350
18
  0
DICTIONARY
  5
19
102
{ACAD_REACTORS
330
C
102
}
330
C
100
AcDbDictionary
281
     1
  0
ACDBDICTIONARYWDFLT
  5
E
102
{ACAD_REACTORS
330
C
102
}
330
C
100
AcDbDictionary
281
     1
  3
Normal
350
F
100
AcDbDictionaryWithDefault
340
F
  0
DICTIONARY
  5
47
102
{ACAD_REACTORS
330
C
102
}
330
C
100
AcDbDictionary
281
     1
  3
A0
350
48
  3
A1
350
49
  3
A2
350
4A
  3
A3
350
4B
  3
A4
350
4C
  3
A5
350
4D
  3
A6
350
4E
  3
A7
350
4F
  3
A8
350
50
  3
A9
350
51
  3
B0
350
52
  3
B1
350
53
  3
B2
350
54
  3
B3
350
55
  3
B4
350
56
  3
B5
350
57
  3
B6
350
58
  3
B7
350
59
  3
B8
350
5A
  3
B9
350
5B
  3
C0
350
5C
  3
C1
350
5D
  3
C2
350
5E
  3
C3
350
5F
  3
C4
350
60
  3
C5
350
61
  3
C6
350
62
  3
C7
350
63
  3
C8
350
64
  3
C9
350
65
  3
D0
350
66
  3
D1
350
67
  3
D2
350
68
  0
XRECORD
  5
513
102
{ACAD_REACTORS
330
C
102
}
330
C
100
AcDbXrecord
280
     1
  1
DWGPROPS COOKIE
  2

  3

  4

  6

  7

  8
radek.stransky
  9

300
=
301
=
302
=
303
=
304
=
305
=
306
=
307
=
308
=
309
=
 40
0.0
 41
2459096.470408021
 42
2459096.470702118
  1

 90
        0
  0
LAYOUT
  5
1E
102
{ACAD_REACTORS
330
1A
102
}
330
1A
100
AcDbPlotSettings
  1

  2
none_device
  4

  6

 40
0.0
 41
0.0
 42
0.0
 43
0.0
 44
0.0
 45
0.0
 46
0.0
 47
0.0
 48
0.0
 49
0.0
140
0.0
141
0.0
142
1.0
143
1.0
 70
   688
 72
     1
 73
     0
 74
     5
  7

 75
    16
147
1.0
148
0.0
149
0.0
100
AcDbLayout
  1
Layout1
 70
     1
 71
     1
 10
0.0
 20
0.0
 11
420.0
 21
297.0
 12
0.0
 22
0.0
 32
0.0
 14
1.0000000000E+20
 24
1.0000000000E+20
 34
1.0000000000E+20
 15
-1.0000000000E+20
 25
-1.0000000000E+20
 35
-1.0000000000E+20
146
0.0
 13
0.0
 23
0.0
 33
0.0
 16
1.0
 26
0.0
 36
0.0
 17
0.0
 27
1.0
 37
0.0
 76
     0
330
1B
  0
LAYOUT
  5
26
102
{ACAD_REACTORS
330
1A
102
}
330
1A
100
AcDbPlotSettings
  1

  2
none_device
  4

  6

 40
0.0
 41
0.0
 42
0.0
 43
0.0
 44
0.0
 45
0.0
 46
0.0
 47
0.0
 48
0.0
 49
0.0
140
0.0
141
0.0
142
1.0
143
1.0
 70
   688
 72
     1
 73
     0
 74
     5
  7

 75
    16
147
1.0
148
0.0
149
0.0
100
AcDbLayout
  1
Layout2
 70
     1
 71
     2
 10
0.0
 20
0.0
 11
0.0
 21
0.0
 12
0.0
 22
0.0
 32
0.0
 14
0.0
 24
0.0
 34
0.0
 15
0.0
 25
0.0
 35
0.0
146
0.0
 13
0.0
 23
0.0
 33
0.0
 16
1.0
 26
0.0
 36
0.0
 17
0.0
 27
1.0
 37
0.0
 76
     0
330
23
  0
LAYOUT
  5
22
102
{ACAD_REACTORS
330
1A
102
}
330
1A
100
AcDbPlotSettings
  1

  2
none_device
  4
ANSI_A_(11.00_x_8.50_Inches)
  6

 40
6.35
 41
19.05
 42
6.35000508
 43
19.05000254
 44
279.4
 45
215.9
 46
-848.3753227129
 47
-727.1459302
 48
0.0
 49
0.0
140
0.0
141
0.0
142
0.0065738264
143
1.0
 70
  1696
 72
     0
 73
     0
 74
     0
  7

 75
     0
147
0.0179189148
148
-1300.4909072572
149
0.0
100
AcDbLayout
  1
Model
 70
     1
 71
     0
 10
0.0
 20
0.0
 11
420.0
 21
297.0
 12
0.0
 22
0.0
 32
0.0
 14
5342.4201592783
 24
4247.1904310076
 34
0.0
 15
6416.5162494671
 25
5527.2668308396
 35
0.0
146
0.0
 13
0.0
 23
0.0
 33
0.0
 16
1.0
 26
0.0
 36
0.0
 17
0.0
 27
1.0
 37
0.0
 76
     0
330
1F
331
29
  0
MLINESTYLE
  5
18
102
{ACAD_REACTORS
330
17
102
}
330
17
100
AcDbMlineStyle
  2
Standard
 70
     0
  3

 62
   256
 51
90.0
 52
90.0
 71
     2
 49
0.5
 62
   256
  6
BYLAYER
 49
-0.5
 62
   256
  6
BYLAYER
  0
ACDBPLACEHOLDER
  5
F
102
{ACAD_REACTORS
330
E
102
}
330
E
  0
SCALE
  5
48
102
{ACAD_REACTORS
330
47
102
}
330
47
100
AcDbScale
 70
     0
300
1:1
140
1.0
141
1.0
290
     1
  0
SCALE
  5
49
102
{ACAD_REACTORS
330
47
102
}
330
47
100
AcDbScale
 70
     0
300
1:2
140
1.0
141
2.0
290
     0
  0
SCALE
  5
4A
102
{ACAD_REACTORS
330
47
102
}
330
47
100
AcDbScale
 70
     0
300
1:4
140
1.0
141
4.0
290
     0
  0
SCALE
  5
4B
102
{ACAD_REACTORS
330
47
102
}
330
47
100
AcDbScale
 70
     0
300
1:5
140
1.0
141
5.0
290
     0
  0
SCALE
  5
4C
102
{ACAD_REACTORS
330
47
102
}
330
47
100
AcDbScale
 70
     0
300
1:8
140
1.0
141
8.0
290
     0
  0
SCALE
  5
4D
102
{ACAD_REACTORS
330
47
102
}
330
47
100
AcDbScale
 70
     0
300
1:10
140
1.0
141
10.0
290
     0
  0
SCALE
  5
4E
102
{ACAD_REACTORS
330
47
102
}
330
47
100
AcDbScale
 70
     0
300
1:16
140
1.0
141
16.0
290
     0
  0
SCALE
  5
4F
102
{ACAD_REACTORS
330
47
102
}
330
47
100
AcDbScale
 70
     0
300
1:20
140
1.0
141
20.0
290
     0
  0
SCALE
  5
50
102
{ACAD_REACTORS
330
47
102
}
330
47
100
AcDbScale
 70
     0
300
1:30
140
1.0
141
30.0
290
     0
  0
SCALE
  5
51
102
{ACAD_REACTORS
330
47
102
}
330
47
100
AcDbScale
 70
     0
300
1:40
140
1.0
141
40.0
290
     0
  0
SCALE
  5
52
102
{ACAD_REACTORS
330
47
102
}
330
47
100
AcDbScale
 70
     0
300
1:50
140
1.0
141
50.0
290
     0
  0
SCALE
  5
53
102
{ACAD_REACTORS
330
47
102
}
330
47
100
AcDbScale
 70
     0
300
1:100
140
1.0
141
100.0
290
     0
  0
SCALE
  5
54
102
{ACAD_REACTORS
330
47
102
}
330
47
100
AcDbScale
 70
     0
300
2:1
140
2.0
141
1.0
290
     0
  0
SCALE
  5
55
102
{ACAD_REACTORS
330
47
102
}
330
47
100
AcDbScale
 70
     0
300
4:1
140
4.0
141
1.0
290
     0
  0
SCALE
  5
56
102
{ACAD_REACTORS
330
47
102
}
330
47
100
AcDbScale
 70
     0
300
8:1
140
8.0
141
1.0
290
     0
  0
SCALE
  5
57
102
{ACAD_REACTORS
330
47
102
}
330
47
100
AcDbScale
 70
     0
300
10:1
140
10.0
141
1.0
290
     0
  0
SCALE
  5
58
102
{ACAD_REACTORS
330
47
102
}
330
47
100
AcDbScale
 70
     0
300
100:1
140
100.0
141
1.0
290
     0
  0
SCALE
  5
59
102
{ACAD_REACTORS
330
47
102
}
330
47
100
AcDbScale
 70
     0
300
1/128" = 1'-0"
140
0.0078125
141
12.0
290
     0
  0
SCALE
  5
5A
102
{ACAD_REACTORS
330
47
102
}
330
47
100
AcDbScale
 70
     0
300
1/64" = 1'-0"
140
0.015625
141
12.0
290
     0
  0
SCALE
  5
5B
102
{ACAD_REACTORS
330
47
102
}
330
47
100
AcDbScale
 70
     0
300
1/32" = 1'-0"
140
0.03125
141
12.0
290
     0
  0
SCALE
  5
5C
102
{ACAD_REACTORS
330
47
102
}
330
47
100
AcDbScale
 70
     0
300
1/16" = 1'-0"
140
0.0625
141
12.0
290
     0
  0
SCALE
  5
5D
102
{ACAD_REACTORS
330
47
102
}
330
47
100
AcDbScale
 70
     0
300
3/32" = 1'-0"
140
0.09375
141
12.0
290
     0
  0
SCALE
  5
5E
102
{ACAD_REACTORS
330
47
102
}
330
47
100
AcDbScale
 70
     0
300
1/8" = 1'-0"
140
0.125
141
12.0
290
     0
  0
SCALE
  5
5F
102
{ACAD_REACTORS
330
47
102
}
330
47
100
AcDbScale
 70
     0
300
3/16" = 1'-0"
140
0.1875
141
12.0
290
     0
  0
SCALE
  5
60
102
{ACAD_REACTORS
330
47
102
}
330
47
100
AcDbScale
 70
     0
300
1/4" = 1'-0"
140
0.25
141
12.0
290
     0
  0
SCALE
  5
61
102
{ACAD_REACTORS
330
47
102
}
330
47
100
AcDbScale
 70
     0
300
3/8" = 1'-0"
140
0.375
141
12.0
290
     0
  0
SCALE
  5
62
102
{ACAD_REACTORS
330
47
102
}
330
47
100
AcDbScale
 70
     0
300
1/2" = 1'-0"
140
0.5
141
12.0
290
     0
  0
SCALE
  5
63
102
{ACAD_REACTORS
330
47
102
}
330
47
100
AcDbScale
 70
     0
300
3/4" = 1'-0"
140
0.75
141
12.0
290
     0
  0
SCALE
  5
64
102
{ACAD_REACTORS
330
47
102
}
330
47
100
AcDbScale
 70
     0
300
1" = 1'-0"
140
1.0
141
12.0
290
     0
  0
SCALE
  5
65
102
{ACAD_REACTORS
330
47
102
}
330
47
100
AcDbScale
 70
     0
300
1-1/2" = 1'-0"
140
1.5
141
12.0
290
     0
  0
SCALE
  5
66
102
{ACAD_REACTORS
330
47
102
}
330
47
100
AcDbScale
 70
     0
300
3" = 1'-0"
140
3.0
141
12.0
290
     0
  0
SCALE
  5
67
102
{ACAD_REACTORS
330
47
102
}
330
47
100
AcDbScale
 70
     0
300
6" = 1'-0"
140
6.0
141
12.0
290
     0
  0
SCALE
  5
68
102
{ACAD_REACTORS
330
47
102
}
330
47
100
AcDbScale
 70
     0
300
1'-0" = 1'-0"
140
12.0
141
12.0
290
     0
  0
ENDSEC
  0
EOF
