  0
SECTION
  2
HEADER
  9
$ACADVER
  1
AC1015
  9
$ACADMAINTVER
 70
     6
  9
$DWGCODEPAGE
  3
ANSI_1250
  9
$INSBASE
 10
0.0
 20
0.0
 30
0.0
  9
$EXTMIN
 10
5649.0187553361
 20
3679.6599743121
 30
0.0
  9
$EXTMAX
 10
7792.4601828599
 20
5848.4410560817
 30
0.0
  9
$LIMMIN
 10
0.0
 20
0.0
  9
$LIMMAX
 10
420.0
 20
297.0
  9
$ORTHOMODE
 70
     0
  9
$REGENMODE
 70
     1
  9
$FILLMODE
 70
     1
  9
$QTEXTMODE
 70
     0
  9
$MIRRTEXT
 70
     1
  9
$LTSCALE
 40
1.0
  9
$ATTMODE
 70
     1
  9
$TEXTSIZE
 40
3.5
  9
$TRACEWID
 40
1.0
  9
$TEXTSTYLE
  7
Standard
  9
$CLAYER
  8
0
  9
$CELTYPE
  6
ByLayer
  9
$CECOLOR
 62
   256
  9
$CELTSCALE
 40
1.0
  9
$DISPSILH
 70
     0
  9
$DIMSCALE
 40
1.0
  9
$DIMASZ
 40
3.302
  9
$DIMEXO
 40
0.0
  9
$DIMDLI
 40
3.75
  9
$DIMRND
 40
0.0
  9
$DIMDLE
 40
0.0
  9
$DIMEXE
 40
1.0
  9
$DIMTP
 40
0.0
  9
$DIMTM
 40
0.0
  9
$DIMTXT
 40
3.5
  9
$DIMCEN
 40
2.5
  9
$DIMTSZ
 40
0.0
  9
$DIMTOL
 70
     0
  9
$DIMLIM
 70
     0
  9
$DIMTIH
 70
     1
  9
$DIMTOH
 70
     1
  9
$DIMSE1
 70
     0
  9
$DIMSE2
 70
     0
  9
$DIMTAD
 70
     1
  9
$DIMZIN
 70
     0
  9
$DIMBLK
  1

  9
$DIMASO
 70
     1
  9
$DIMSHO
 70
     1
  9
$DIMPOST
  1

  9
$DIMAPOST
  1

  9
$DIMALT
 70
     0
  9
$DIMALTD
 70
     3
  9
$DIMALTF
 40
0.0393700787
  9
$DIMLFAC
 40
1.0
  9
$DIMTOFL
 70
     1
  9
$DIMTVP
 40
0.0
  9
$DIMTIX
 70
     0
  9
$DIMSOXD
 70
     0
  9
$DIMSAH
 70
     0
  9
$DIMBLK1
  1

  9
$DIMBLK2
  1

  9
$DIMSTYLE
  2
ISO-25
  9
$DIMCLRD
 70
     0
  9
$DIMCLRE
 70
     0
  9
$DIMCLRT
 70
     0
  9
$DIMTFAC
 40
1.0
  9
$DIMGAP
 40
1.524
  9
$DIMJUST
 70
     0
  9
$DIMSD1
 70
     0
  9
$DIMSD2
 70
     0
  9
$DIMTOLJ
 70
     0
  9
$DIMTZIN
 70
     0
  9
$DIMALTZ
 70
     0
  9
$DIMALTTZ
 70
     0
  9
$DIMUPT
 70
     0
  9
$DIMDEC
 70
     2
  9
$DIMTDEC
 70
     2
  9
$DIMALTU
 70
     2
  9
$DIMALTTD
 70
     3
  9
$DIMTXSTY
  7
Standard
  9
$DIMAUNIT
 70
     0
  9
$DIMADEC
 70
     2
  9
$DIMALTRND
 40
0.0
  9
$DIMAZIN
 70
     0
  9
$DIMDSEP
 70
    44
  9
$DIMATFIT
 70
     3
  9
$DIMFRAC
 70
     0
  9
$DIMLDRBLK
  1

  9
$DIMLUNIT
 70
     2
  9
$DIMLWD
 70
    -2
  9
$DIMLWE
 70
    -2
  9
$DIMTMOVE
 70
     0
  9
$LUNITS
 70
     2
  9
$LUPREC
 70
     2
  9
$SKETCHINC
 40
1.0
  9
$FILLETRAD
 40
10.0
  9
$AUNITS
 70
     0
  9
$AUPREC
 70
     2
  9
$MENU
  1
.
  9
$ELEVATION
 40
0.0
  9
$PELEVATION
 40
0.0
  9
$THICKNESS
 40
0.0
  9
$LIMCHECK
 70
     0
  9
$CHAMFERA
 40
0.0
  9
$CHAMFERB
 40
0.0
  9
$CHAMFERC
 40
0.0
  9
$CHAMFERD
 40
0.0
  9
$SKPOLY
 70
     0
  9
$TDCREATE
 40
2459096.459643681
  9
$TDUCREATE
 40
2459096.376310347
  9
$TDUPDATE
 40
2459096.459674236
  9
$TDUUPDATE
 40
2459096.376340903
  9
$TDINDWG
 40
0.0000000116
  9
$TDUSRTIMER
 40
0.0000000116
  9
$USRTIMER
 70
     1
  9
$ANGBASE
 50
0.0
  9
$ANGDIR
 70
     0
  9
$PDMODE
 70
     0
  9
$PDSIZE
 40
-1.0
  9
$PLINEWID
 40
0.0
  9
$SPLFRAME
 70
     0
  9
$SPLINETYPE
 70
     6
  9
$SPLINESEGS
 70
     8
  9
$HANDSEED
  5
418
  9
$SURFTAB1
 70
     6
  9
$SURFTAB2
 70
     6
  9
$SURFTYPE
 70
     6
  9
$SURFU
 70
     6
  9
$SURFV
 70
     6
  9
$UCSBASE
  2

  9
$UCSNAME
  2

  9
$UCSORG
 10
0.0
 20
0.0
 30
0.0
  9
$UCSXDIR
 10
1.0
 20
0.0
 30
0.0
  9
$UCSYDIR
 10
0.0
 20
1.0
 30
0.0
  9
$UCSORTHOREF
  2

  9
$UCSORTHOVIEW
 70
     0
  9
$UCSORGTOP
 10
0.0
 20
0.0
 30
0.0
  9
$UCSORGBOTTOM
 10
0.0
 20
0.0
 30
0.0
  9
$UCSORGLEFT
 10
0.0
 20
0.0
 30
0.0
  9
$UCSORGRIGHT
 10
0.0
 20
0.0
 30
0.0
  9
$UCSORGFRONT
 10
0.0
 20
0.0
 30
0.0
  9
$UCSORGBACK
 10
0.0
 20
0.0
 30
0.0
  9
$PUCSBASE
  2

  9
$PUCSNAME
  2

  9
$PUCSORG
 10
0.0
 20
0.0
 30
0.0
  9
$PUCSXDIR
 10
1.0
 20
0.0
 30
0.0
  9
$PUCSYDIR
 10
0.0
 20
1.0
 30
0.0
  9
$PUCSORTHOREF
  2

  9
$PUCSORTHOVIEW
 70
     0
  9
$PUCSORGTOP
 10
0.0
 20
0.0
 30
0.0
  9
$PUCSORGBOTTOM
 10
0.0
 20
0.0
 30
0.0
  9
$PUCSORGLEFT
 10
0.0
 20
0.0
 30
0.0
  9
$PUCSORGRIGHT
 10
0.0
 20
0.0
 30
0.0
  9
$PUCSORGFRONT
 10
0.0
 20
0.0
 30
0.0
  9
$PUCSORGBACK
 10
0.0
 20
0.0
 30
0.0
  9
$USERI1
 70
     0
  9
$USERI2
 70
     0
  9
$USERI3
 70
     0
  9
$USERI4
 70
     0
  9
$USERI5
 70
     0
  9
$USERR1
 40
0.0
  9
$USERR2
 40
0.0
  9
$USERR3
 40
0.0
  9
$USERR4
 40
0.0
  9
$USERR5
 40
0.0
  9
$WORLDVIEW
 70
     1
  9
$SHADEDGE
 70
     3
  9
$SHADEDIF
 70
    70
  9
$TILEMODE
 70
     1
  9
$MAXACTVP
 70
    64
  9
$PINSBASE
 10
0.0
 20
0.0
 30
0.0
  9
$PLIMCHECK
 70
     0
  9
$PEXTMIN
 10
1.0000000000E+20
 20
1.0000000000E+20
 30
1.0000000000E+20
  9
$PEXTMAX
 10
-1.0000000000E+20
 20
-1.0000000000E+20
 30
-1.0000000000E+20
  9
$PLIMMIN
 10
0.0
 20
0.0
  9
$PLIMMAX
 10
420.0
 20
297.0
  9
$UNITMODE
 70
     0
  9
$VISRETAIN
 70
     1
  9
$PLINEGEN
 70
     0
  9
$PSLTSCALE
 70
     1
  9
$TREEDEPTH
 70
  3020
  9
$CMLSTYLE
  2
Standard
  9
$CMLJUST
 70
     0
  9
$CMLSCALE
 40
20.0
  9
$PROXYGRAPHICS
 70
     1
  9
$MEASUREMENT
 70
     1
  9
$CELWEIGHT
370
    -1
  9
$ENDCAPS
280
     0
  9
$JOINSTYLE
280
     0
  9
$LWDISPLAY
290
     1
  9
$INSUNITS
 70
     4
  9
$HYPERLINKBASE
  1

  9
$STYLESHEET
  1

  9
$XEDIT
290
     1
  9
$CEPSNTYPE
380
     0
  9
$PSTYLEMODE
290
     1
  9
$FINGERPRINTGUID
  2
{2bec37b1-456c-4e5c-8738-7e75d20f5ba5}
  9
$VERSIONGUID
  2
{FAEB1C32-E019-11D5-929B-00C0DF256EC4}
  9
$EXTNAMES
290
     1
  9
$PSVPSCALE
 40
0.0
  9
$OLESTARTUP
290
     0
  0
ENDSEC
  0
SECTION
  2
CLASSES
  0
CLASS
  1
ACDBDICTIONARYWDFLT
  2
AcDbDictionaryWithDefault
  3
ObjectDBX Classes
 90
        0
280
     0
281
     0
  0
CLASS
  1
VISUALSTYLE
  2
AcDbVisualStyle
  3
ObjectDBX Classes
 90
     4095
280
     0
281
     0
  0
CLASS
  1
MATERIAL
  2
AcDbMaterial
  3
ObjectDBX Classes
 90
     1153
280
     0
281
     0
  0
CLASS
  1
SCALE
  2
AcDbScale
  3
ObjectDBX Classes
 90
     1153
280
     0
281
     0
  0
CLASS
  1
TABLESTYLE
  2
AcDbTableStyle
  3
ObjectDBX Classes
 90
     4095
280
     0
281
     0
  0
CLASS
  1
MLEADERSTYLE
  2
AcDbMLeaderStyle
  3
ACDB_MLEADERSTYLE_CLASS
 90
     4095
280
     0
281
     0
  0
CLASS
  1
SUN
  2
AcDbSun
  3
SCENEOE
 90
     1153
280
     0
281
     0
  0
CLASS
  1
ACDBPLACEHOLDER
  2
AcDbPlaceHolder
  3
ObjectDBX Classes
 90
        0
280
     0
281
     0
  0
CLASS
  1
LAYOUT
  2
AcDbLayout
  3
ObjectDBX Classes
 90
        0
280
     0
281
     0
  0
ENDSEC
  0
SECTION
  2
TABLES
  0
TABLE
  2
VPORT
  5
8
330
0
100
AcDbSymbolTable
 70
     1
  0
VPORT
  5
29
330
8
100
AcDbSymbolTableRecord
100
AcDbViewportTableRecord
  2
*Active
 70
     0
 10
0.0
 20
0.0
 11
1.0
 21
1.0
 12
6720.739469098
 22
4764.0505151969
 13
0.0
 23
0.0
 14
10.0
 24
10.0
 15
10.0
 25
10.0
 16
0.0
 26
0.0
 36
1.0
 17
0.0
 27
0.0
 37
0.0
 40
2212.156703405
 41
0.988316177
 42
50.0
 43
0.0
 44
0.0
 50
0.0
 51
0.0
 71
     0
 72
   100
 73
     1
 74
     3
 75
     0
 76
     0
 77
     0
 78
     0
281
     0
 65
     1
110
0.0
120
0.0
130
0.0
111
1.0
121
0.0
131
0.0
112
0.0
122
1.0
132
0.0
 79
     0
146
0.0
  0
ENDTAB
  0
TABLE
  2
LTYPE
  5
5
330
0
100
AcDbSymbolTable
 70
     6
  0
LTYPE
  5
14
330
5
100
AcDbSymbolTableRecord
100
AcDbLinetypeTableRecord
  2
ByBlock
 70
     0
  3

 72
    65
 73
     0
 40
0.0
  0
LTYPE
  5
15
330
5
100
AcDbSymbolTableRecord
100
AcDbLinetypeTableRecord
  2
ByLayer
 70
     0
  3

 72
    65
 73
     0
 40
0.0
  0
LTYPE
  5
16
330
5
100
AcDbSymbolTableRecord
100
AcDbLinetypeTableRecord
  2
Continuous
 70
     0
  3
Solid line
 72
    65
 73
     0
 40
0.0
  0
LTYPE
  5
6E
330
5
100
AcDbSymbolTableRecord
100
AcDbLinetypeTableRecord
  2
HIDDEN
 70
     0
  3
Hidden __ __ __ __ __ __ __ __ __ __ __ __ __ __
 72
    65
 73
     2
 40
1.905
 49
1.27
 74
     0
 49
-0.635
 74
     0
  0
LTYPE
  5
6F
330
5
100
AcDbSymbolTableRecord
100
AcDbLinetypeTableRecord
  2
PHANTOM
 70
     0
  3
Phantom ______  __  __  ______  __  __  ______
 72
    65
 73
     6
 40
12.7
 49
6.35
 74
     0
 49
-1.27
 74
     0
 49
1.27
 74
     0
 49
-1.27
 74
     0
 49
1.27
 74
     0
 49
-1.27
 74
     0
  0
LTYPE
  5
70
330
5
100
AcDbSymbolTableRecord
100
AcDbLinetypeTableRecord
  2
CENTER
 70
     0
  3
Center ____ _ ____ _ ____ _ ____ _ ____ _ ____
 72
    65
 73
     4
 40
10.16
 49
6.35
 74
     0
 49
-1.27
 74
     0
 49
1.27
 74
     0
 49
-1.27
 74
     0
  0
LTYPE
  5
71
330
5
100
AcDbSymbolTableRecord
100
AcDbLinetypeTableRecord
  2
CENTERX2
 70
     0
  3
Center (2x) ________  __  ________  __  _____
 72
    65
 73
     4
 40
20.32
 49
12.7
 74
     0
 49
-2.54
 74
     0
 49
2.54
 74
     0
 49
-2.54
 74
     0
  0
LTYPE
  5
72
330
5
100
AcDbSymbolTableRecord
100
AcDbLinetypeTableRecord
  2
DOT2
 70
     0
  3
Dot (.5x) ........................................
 72
    65
 73
     2
 40
0.635
 49
0.0
 74
     0
 49
-0.635
 74
     0
  0
ENDTAB
  0
TABLE
  2
LAYER
  5
2
330
0
100
AcDbSymbolTable
 70
     1
  0
LAYER
  5
10
330
2
100
AcDbSymbolTableRecord
100
AcDbLayerTableRecord
  2
0
 70
     0
 62
     7
  6
Continuous
370
    -3
390
F
  0
ENDTAB
  0
TABLE
  2
STYLE
  5
3
330
0
100
AcDbSymbolTable
 70
     1
  0
STYLE
  5
11
330
3
100
AcDbSymbolTableRecord
100
AcDbTextStyleTableRecord
  2
Standard
 70
     0
 40
0.0
 41
1.0
 50
0.0
 71
     0
 42
3.5
  3
txt
  4

  0
ENDTAB
  0
TABLE
  2
VIEW
  5
6
330
0
100
AcDbSymbolTable
 70
     0
  0
ENDTAB
  0
TABLE
  2
UCS
  5
7
330
0
100
AcDbSymbolTable
 70
     0
  0
ENDTAB
  0
TABLE
  2
APPID
  5
9
330
0
100
AcDbSymbolTable
 70
     1
  0
APPID
  5
12
330
9
100
AcDbSymbolTableRecord
100
AcDbRegAppTableRecord
  2
ACAD
 70
     0
  0
ENDTAB
  0
TABLE
  2
DIMSTYLE
  5
A
330
0
100
AcDbSymbolTable
 70
     1
100
AcDbDimStyleTable
  0
DIMSTYLE
105
27
330
A
100
AcDbSymbolTableRecord
100
AcDbDimStyleTableRecord
  2
ISO-25
 70
     0
 41
2.5
 42
0.625
 43
3.75
 44
1.25
 73
     0
 74
     0
 77
     1
 78
     8
140
2.5
141
2.5
143
0.0393700787
147
0.625
171
     3
172
     1
178
     0
271
     2
272
     2
274
     3
278
    44
283
     0
284
     8
340
11
  0
ENDTAB
  0
TABLE
  2
BLOCK_RECORD
  5
1
330
0
100
AcDbSymbolTable
 70
     1
  0
BLOCK_RECORD
  5
1F
330
1
100
AcDbSymbolTableRecord
100
AcDbBlockTableRecord
  2
*Model_Space
340
22
  0
BLOCK_RECORD
  5
1B
330
1
100
AcDbSymbolTableRecord
100
AcDbBlockTableRecord
  2
*Paper_Space
340
1E
  0
BLOCK_RECORD
  5
23
330
1
100
AcDbSymbolTableRecord
100
AcDbBlockTableRecord
  2
*Paper_Space0
340
26
  0
ENDTAB
  0
ENDSEC
  0
SECTION
  2
BLOCKS
  0
BLOCK
  5
20
330
1F
100
AcDbEntity
  8
0
100
AcDbBlockBegin
  2
*Model_Space
 70
     0
 10
0.0
 20
0.0
 30
0.0
  3
*Model_Space
  1

  0
ENDBLK
  5
21
330
1F
100
AcDbEntity
  8
0
100
AcDbBlockEnd
  0
BLOCK
  5
1C
330
1B
100
AcDbEntity
 67
     1
  8
0
100
AcDbBlockBegin
  2
*Paper_Space
 70
     0
 10
0.0
 20
0.0
 30
0.0
  3
*Paper_Space
  1

  0
ENDBLK
  5
1D
330
1B
100
AcDbEntity
 67
     1
  8
0
100
AcDbBlockEnd
  0
BLOCK
  5
24
330
23
100
AcDbEntity
  8
0
100
AcDbBlockBegin
  2
*Paper_Space0
 70
     0
 10
0.0
 20
0.0
 30
0.0
  3
*Paper_Space0
  1

  0
ENDBLK
  5
25
330
23
100
AcDbEntity
  8
0
100
AcDbBlockEnd
  0
ENDSEC
  0
SECTION
  2
ENTITIES
  0
ARC
  5
73
330
1F
100
AcDbEntity
  8
0
  6
Continuous
 62
     7
100
AcDbCircle
 10
5777.1890995411
 20
5148.7005480022
 30
0.0
 40
3.00000000000037
100
AcDbArc
 50
90.0000563729
 51
173.3453670322
  0
ARC
  5
74
330
1F
100
AcDbEntity
  8
0
  6
Continuous
 62
     7
100
AcDbCircle
 10
5825.8484182836
 20
5148.7005480022
 30
0.0
 40
2.999999999998724
100
AcDbArc
 50
6.6546329678
 51
89.9999436252
  0
ARC
  5
75
330
1F
100
AcDbEntity
  8
0
  6
Continuous
 62
     7
100
AcDbCircle
 10
5777.3969182603
 20
5024.7005527704
 30
0.0
 40
3.00000000000044
100
AcDbArc
 50
185.8484233143
 51
270.0003767267
  0
ARC
  5
76
330
1F
100
AcDbEntity
  8
0
  6
Continuous
 62
     7
100
AcDbCircle
 10
5825.6405995644
 20
5024.7005527704
 30
0.0
 40
3.000000000000274
100
AcDbArc
 50
269.9996232733
 51
354.1515766857
  0
ARC
  5
77
330
1F
100
AcDbEntity
  8
0
  6
Continuous
 62
     7
100
AcDbCircle
 10
5781.518757005
 20
5165.2005441875
 30
0.0
 40
3.000000000000237
100
AcDbArc
 50
90.000168478
 51
179.9998315239
  0
ARC
  5
78
330
1F
100
AcDbEntity
  8
0
  6
Continuous
 62
     7
100
AcDbCircle
 10
5821.5187608197
 20
5165.2005441875
 30
0.0
 40
3.000000000001146
100
AcDbArc
 50
0.0001684761
 51
89.999831522
  0
ARC
  5
79
330
1F
100
AcDbEntity
  8
0
  6
Continuous
 62
     7
100
AcDbCircle
 10
6862.5187362626
 20
4596.9578419416
 30
0.0
 40
6.000000000000473
100
AcDbArc
 50
180.0001684759
 51
270.000400705
  0
ARC
  5
7A
330
1F
100
AcDbEntity
  8
0
  6
Continuous
 62
     7
100
AcDbCircle
 10
6891.5187448457
 20
4596.9578417033
 30
0.0
 40
6.00000023839137
100
AcDbArc
 50
270.0001001757
 51
359.9998337994
  0
ARC
  5
7B
330
1F
100
AcDbEntity
  8
0
  6
Continuous
 62
     7
100
AcDbCircle
 10
5685.518774648
 20
4596.9578421799
 30
0.0
 40
6.000000000000304
100
AcDbArc
 50
269.999599295
 51
359.9998292477
  0
ARC
  5
7C
330
1F
100
AcDbEntity
  8
0
  6
Continuous
 62
     7
100
AcDbCircle
 10
5656.5187660649
 20
4596.9578419417
 30
0.0
 40
6.000000238393587
100
AcDbArc
 50
180.000168477
 51
269.9998998243
  0
ARC
  5
7D
330
1F
100
AcDbEntity
  8
0
  6
Continuous
 62
     7
100
AcDbCircle
 10
5801.518755336
 20
5129.7005457029
 30
0.0
 40
40.00000000000085
100
AcDbArc
 50
22.5226735859
 51
54.9003678044
  0
ARC
  5
7E
330
1F
100
AcDbEntity
  8
0
  6
Continuous
 62
     7
100
AcDbCircle
 10
5801.518755336
 20
5129.7005457029
 30
0.0
 40
39.9999999999997
100
AcDbArc
 50
125.0996321952
 51
216.1070114061
  0
ARC
  5
7F
330
1F
100
AcDbEntity
  8
0
  6
Continuous
 62
     7
100
AcDbCircle
 10
5801.518755336
 20
5129.7005457029
 30
0.0
 40
40.00000000000085
100
AcDbArc
 50
323.8929885945
 51
22.5226735859
  0
ARC
  5
80
330
1F
100
AcDbEntity
  8
0
  6
Continuous
 62
     7
100
AcDbCircle
 10
6574.0187523559
 20
5538.9578414741
 30
0.0
 40
20.00000000000117
100
AcDbArc
 50
24.7216522437
 51
155.2783477563
  0
ARC
  5
81
330
1F
100
AcDbEntity
  8
0
  6
Continuous
 62
     7
100
AcDbCircle
 10
6574.0187523559
 20
5538.9578414741
 30
0.0
 40
20.00000050622781
100
AcDbArc
 50
204.7216553936
 51
335.2783446064
  0
ARC
  5
82
330
1F
100
AcDbEntity
  8
0
  6
Continuous
 62
     7
100
AcDbCircle
 10
5974.0187583163
 20
5538.9578414741
 30
0.0
 40
20.00000000000003
100
AcDbArc
 50
24.7216522437
 51
155.2783477563
  0
ARC
  5
83
330
1F
100
AcDbEntity
  8
0
  6
Continuous
 62
     7
100
AcDbCircle
 10
5974.0187583163
 20
5538.9578414741
 30
0.0
 40
20.00000050622895
100
AcDbArc
 50
204.7216553936
 51
335.2783446064
  0
ARC
  5
84
330
1F
100
AcDbEntity
  8
0
  6
Continuous
 62
     7
100
AcDbCircle
 10
6574.1295391158
 20
5761.0679983972
 30
0.0
 40
32.30051239858916
100
AcDbArc
 50
270.3177755375
 51
277.0591787719
  0
ARC
  5
85
330
1F
100
AcDbEntity
  8
0
  6
Continuous
 62
     7
100
AcDbCircle
 10
6575.9284343075
 20
5746.6830204499
 30
0.0
 40
18.76021171219919
100
AcDbArc
 50
277.5090431393
 51
284.9284589594
  0
ARC
  5
86
330
1F
100
AcDbEntity
  8
0
  6
Continuous
 62
     7
100
AcDbCircle
 10
6578.8866333412
 20
5736.8977670099
 30
0.0
 40
7.610353578727979
100
AcDbArc
 50
284.2605436333
 51
297.2230831408
  0
ARC
  5
87
330
1F
100
AcDbEntity
  8
0
  6
Continuous
 62
     7
100
AcDbCircle
 10
6582.361677754
 20
5730.2459227494
 30
0.0
 40
0.9028656005490425
100
AcDbArc
 50
304.3212370265
 51
1.5274890308
  0
ARC
  5
88
330
1F
100
AcDbEntity
  8
0
  6
Continuous
 62
     7
100
AcDbCircle
 10
6578.2878107326
 20
5722.8209306766
 30
0.0
 40
9.349662180212166
100
AcDbArc
 50
65.4259132946
 51
77.2500192839
  0
ARC
  5
89
330
1F
100
AcDbEntity
  8
0
  6
Continuous
 62
     7
100
AcDbCircle
 10
6574.0311103848
 20
5697.9359545559
 30
0.0
 40
34.65322960903364
100
AcDbArc
 50
85.5780423406
 51
90.4998136279
  0
ARC
  5
8A
330
1F
100
AcDbEntity
  8
0
  6
Continuous
 62
     7
100
AcDbCircle
 10
6572.1098117703
 20
5713.7034721745
 30
0.0
 40
18.76371191399045
100
AcDbArc
 50
97.5099176941
 51
104.9278581012
  0
ARC
  5
8B
330
1F
100
AcDbEntity
  8
0
  6
Continuous
 62
     7
100
AcDbCircle
 10
6565.6757908129
 20
5730.1440551141
 30
0.0
 40
0.9028018742009873
100
AcDbArc
 50
124.321220596
 51
181.532821051
  0
ARC
  5
8C
330
1F
100
AcDbEntity
  8
0
  6
Continuous
 62
     7
100
AcDbCircle
 10
6567.3904469027
 20
5733.2828987678
 30
0.0
 40
3.592443896723191
100
AcDbArc
 50
234.2918001326
 51
244.8104997065
  0
ARC
  5
8D
330
1F
100
AcDbEntity
  8
0
  6
Continuous
 62
     7
100
AcDbCircle
 10
6569.750891198
 20
5737.5729508184
 30
0.0
 40
9.353784975635081
100
AcDbArc
 50
245.4293976869
 51
257.2482147691
  0
ARC
  5
8E
330
1F
100
AcDbEntity
  8
0
  6
Continuous
 62
     7
100
AcDbCircle
 10
6573.1065279066
 20
5753.4337866809
 30
0.0
 40
24.62779628533527
100
AcDbArc
 50
258.5592645423
 51
265.8740812481
  0
ARC
  5
8F
330
1F
100
AcDbEntity
  8
0
  6
Continuous
 62
     7
100
AcDbCircle
 10
6574.0050433622
 20
5762.4145156934
 30
0.0
 40
34.61378780726287
100
AcDbArc
 50
265.5752364762
 51
270.5026194921
  0
ARC
  5
90
330
1F
100
AcDbEntity
  8
0
  6
Continuous
 62
     7
100
AcDbCircle
 10
6581.7780179873
 20
5731.3049065429
 30
0.0
 40
1.011452879789506
100
AcDbArc
 50
305.6856637876
 51
346.490976687
  0
ARC
  5
91
330
1F
100
AcDbEntity
  8
0
  6
Continuous
 62
     7
100
AcDbCircle
 10
6575.8199342482
 20
5746.7459608981
 30
0.0
 40
17.73567580704502
100
AcDbArc
 50
277.2939217174
 51
285.1424741763
  0
ARC
  5
92
330
1F
100
AcDbEntity
  8
0
  6
Continuous
 62
     7
100
AcDbCircle
 10
6574.0067665111
 20
5761.6181894272
 30
0.0
 40
32.72216397650021
100
AcDbArc
 50
265.432718202
 51
270.6451377665
  0
ARC
  5
93
330
1F
100
AcDbEntity
  8
0
  6
Continuous
 62
     7
100
AcDbCircle
 10
6569.9867985853
 20
5738.1249903635
 30
0.0
 40
8.835655812180729
100
AcDbArc
 50
245.0806492563
 51
257.5952833222
  0
ARC
  5
94
330
1F
100
AcDbEntity
  8
0
  6
Continuous
 62
     7
100
AcDbCircle
 10
6574.0307382006
 20
5699.7376590223
 30
0.0
 40
32.72216397650112
100
AcDbArc
 50
85.4327182019
 51
90.6451377665
  0
ARC
  5
95
330
1F
100
AcDbEntity
  8
0
  6
Continuous
 62
     7
100
AcDbCircle
 10
6572.217595863
 20
5714.6096173973
 30
0.0
 40
17.73594321602429
100
AcDbArc
 50
97.2937968078
 51
105.1423254052
  0
ARC
  5
96
330
1F
100
AcDbEntity
  8
0
  6
Continuous
 62
     7
100
AcDbCircle
 10
6578.0515197063
 20
5723.2329415205
 30
0.0
 40
8.833423547520102
100
AcDbArc
 50
65.0797411706
 51
77.5973039406
  0
ARC
  5
97
330
1F
100
AcDbEntity
  8
0
  6
Continuous
 62
     7
100
AcDbCircle
 10
6566.1341140388
 20
5730.1495163741
 30
0.0
 40
0.8593721141668677
100
AcDbArc
 50
122.7300125575
 51
183.1222310874
  0
ARC
  5
98
330
1F
100
AcDbEntity
  8
0
  6
Continuous
 62
     7
100
AcDbCircle
 10
6581.9032864994
 20
5730.2404342613
 30
0.0
 40
0.8594747580293068
100
AcDbArc
 50
302.7338700136
 51
3.1201716394
  0
ARC
  5
99
330
1F
100
AcDbEntity
  8
0
  6
Continuous
 62
     7
100
AcDbCircle
 10
6569.9867985853
 20
5737.1590672926
 30
0.0
 40
8.835655812180516
100
AcDbArc
 50
245.0806492563
 51
257.5952833222
  0
ARC
  5
9A
330
1F
100
AcDbEntity
  8
0
  6
Continuous
 62
     7
100
AcDbCircle
 10
6575.8199342482
 20
5745.7800378272
 30
0.0
 40
17.73567580704492
100
AcDbArc
 50
277.2939217175
 51
285.1424741763
  0
ARC
  5
9B
330
1F
100
AcDbEntity
  8
0
  6
Continuous
 62
     7
100
AcDbCircle
 10
6574.006766511
 20
5760.6522663563
 30
0.0
 40
32.72216397650123
100
AcDbArc
 50
265.432718202
 51
270.6451377665
  0
ARC
  5
9C
330
1F
100
AcDbEntity
  8
0
  6
Continuous
 62
     7
100
AcDbCircle
 10
5974.1295450762
 20
5761.0679983972
 30
0.0
 40
32.30051239858916
100
AcDbArc
 50
270.3177755375
 51
277.0591787719
  0
ARC
  5
9D
330
1F
100
AcDbEntity
  8
0
  6
Continuous
 62
     7
100
AcDbCircle
 10
5975.9288326099
 20
5746.6807374501
 30
0.0
 40
18.75789701874932
100
AcDbArc
 50
277.5087663143
 51
284.929009481
  0
ARC
  5
9E
330
1F
100
AcDbEntity
  8
0
  6
Continuous
 62
     7
100
AcDbCircle
 10
5978.8867533455
 20
5736.8975576802
 30
0.0
 40
7.610115266078722
100
AcDbArc
 50
284.2598822263
 51
297.2230405855
  0
ARC
  5
9F
330
1F
100
AcDbEntity
  8
0
  6
Continuous
 62
     7
100
AcDbCircle
 10
5982.3617258181
 20
5730.2458662842
 30
0.0
 40
0.9027952271414097
100
AcDbArc
 50
304.3210506932
 51
1.5311929635
  0
ARC
  5
A0
330
1F
100
AcDbEntity
  8
0
  6
Continuous
 62
     7
100
AcDbCircle
 10
5978.2875385414
 20
5722.8201071162
 30
0.0
 40
9.350526821304252
100
AcDbArc
 50
65.426461929
 51
77.2494706495
  0
ARC
  5
A1
330
1F
100
AcDbEntity
  8
0
  6
Continuous
 62
     7
100
AcDbCircle
 10
5974.0311163452
 20
5697.9359545559
 30
0.0
 40
34.65322960903376
100
AcDbArc
 50
85.5780423406
 51
90.4998136277
  0
ARC
  5
A2
330
1F
100
AcDbEntity
  8
0
  6
Continuous
 62
     7
100
AcDbCircle
 10
5972.1102104668
 20
5713.7011871164
 30
0.0
 40
18.76602870141425
100
AcDbArc
 50
97.5101946627
 51
104.9273074359
  0
ARC
  5
A3
330
1F
100
AcDbEntity
  8
0
  6
Continuous
 62
     7
100
AcDbCircle
 10
5965.6758388658
 20
5730.1439986566
 30
0.0
 40
0.9028722350068812
100
AcDbArc
 50
124.3214066042
 51
181.5291175232
  0
ARC
  5
A4
330
1F
100
AcDbEntity
  8
0
  6
Continuous
 62
     7
100
AcDbCircle
 10
5967.3703495204
 20
5733.2459725761
 30
0.0
 40
3.550473808255432
100
AcDbArc
 50
233.8520564011
 51
244.8504453869
  0
ARC
  5
A5
330
1F
100
AcDbEntity
  8
0
  6
Continuous
 62
     7
100
AcDbCircle
 10
5969.750618728
 20
5737.5721263929
 30
0.0
 40
9.352919427316841
100
AcDbArc
 50
245.4288488641
 51
257.2487635919
  0
ARC
  5
A6
330
1F
100
AcDbEntity
  8
0
  6
Continuous
 62
     7
100
AcDbCircle
 10
5973.0786305402
 20
5753.1856080619
 30
0.0
 40
24.37825529559032
100
AcDbArc
 50
258.1888670262
 51
265.8975250669
  0
ARC
  5
A7
330
1F
100
AcDbEntity
  8
0
  6
Continuous
 62
     7
100
AcDbCircle
 10
5974.0050493226
 20
5762.4145156934
 30
0.0
 40
34.61378780726275
100
AcDbArc
 50
265.5752364762
 51
270.5026194922
  0
ARC
  5
A8
330
1F
100
AcDbEntity
  8
0
  6
Continuous
 62
     7
100
AcDbCircle
 10
5981.7780239477
 20
5731.3049065429
 30
0.0
 40
1.011452879788409
100
AcDbArc
 50
305.6856637876
 51
346.490976687
  0
ARC
  5
A9
330
1F
100
AcDbEntity
  8
0
  6
Continuous
 62
     7
100
AcDbCircle
 10
5975.8199148092
 20
5746.7462310522
 30
0.0
 40
17.73594321602337
100
AcDbArc
 50
277.2937968078
 51
285.1423254052
  0
ARC
  5
AA
330
1F
100
AcDbEntity
  8
0
  6
Continuous
 62
     7
100
AcDbCircle
 10
5974.0067724716
 20
5761.6181894272
 30
0.0
 40
32.72216397650021
100
AcDbArc
 50
265.432718202
 51
270.6451377665
  0
ARC
  5
AB
330
1F
100
AcDbEntity
  8
0
  6
Continuous
 62
     7
100
AcDbCircle
 10
5969.9870389408
 20
5738.1255925746
 30
0.0
 40
8.836300719146932
100
AcDbArc
 50
245.0809161667
 51
257.5944490396
  0
ARC
  5
AC
330
1F
100
AcDbEntity
  8
0
  6
Continuous
 62
     7
100
AcDbCircle
 10
5974.0307441611
 20
5699.7376590223
 30
0.0
 40
32.72216397650112
100
AcDbArc
 50
85.4327182019
 51
90.6451377665
  0
ARC
  5
AD
330
1F
100
AcDbEntity
  8
0
  6
Continuous
 62
     7
100
AcDbCircle
 10
5972.217576424
 20
5714.6098875514
 30
0.0
 40
17.73567580704329
100
AcDbArc
 50
97.2939217175
 51
105.1424741763
  0
ARC
  5
AE
330
1F
100
AcDbEntity
  8
0
  6
Continuous
 62
     7
100
AcDbCircle
 10
5978.0517598208
 20
5723.2335430979
 30
0.0
 40
8.832779317695847
100
AcDbArc
 50
65.079474402
 51
77.5981380595
  0
ARC
  5
AF
330
1F
100
AcDbEntity
  8
0
  6
Continuous
 62
     7
100
AcDbCircle
 10
5966.1341199992
 20
5730.1495163741
 30
0.0
 40
0.8593721141667814
100
AcDbArc
 50
122.7300125652
 51
183.1222310915
  0
ARC
  5
B0
330
1F
100
AcDbEntity
  8
0
  6
Continuous
 62
     7
100
AcDbCircle
 10
5981.9032924599
 20
5730.2404342613
 30
0.0
 40
0.8594747580301394
100
AcDbArc
 50
302.7338700059
 51
3.1201716353
  0
ARC
  5
B1
330
1F
100
AcDbEntity
  8
0
  6
Continuous
 62
     7
100
AcDbCircle
 10
5969.9870389408
 20
5737.1596695037
 30
0.0
 40
8.836300719146523
100
AcDbArc
 50
245.0809161666
 51
257.5944490396
  0
ARC
  5
B2
330
1F
100
AcDbEntity
  8
0
  6
Continuous
 62
     7
100
AcDbCircle
 10
5975.8199148092
 20
5745.7803079813
 30
0.0
 40
17.73594321602418
100
AcDbArc
 50
277.2937968078
 51
285.1423254052
  0
ARC
  5
B3
330
1F
100
AcDbEntity
  8
0
  6
Continuous
 62
     7
100
AcDbCircle
 10
5974.0067724715
 20
5760.6522663563
 30
0.0
 40
32.72216397650123
100
AcDbArc
 50
265.432718202
 51
270.6451377665
  0
CIRCLE
  5
B4
330
1F
100
AcDbEntity
  8
0
  6
Continuous
 62
     7
100
AcDbCircle
 10
6574.0187523558
 20
5738.9578414649
 30
0.0
 40
29.50000000000012
  0
CIRCLE
  5
B5
330
1F
100
AcDbEntity
  8
0
  6
Continuous
 62
     7
100
AcDbCircle
 10
6574.0187523558
 20
5738.9578414649
 30
0.0
 40
30.00000000000071
  0
CIRCLE
  5
B6
330
1F
100
AcDbEntity
  8
0
  6
Continuous
 62
     7
100
AcDbCircle
 10
5974.0187583164
 20
5738.957841464
 30
0.0
 40
29.49999999999985
  0
CIRCLE
  5
B7
330
1F
100
AcDbEntity
  8
0
  6
Continuous
 62
     7
100
AcDbCircle
 10
5974.0187583164
 20
5738.957841464
 30
0.0
 40
30.00000000000071
  0
ARC
  5
B8
330
1F
100
AcDbEntity
  8
0
  6
Continuous
 62
     7
100
AcDbCircle
 10
6574.0187523558
 20
5738.9578414649
 30
0.0
 40
13.99999720743586
100
AcDbArc
 50
339.5575579255
 51
200.4424463344
  0
ARC
  5
B9
330
1F
100
AcDbEntity
  8
0
  6
Continuous
 62
     7
100
AcDbCircle
 10
6574.0187523558
 20
5738.9578414649
 30
0.0
 40
13.0000014990523
100
AcDbArc
 50
339.1746305984
 51
200.8253694016
  0
ARC
  5
BA
330
1F
100
AcDbEntity
  8
0
  6
Continuous
 62
     7
100
AcDbCircle
 10
6574.0187523558
 20
5738.9578414649
 30
0.0
 40
13.99999720743586
100
AcDbArc
 50
200.4424463344
 51
339.5575579255
  0
ARC
  5
BB
330
1F
100
AcDbEntity
  8
0
  6
Continuous
 62
     7
100
AcDbCircle
 10
6574.1490338723
 20
5760.7637333109
 30
0.0
 40
32.51128293106472
100
AcDbArc
 50
270.3985890961
 51
276.9298384689
  0
ARC
  5
BC
330
1F
100
AcDbEntity
  8
0
  6
Continuous
 62
     7
100
AcDbCircle
 10
6573.1483361634
 20
5753.615523693
 30
0.0
 40
25.32747503465537
100
AcDbArc
 50
258.476708076
 51
265.8934337911
  0
ARC
  5
BD
330
1F
100
AcDbEntity
  8
0
  6
Continuous
 62
     7
100
AcDbCircle
 10
5974.0187583164
 20
5738.957841464
 30
0.0
 40
13.00000149873219
100
AcDbArc
 50
339.1746306021
 51
200.8253693979
  0
ARC
  5
BE
330
1F
100
AcDbEntity
  8
0
  6
Continuous
 62
     7
100
AcDbCircle
 10
5974.0187583164
 20
5738.957841464
 30
0.0
 40
14.0000027933141
100
AcDbArc
 50
200.4424378134
 51
339.5575579255
  0
ARC
  5
BF
330
1F
100
AcDbEntity
  8
0
  6
Continuous
 62
     7
100
AcDbCircle
 10
5974.0187583164
 20
5738.957841464
 30
0.0
 40
14.0000027933141
100
AcDbArc
 50
339.5575579255
 51
200.4424378134
  0
ARC
  5
C0
330
1F
100
AcDbEntity
  8
0
  6
Continuous
 62
     7
100
AcDbCircle
 10
5974.1491734482
 20
5760.7611530442
 30
0.0
 40
32.50870179752761
100
AcDbArc
 50
270.3983852442
 51
276.9301012452
  0
ARC
  5
C1
330
1F
100
AcDbEntity
  8
0
  6
Continuous
 62
     7
100
AcDbCircle
 10
5973.1485674709
 20
5753.6175040789
 30
0.0
 40
25.32946647368333
100
AcDbArc
 50
258.4770374441
 51
265.8932461575
  0
ARC
  5
C2
330
1F
100
AcDbEntity
  8
0
  6
Continuous
 62
     7
100
AcDbCircle
 10
7314.0454730894
 20
5743.9717741371
 30
0.0
 40
4.324969328314173
100
AcDbArc
 50
206.0594629037
 51
241.476000153
  0
ARC
  5
C3
330
1F
100
AcDbEntity
  8
0
  6
Continuous
 62
     7
100
AcDbCircle
 10
7314.0454532396
 20
5743.9717882099
 30
0.0
 40
4.324969328315058
100
AcDbArc
 50
118.5237005553
 51
153.9399385117
  0
ARC
  5
C4
330
1F
100
AcDbEntity
  8
0
  6
Continuous
 62
     7
100
AcDbCircle
 10
7314.0454730894
 20
5833.9717777134
 30
0.0
 40
4.324969328314427
100
AcDbArc
 50
206.0594629038
 51
241.476000153
  0
ARC
  5
C5
330
1F
100
AcDbEntity
  8
0
  6
Continuous
 62
     7
100
AcDbCircle
 10
7314.0454730894
 20
5833.9718025744
 30
0.0
 40
4.324969328312956
100
AcDbArc
 50
118.523999847
 51
153.9405370963
  0
ARC
  5
C6
330
1F
100
AcDbEntity
  8
0
  6
Continuous
 62
     7
100
AcDbCircle
 10
7579.1898303127
 20
5148.7005480022
 30
0.0
 40
2.999999999999467
100
AcDbArc
 50
6.6546329678
 51
89.9999436252
  0
ARC
  5
C7
330
1F
100
AcDbEntity
  8
0
  6
Continuous
 62
     7
100
AcDbCircle
 10
7530.7383600917
 20
5024.7005527705
 30
0.0
 40
3.000000000000828
100
AcDbArc
 50
185.8484233152
 51
269.9998075448
  0
ARC
  5
C8
330
1F
100
AcDbEntity
  8
0
  6
Continuous
 62
     7
100
AcDbCircle
 10
7578.9820115935
 20
5024.7005527705
 30
0.0
 40
3.000000000000316
100
AcDbArc
 50
269.9999078651
 51
354.1515766845
  0
ARC
  5
C9
330
1F
100
AcDbEntity
  8
0
  6
Continuous
 62
     7
100
AcDbCircle
 10
7497.8601685572
 20
5152.7005561085
 30
0.0
 40
2.999999999999697
100
AcDbArc
 50
89.9995992948
 51
180.0004007052
  0
ARC
  5
CA
330
1F
100
AcDbEntity
  8
0
  6
Continuous
 62
     7
100
AcDbCircle
 10
7497.8601685573
 20
5106.7005401342
 30
0.0
 40
3.000000000000236
100
AcDbArc
 50
180.0001684749
 51
270.000400704
  0
ARC
  5
CB
330
1F
100
AcDbEntity
  8
0
  6
Continuous
 62
     7
100
AcDbCircle
 10
7534.8601690341
 20
5165.2005441876
 30
0.0
 40
3.000000000001146
100
AcDbArc
 50
89.9995992941
 51
179.999831525
  0
ARC
  5
CC
330
1F
100
AcDbEntity
  8
0
  6
Continuous
 62
     7
100
AcDbCircle
 10
7574.86018775
 20
5165.2005441875
 30
0.0
 40
3.000000000000703
100
AcDbArc
 50
0.0001684762
 51
90.0001161139
  0
ARC
  5
CD
330
1F
100
AcDbEntity
  8
0
  6
Continuous
 62
     7
100
AcDbCircle
 10
7344.7642678819
 20
5538.9578307578
 30
0.0
 40
27.99999999999938
100
AcDbArc
 50
15.463634253
 51
45.5847087668
  0
ARC
  5
CE
330
1F
100
AcDbEntity
  8
0
  6
Continuous
 62
     7
100
AcDbCircle
 10
7344.7642674324
 20
5538.9578505395
 30
0.0
 40
28.00000000000071
100
AcDbArc
 50
314.415292521
 51
344.5348075901
  0
ARC
  5
CF
330
1F
100
AcDbEntity
  8
0
  6
Continuous
 62
     7
100
AcDbCircle
 10
7323.8680802394
 20
4596.9578419417
 30
0.0
 40
6.000000238403485
100
AcDbArc
 50
180.0001684772
 51
270.0001389635
  0
ARC
  5
D0
330
1F
100
AcDbEntity
  8
0
  6
Continuous
 62
     7
100
AcDbCircle
 10
7352.8680947916
 20
4596.9578389572
 30
0.0
 40
5.999996777068633
100
AcDbArc
 50
270.0001114766
 51
359.9998600229
  0
ARC
  5
D1
330
1F
100
AcDbEntity
  8
0
  6
Continuous
 62
     7
100
AcDbCircle
 10
7755.9601834852
 20
4596.9578414649
 30
0.0
 40
5.999999377161657
100
AcDbArc
 50
180.0001639242
 51
270.0
  0
ARC
  5
D2
330
1F
100
AcDbEntity
  8
0
  6
Continuous
 62
     7
100
AcDbCircle
 10
7784.9601834852
 20
4596.9578421127
 30
0.0
 40
6.000000024962061
100
AcDbArc
 50
270.0
 51
359.9998298898
  0
ARC
  5
D3
330
1F
100
AcDbEntity
  8
0
  6
Continuous
 62
     7
100
AcDbCircle
 10
7314.5601935911
 20
5846.2410555296
 30
0.0
 40
2.200000000000202
100
AcDbArc
 50
78.0005868032
 51
179.9994031944
  0
ARC
  5
D4
330
1F
100
AcDbEntity
  8
0
  6
Continuous
 62
     7
100
AcDbCircle
 10
7360.1601757099
 20
5836.548479194
 30
0.0
 40
2.19999999999928
100
AcDbArc
 50
0.0005141914
 51
78.0001894258
  0
ARC
  5
D5
330
1F
100
AcDbEntity
  8
0
  6
Continuous
 62
     7
100
AcDbCircle
 10
7790.1601828624
 20
5426.7578414649
 30
0.0
 40
2.200000000000728
100
AcDbArc
 50
0.0000003099
 51
89.9999996901
  0
ARC
  5
D6
330
1F
100
AcDbEntity
  8
0
  6
Continuous
 62
     7
100
AcDbCircle
 10
7532.4914388117
 20
5148.8418788899
 30
0.0
 40
2.860453726130345
100
AcDbArc
 50
92.0240203819
 51
175.8637136746
  0
ARC
  5
D7
330
1F
100
AcDbEntity
  8
0
  6
Continuous
 62
     7
100
AcDbCircle
 10
7372.3602539986
 20
5711.0097639942
 30
0.0
 40
14.04532662979723
100
AcDbArc
 50
83.2538341642
 51
96.6618116331
  0
ARC
  5
D8
330
1F
100
AcDbEntity
  8
0
  6
Continuous
 62
     7
100
AcDbCircle
 10
5802.5187336073
 20
4158.0746840826
 30
0.0
 40
4.32496932831499
100
AcDbArc
 50
116.0594629037
 51
151.4760001529
  0
ARC
  5
D9
330
1F
100
AcDbEntity
  8
0
  6
Continuous
 62
     7
100
AcDbCircle
 10
5802.5187476801
 20
4158.0747039324
 30
0.0
 40
4.324969328315926
100
AcDbArc
 50
28.5237005553
 51
63.9399385116
  0
ARC
  5
DA
330
1F
100
AcDbEntity
  8
0
  6
Continuous
 62
     7
100
AcDbCircle
 10
5662.5187479124
 20
4158.0746840826
 30
0.0
 40
4.32496932831499
100
AcDbArc
 50
116.0594629037
 51
151.4760001529
  0
ARC
  5
DB
330
1F
100
AcDbEntity
  8
0
  6
Continuous
 62
     7
100
AcDbCircle
 10
5662.5187727734
 20
4158.0746840826
 30
0.0
 40
4.32496932831499
100
AcDbArc
 50
28.5239998471
 51
63.9405370963
  0
ARC
  5
DC
330
1F
100
AcDbEntity
  8
0
  6
Continuous
 62
     7
100
AcDbCircle
 10
5801.5187553361
 20
3917.2599743096
 30
0.0
 40
5.250000000000493
100
AcDbArc
 50
98.2132107017
 51
261.7867892983
  0
ARC
  5
DD
330
1F
100
AcDbEntity
  8
0
  6
Continuous
 62
     7
100
AcDbCircle
 10
5801.5187553361
 20
3917.2599743096
 30
0.0
 40
5.250000000000493
100
AcDbArc
 50
278.2132107017
 51
81.7867892983
  0
ARC
  5
DE
330
1F
100
AcDbEntity
  8
0
  6
Continuous
 62
     7
100
AcDbCircle
 10
5801.5187553361
 20
3917.2599743096
 30
0.0
 40
5.250000000000493
100
AcDbArc
 50
81.7867892983
 51
98.2132107017
  0
ARC
  5
DF
330
1F
100
AcDbEntity
  8
0
  6
Continuous
 62
     7
100
AcDbCircle
 10
5801.5187553361
 20
3917.2599743096
 30
0.0
 40
5.250000000000043
100
AcDbArc
 50
261.7867892983
 51
278.2132107017
  0
CIRCLE
  5
E0
330
1F
100
AcDbEntity
  8
0
  6
Continuous
 62
     7
100
AcDbCircle
 10
5801.5187553361
 20
3917.2599743096
 30
0.0
 40
24.96512544439429
  0
CIRCLE
  5
E1
330
1F
100
AcDbEntity
  8
0
  6
Continuous
 62
     7
100
AcDbCircle
 10
5801.5187553361
 20
3917.2599743096
 30
0.0
 40
34.99999999999909
  0
CIRCLE
  5
E2
330
1F
100
AcDbEntity
  8
0
  6
Continuous
 62
     7
100
AcDbCircle
 10
5801.5187553361
 20
3917.2599743096
 30
0.0
 40
35.16921944985916
  0
CIRCLE
  5
E3
330
1F
100
AcDbEntity
  8
0
  6
Continuous
 62
     7
100
AcDbCircle
 10
5801.5187553361
 20
3917.2599743096
 30
0.0
 40
22.0
  0
CIRCLE
  5
E4
330
1F
100
AcDbEntity
  8
0
  6
Continuous
 62
     7
100
AcDbCircle
 10
5801.5187553361
 20
3917.2599743096
 30
0.0
 40
20.49999999999909
  0
CIRCLE
  5
E5
330
1F
100
AcDbEntity
  8
0
  6
Continuous
 62
     7
100
AcDbCircle
 10
5801.5187553361
 20
3917.2599743096
 30
0.0
 40
19.48700763430315
  0
CIRCLE
  5
E6
330
1F
100
AcDbEntity
  8
0
  6
Continuous
 62
     7
100
AcDbCircle
 10
5801.5187553361
 20
3917.2599743096
 30
0.0
 40
5.699999999999818
  0
CIRCLE
  5
E7
330
1F
100
AcDbEntity
  8
0
  6
Continuous
 62
     7
100
AcDbCircle
 10
5801.5187553361
 20
3931.2599743096
 30
0.0
 40
5.0
  0
CIRCLE
  5
E8
330
1F
100
AcDbEntity
  8
0
  6
Continuous
 62
     7
100
AcDbCircle
 10
5813.6431109891
 20
3924.2599743096
 30
0.0
 40
5.0
  0
CIRCLE
  5
E9
330
1F
100
AcDbEntity
  8
0
  6
Continuous
 62
     7
100
AcDbCircle
 10
5813.6431109891
 20
3910.2599743096
 30
0.0
 40
5.000000000000909
  0
CIRCLE
  5
EA
330
1F
100
AcDbEntity
  8
0
  6
Continuous
 62
     7
100
AcDbCircle
 10
5801.5187553361
 20
3903.2599743096
 30
0.0
 40
5.0
  0
CIRCLE
  5
EB
330
1F
100
AcDbEntity
  8
0
  6
Continuous
 62
     7
100
AcDbCircle
 10
5789.3943996831
 20
3910.2599743096
 30
0.0
 40
5.000000000000909
  0
CIRCLE
  5
EC
330
1F
100
AcDbEntity
  8
0
  6
Continuous
 62
     7
100
AcDbCircle
 10
5789.3943996831
 20
3924.2599743096
 30
0.0
 40
5.0
  0
ARC
  5
ED
330
1F
100
AcDbEntity
  8
0
  6
Continuous
 62
     7
100
AcDbCircle
 10
5801.5187553361
 20
3917.2599743096
 30
0.0
 40
14.5
100
AcDbArc
 50
249.8908583977
 51
290.1091416023
  0
ARC
  5
EE
330
1F
100
AcDbEntity
  8
0
  6
Continuous
 62
     7
100
AcDbCircle
 10
5801.5187667588
 20
3917.2600091285
 30
0.0
 40
16.33403069561493
100
AcDbArc
 50
326.6129257652
 51
333.3868042559
  0
ARC
  5
EF
330
1F
100
AcDbEntity
  8
0
  6
Continuous
 62
     7
100
AcDbCircle
 10
5801.5187553361
 20
3917.2599743096
 30
0.0
 40
14.50000000000053
100
AcDbArc
 50
9.890858395
 51
50.1091416052
  0
ARC
  5
F0
330
1F
100
AcDbEntity
  8
0
  6
Continuous
 62
     7
100
AcDbCircle
 10
5801.5187553361
 20
3917.2599743096
 30
0.0
 40
16.33403064828694
100
AcDbArc
 50
86.6130343846
 51
93.3869405696
  0
ARC
  5
F1
330
1F
100
AcDbEntity
  8
0
  6
Continuous
 62
     7
100
AcDbCircle
 10
5801.5187553361
 20
3917.2599743096
 30
0.0
 40
14.50000000000031
100
AcDbArc
 50
129.8908583965
 51
170.1091416035
  0
ARC
  5
F2
330
1F
100
AcDbEntity
  8
0
  6
Continuous
 62
     7
100
AcDbCircle
 10
5801.518626756
 20
3917.2601977442
 30
0.0
 40
16.33403069561468
100
AcDbArc
 50
206.6139357688
 51
213.3878666216
  0
ELLIPSE
  5
F3
330
1F
100
AcDbEntity
  8
0
  6
Continuous
 62
     7
100
AcDbEllipse
 10
6862.5187553361
 20
4596.9578414649
 30
0.0
 11
0.0
 21
5.999999999999091
 31
0.0
210
0.0
220
0.0
230
1.0
 40
0.5833333333
 41
1.570796326794897
 42
3.141592653589793
  0
ELLIPSE
  5
F4
330
1F
100
AcDbEntity
  8
0
  6
Continuous
 62
     7
100
AcDbEllipse
 10
6891.5187553361
 20
4596.9578414649
 30
0.0
 11
0.0
 21
5.999999999999091
 31
0.0
210
0.0
220
0.0
230
1.0
 40
0.5833333333
 41
3.141592653589793
 42
4.712388980384698
  0
ELLIPSE
  5
F5
330
1F
100
AcDbEntity
  8
0
  6
Continuous
 62
     7
100
AcDbEllipse
 10
5685.5187553361
 20
4596.9578414649
 30
0.0
 11
0.0
 21
5.999999999999091
 31
0.0
210
0.0
220
0.0
230
1.0
 40
0.5833333333
 41
3.141592653589793
 42
4.712388980384698
  0
ELLIPSE
  5
F6
330
1F
100
AcDbEntity
  8
0
  6
Continuous
 62
     7
100
AcDbEllipse
 10
5656.5187555745
 20
4596.9578417033
 30
0.0
 11
0.0
 21
5.999999999999091
 31
0.0
210
0.0
220
0.0
230
1.0
 40
0.5833333333
 41
1.570796326794897
 42
3.141592653589793
  0
ELLIPSE
  5
F7
330
1F
100
AcDbEntity
  8
0
  6
Continuous
 62
     7
100
AcDbEllipse
 10
7352.8680947916
 20
4596.9578389572
 30
0.0
 11
0.0
 21
6.0
 31
0.0
210
0.0
220
0.0
230
1.0
 40
0.5833333333
 41
3.141592653589793
 42
4.712388980384698
  0
ELLIPSE
  5
F8
330
1F
100
AcDbEntity
  8
0
  6
Continuous
 62
     7
100
AcDbEllipse
 10
7323.8680947916
 20
4596.9578417033
 30
0.0
 11
0.0
 21
6.0
 31
0.0
210
0.0
220
0.0
230
1.0
 40
0.5833333333
 41
1.570796326794897
 42
3.141592653589793
  0
ELLIPSE
  5
F9
330
1F
100
AcDbEntity
  8
0
  6
Continuous
 62
     7
100
AcDbEllipse
 10
7755.9601834852
 20
4596.9578414649
 30
0.0
 11
0.0
 21
5.999999377161657
 31
0.0
210
0.0
220
0.0
230
1.0
 40
0.5833333333
 41
1.570796326794897
 42
3.141592653589793
  0
ELLIPSE
  5
FA
330
1F
100
AcDbEntity
  8
0
  6
Continuous
 62
     7
100
AcDbEllipse
 10
7784.9601834852
 20
4596.9578421127
 30
0.0
 11
0.0
 21
6.000000024962901
 31
0.0
210
0.0
220
0.0
230
1.0
 40
0.5833333333
 41
3.141592653589793
 42
4.712388980384698
  0
LINE
  5
FB
330
1F
100
AcDbEntity
  8
0
  6
Continuous
 62
     7
100
AcDbLine
 10
6872.0187453225
 20
4590.9578419417
 30
0.0
 11
6872.0187453225
 21
4586.9578338355
 31
0.0
  0
LINE
  5
FC
330
1F
100
AcDbEntity
  8
0
  6
Continuous
 62
     7
100
AcDbLine
 10
6882.0187357858
 20
4586.9578338355
 30
0.0
 11
6882.0187357858
 21
4590.9578419417
 31
0.0
  0
LINE
  5
FD
330
1F
100
AcDbEntity
  8
0
  6
Continuous
 62
     7
100
AcDbLine
 10
5666.0187748864
 20
4590.9578419417
 30
0.0
 11
5666.0187748864
 21
4586.9578338355
 31
0.0
  0
LINE
  5
FE
330
1F
100
AcDbEntity
  8
0
  6
Continuous
 62
     7
100
AcDbLine
 10
5676.0187653497
 20
4586.9578338355
 30
0.0
 11
5676.0187653497
 21
4590.9578419417
 31
0.0
  0
LINE
  5
FF
330
1F
100
AcDbEntity
  8
0
  6
Continuous
 62
     7
100
AcDbLine
 10
6899.0187553361
 20
5848.4410560817
 30
0.0
 11
6897.0187810853
 21
5848.4410560817
 31
0.0
  0
LINE
  5
100
330
1F
100
AcDbEntity
  8
0
  6
Continuous
 62
     7
100
AcDbLine
 10
5651.0187295869
 20
5848.4410560817
 30
0.0
 11
5649.0187553361
 21
5848.4410560817
 31
0.0
  0
LINE
  5
101
330
1F
100
AcDbEntity
  8
0
  6
Continuous
 62
     7
100
AcDbLine
 10
6897.0187810853
 20
5848.4410560817
 30
0.0
 11
5651.0187295869
 21
5848.4410560817
 31
0.0
  0
LINE
  5
102
330
1F
100
AcDbEntity
  8
0
  6
Continuous
 62
     7
100
AcDbLine
 10
5785.5187562898
 20
5178.9578414649
 30
0.0
 11
5785.5187562898
 21
5168.2005441875
 31
0.0
  0
LINE
  5
103
330
1F
100
AcDbEntity
  8
0
  6
Continuous
 62
     7
100
AcDbLine
 10
5785.5187562898
 20
5154.200545618
 30
0.0
 11
5785.5187562898
 21
5151.7005480022
 31
0.0
  0
LINE
  5
104
330
1F
100
AcDbEntity
  8
0
  6
Continuous
 62
     7
100
AcDbLine
 10
5817.518761535
 20
5151.7005480022
 30
0.0
 11
5817.518761535
 21
5154.200545618
 31
0.0
  0
LINE
  5
105
330
1F
100
AcDbEntity
  8
0
  6
Continuous
 62
     7
100
AcDbLine
 10
5817.518761535
 20
5168.2005441875
 30
0.0
 11
5817.518761535
 21
5178.9578414649
 31
0.0
  0
LINE
  5
106
330
1F
100
AcDbEntity
  8
0
  6
Continuous
 62
     7
100
AcDbLine
 10
5767.5187496141
 20
5091.700545618
 30
0.0
 11
5774.4125334218
 21
5024.3948615283
 31
0.0
  0
LINE
  5
107
330
1F
100
AcDbEntity
  8
0
  6
Continuous
 62
     7
100
AcDbLine
 10
5828.6249844029
 20
5024.3948615283
 30
0.0
 11
5835.5187682107
 21
5091.700545618
 31
0.0
  0
LINE
  5
108
330
1F
100
AcDbEntity
  8
0
  6
Continuous
 62
     7
100
AcDbLine
 10
5835.5187682107
 20
5091.700545618
 30
0.0
 11
5828.8282064393
 21
5149.0482009143
 31
0.0
  0
LINE
  5
109
330
1F
100
AcDbEntity
  8
0
  6
Continuous
 62
     7
100
AcDbLine
 10
5774.2093113854
 20
5149.0482009143
 30
0.0
 11
5767.5187496141
 21
5091.700545618
 31
0.0
  0
LINE
  5
10A
330
1F
100
AcDbEntity
  8
0
  6
Continuous
 62
     7
100
AcDbLine
 10
5826.5187648728
 20
5154.200545618
 30
0.0
 11
5824.5187608197
 21
5158.2005537242
 31
0.0
  0
LINE
  5
10B
330
1F
100
AcDbEntity
  8
0
  6
Continuous
 62
     7
100
AcDbLine
 10
5778.518757005
 20
5158.2005537242
 30
0.0
 11
5776.5187529519
 21
5154.200545618
 31
0.0
  0
LINE
  5
10C
330
1F
100
AcDbEntity
  8
0
  6
Continuous
 62
     7
100
AcDbLine
 10
5778.518757005
 20
5165.2005530089
 30
0.0
 11
5778.518757005
 21
5158.2005537242
 31
0.0
  0
LINE
  5
10D
330
1F
100
AcDbEntity
  8
0
  6
Continuous
 62
     7
100
AcDbLine
 10
5824.5187608197
 20
5158.2005537242
 30
0.0
 11
5824.5187608197
 21
5165.2005530089
 31
0.0
  0
LINE
  5
10E
330
1F
100
AcDbEntity
  8
0
  6
Continuous
 62
     7
100
AcDbLine
 10
5785.5187562898
 20
5154.200545618
 30
0.0
 11
5785.5187562898
 21
5151.7005480022
 31
0.0
  0
LINE
  5
10F
330
1F
100
AcDbEntity
  8
0
  6
Continuous
 62
     7
100
AcDbLine
 10
5817.518761535
 20
5151.7005480022
 30
0.0
 11
5817.518761535
 21
5154.200545618
 31
0.0
  0
LINE
  5
110
330
1F
100
AcDbEntity
  8
0
  6
Continuous
 62
     7
100
AcDbLine
 10
5972.4281040624
 20
5725.0485039443
 30
0.0
 11
5972.5187627271
 21
5724.9578452796
 31
0.0
  0
LINE
  5
111
330
1F
100
AcDbEntity
  8
0
  6
Continuous
 62
     7
100
AcDbLine
 10
5975.5187539056
 20
5724.9578452796
 30
0.0
 11
5975.6094125703
 21
5725.0485039443
 31
0.0
  0
LINE
  5
112
330
1F
100
AcDbEntity
  8
0
  6
Continuous
 62
     7
100
AcDbLine
 10
6572.4280981019
 20
5725.0485039443
 30
0.0
 11
6572.5187567666
 21
5724.9578452796
 31
0.0
  0
LINE
  5
113
330
1F
100
AcDbEntity
  8
0
  6
Continuous
 62
     7
100
AcDbLine
 10
6575.5187479451
 20
5724.9578452796
 30
0.0
 11
6575.6094066098
 21
5725.0485039443
 31
0.0
  0
LINE
  5
114
330
1F
100
AcDbEntity
  8
0
  6
Continuous
 62
     7
100
AcDbLine
 10
6564.7687522367
 20
5730.7986534328
 30
0.0
 11
6564.7687522367
 21
5730.1949477881
 31
0.0
  0
LINE
  5
115
330
1F
100
AcDbEntity
  8
0
  6
Continuous
 62
     7
100
AcDbLine
 10
6583.2687524751
 20
5730.1949477881
 30
0.0
 11
6583.2687524751
 21
5730.7986534328
 31
0.0
  0
LINE
  5
116
330
1F
100
AcDbEntity
  8
0
  6
Continuous
 62
     7
100
AcDbLine
 10
6581.5187601045
 20
5731.1608708591
 30
0.0
 11
6581.5187601045
 21
5731.3614404887
 31
0.0
  0
LINE
  5
117
330
1F
100
AcDbEntity
  8
0
  6
Continuous
 62
     7
100
AcDbLine
 10
6566.5187446073
 20
5731.8575597495
 30
0.0
 11
6566.5187446073
 21
5731.1608708591
 31
0.0
  0
LINE
  5
118
330
1F
100
AcDbEntity
  8
0
  6
Continuous
 62
     7
100
AcDbLine
 10
5964.7687581971
 20
5730.7986534328
 30
0.0
 11
5964.7687581971
 21
5730.1949477881
 31
0.0
  0
LINE
  5
119
330
1F
100
AcDbEntity
  8
0
  6
Continuous
 62
     7
100
AcDbLine
 10
5983.2687584355
 20
5730.1949477881
 30
0.0
 11
5983.2687584355
 21
5730.7986534328
 31
0.0
  0
LINE
  5
11A
330
1F
100
AcDbEntity
  8
0
  6
Continuous
 62
     7
100
AcDbLine
 10
5981.5187660649
 20
5731.1608708591
 30
0.0
 11
5981.5187660649
 21
5731.3614404887
 31
0.0
  0
LINE
  5
11B
330
1F
100
AcDbEntity
  8
0
  6
Continuous
 62
     7
100
AcDbLine
 10
5966.5187505677
 20
5731.8575597495
 30
0.0
 11
5966.5187505677
 21
5731.1608708591
 31
0.0
  0
LINE
  5
11C
330
1F
100
AcDbEntity
  8
0
  6
Continuous
 62
     7
100
AcDbLine
 10
6575.6687430337
 20
5725.0529742927
 30
0.0
 11
6575.6687430337
 21
5725.0554180831
 31
0.0
  0
LINE
  5
11D
330
1F
100
AcDbEntity
  8
0
  6
Continuous
 62
     7
100
AcDbLine
 10
5975.6687489942
 20
5725.0529742927
 30
0.0
 11
5975.6687489942
 21
5725.0554180831
 31
0.0
  0
LINE
  5
11E
330
1F
100
AcDbEntity
  8
0
  6
Continuous
 62
     7
100
AcDbLine
 10
5691.0187510446
 20
4735.9578228683
 30
0.0
 11
6857.0187596276
 21
4735.9578228683
 31
0.0
  0
LINE
  5
11F
330
1F
100
AcDbEntity
  8
0
  6
Continuous
 62
     7
100
AcDbLine
 10
5691.0187510446
 20
4733.9578486175
 30
0.0
 11
6857.0187596276
 21
4733.9578486175
 31
0.0
  0
LINE
  5
120
330
1F
100
AcDbEntity
  8
0
  6
Continuous
 62
     7
100
AcDbLine
 10
5691.0187510446
 20
4773.9578700751
 30
0.0
 11
6857.0187596276
 21
4773.9578700751
 31
0.0
  0
LINE
  5
121
330
1F
100
AcDbEntity
  8
0
  6
Continuous
 62
     7
100
AcDbLine
 10
5691.0187510446
 20
4771.9578362197
 30
0.0
 11
6857.0187596276
 21
4771.9578362197
 31
0.0
  0
LINE
  5
122
330
1F
100
AcDbEntity
  8
0
  6
Continuous
 62
     7
100
AcDbLine
 10
6859.0187338784
 20
4596.9578242988
 30
0.0
 11
6856.5187362626
 21
4596.9578242988
 31
0.0
  0
LINE
  5
123
330
1F
100
AcDbEntity
  8
0
  6
Continuous
 62
     7
100
AcDbLine
 10
6862.5187782243
 20
4590.9578419417
 30
0.0
 11
6891.5187553361
 21
4590.9578414649
 31
0.0
  0
LINE
  5
124
330
1F
100
AcDbEntity
  8
0
  6
Continuous
 62
     7
100
AcDbLine
 10
6895.0187472299
 20
4596.9578242988
 30
0.0
 11
6859.0187338784
 21
4596.9578242988
 31
0.0
  0
LINE
  5
125
330
1F
100
AcDbEntity
  8
0
  6
Continuous
 62
     7
100
AcDbLine
 10
6856.5187362626
 20
4596.9578242988
 30
0.0
 11
6856.5187362626
 21
4598.9578581542
 31
0.0
  0
LINE
  5
126
330
1F
100
AcDbEntity
  8
0
  6
Continuous
 62
     7
100
AcDbLine
 10
6856.5187362626
 20
4598.9578581542
 30
0.0
 11
6859.0187338784
 21
4598.9578581542
 31
0.0
  0
LINE
  5
127
330
1F
100
AcDbEntity
  8
0
  6
Continuous
 62
     7
100
AcDbLine
 10
6859.0187338784
 20
4596.9578242988
 30
0.0
 11
6859.0187338784
 21
4598.9578581542
 31
0.0
  0
LINE
  5
128
330
1F
100
AcDbEntity
  8
0
  6
Continuous
 62
     7
100
AcDbLine
 10
6859.0187338784
 20
4598.9578581542
 30
0.0
 11
6895.0187472299
 21
4598.9578581542
 31
0.0
  0
LINE
  5
129
330
1F
100
AcDbEntity
  8
0
  6
Continuous
 62
     7
100
AcDbLine
 10
6895.0187472299
 20
4596.9578242988
 30
0.0
 11
6895.0187472299
 21
4598.9578581542
 31
0.0
  0
LINE
  5
12A
330
1F
100
AcDbEntity
  8
0
  6
Continuous
 62
     7
100
AcDbLine
 10
6897.5187450841
 20
4596.9578242988
 30
0.0
 11
6895.0187472299
 21
4596.9578242988
 31
0.0
  0
LINE
  5
12B
330
1F
100
AcDbEntity
  8
0
  6
Continuous
 62
     7
100
AcDbLine
 10
6897.5187450841
 20
4596.9578242988
 30
0.0
 11
6897.5187450841
 21
4598.9578581542
 31
0.0
  0
LINE
  5
12C
330
1F
100
AcDbEntity
  8
0
  6
Continuous
 62
     7
100
AcDbLine
 10
6895.0187472299
 20
4598.9578581542
 30
0.0
 11
6897.5187450841
 21
4598.9578581542
 31
0.0
  0
LINE
  5
12D
330
1F
100
AcDbEntity
  8
0
  6
Continuous
 62
     7
100
AcDbLine
 10
6885.6789974168
 20
4578.957817623
 30
0.0
 11
6885.6789974168
 21
4586.9578338355
 31
0.0
  0
LINE
  5
12E
330
1F
100
AcDbEntity
  8
0
  6
Continuous
 62
     7
100
AcDbLine
 10
6868.3584836915
 20
4578.957817623
 30
0.0
 11
6885.6789974168
 21
4578.957817623
 31
0.0
  0
LINE
  5
12F
330
1F
100
AcDbEntity
  8
0
  6
Continuous
 62
     7
100
AcDbLine
 10
6868.3584836915
 20
4578.957817623
 30
0.0
 11
6868.3584836915
 21
4586.9578338355
 31
0.0
  0
LINE
  5
130
330
1F
100
AcDbEntity
  8
0
  6
Continuous
 62
     7
100
AcDbLine
 10
6868.3584836915
 20
4586.9578338355
 30
0.0
 11
6885.6789974168
 21
4586.9578338355
 31
0.0
  0
LINE
  5
131
330
1F
100
AcDbEntity
  8
0
  6
Continuous
 62
     7
100
AcDbLine
 10
6894.3392542794
 20
4578.957817623
 30
0.0
 11
6894.3392542794
 21
4586.9578338355
 31
0.0
  0
LINE
  5
132
330
1F
100
AcDbEntity
  8
0
  6
Continuous
 62
     7
100
AcDbLine
 10
6885.6789974168
 20
4578.957817623
 30
0.0
 11
6894.3392542794
 21
4578.957817623
 31
0.0
  0
LINE
  5
133
330
1F
100
AcDbEntity
  8
0
  6
Continuous
 62
     7
100
AcDbLine
 10
6885.6789974168
 20
4586.9578338355
 30
0.0
 11
6894.3392542794
 21
4586.9578338355
 31
0.0
  0
LINE
  5
134
330
1F
100
AcDbEntity
  8
0
  6
Continuous
 62
     7
100
AcDbLine
 10
6859.6982268289
 20
4578.957817623
 30
0.0
 11
6859.6982268289
 21
4586.9578338355
 31
0.0
  0
LINE
  5
135
330
1F
100
AcDbEntity
  8
0
  6
Continuous
 62
     7
100
AcDbLine
 10
6859.6982268289
 20
4586.9578338355
 30
0.0
 11
6868.3584836915
 21
4586.9578338355
 31
0.0
  0
LINE
  5
136
330
1F
100
AcDbEntity
  8
0
  6
Continuous
 62
     7
100
AcDbLine
 10
6859.6982268289
 20
4578.957817623
 30
0.0
 11
6868.3584836915
 21
4578.957817623
 31
0.0
  0
LINE
  5
137
330
1F
100
AcDbEntity
  8
0
  6
Continuous
 62
     7
100
AcDbLine
 10
6857.0187596276
 20
4598.9578581542
 30
0.0
 11
6857.0187596276
 21
5178.9578414649
 31
0.0
  0
LINE
  5
138
330
1F
100
AcDbEntity
  8
0
  6
Continuous
 62
     7
100
AcDbLine
 10
6897.0187810853
 20
4598.9578581542
 30
0.0
 11
6897.0187810853
 21
5178.9578414649
 31
0.0
  0
LINE
  5
139
330
1F
100
AcDbEntity
  8
0
  6
Continuous
 62
     7
100
AcDbLine
 10
5689.0187767938
 20
4596.9578242988
 30
0.0
 11
5691.518774648
 21
4596.9578242988
 31
0.0
  0
LINE
  5
13A
330
1F
100
AcDbEntity
  8
0
  6
Continuous
 62
     7
100
AcDbLine
 10
5689.0187767938
 20
4598.9578581542
 30
0.0
 11
5653.0187634423
 21
4598.9578581542
 31
0.0
  0
LINE
  5
13B
330
1F
100
AcDbEntity
  8
0
  6
Continuous
 62
     7
100
AcDbLine
 10
5689.0187767938
 20
4596.9578242988
 30
0.0
 11
5689.0187767938
 21
4598.9578581542
 31
0.0
  0
LINE
  5
13C
330
1F
100
AcDbEntity
  8
0
  6
Continuous
 62
     7
100
AcDbLine
 10
5653.0187634423
 20
4596.9578242988
 30
0.0
 11
5689.0187767938
 21
4596.9578242988
 31
0.0
  0
LINE
  5
13D
330
1F
100
AcDbEntity
  8
0
  6
Continuous
 62
     7
100
AcDbLine
 10
5653.0187634423
 20
4596.9578242988
 30
0.0
 11
5653.0187634423
 21
4598.9578581542
 31
0.0
  0
LINE
  5
13E
330
1F
100
AcDbEntity
  8
0
  6
Continuous
 62
     7
100
AcDbLine
 10
5685.5187326863
 20
4590.9578421801
 30
0.0
 11
5656.5187555745
 21
4590.9578417033
 31
0.0
  0
LINE
  5
13F
330
1F
100
AcDbEntity
  8
0
  6
Continuous
 62
     7
100
AcDbLine
 10
5691.518774648
 20
4598.9578581542
 30
0.0
 11
5689.0187767938
 21
4598.9578581542
 31
0.0
  0
LINE
  5
140
330
1F
100
AcDbEntity
  8
0
  6
Continuous
 62
     7
100
AcDbLine
 10
5691.518774648
 20
4596.9578242988
 30
0.0
 11
5691.518774648
 21
4598.9578581542
 31
0.0
  0
LINE
  5
141
330
1F
100
AcDbEntity
  8
0
  6
Continuous
 62
     7
100
AcDbLine
 10
5650.5187658265
 20
4596.9578242988
 30
0.0
 11
5653.0187634423
 21
4596.9578242988
 31
0.0
  0
LINE
  5
142
330
1F
100
AcDbEntity
  8
0
  6
Continuous
 62
     7
100
AcDbLine
 10
5650.5187658265
 20
4596.9578242988
 30
0.0
 11
5650.5187658265
 21
4598.9578581542
 31
0.0
  0
LINE
  5
143
330
1F
100
AcDbEntity
  8
0
  6
Continuous
 62
     7
100
AcDbLine
 10
5653.0187634423
 20
4598.9578581542
 30
0.0
 11
5650.5187658265
 21
4598.9578581542
 31
0.0
  0
LINE
  5
144
330
1F
100
AcDbEntity
  8
0
  6
Continuous
 62
     7
100
AcDbLine
 10
5662.3585132554
 20
4578.957817623
 30
0.0
 11
5662.3585132554
 21
4586.9578338355
 31
0.0
  0
LINE
  5
145
330
1F
100
AcDbEntity
  8
0
  6
Continuous
 62
     7
100
AcDbLine
 10
5662.3585132554
 20
4578.957817623
 30
0.0
 11
5653.6982563928
 21
4578.957817623
 31
0.0
  0
LINE
  5
146
330
1F
100
AcDbEntity
  8
0
  6
Continuous
 62
     7
100
AcDbLine
 10
5653.6982563928
 20
4578.957817623
 30
0.0
 11
5653.6982563928
 21
4586.9578338355
 31
0.0
  0
LINE
  5
147
330
1F
100
AcDbEntity
  8
0
  6
Continuous
 62
     7
100
AcDbLine
 10
5662.3585132554
 20
4586.9578338355
 30
0.0
 11
5653.6982563928
 21
4586.9578338355
 31
0.0
  0
LINE
  5
148
330
1F
100
AcDbEntity
  8
0
  6
Continuous
 62
     7
100
AcDbLine
 10
5679.6790269807
 20
4578.957817623
 30
0.0
 11
5679.6790269807
 21
4586.9578338355
 31
0.0
  0
LINE
  5
149
330
1F
100
AcDbEntity
  8
0
  6
Continuous
 62
     7
100
AcDbLine
 10
5679.6790269807
 20
4578.957817623
 30
0.0
 11
5662.3585132554
 21
4578.957817623
 31
0.0
  0
LINE
  5
14A
330
1F
100
AcDbEntity
  8
0
  6
Continuous
 62
     7
100
AcDbLine
 10
5679.6790269807
 20
4586.9578338355
 30
0.0
 11
5662.3585132554
 21
4586.9578338355
 31
0.0
  0
LINE
  5
14B
330
1F
100
AcDbEntity
  8
0
  6
Continuous
 62
     7
100
AcDbLine
 10
5688.3392838433
 20
4578.957817623
 30
0.0
 11
5688.3392838433
 21
4586.9578338355
 31
0.0
  0
LINE
  5
14C
330
1F
100
AcDbEntity
  8
0
  6
Continuous
 62
     7
100
AcDbLine
 10
5688.3392838433
 20
4586.9578338355
 30
0.0
 11
5679.6790269807
 21
4586.9578338355
 31
0.0
  0
LINE
  5
14D
330
1F
100
AcDbEntity
  8
0
  6
Continuous
 62
     7
100
AcDbLine
 10
5688.3392838433
 20
4578.957817623
 30
0.0
 11
5679.6790269807
 21
4578.957817623
 31
0.0
  0
LINE
  5
14E
330
1F
100
AcDbEntity
  8
0
  6
Continuous
 62
     7
100
AcDbLine
 10
5691.0187510446
 20
4598.9578581542
 30
0.0
 11
5691.0187510446
 21
5178.9578414649
 31
0.0
  0
LINE
  5
14F
330
1F
100
AcDbEntity
  8
0
  6
Continuous
 62
     7
100
AcDbLine
 10
5651.0187295869
 20
4598.9578581542
 30
0.0
 11
5651.0187295869
 21
5178.9578414649
 31
0.0
  0
LINE
  5
150
330
1F
100
AcDbEntity
  8
0
  6
Continuous
 62
     7
100
AcDbLine
 10
6852.3687628701
 20
5402.2978405595
 30
0.0
 11
5695.6687478021
 21
5402.2978405595
 31
0.0
  0
LINE
  5
151
330
1F
100
AcDbEntity
  8
0
  6
Continuous
 62
     7
100
AcDbLine
 10
6852.3687628701
 20
5403.9478405506
 30
0.0
 11
5695.6687478021
 21
5403.9478405506
 31
0.0
  0
LINE
  5
152
330
1F
100
AcDbEntity
  8
0
  6
Continuous
 62
     7
100
AcDbLine
 10
6852.3687628701
 20
5402.2978405595
 30
0.0
 11
6852.3687628701
 21
5403.9478405506
 31
0.0
  0
LINE
  5
153
330
1F
100
AcDbEntity
  8
0
  6
Continuous
 62
     7
100
AcDbLine
 10
5695.6687478021
 20
5402.2978405595
 30
0.0
 11
5695.6687478021
 21
5403.9478405506
 31
0.0
  0
LINE
  5
154
330
1F
100
AcDbEntity
  8
0
  6
Continuous
 62
     7
100
AcDbLine
 10
6854.0187386468
 20
5180.6078470439
 30
0.0
 11
6854.0187386468
 21
5402.2978405595
 31
0.0
  0
LINE
  5
155
330
1F
100
AcDbEntity
  8
0
  6
Continuous
 62
     7
100
AcDbLine
 10
6854.0187386468
 20
5180.6078470439
 30
0.0
 11
6852.3687628701
 21
5180.6078470439
 31
0.0
  0
LINE
  5
156
330
1F
100
AcDbEntity
  8
0
  6
Continuous
 62
     7
100
AcDbLine
 10
6852.3687628701
 20
5180.6078470439
 30
0.0
 11
6852.3687628701
 21
5402.2978405595
 31
0.0
  0
LINE
  5
157
330
1F
100
AcDbEntity
  8
0
  6
Continuous
 62
     7
100
AcDbLine
 10
6852.3687628701
 20
5402.2978405595
 30
0.0
 11
6854.0187386468
 21
5402.2978405595
 31
0.0
  0
LINE
  5
158
330
1F
100
AcDbEntity
  8
0
  6
Continuous
 62
     7
100
AcDbLine
 10
6852.3687628701
 20
5180.6078470439
 30
0.0
 11
5695.6687478021
 21
5180.6078470439
 31
0.0
  0
LINE
  5
159
330
1F
100
AcDbEntity
  8
0
  6
Continuous
 62
     7
100
AcDbLine
 10
5695.6687478021
 20
5180.6078470439
 30
0.0
 11
5695.6687478021
 21
5402.2978405595
 31
0.0
  0
LINE
  5
15A
330
1F
100
AcDbEntity
  8
0
  6
Continuous
 62
     7
100
AcDbLine
 10
5694.0187720254
 20
5180.6078470439
 30
0.0
 11
5694.0187720254
 21
5402.2978405595
 31
0.0
  0
LINE
  5
15B
330
1F
100
AcDbEntity
  8
0
  6
Continuous
 62
     7
100
AcDbLine
 10
5694.0187720254
 20
5402.2978405595
 30
0.0
 11
5695.6687478021
 21
5402.2978405595
 31
0.0
  0
LINE
  5
15C
330
1F
100
AcDbEntity
  8
0
  6
Continuous
 62
     7
100
AcDbLine
 10
5695.6687478021
 20
5180.6078470439
 30
0.0
 11
5694.0187720254
 21
5180.6078470439
 31
0.0
  0
LINE
  5
15D
330
1F
100
AcDbEntity
  8
0
  6
Continuous
 62
     7
100
AcDbLine
 10
6852.3687628701
 20
5178.9578414649
 30
0.0
 11
5695.6687478021
 21
5178.9578414649
 31
0.0
  0
LINE
  5
15E
330
1F
100
AcDbEntity
  8
0
  6
Continuous
 62
     7
100
AcDbLine
 10
6852.3687628701
 20
5178.9578414649
 30
0.0
 11
6852.3687628701
 21
5180.6078470439
 31
0.0
  0
LINE
  5
15F
330
1F
100
AcDbEntity
  8
0
  6
Continuous
 62
     7
100
AcDbLine
 10
5695.6687478021
 20
5178.9578414649
 30
0.0
 11
5695.6687478021
 21
5180.6078470439
 31
0.0
  0
LINE
  5
160
330
1F
100
AcDbEntity
  8
0
  6
Continuous
 62
     7
100
AcDbLine
 10
6899.0187553361
 20
5178.9578414649
 30
0.0
 11
6899.0187553361
 21
5403.9478405506
 31
0.0
  0
LINE
  5
161
330
1F
100
AcDbEntity
  8
0
  6
Continuous
 62
     7
100
AcDbLine
 10
6895.918777366
 20
5178.9578414649
 30
0.0
 11
6899.0187553361
 21
5178.9578414649
 31
0.0
  0
LINE
  5
162
330
1F
100
AcDbEntity
  8
0
  6
Continuous
 62
     7
100
AcDbLine
 10
6895.918777366
 20
5178.9578414649
 30
0.0
 11
6895.918777366
 21
5403.9478405506
 31
0.0
  0
LINE
  5
163
330
1F
100
AcDbEntity
  8
0
  6
Continuous
 62
     7
100
AcDbLine
 10
6899.0187553361
 20
5403.9478405506
 30
0.0
 11
6895.918777366
 21
5403.9478405506
 31
0.0
  0
LINE
  5
164
330
1F
100
AcDbEntity
  8
0
  6
Continuous
 62
     7
100
AcDbLine
 10
6857.1187762216
 20
5178.9578414649
 30
0.0
 11
6895.918777366
 21
5178.9578414649
 31
0.0
  0
LINE
  5
165
330
1F
100
AcDbEntity
  8
0
  6
Continuous
 62
     7
100
AcDbLine
 10
6857.1187762216
 20
5178.9578414649
 30
0.0
 11
6857.1187762216
 21
5403.9478405506
 31
0.0
  0
LINE
  5
166
330
1F
100
AcDbEntity
  8
0
  6
Continuous
 62
     7
100
AcDbLine
 10
6895.918777366
 20
5403.9478405506
 30
0.0
 11
6857.1187762216
 21
5403.9478405506
 31
0.0
  0
LINE
  5
167
330
1F
100
AcDbEntity
  8
0
  6
Continuous
 62
     7
100
AcDbLine
 10
6857.1187762216
 20
5178.9578414649
 30
0.0
 11
6854.0187386468
 21
5178.9578414649
 31
0.0
  0
LINE
  5
168
330
1F
100
AcDbEntity
  8
0
  6
Continuous
 62
     7
100
AcDbLine
 10
6854.0187386468
 20
5178.9578414649
 30
0.0
 11
6854.0187386468
 21
5180.6078470439
 31
0.0
  0
LINE
  5
169
330
1F
100
AcDbEntity
  8
0
  6
Continuous
 62
     7
100
AcDbLine
 10
6854.0187386468
 20
5402.2978405595
 30
0.0
 11
6854.0187386468
 21
5403.9478405506
 31
0.0
  0
LINE
  5
16A
330
1F
100
AcDbEntity
  8
0
  6
Continuous
 62
     7
100
AcDbLine
 10
6854.0187386468
 20
5403.9478405506
 30
0.0
 11
6857.1187762216
 21
5403.9478405506
 31
0.0
  0
LINE
  5
16B
330
1F
100
AcDbEntity
  8
0
  6
Continuous
 62
     7
100
AcDbLine
 10
6899.0187553361
 20
5426.7578414768
 30
0.0
 11
6897.0187810853
 21
5426.7578414768
 31
0.0
  0
LINE
  5
16C
330
1F
100
AcDbEntity
  8
0
  6
Continuous
 62
     7
100
AcDbLine
 10
6899.0187553361
 20
5426.7578414768
 30
0.0
 11
6899.0187553361
 21
5403.9578410924
 31
0.0
  0
LINE
  5
16D
330
1F
100
AcDbEntity
  8
0
  6
Continuous
 62
     7
100
AcDbLine
 10
6899.0187553361
 20
5403.9578410924
 30
0.0
 11
6897.0187810853
 21
5403.9578410924
 31
0.0
  0
LINE
  5
16E
330
1F
100
AcDbEntity
  8
0
  6
Continuous
 62
     7
100
AcDbLine
 10
6897.0187810853
 20
5426.7578414768
 30
0.0
 11
6897.0187810853
 21
5403.9578410924
 31
0.0
  0
LINE
  5
16F
330
1F
100
AcDbEntity
  8
0
  6
Continuous
 62
     7
100
AcDbLine
 10
6899.0187553361
 20
5428.9578414649
 30
0.0
 11
6897.0187810853
 21
5428.9578414649
 31
0.0
  0
LINE
  5
170
330
1F
100
AcDbEntity
  8
0
  6
Continuous
 62
     7
100
AcDbLine
 10
6899.0187553361
 20
5428.9578414649
 30
0.0
 11
6899.0187553361
 21
5426.7578414768
 31
0.0
  0
LINE
  5
171
330
1F
100
AcDbEntity
  8
0
  6
Continuous
 62
     7
100
AcDbLine
 10
6897.0187810853
 20
5428.9578414649
 30
0.0
 11
6897.0187810853
 21
5426.7578414768
 31
0.0
  0
LINE
  5
172
330
1F
100
AcDbEntity
  8
0
  6
Continuous
 62
     7
100
AcDbLine
 10
6899.0187553361
 20
5403.9578410924
 30
0.0
 11
6899.0187553361
 21
5403.9478405506
 31
0.0
  0
LINE
  5
173
330
1F
100
AcDbEntity
  8
0
  6
Continuous
 62
     7
100
AcDbLine
 10
6897.0187810853
 20
5403.9578410924
 30
0.0
 11
6897.0187810853
 21
5403.9478405506
 31
0.0
  0
LINE
  5
174
330
1F
100
AcDbEntity
  8
0
  6
Continuous
 62
     7
100
AcDbLine
 10
6899.0187553361
 20
5838.7004054278
 30
0.0
 11
6897.0187810853
 21
5838.7004054278
 31
0.0
  0
LINE
  5
175
330
1F
100
AcDbEntity
  8
0
  6
Continuous
 62
     7
100
AcDbLine
 10
6899.0187553361
 20
5836.5484989375
 30
0.0
 11
6897.0187810853
 21
5836.5484989375
 31
0.0
  0
LINE
  5
176
330
1F
100
AcDbEntity
  8
0
  6
Continuous
 62
     7
100
AcDbLine
 10
6899.0187553361
 20
5838.7004054278
 30
0.0
 11
6899.0187553361
 21
5836.5484989375
 31
0.0
  0
LINE
  5
177
330
1F
100
AcDbEntity
  8
0
  6
Continuous
 62
     7
100
AcDbLine
 10
6897.0187810853
 20
5838.7004054278
 30
0.0
 11
6897.0187810853
 21
5836.5484989375
 31
0.0
  0
LINE
  5
178
330
1F
100
AcDbEntity
  8
0
  6
Continuous
 62
     7
100
AcDbLine
 10
6899.0187553361
 20
5836.5484989375
 30
0.0
 11
6899.0187553361
 21
5428.9578414649
 31
0.0
  0
LINE
  5
179
330
1F
100
AcDbEntity
  8
0
  6
Continuous
 62
     7
100
AcDbLine
 10
6897.0187810853
 20
5836.5484989375
 30
0.0
 11
6897.0187810853
 21
5428.9578414649
 31
0.0
  0
LINE
  5
17A
330
1F
100
AcDbEntity
  8
0
  6
Continuous
 62
     7
100
AcDbLine
 10
6899.0187553361
 20
5848.3929849357
 30
0.0
 11
6897.0187810853
 21
5848.3929849357
 31
0.0
  0
LINE
  5
17B
330
1F
100
AcDbEntity
  8
0
  6
Continuous
 62
     7
100
AcDbLine
 10
6899.0187553361
 20
5848.3929849357
 30
0.0
 11
6899.0187553361
 21
5838.7004054278
 31
0.0
  0
LINE
  5
17C
330
1F
100
AcDbEntity
  8
0
  6
Continuous
 62
     7
100
AcDbLine
 10
6897.0187810853
 20
5848.3929849357
 30
0.0
 11
6897.0187810853
 21
5838.7004054278
 31
0.0
  0
LINE
  5
17D
330
1F
100
AcDbEntity
  8
0
  6
Continuous
 62
     7
100
AcDbLine
 10
6899.0187553361
 20
5848.4410560817
 30
0.0
 11
6899.0187553361
 21
5848.3929849357
 31
0.0
  0
LINE
  5
17E
330
1F
100
AcDbEntity
  8
0
  6
Continuous
 62
     7
100
AcDbLine
 10
6897.0187810853
 20
5848.4410560817
 30
0.0
 11
6897.0187810853
 21
5848.3929849357
 31
0.0
  0
LINE
  5
17F
330
1F
100
AcDbEntity
  8
0
  6
Continuous
 62
     7
100
AcDbLine
 10
5652.1187333062
 20
5178.9578414649
 30
0.0
 11
5652.1187333062
 21
5403.9478405506
 31
0.0
  0
LINE
  5
180
330
1F
100
AcDbEntity
  8
0
  6
Continuous
 62
     7
100
AcDbLine
 10
5652.1187333062
 20
5178.9578414649
 30
0.0
 11
5649.0187553361
 21
5178.9578414649
 31
0.0
  0
LINE
  5
181
330
1F
100
AcDbEntity
  8
0
  6
Continuous
 62
     7
100
AcDbLine
 10
5649.0187553361
 20
5178.9578414649
 30
0.0
 11
5649.0187553361
 21
5403.9478405506
 31
0.0
  0
LINE
  5
182
330
1F
100
AcDbEntity
  8
0
  6
Continuous
 62
     7
100
AcDbLine
 10
5649.0187553361
 20
5403.9478405506
 30
0.0
 11
5652.1187333062
 21
5403.9478405506
 31
0.0
  0
LINE
  5
183
330
1F
100
AcDbEntity
  8
0
  6
Continuous
 62
     7
100
AcDbLine
 10
5690.9187344506
 20
5178.9578414649
 30
0.0
 11
5690.9187344506
 21
5403.9478405506
 31
0.0
  0
LINE
  5
184
330
1F
100
AcDbEntity
  8
0
  6
Continuous
 62
     7
100
AcDbLine
 10
5690.9187344506
 20
5178.9578414649
 30
0.0
 11
5652.1187333062
 21
5178.9578414649
 31
0.0
  0
LINE
  5
185
330
1F
100
AcDbEntity
  8
0
  6
Continuous
 62
     7
100
AcDbLine
 10
5652.1187333062
 20
5403.9478405506
 30
0.0
 11
5690.9187344506
 21
5403.9478405506
 31
0.0
  0
LINE
  5
186
330
1F
100
AcDbEntity
  8
0
  6
Continuous
 62
     7
100
AcDbLine
 10
5690.9187344506
 20
5178.9578414649
 30
0.0
 11
5694.0187720254
 21
5178.9578414649
 31
0.0
  0
LINE
  5
187
330
1F
100
AcDbEntity
  8
0
  6
Continuous
 62
     7
100
AcDbLine
 10
5694.0187720254
 20
5178.9578414649
 30
0.0
 11
5694.0187720254
 21
5180.6078470439
 31
0.0
  0
LINE
  5
188
330
1F
100
AcDbEntity
  8
0
  6
Continuous
 62
     7
100
AcDbLine
 10
5694.0187720254
 20
5402.2978405595
 30
0.0
 11
5694.0187720254
 21
5403.9478405506
 31
0.0
  0
LINE
  5
189
330
1F
100
AcDbEntity
  8
0
  6
Continuous
 62
     7
100
AcDbLine
 10
5694.0187720254
 20
5403.9478405506
 30
0.0
 11
5690.9187344506
 21
5403.9478405506
 31
0.0
  0
LINE
  5
18A
330
1F
100
AcDbEntity
  8
0
  6
Continuous
 62
     7
100
AcDbLine
 10
5649.0187553361
 20
5426.7578414768
 30
0.0
 11
5651.0187295869
 21
5426.7578414768
 31
0.0
  0
LINE
  5
18B
330
1F
100
AcDbEntity
  8
0
  6
Continuous
 62
     7
100
AcDbLine
 10
5649.0187553361
 20
5428.9578414649
 30
0.0
 11
5649.0187553361
 21
5426.7578414768
 31
0.0
  0
LINE
  5
18C
330
1F
100
AcDbEntity
  8
0
  6
Continuous
 62
     7
100
AcDbLine
 10
5649.0187553361
 20
5428.9578414649
 30
0.0
 11
5651.0187295869
 21
5428.9578414649
 31
0.0
  0
LINE
  5
18D
330
1F
100
AcDbEntity
  8
0
  6
Continuous
 62
     7
100
AcDbLine
 10
5651.0187295869
 20
5428.9578414649
 30
0.0
 11
5651.0187295869
 21
5426.7578414768
 31
0.0
  0
LINE
  5
18E
330
1F
100
AcDbEntity
  8
0
  6
Continuous
 62
     7
100
AcDbLine
 10
5649.0187553361
 20
5403.9578410924
 30
0.0
 11
5651.0187295869
 21
5403.9578410924
 31
0.0
  0
LINE
  5
18F
330
1F
100
AcDbEntity
  8
0
  6
Continuous
 62
     7
100
AcDbLine
 10
5649.0187553361
 20
5426.7578414768
 30
0.0
 11
5649.0187553361
 21
5403.9578410924
 31
0.0
  0
LINE
  5
190
330
1F
100
AcDbEntity
  8
0
  6
Continuous
 62
     7
100
AcDbLine
 10
5651.0187295869
 20
5426.7578414768
 30
0.0
 11
5651.0187295869
 21
5403.9578410924
 31
0.0
  0
LINE
  5
191
330
1F
100
AcDbEntity
  8
0
  6
Continuous
 62
     7
100
AcDbLine
 10
5649.0187553361
 20
5403.9578410924
 30
0.0
 11
5649.0187553361
 21
5403.9478405506
 31
0.0
  0
LINE
  5
192
330
1F
100
AcDbEntity
  8
0
  6
Continuous
 62
     7
100
AcDbLine
 10
5651.0187295869
 20
5403.9578410924
 30
0.0
 11
5651.0187295869
 21
5403.9478405506
 31
0.0
  0
LINE
  5
193
330
1F
100
AcDbEntity
  8
0
  6
Continuous
 62
     7
100
AcDbLine
 10
5649.0187553361
 20
5836.5484989375
 30
0.0
 11
5651.0187295869
 21
5836.5484989375
 31
0.0
  0
LINE
  5
194
330
1F
100
AcDbEntity
  8
0
  6
Continuous
 62
     7
100
AcDbLine
 10
5649.0187553361
 20
5838.7004054278
 30
0.0
 11
5651.0187295869
 21
5838.7004054278
 31
0.0
  0
LINE
  5
195
330
1F
100
AcDbEntity
  8
0
  6
Continuous
 62
     7
100
AcDbLine
 10
5649.0187553361
 20
5838.7004054278
 30
0.0
 11
5649.0187553361
 21
5836.5484989375
 31
0.0
  0
LINE
  5
196
330
1F
100
AcDbEntity
  8
0
  6
Continuous
 62
     7
100
AcDbLine
 10
5651.0187295869
 20
5838.7004054278
 30
0.0
 11
5651.0187295869
 21
5836.5484989375
 31
0.0
  0
LINE
  5
197
330
1F
100
AcDbEntity
  8
0
  6
Continuous
 62
     7
100
AcDbLine
 10
5649.0187553361
 20
5836.5484989375
 30
0.0
 11
5649.0187553361
 21
5428.9578414649
 31
0.0
  0
LINE
  5
198
330
1F
100
AcDbEntity
  8
0
  6
Continuous
 62
     7
100
AcDbLine
 10
5651.0187295869
 20
5836.5484989375
 30
0.0
 11
5651.0187295869
 21
5428.9578414649
 31
0.0
  0
LINE
  5
199
330
1F
100
AcDbEntity
  8
0
  6
Continuous
 62
     7
100
AcDbLine
 10
5649.0187553361
 20
5848.3929849357
 30
0.0
 11
5651.0187295869
 21
5848.3929849357
 31
0.0
  0
LINE
  5
19A
330
1F
100
AcDbEntity
  8
0
  6
Continuous
 62
     7
100
AcDbLine
 10
5649.0187553361
 20
5848.3929849357
 30
0.0
 11
5649.0187553361
 21
5838.7004054278
 31
0.0
  0
LINE
  5
19B
330
1F
100
AcDbEntity
  8
0
  6
Continuous
 62
     7
100
AcDbLine
 10
5651.0187295869
 20
5848.3929849357
 30
0.0
 11
5651.0187295869
 21
5838.7004054278
 31
0.0
  0
LINE
  5
19C
330
1F
100
AcDbEntity
  8
0
  6
Continuous
 62
     7
100
AcDbLine
 10
5649.0187553361
 20
5848.4410560817
 30
0.0
 11
5649.0187553361
 21
5848.3929849357
 31
0.0
  0
LINE
  5
19D
330
1F
100
AcDbEntity
  8
0
  6
Continuous
 62
     7
100
AcDbLine
 10
5651.0187295869
 20
5848.4410560817
 30
0.0
 11
5651.0187295869
 21
5848.3929849357
 31
0.0
  0
LINE
  5
19E
330
1F
100
AcDbEntity
  8
0
  6
Continuous
 62
     7
100
AcDbLine
 10
6897.0187810853
 20
5428.9578414649
 30
0.0
 11
5651.0187295869
 21
5428.9578414649
 31
0.0
  0
LINE
  5
19F
330
1F
100
AcDbEntity
  8
0
  6
Continuous
 62
     7
100
AcDbLine
 10
5651.0187295869
 20
5426.7578414768
 30
0.0
 11
6897.0187810853
 21
5426.7578414768
 31
0.0
  0
LINE
  5
1A0
330
1F
100
AcDbEntity
  8
0
  6
Continuous
 62
     7
100
AcDbLine
 10
5651.0187295869
 20
5403.9578410924
 30
0.0
 11
6897.0187810853
 21
5403.9578410924
 31
0.0
  0
LINE
  5
1A1
330
1F
100
AcDbEntity
  8
0
  6
Continuous
 62
     7
100
AcDbLine
 10
5651.0187295869
 20
5836.5484989375
 30
0.0
 11
6897.0187810853
 21
5836.5484989375
 31
0.0
  0
LINE
  5
1A2
330
1F
100
AcDbEntity
  8
0
  6
Continuous
 62
     7
100
AcDbLine
 10
6897.0187810853
 20
5838.7004054278
 30
0.0
 11
5651.0187295869
 21
5838.7004054278
 31
0.0
  0
LINE
  5
1A3
330
1F
100
AcDbEntity
  8
0
  6
Continuous
 62
     7
100
AcDbLine
 10
5651.0187295869
 20
5848.3929849357
 30
0.0
 11
6897.0187810853
 21
5848.3929849357
 31
0.0
  0
LINE
  5
1A4
330
1F
100
AcDbEntity
  8
0
  6
Continuous
 62
     7
100
AcDbLine
 10
5767.5187496141
 20
5091.700545618
 30
0.0
 11
5835.5187682107
 21
5091.700545618
 31
0.0
  0
LINE
  5
1A5
330
1F
100
AcDbEntity
  8
0
  6
Continuous
 62
     7
100
AcDbLine
 10
5777.1890965894
 20
5151.7005480022
 30
0.0
 11
5825.8484212354
 21
5151.7005480022
 31
0.0
  0
LINE
  5
1A6
330
1F
100
AcDbEntity
  8
0
  6
Continuous
 62
     7
100
AcDbLine
 10
5777.3969379857
 20
5021.7005527705
 30
0.0
 11
5825.640579839
 21
5021.7005527705
 31
0.0
  0
LINE
  5
1A7
330
1F
100
AcDbEntity
  8
0
  6
Continuous
 62
     7
100
AcDbLine
 10
5778.518757005
 20
5158.2005537242
 30
0.0
 11
5824.5187608197
 21
5158.2005537242
 31
0.0
  0
LINE
  5
1A8
330
1F
100
AcDbEntity
  8
0
  6
Continuous
 62
     7
100
AcDbLine
 10
5776.5187529519
 20
5154.200545618
 30
0.0
 11
5826.5187648728
 21
5154.200545618
 31
0.0
  0
LINE
  5
1A9
330
1F
100
AcDbEntity
  8
0
  6
Continuous
 62
     7
100
AcDbLine
 10
5781.5187481835
 20
5168.2005441875
 30
0.0
 11
5821.5187696412
 21
5168.2005441875
 31
0.0
  0
LINE
  5
1AA
330
1F
100
AcDbEntity
  8
0
  6
Continuous
 62
     7
100
AcDbLine
 10
5818.0187550977
 20
5151.7005480022
 30
0.0
 11
5817.518761535
 21
5152.0668185443
 31
0.0
  0
LINE
  5
1AB
330
1F
100
AcDbEntity
  8
0
  6
Continuous
 62
     7
100
AcDbLine
 10
5785.5187562898
 20
5152.0668185443
 30
0.0
 11
5785.0187627271
 21
5151.7005480022
 31
0.0
  0
LINE
  5
1AC
330
1F
100
AcDbEntity
  8
0
  6
Continuous
 62
     7
100
AcDbLine
 10
6581.5687684014
 20
5542.9578415245
 30
0.0
 11
6566.4687661126
 21
5542.9578415245
 31
0.0
  0
LINE
  5
1AD
330
1F
100
AcDbEntity
  8
0
  6
Continuous
 62
     7
100
AcDbLine
 10
6581.5687684014
 20
5532.3578409046
 30
0.0
 11
6566.4687661126
 21
5532.3578409046
 31
0.0
  0
LINE
  5
1AE
330
1F
100
AcDbEntity
  8
0
  6
Continuous
 62
     7
100
AcDbLine
 10
5981.5687445596
 20
5542.9578415245
 30
0.0
 11
5966.4687422708
 21
5542.9578415245
 31
0.0
  0
LINE
  5
1AF
330
1F
100
AcDbEntity
  8
0
  6
Continuous
 62
     7
100
AcDbLine
 10
5981.5687445596
 20
5532.3578409046
 30
0.0
 11
5966.4687422708
 21
5532.3578409046
 31
0.0
  0
LINE
  5
1B0
330
1F
100
AcDbEntity
  8
0
  6
Continuous
 62
     7
100
AcDbLine
 10
6581.5187601045
 20
5543.2578391522
 30
0.0
 11
6566.5187446073
 21
5543.2578391522
 31
0.0
  0
LINE
  5
1B1
330
1F
100
AcDbEntity
  8
0
  6
Continuous
 62
     7
100
AcDbLine
 10
6566.5187446073
 20
5532.2578392119
 30
0.0
 11
6581.5187601045
 21
5532.2578392119
 31
0.0
  0
LINE
  5
1B2
330
1F
100
AcDbEntity
  8
0
  6
Continuous
 62
     7
100
AcDbLine
 10
5981.5187660649
 20
5543.2578391522
 30
0.0
 11
5966.5187505677
 21
5543.2578391522
 31
0.0
  0
LINE
  5
1B3
330
1F
100
AcDbEntity
  8
0
  6
Continuous
 62
     7
100
AcDbLine
 10
5966.5187505677
 20
5532.2578392119
 30
0.0
 11
5981.5187660649
 21
5532.2578392119
 31
0.0
  0
LINE
  5
1B4
330
1F
100
AcDbEntity
  8
0
  6
Continuous
 62
     7
100
AcDbLine
 10
5988.0187419847
 20
5178.8578546733
 30
0.0
 11
5988.0187419847
 21
5178.9578414649
 31
0.0
  0
LINE
  5
1B5
330
1F
100
AcDbEntity
  8
0
  6
Continuous
 62
     7
100
AcDbLine
 10
5988.0187419847
 20
5178.8578546733
 30
0.0
 11
5960.0187448457
 21
5178.8578546733
 31
0.0
  0
LINE
  5
1B6
330
1F
100
AcDbEntity
  8
0
  6
Continuous
 62
     7
100
AcDbLine
 10
5960.0187448457
 20
5178.8578546733
 30
0.0
 11
5960.0187448457
 21
5178.9578414649
 31
0.0
  0
LINE
  5
1B7
330
1F
100
AcDbEntity
  8
0
  6
Continuous
 62
     7
100
AcDbLine
 10
6560.0187686875
 20
5178.8578546733
 30
0.0
 11
6560.0187686875
 21
5178.9578414649
 31
0.0
  0
LINE
  5
1B8
330
1F
100
AcDbEntity
  8
0
  6
Continuous
 62
     7
100
AcDbLine
 10
6588.0187658265
 20
5178.8578546733
 30
0.0
 11
6560.0187686875
 21
5178.8578546733
 31
0.0
  0
LINE
  5
1B9
330
1F
100
AcDbEntity
  8
0
  6
Continuous
 62
     7
100
AcDbLine
 10
6588.0187658265
 20
5178.8578546733
 30
0.0
 11
6588.0187658265
 21
5178.9578414649
 31
0.0
  0
LINE
  5
1BA
330
1F
100
AcDbEntity
  8
0
  6
Continuous
 62
     7
100
AcDbLine
 10
5975.5187539056
 20
5724.9578452796
 30
0.0
 11
5972.5187627271
 21
5724.9578452796
 31
0.0
  0
LINE
  5
1BB
330
1F
100
AcDbEntity
  8
0
  6
Continuous
 62
     7
100
AcDbLine
 10
6575.5187479451
 20
5724.9578452796
 30
0.0
 11
6572.5187567666
 21
5724.9578452796
 31
0.0
  0
LINE
  5
1BC
330
1F
100
AcDbEntity
  8
0
  6
Continuous
 62
     7
100
AcDbLine
 10
6580.7613042787
 20
5729.5219219417
 30
0.0
 11
6580.7613042787
 21
5728.5559988708
 31
0.0
  0
LINE
  5
1BD
330
1F
100
AcDbEntity
  8
0
  6
Continuous
 62
     7
100
AcDbLine
 10
6583.2642225221
 20
5730.8736956805
 30
0.0
 11
6583.2642225221
 21
5730.2699900359
 31
0.0
  0
LINE
  5
1BE
330
1F
100
AcDbEntity
  8
0
  6
Continuous
 62
     7
100
AcDbLine
 10
6582.1760503247
 20
5731.6354132384
 30
0.0
 11
6582.1760503247
 21
5731.3237405509
 31
0.0
  0
LINE
  5
1BF
330
1F
100
AcDbEntity
  8
0
  6
Continuous
 62
     7
100
AcDbLine
 10
6580.3512541249
 20
5732.1560896129
 30
0.0
 11
6580.3512541249
 21
5731.9400525779
 31
0.0
  0
LINE
  5
1C0
330
1F
100
AcDbEntity
  8
0
  6
Continuous
 62
     7
100
AcDbLine
 10
6576.7029134229
 20
5732.6545632571
 30
0.0
 11
6576.7029134229
 21
5732.486031124
 31
0.0
  0
LINE
  5
1C1
330
1F
100
AcDbEntity
  8
0
  6
Continuous
 62
     7
100
AcDbLine
 10
6573.7288204625
 20
5732.7496922702
 30
0.0
 11
6573.7288204625
 21
5732.5878656596
 31
0.0
  0
LINE
  5
1C2
330
1F
100
AcDbEntity
  8
0
  6
Continuous
 62
     7
100
AcDbLine
 10
6569.6574357942
 20
5732.4880278796
 30
0.0
 11
6569.6574357942
 21
5732.3062337131
 31
0.0
  0
LINE
  5
1C3
330
1F
100
AcDbEntity
  8
0
  6
Continuous
 62
     7
100
AcDbLine
 10
6567.2762302354
 20
5732.0623017043
 30
0.0
 11
6567.2762302354
 21
5731.8339265079
 31
0.0
  0
LINE
  5
1C4
330
1F
100
AcDbEntity
  8
0
  6
Continuous
 62
     7
100
AcDbLine
 10
6565.1667622521
 20
5731.3277936668
 30
0.0
 11
6565.1667622521
 21
5730.8896697253
 31
0.0
  0
LINE
  5
1C5
330
1F
100
AcDbEntity
  8
0
  6
Continuous
 62
     7
100
AcDbLine
 10
6565.861454387
 20
5730.0320780963
 30
0.0
 11
6565.861454387
 21
5729.0661550254
 31
0.0
  0
LINE
  5
1C6
330
1F
100
AcDbEntity
  8
0
  6
Continuous
 62
     7
100
AcDbLine
 10
6571.3345912889
 20
5728.8698173255
 30
0.0
 11
6571.3345912889
 21
5727.9038942546
 31
0.0
  0
LINE
  5
1C7
330
1F
100
AcDbEntity
  8
0
  6
Continuous
 62
     7
100
AcDbLine
 10
6567.4704221681
 20
5729.8620856494
 30
0.0
 11
6566.5701834157
 21
5730.2428401202
 31
0.0
  0
LINE
  5
1C8
330
1F
100
AcDbEntity
  8
0
  6
Continuous
 62
     7
100
AcDbLine
 10
6566.5701834157
 20
5730.2428401202
 30
0.0
 11
6565.9954754308
 21
5730.6637383193
 31
0.0
  0
LINE
  5
1C9
330
1F
100
AcDbEntity
  8
0
  6
Continuous
 62
     7
100
AcDbLine
 10
6565.9954754308
 20
5730.6637383193
 30
0.0
 11
6565.7714513734
 21
5731.1063326091
 31
0.0
  0
LINE
  5
1CA
330
1F
100
AcDbEntity
  8
0
  6
Continuous
 62
     7
100
AcDbLine
 10
6565.7714513734
 20
5731.1063326091
 30
0.0
 11
6565.907856603
 21
5731.551340887
 31
0.0
  0
LINE
  5
1CB
330
1F
100
AcDbEntity
  8
0
  6
Continuous
 62
     7
100
AcDbLine
 10
6565.907856603
 20
5731.551340887
 30
0.0
 11
6566.0352615312
 21
5731.6992200107
 31
0.0
  0
LINE
  5
1CC
330
1F
100
AcDbEntity
  8
0
  6
Continuous
 62
     7
100
AcDbLine
 10
6582.1933952764
 20
5731.448820898
 30
0.0
 11
6582.2660533383
 21
5731.2154389113
 31
0.0
  0
LINE
  5
1CD
330
1F
100
AcDbEntity
  8
0
  6
Continuous
 62
     7
100
AcDbLine
 10
6582.2660533383
 20
5731.2154389113
 30
0.0
 11
6582.1296481088
 21
5730.7704306335
 31
0.0
  0
LINE
  5
1CE
330
1F
100
AcDbEntity
  8
0
  6
Continuous
 62
     7
100
AcDbLine
 10
6582.1296481088
 20
5730.7704306335
 30
0.0
 11
6581.6387740567
 21
5730.3424990863
 31
0.0
  0
LINE
  5
1CF
330
1F
100
AcDbEntity
  8
0
  6
Continuous
 62
     7
100
AcDbLine
 10
6581.6387740567
 20
5730.3424990863
 30
0.0
 11
6580.8148292497
 21
5729.9503601283
 31
0.0
  0
LINE
  5
1D0
330
1F
100
AcDbEntity
  8
0
  6
Continuous
 62
     7
100
AcDbLine
 10
6580.8148292497
 20
5729.9503601283
 30
0.0
 11
6580.4615227178
 21
5729.8271871299
 31
0.0
  0
LINE
  5
1D1
330
1F
100
AcDbEntity
  8
0
  6
Continuous
 62
     7
100
AcDbLine
 10
6567.79267468
 20
5729.7599530906
 30
0.0
 11
6567.4704221681
 21
5729.8620856494
 31
0.0
  0
LINE
  5
1D2
330
1F
100
AcDbEntity
  8
0
  6
Continuous
 62
     7
100
AcDbLine
 10
6582.7614871457
 20
5731.2531388492
 30
0.0
 11
6583.0233005479
 21
5731.2441683501
 31
0.0
  0
LINE
  5
1D3
330
1F
100
AcDbEntity
  8
0
  6
Continuous
 62
     7
100
AcDbLine
 10
6580.7613042787
 20
5729.5219219417
 30
0.0
 11
6580.452850242
 21
5729.6260810584
 31
0.0
  0
LINE
  5
1D4
330
1F
100
AcDbEntity
  8
0
  6
Continuous
 62
     7
100
AcDbLine
 10
6571.4011100724
 20
5728.999934265
 30
0.0
 11
6571.3345912889
 21
5728.8698173255
 31
0.0
  0
LINE
  5
1D5
330
1F
100
AcDbEntity
  8
0
  6
Continuous
 62
     7
100
AcDbLine
 10
6565.861454387
 20
5730.0320780963
 30
0.0
 11
6566.2639645532
 21
5730.111918518
 31
0.0
  0
LINE
  5
1D6
330
1F
100
AcDbEntity
  8
0
  6
Continuous
 62
     7
100
AcDbLine
 10
6566.5187446073
 20
5731.2372542113
 30
0.0
 11
6565.9954754308
 21
5731.6296613902
 31
0.0
  0
LINE
  5
1D7
330
1F
100
AcDbEntity
  8
0
  6
Continuous
 62
     7
100
AcDbLine
 10
6565.9954754308
 20
5731.6296613902
 30
0.0
 11
6565.9584609464
 21
5731.6715336532
 31
0.0
  0
LINE
  5
1D8
330
1F
100
AcDbEntity
  8
0
  6
Continuous
 62
     7
100
AcDbLine
 10
6581.6384760335
 20
5731.3082433433
 30
0.0
 11
6581.5187601045
 21
5731.2372542113
 31
0.0
  0
LINE
  5
1D9
330
1F
100
AcDbEntity
  8
0
  6
Continuous
 62
     7
100
AcDbLine
 10
6576.6363946393
 20
5732.3559141845
 30
0.0
 11
6576.7029134229
 21
5732.486031124
 31
0.0
  0
LINE
  5
1DA
330
1F
100
AcDbEntity
  8
0
  6
Continuous
 62
     7
100
AcDbLine
 10
6573.6623016789
 20
5732.4577487201
 30
0.0
 11
6573.7288204625
 21
5732.5878656596
 31
0.0
  0
LINE
  5
1DB
330
1F
100
AcDbEntity
  8
0
  6
Continuous
 62
     7
100
AcDbLine
 10
6568.0657235578
 20
5729.9801624507
 30
0.0
 11
6567.2242251828
 21
5730.3389824122
 31
0.0
  0
LINE
  5
1DC
330
1F
100
AcDbEntity
  8
0
  6
Continuous
 62
     7
100
AcDbLine
 10
6567.2242251828
 20
5730.3389824122
 30
0.0
 11
6566.7004195645
 21
5730.7362473697
 31
0.0
  0
LINE
  5
1DD
330
1F
100
AcDbEntity
  8
0
  6
Continuous
 62
     7
100
AcDbLine
 10
6566.7004195645
 20
5730.7362473697
 30
0.0
 11
6566.5188042119
 21
5731.1533606738
 31
0.0
  0
LINE
  5
1DE
330
1F
100
AcDbEntity
  8
0
  6
Continuous
 62
     7
100
AcDbLine
 10
6566.5188042119
 20
5731.1533606738
 30
0.0
 11
6566.6879025891
 21
5731.5708018035
 31
0.0
  0
LINE
  5
1DF
330
1F
100
AcDbEntity
  8
0
  6
Continuous
 62
     7
100
AcDbLine
 10
6566.6879025891
 20
5731.5708018035
 30
0.0
 11
6567.1997574761
 21
5731.9691098422
 31
0.0
  0
LINE
  5
1E0
330
1F
100
AcDbEntity
  8
0
  6
Continuous
 62
     7
100
AcDbLine
 10
6567.1997574761
 20
5731.9691098422
 30
0.0
 11
6567.2762302354
 21
5732.0109821052
 31
0.0
  0
LINE
  5
1E1
330
1F
100
AcDbEntity
  8
0
  6
Continuous
 62
     7
100
AcDbLine
 10
6581.4698246911
 20
5731.3822723121
 30
0.0
 11
6581.4715830281
 21
5731.3782489986
 31
0.0
  0
LINE
  5
1E2
330
1F
100
AcDbEntity
  8
0
  6
Continuous
 62
     7
100
AcDbLine
 10
6581.4715830281
 20
5731.3782489986
 30
0.0
 11
6581.4778713182
 21
5730.95851309
 31
0.0
  0
LINE
  5
1E3
330
1F
100
AcDbEntity
  8
0
  6
Continuous
 62
     7
100
AcDbLine
 10
6581.4778713182
 20
5730.95851309
 30
0.0
 11
6581.1353830293
 21
5730.5482245177
 31
0.0
  0
LINE
  5
1E4
330
1F
100
AcDbEntity
  8
0
  6
Continuous
 62
     7
100
AcDbLine
 10
6581.1353830293
 20
5730.5482245177
 30
0.0
 11
6580.4601518109
 21
5730.1665759772
 31
0.0
  0
LINE
  5
1E5
330
1F
100
AcDbEntity
  8
0
  6
Continuous
 62
     7
100
AcDbLine
 10
6580.4601518109
 20
5730.1665759772
 30
0.0
 11
6579.4837085202
 21
5729.831448862
 31
0.0
  0
LINE
  5
1E6
330
1F
100
AcDbEntity
  8
0
  6
Continuous
 62
     7
100
AcDbLine
 10
6579.4837085202
 20
5729.831448862
 30
0.0
 11
6578.251710315
 21
5729.5584595889
 31
0.0
  0
LINE
  5
1E7
330
1F
100
AcDbEntity
  8
0
  6
Continuous
 62
     7
100
AcDbLine
 10
6578.251710315
 20
5729.5584595889
 30
0.0
 11
6576.8218246892
 21
5729.3604231566
 31
0.0
  0
LINE
  5
1E8
330
1F
100
AcDbEntity
  8
0
  6
Continuous
 62
     7
100
AcDbLine
 10
6576.8218246892
 20
5729.3604231566
 30
0.0
 11
6575.2608386472
 21
5729.2465484828
 31
0.0
  0
LINE
  5
1E9
330
1F
100
AcDbEntity
  8
0
  6
Continuous
 62
     7
100
AcDbLine
 10
6575.2608386472
 20
5729.2465484828
 30
0.0
 11
6573.6417976811
 21
5729.2221999854
 31
0.0
  0
LINE
  5
1EA
330
1F
100
AcDbEntity
  8
0
  6
Continuous
 62
     7
100
AcDbLine
 10
6573.6417976811
 20
5729.2221999854
 30
0.0
 11
6572.0403698876
 21
5729.2884803504
 31
0.0
  0
LINE
  5
1EB
330
1F
100
AcDbEntity
  8
0
  6
Continuous
 62
     7
100
AcDbLine
 10
6572.0403698876
 20
5729.2884803504
 30
0.0
 11
6570.5314485028
 21
5729.4423497409
 31
0.0
  0
LINE
  5
1EC
330
1F
100
AcDbEntity
  8
0
  6
Continuous
 62
     7
100
AcDbLine
 10
6570.5314485028
 20
5729.4423497409
 30
0.0
 11
6569.1855756238
 21
5729.6765661925
 31
0.0
  0
LINE
  5
1ED
330
1F
100
AcDbEntity
  8
0
  6
Continuous
 62
     7
100
AcDbLine
 10
6569.1855756238
 20
5729.6765661925
 30
0.0
 11
6568.0657235578
 21
5729.9801624507
 31
0.0
  0
LINE
  5
1EE
330
1F
100
AcDbEntity
  8
0
  6
Continuous
 62
     7
100
AcDbLine
 10
6573.6623016789
 20
5732.7491260261
 30
0.0
 11
6573.6623016789
 21
5732.4577487201
 31
0.0
  0
LINE
  5
1EF
330
1F
100
AcDbEntity
  8
0
  6
Continuous
 62
     7
100
AcDbLine
 10
6569.6574357942
 20
5732.3062337131
 30
0.0
 11
6569.9658898309
 21
5732.202044794
 31
0.0
  0
LINE
  5
1F0
330
1F
100
AcDbEntity
  8
0
  6
Continuous
 62
     7
100
AcDbLine
 10
6567.2762302354
 20
5731.8339265079
 30
0.0
 11
6567.5846544698
 21
5731.7297673911
 31
0.0
  0
LINE
  5
1F1
330
1F
100
AcDbEntity
  8
0
  6
Continuous
 62
     7
100
AcDbLine
 10
6569.9658898309
 20
5732.5256086082
 30
0.0
 11
6569.9658898309
 21
5732.202044794
 31
0.0
  0
LINE
  5
1F2
330
1F
100
AcDbEntity
  8
0
  6
Continuous
 62
     7
100
AcDbLine
 10
6580.3512541249
 20
5731.9400525779
 30
0.0
 11
6579.9487737611
 21
5731.8602121562
 31
0.0
  0
LINE
  5
1F3
330
1F
100
AcDbEntity
  8
0
  6
Continuous
 62
     7
100
AcDbLine
 10
6582.1760503247
 20
5731.3237405509
 30
0.0
 11
6581.7735401586
 21
5731.2439299316
 31
0.0
  0
LINE
  5
1F4
330
1F
100
AcDbEntity
  8
0
  6
Continuous
 62
     7
100
AcDbLine
 10
6579.9487737611
 20
5732.2386420459
 30
0.0
 11
6579.9487737611
 21
5731.8602121562
 31
0.0
  0
LINE
  5
1F5
330
1F
100
AcDbEntity
  8
0
  6
Continuous
 62
     7
100
AcDbLine
 10
6565.6694678262
 20
5731.5597153396
 30
0.0
 11
6565.6694678262
 21
5730.872443983
 31
0.0
  0
LINE
  5
1F6
330
1F
100
AcDbEntity
  8
0
  6
Continuous
 62
     7
100
AcDbLine
 10
6565.6694678262
 20
5730.872443983
 30
0.0
 11
6565.1667622521
 21
5730.8896697253
 31
0.0
  0
LINE
  5
1F7
330
1F
100
AcDbEntity
  8
0
  6
Continuous
 62
     7
100
AcDbLine
 10
6565.276017566
 20
5730.1027096004
 30
0.0
 11
6564.773311992
 21
5730.1199055404
 31
0.0
  0
LINE
  5
1F8
330
1F
100
AcDbEntity
  8
0
  6
Continuous
 62
     7
100
AcDbLine
 10
6565.276017566
 20
5730.2872157783
 30
0.0
 11
6565.276017566
 21
5730.1027096004
 31
0.0
  0
LINE
  5
1F9
330
1F
100
AcDbEntity
  8
0
  6
Continuous
 62
     7
100
AcDbLine
 10
6582.7614871457
 20
5731.2531388492
 30
0.0
 11
6582.7614871457
 21
5730.2872157783
 31
0.0
  0
LINE
  5
1FA
330
1F
100
AcDbEntity
  8
0
  6
Continuous
 62
     7
100
AcDbLine
 10
6582.7614871457
 20
5730.2872157783
 30
0.0
 11
6583.2642225221
 21
5730.2699900359
 31
0.0
  0
LINE
  5
1FB
330
1F
100
AcDbEntity
  8
0
  6
Continuous
 62
     7
100
AcDbLine
 10
6582.3680368856
 20
5729.5174515933
 30
0.0
 11
6582.8707424596
 21
5729.5002556533
 31
0.0
  0
LINE
  5
1FC
330
1F
100
AcDbEntity
  8
0
  6
Continuous
 62
     7
100
AcDbLine
 10
6582.3680368856
 20
5730.4833746642
 30
0.0
 11
6582.3680368856
 21
5729.5174515933
 31
0.0
  0
LINE
  5
1FD
330
1F
100
AcDbEntity
  8
0
  6
Continuous
 62
     7
100
AcDbLine
 10
6566.2639645532
 20
5730.111918518
 30
0.0
 11
6566.2639645532
 21
5729.1459954471
 31
0.0
  0
LINE
  5
1FE
330
1F
100
AcDbEntity
  8
0
  6
Continuous
 62
     7
100
AcDbLine
 10
6565.861454387
 20
5729.0661550254
 30
0.0
 11
6566.2639645532
 21
5729.1459954471
 31
0.0
  0
LINE
  5
1FF
330
1F
100
AcDbEntity
  8
0
  6
Continuous
 62
     7
100
AcDbLine
 10
6567.6862505868
 20
5728.4498728007
 30
0.0
 11
6568.088760753
 21
5728.5296834201
 31
0.0
  0
LINE
  5
200
330
1F
100
AcDbEntity
  8
0
  6
Continuous
 62
     7
100
AcDbLine
 10
6568.088760753
 20
5729.495606491
 30
0.0
 11
6568.088760753
 21
5728.5296834201
 31
0.0
  0
LINE
  5
201
330
1F
100
AcDbEntity
  8
0
  6
Continuous
 62
     7
100
AcDbLine
 10
6580.452850242
 20
5729.6260810584
 30
0.0
 11
6580.452850242
 21
5728.6601579875
 31
0.0
  0
LINE
  5
202
330
1F
100
AcDbEntity
  8
0
  6
Continuous
 62
     7
100
AcDbLine
 10
6580.7613042787
 20
5728.5559988708
 30
0.0
 11
6580.452850242
 21
5728.6601579875
 31
0.0
  0
LINE
  5
203
330
1F
100
AcDbEntity
  8
0
  6
Continuous
 62
     7
100
AcDbLine
 10
6578.0716446832
 20
5729.1538036555
 30
0.0
 11
6578.0716446832
 21
5728.1878805846
 31
0.0
  0
LINE
  5
204
330
1F
100
AcDbEntity
  8
0
  6
Continuous
 62
     7
100
AcDbLine
 10
6578.3800689176
 20
5728.0836916656
 30
0.0
 11
6578.0716446832
 21
5728.1878805846
 31
0.0
  0
LINE
  5
205
330
1F
100
AcDbEntity
  8
0
  6
Continuous
 62
     7
100
AcDbLine
 10
6571.4011100724
 20
5728.999934265
 30
0.0
 11
6571.4011100724
 21
5728.0340111941
 31
0.0
  0
LINE
  5
206
330
1F
100
AcDbEntity
  8
0
  6
Continuous
 62
     7
100
AcDbLine
 10
6574.3752030328
 20
5728.8980997294
 30
0.0
 11
6574.3752030328
 21
5727.9321766585
 31
0.0
  0
LINE
  5
207
330
1F
100
AcDbEntity
  8
0
  6
Continuous
 62
     7
100
AcDbLine
 10
6571.4011100724
 20
5728.0340111941
 30
0.0
 11
6571.3345912889
 21
5727.9038942546
 31
0.0
  0
LINE
  5
208
330
1F
100
AcDbEntity
  8
0
  6
Continuous
 62
     7
100
AcDbLine
 10
6574.3752030328
 20
5727.9321766585
 30
0.0
 11
6574.3086842492
 21
5727.802059719
 31
0.0
  0
LINE
  5
209
330
1F
100
AcDbEntity
  8
0
  6
Continuous
 62
     7
100
AcDbLine
 10
5980.7612804368
 20
5729.5219219417
 30
0.0
 11
5980.7612804368
 21
5728.5559988708
 31
0.0
  0
LINE
  5
20A
330
1F
100
AcDbEntity
  8
0
  6
Continuous
 62
     7
100
AcDbLine
 10
5983.2641986802
 20
5730.8736956805
 30
0.0
 11
5983.2641986802
 21
5730.2699900359
 31
0.0
  0
LINE
  5
20B
330
1F
100
AcDbEntity
  8
0
  6
Continuous
 62
     7
100
AcDbLine
 10
5982.1760562852
 20
5731.6354132384
 30
0.0
 11
5982.1760562852
 21
5731.3237405509
 31
0.0
  0
LINE
  5
20C
330
1F
100
AcDbEntity
  8
0
  6
Continuous
 62
     7
100
AcDbLine
 10
5980.3512600854
 20
5732.1560896129
 30
0.0
 11
5980.3512600854
 21
5731.9400525779
 31
0.0
  0
LINE
  5
20D
330
1F
100
AcDbEntity
  8
0
  6
Continuous
 62
     7
100
AcDbLine
 10
5976.7029193833
 20
5732.6545632571
 30
0.0
 11
5976.7029193833
 21
5732.486031124
 31
0.0
  0
LINE
  5
20E
330
1F
100
AcDbEntity
  8
0
  6
Continuous
 62
     7
100
AcDbLine
 10
5973.728826423
 20
5732.7496922702
 30
0.0
 11
5973.728826423
 21
5732.5878656596
 31
0.0
  0
LINE
  5
20F
330
1F
100
AcDbEntity
  8
0
  6
Continuous
 62
     7
100
AcDbLine
 10
5969.6574417546
 20
5732.4880278796
 30
0.0
 11
5969.6574417546
 21
5732.3062337131
 31
0.0
  0
LINE
  5
210
330
1F
100
AcDbEntity
  8
0
  6
Continuous
 62
     7
100
AcDbLine
 10
5967.2762063935
 20
5732.0623017043
 30
0.0
 11
5967.2762063935
 21
5731.8339265079
 31
0.0
  0
LINE
  5
211
330
1F
100
AcDbEntity
  8
0
  6
Continuous
 62
     7
100
AcDbLine
 10
5965.1667682126
 20
5731.3277936668
 30
0.0
 11
5965.1667682126
 21
5730.8896697253
 31
0.0
  0
LINE
  5
212
330
1F
100
AcDbEntity
  8
0
  6
Continuous
 62
     7
100
AcDbLine
 10
5965.8614603475
 20
5730.0320780963
 30
0.0
 11
5965.8614603475
 21
5729.0661550254
 31
0.0
  0
LINE
  5
213
330
1F
100
AcDbEntity
  8
0
  6
Continuous
 62
     7
100
AcDbLine
 10
5971.3345972493
 20
5728.8698173255
 30
0.0
 11
5971.3345972493
 21
5727.9038942546
 31
0.0
  0
LINE
  5
214
330
1F
100
AcDbEntity
  8
0
  6
Continuous
 62
     7
100
AcDbLine
 10
5967.4704281285
 20
5729.8620856494
 30
0.0
 11
5966.5701893762
 21
5730.2428401202
 31
0.0
  0
LINE
  5
215
330
1F
100
AcDbEntity
  8
0
  6
Continuous
 62
     7
100
AcDbLine
 10
5966.5701893762
 20
5730.2428401202
 30
0.0
 11
5965.9954813912
 21
5730.6637383193
 31
0.0
  0
LINE
  5
216
330
1F
100
AcDbEntity
  8
0
  6
Continuous
 62
     7
100
AcDbLine
 10
5965.9954813912
 20
5730.6637383193
 30
0.0
 11
5965.7714573339
 21
5731.1063326091
 31
0.0
  0
LINE
  5
217
330
1F
100
AcDbEntity
  8
0
  6
Continuous
 62
     7
100
AcDbLine
 10
5965.7714573339
 20
5731.1063326091
 30
0.0
 11
5965.9078625634
 21
5731.551340887
 31
0.0
  0
LINE
  5
218
330
1F
100
AcDbEntity
  8
0
  6
Continuous
 62
     7
100
AcDbLine
 10
5965.9078625634
 20
5731.551340887
 30
0.0
 11
5966.0352376893
 21
5731.6992200107
 31
0.0
  0
LINE
  5
219
330
1F
100
AcDbEntity
  8
0
  6
Continuous
 62
     7
100
AcDbLine
 10
5982.1934012368
 20
5731.448820898
 30
0.0
 11
5982.2660592988
 21
5731.2154389113
 31
0.0
  0
LINE
  5
21A
330
1F
100
AcDbEntity
  8
0
  6
Continuous
 62
     7
100
AcDbLine
 10
5982.2660592988
 20
5731.2154389113
 30
0.0
 11
5982.1296540692
 21
5730.7704306335
 31
0.0
  0
LINE
  5
21B
330
1F
100
AcDbEntity
  8
0
  6
Continuous
 62
     7
100
AcDbLine
 10
5982.1296540692
 20
5730.7704306335
 30
0.0
 11
5981.6387502149
 21
5730.3424990863
 31
0.0
  0
LINE
  5
21C
330
1F
100
AcDbEntity
  8
0
  6
Continuous
 62
     7
100
AcDbLine
 10
5981.6387502149
 20
5730.3424990863
 30
0.0
 11
5980.8148352101
 21
5729.9503601283
 31
0.0
  0
LINE
  5
21D
330
1F
100
AcDbEntity
  8
0
  6
Continuous
 62
     7
100
AcDbLine
 10
5980.8148352101
 20
5729.9503601283
 30
0.0
 11
5979.6938804582
 21
5729.6110904903
 31
0.0
  0
LINE
  5
21E
330
1F
100
AcDbEntity
  8
0
  6
Continuous
 62
     7
100
AcDbLine
 10
5979.6938804582
 20
5729.6110904903
 30
0.0
 11
5978.3249107793
 21
5729.339561531
 31
0.0
  0
LINE
  5
21F
330
1F
100
AcDbEntity
  8
0
  6
Continuous
 62
     7
100
AcDbLine
 10
5978.3249107793
 20
5729.339561531
 30
0.0
 11
5976.7677394345
 21
5729.1476643771
 31
0.0
  0
LINE
  5
220
330
1F
100
AcDbEntity
  8
0
  6
Continuous
 62
     7
100
AcDbLine
 10
5976.7677394345
 20
5729.1476643771
 30
0.0
 11
5975.0904349282
 21
5729.0437138766
 31
0.0
  0
LINE
  5
221
330
1F
100
AcDbEntity
  8
0
  6
Continuous
 62
     7
100
AcDbLine
 10
5975.0904349282
 20
5729.0437138766
 30
0.0
 11
5973.3662513688
 21
5729.0323293895
 31
0.0
  0
LINE
  5
222
330
1F
100
AcDbEntity
  8
0
  6
Continuous
 62
     7
100
AcDbLine
 10
5973.3662513688
 20
5729.0323293895
 30
0.0
 11
5971.6706184342
 21
5729.1139281482
 31
0.0
  0
LINE
  5
223
330
1F
100
AcDbEntity
  8
0
  6
Continuous
 62
     7
100
AcDbLine
 10
5971.6706184342
 20
5729.1139281482
 30
0.0
 11
5970.077624698
 21
5729.285023281
 31
0.0
  0
LINE
  5
224
330
1F
100
AcDbEntity
  8
0
  6
Continuous
 62
     7
100
AcDbLine
 10
5970.077624698
 20
5729.285023281
 30
0.0
 11
5968.6568287805
 21
5729.5381046027
 31
0.0
  0
LINE
  5
225
330
1F
100
AcDbEntity
  8
0
  6
Continuous
 62
     7
100
AcDbLine
 10
5968.6568287805
 20
5729.5381046027
 30
0.0
 11
5967.4704281285
 21
5729.8620856494
 31
0.0
  0
LINE
  5
226
330
1F
100
AcDbEntity
  8
0
  6
Continuous
 62
     7
100
AcDbLine
 10
5982.7614931062
 20
5731.2531388492
 30
0.0
 11
5983.0233065084
 21
5731.2441683501
 31
0.0
  0
LINE
  5
227
330
1F
100
AcDbEntity
  8
0
  6
Continuous
 62
     7
100
AcDbLine
 10
5980.7612804368
 20
5729.5219219417
 30
0.0
 11
5980.4528562024
 21
5729.6260810584
 31
0.0
  0
LINE
  5
228
330
1F
100
AcDbEntity
  8
0
  6
Continuous
 62
     7
100
AcDbLine
 10
5971.4011160329
 20
5728.999934265
 30
0.0
 11
5971.3345972493
 21
5728.8698173255
 31
0.0
  0
LINE
  5
229
330
1F
100
AcDbEntity
  8
0
  6
Continuous
 62
     7
100
AcDbLine
 10
5965.8614603475
 20
5730.0320780963
 30
0.0
 11
5966.2639705136
 21
5730.111918518
 31
0.0
  0
LINE
  5
22A
330
1F
100
AcDbEntity
  8
0
  6
Continuous
 62
     7
100
AcDbLine
 10
5966.5187505677
 20
5731.2372542113
 30
0.0
 11
5965.9954813912
 21
5731.6296613902
 31
0.0
  0
LINE
  5
22B
330
1F
100
AcDbEntity
  8
0
  6
Continuous
 62
     7
100
AcDbLine
 10
5965.9954813912
 20
5731.6296613902
 30
0.0
 11
5965.9584669068
 21
5731.6715336532
 31
0.0
  0
LINE
  5
22C
330
1F
100
AcDbEntity
  8
0
  6
Continuous
 62
     7
100
AcDbLine
 10
5981.638481994
 20
5731.3082433433
 30
0.0
 11
5981.5187660649
 21
5731.2372542113
 31
0.0
  0
LINE
  5
22D
330
1F
100
AcDbEntity
  8
0
  6
Continuous
 62
     7
100
AcDbLine
 10
5976.6364005998
 20
5732.3559141845
 30
0.0
 11
5976.7029193833
 21
5732.486031124
 31
0.0
  0
LINE
  5
22E
330
1F
100
AcDbEntity
  8
0
  6
Continuous
 62
     7
100
AcDbLine
 10
5973.6623076394
 20
5732.4577487201
 30
0.0
 11
5973.728826423
 21
5732.5878656596
 31
0.0
  0
LINE
  5
22F
330
1F
100
AcDbEntity
  8
0
  6
Continuous
 62
     7
100
AcDbLine
 10
5968.0657295182
 20
5729.9801624507
 30
0.0
 11
5967.224201341
 21
5730.3389824122
 31
0.0
  0
LINE
  5
230
330
1F
100
AcDbEntity
  8
0
  6
Continuous
 62
     7
100
AcDbLine
 10
5967.224201341
 20
5730.3389824122
 30
0.0
 11
5966.700425525
 21
5730.7362473697
 31
0.0
  0
LINE
  5
231
330
1F
100
AcDbEntity
  8
0
  6
Continuous
 62
     7
100
AcDbLine
 10
5966.700425525
 20
5730.7362473697
 30
0.0
 11
5966.5188101724
 21
5731.1533606738
 31
0.0
  0
LINE
  5
232
330
1F
100
AcDbEntity
  8
0
  6
Continuous
 62
     7
100
AcDbLine
 10
5966.5188101724
 20
5731.1533606738
 30
0.0
 11
5966.6879085496
 21
5731.5708018035
 31
0.0
  0
LINE
  5
233
330
1F
100
AcDbEntity
  8
0
  6
Continuous
 62
     7
100
AcDbLine
 10
5966.6879085496
 20
5731.5708018035
 30
0.0
 11
5967.1997634366
 21
5731.9691098422
 31
0.0
  0
LINE
  5
234
330
1F
100
AcDbEntity
  8
0
  6
Continuous
 62
     7
100
AcDbLine
 10
5967.1997634366
 20
5731.9691098422
 30
0.0
 11
5967.2762063935
 21
5732.0109821052
 31
0.0
  0
LINE
  5
235
330
1F
100
AcDbEntity
  8
0
  6
Continuous
 62
     7
100
AcDbLine
 10
5981.4698306516
 20
5731.3822723121
 30
0.0
 11
5981.4715889886
 21
5731.3782489986
 31
0.0
  0
LINE
  5
236
330
1F
100
AcDbEntity
  8
0
  6
Continuous
 62
     7
100
AcDbLine
 10
5981.4715889886
 20
5731.3782489986
 30
0.0
 11
5981.4778772786
 21
5730.95851309
 31
0.0
  0
LINE
  5
237
330
1F
100
AcDbEntity
  8
0
  6
Continuous
 62
     7
100
AcDbLine
 10
5981.4778772786
 20
5730.95851309
 30
0.0
 11
5981.1353889897
 21
5730.5482245177
 31
0.0
  0
LINE
  5
238
330
1F
100
AcDbEntity
  8
0
  6
Continuous
 62
     7
100
AcDbLine
 10
5981.1353889897
 20
5730.5482245177
 30
0.0
 11
5980.4601577714
 21
5730.1665759772
 31
0.0
  0
LINE
  5
239
330
1F
100
AcDbEntity
  8
0
  6
Continuous
 62
     7
100
AcDbLine
 10
5980.4601577714
 20
5730.1665759772
 30
0.0
 11
5979.4836846784
 21
5729.831448862
 31
0.0
  0
LINE
  5
23A
330
1F
100
AcDbEntity
  8
0
  6
Continuous
 62
     7
100
AcDbLine
 10
5979.4836846784
 20
5729.831448862
 30
0.0
 11
5978.2517162755
 21
5729.5584595889
 31
0.0
  0
LINE
  5
23B
330
1F
100
AcDbEntity
  8
0
  6
Continuous
 62
     7
100
AcDbLine
 10
5978.2517162755
 20
5729.5584595889
 30
0.0
 11
5976.8218008473
 21
5729.3604231566
 31
0.0
  0
LINE
  5
23C
330
1F
100
AcDbEntity
  8
0
  6
Continuous
 62
     7
100
AcDbLine
 10
5976.8218008473
 20
5729.3604231566
 30
0.0
 11
5975.2608446076
 21
5729.2465484828
 31
0.0
  0
LINE
  5
23D
330
1F
100
AcDbEntity
  8
0
  6
Continuous
 62
     7
100
AcDbLine
 10
5975.2608446076
 20
5729.2465484828
 30
0.0
 11
5973.6417738393
 21
5729.2221999854
 31
0.0
  0
LINE
  5
23E
330
1F
100
AcDbEntity
  8
0
  6
Continuous
 62
     7
100
AcDbLine
 10
5973.6417738393
 20
5729.2221999854
 30
0.0
 11
5972.0403460458
 21
5729.2884803504
 31
0.0
  0
LINE
  5
23F
330
1F
100
AcDbEntity
  8
0
  6
Continuous
 62
     7
100
AcDbLine
 10
5972.0403460458
 20
5729.2884803504
 30
0.0
 11
5970.531424661
 21
5729.4423497409
 31
0.0
  0
LINE
  5
240
330
1F
100
AcDbEntity
  8
0
  6
Continuous
 62
     7
100
AcDbLine
 10
5970.531424661
 20
5729.4423497409
 30
0.0
 11
5969.1855815843
 21
5729.6765661925
 31
0.0
  0
LINE
  5
241
330
1F
100
AcDbEntity
  8
0
  6
Continuous
 62
     7
100
AcDbLine
 10
5969.1855815843
 20
5729.6765661925
 30
0.0
 11
5968.0657295182
 21
5729.9801624507
 31
0.0
  0
LINE
  5
242
330
1F
100
AcDbEntity
  8
0
  6
Continuous
 62
     7
100
AcDbLine
 10
5973.6623076394
 20
5732.7491260261
 30
0.0
 11
5973.6623076394
 21
5732.4577487201
 31
0.0
  0
LINE
  5
243
330
1F
100
AcDbEntity
  8
0
  6
Continuous
 62
     7
100
AcDbLine
 10
5969.6574417546
 20
5732.3062337131
 30
0.0
 11
5969.965865989
 21
5732.202044794
 31
0.0
  0
LINE
  5
244
330
1F
100
AcDbEntity
  8
0
  6
Continuous
 62
     7
100
AcDbLine
 10
5967.2762063935
 20
5731.8339265079
 30
0.0
 11
5967.5846604302
 21
5731.7297673911
 31
0.0
  0
LINE
  5
245
330
1F
100
AcDbEntity
  8
0
  6
Continuous
 62
     7
100
AcDbLine
 10
5969.965865989
 20
5732.5256086082
 30
0.0
 11
5969.965865989
 21
5732.202044794
 31
0.0
  0
LINE
  5
246
330
1F
100
AcDbEntity
  8
0
  6
Continuous
 62
     7
100
AcDbLine
 10
5980.3512600854
 20
5731.9400525779
 30
0.0
 11
5979.9487499192
 21
5731.8602121562
 31
0.0
  0
LINE
  5
247
330
1F
100
AcDbEntity
  8
0
  6
Continuous
 62
     7
100
AcDbLine
 10
5982.1760562852
 20
5731.3237405509
 30
0.0
 11
5981.773546119
 21
5731.2439299316
 31
0.0
  0
LINE
  5
248
330
1F
100
AcDbEntity
  8
0
  6
Continuous
 62
     7
100
AcDbLine
 10
5979.9487499192
 20
5732.2386420459
 30
0.0
 11
5979.9487499192
 21
5731.8602121562
 31
0.0
  0
LINE
  5
249
330
1F
100
AcDbEntity
  8
0
  6
Continuous
 62
     7
100
AcDbLine
 10
5965.6694737866
 20
5731.5597153396
 30
0.0
 11
5965.6694737866
 21
5730.872443983
 31
0.0
  0
LINE
  5
24A
330
1F
100
AcDbEntity
  8
0
  6
Continuous
 62
     7
100
AcDbLine
 10
5965.6694737866
 20
5730.872443983
 30
0.0
 11
5965.1667682126
 21
5730.8896697253
 31
0.0
  0
LINE
  5
24B
330
1F
100
AcDbEntity
  8
0
  6
Continuous
 62
     7
100
AcDbLine
 10
5965.2760235265
 20
5730.1027096004
 30
0.0
 11
5964.7732881501
 21
5730.1199055404
 31
0.0
  0
LINE
  5
24C
330
1F
100
AcDbEntity
  8
0
  6
Continuous
 62
     7
100
AcDbLine
 10
5965.2760235265
 20
5730.2872157783
 30
0.0
 11
5965.2760235265
 21
5730.1027096004
 31
0.0
  0
LINE
  5
24D
330
1F
100
AcDbEntity
  8
0
  6
Continuous
 62
     7
100
AcDbLine
 10
5982.7614931062
 20
5731.2531388492
 30
0.0
 11
5982.7614931062
 21
5730.2872157783
 31
0.0
  0
LINE
  5
24E
330
1F
100
AcDbEntity
  8
0
  6
Continuous
 62
     7
100
AcDbLine
 10
5982.7614931062
 20
5730.2872157783
 30
0.0
 11
5983.2641986802
 21
5730.2699900359
 31
0.0
  0
LINE
  5
24F
330
1F
100
AcDbEntity
  8
0
  6
Continuous
 62
     7
100
AcDbLine
 10
5982.368042846
 20
5729.5174515933
 30
0.0
 11
5982.8707484201
 21
5729.5002556533
 31
0.0
  0
LINE
  5
250
330
1F
100
AcDbEntity
  8
0
  6
Continuous
 62
     7
100
AcDbLine
 10
5982.368042846
 20
5730.4833746642
 30
0.0
 11
5982.368042846
 21
5729.5174515933
 31
0.0
  0
LINE
  5
251
330
1F
100
AcDbEntity
  8
0
  6
Continuous
 62
     7
100
AcDbLine
 10
5966.2639705136
 20
5730.111918518
 30
0.0
 11
5966.2639705136
 21
5729.1459954471
 31
0.0
  0
LINE
  5
252
330
1F
100
AcDbEntity
  8
0
  6
Continuous
 62
     7
100
AcDbLine
 10
5965.8614603475
 20
5729.0661550254
 30
0.0
 11
5966.2639705136
 21
5729.1459954471
 31
0.0
  0
LINE
  5
253
330
1F
100
AcDbEntity
  8
0
  6
Continuous
 62
     7
100
AcDbLine
 10
5967.6862565473
 20
5728.4498728007
 30
0.0
 11
5968.0887369111
 21
5728.5296834201
 31
0.0
  0
LINE
  5
254
330
1F
100
AcDbEntity
  8
0
  6
Continuous
 62
     7
100
AcDbLine
 10
5968.0887369111
 20
5729.495606491
 30
0.0
 11
5968.0887369111
 21
5728.5296834201
 31
0.0
  0
LINE
  5
255
330
1F
100
AcDbEntity
  8
0
  6
Continuous
 62
     7
100
AcDbLine
 10
5980.4528562024
 20
5729.6260810584
 30
0.0
 11
5980.4528562024
 21
5728.6601579875
 31
0.0
  0
LINE
  5
256
330
1F
100
AcDbEntity
  8
0
  6
Continuous
 62
     7
100
AcDbLine
 10
5978.0716208413
 20
5729.1538036555
 30
0.0
 11
5978.0716208413
 21
5728.1878805846
 31
0.0
  0
LINE
  5
257
330
1F
100
AcDbEntity
  8
0
  6
Continuous
 62
     7
100
AcDbLine
 10
5980.7612804368
 20
5728.5559988708
 30
0.0
 11
5980.4528562024
 21
5728.6601579875
 31
0.0
  0
LINE
  5
258
330
1F
100
AcDbEntity
  8
0
  6
Continuous
 62
     7
100
AcDbLine
 10
5978.380074878
 20
5728.0836916656
 30
0.0
 11
5978.0716208413
 21
5728.1878805846
 31
0.0
  0
LINE
  5
259
330
1F
100
AcDbEntity
  8
0
  6
Continuous
 62
     7
100
AcDbLine
 10
5971.4011160329
 20
5728.999934265
 30
0.0
 11
5971.4011160329
 21
5728.0340111941
 31
0.0
  0
LINE
  5
25A
330
1F
100
AcDbEntity
  8
0
  6
Continuous
 62
     7
100
AcDbLine
 10
5974.3752089933
 20
5728.8980997294
 30
0.0
 11
5974.3752089933
 21
5727.9321766585
 31
0.0
  0
LINE
  5
25B
330
1F
100
AcDbEntity
  8
0
  6
Continuous
 62
     7
100
AcDbLine
 10
5971.4011160329
 20
5728.0340111941
 30
0.0
 11
5971.3345972493
 21
5727.9038942546
 31
0.0
  0
LINE
  5
25C
330
1F
100
AcDbEntity
  8
0
  6
Continuous
 62
     7
100
AcDbLine
 10
5974.3752089933
 20
5727.9321766585
 30
0.0
 11
5974.3086902097
 21
5727.802059719
 31
0.0
  0
LINE
  5
25D
330
1F
100
AcDbEntity
  8
0
  6
Continuous
 62
     7
100
AcDbLine
 10
6587.1370791066
 20
5734.0681149829
 30
0.0
 11
6586.1694423154
 21
5734.3360698909
 31
0.0
  0
LINE
  5
25E
330
1F
100
AcDbEntity
  8
0
  6
Continuous
 62
     7
100
AcDbLine
 10
6561.8680623963
 20
5734.3360698909
 30
0.0
 11
6560.9004259686
 21
5734.0681140076
 31
0.0
  0
LINE
  5
25F
330
1F
100
AcDbEntity
  8
0
  6
Continuous
 62
     7
100
AcDbLine
 10
6561.8680623963
 20
5734.3360698909
 30
0.0
 11
6586.1694423154
 21
5734.3360698909
 31
0.0
  0
LINE
  5
260
330
1F
100
AcDbEntity
  8
0
  6
Continuous
 62
     7
100
AcDbLine
 10
6574.018767257
 20
5732.7507949561
 30
0.0
 11
6575.8876112893
 21
5732.7046013564
 31
0.0
  0
LINE
  5
261
330
1F
100
AcDbEntity
  8
0
  6
Continuous
 62
     7
100
AcDbLine
 10
6575.8876112893
 20
5732.7046013564
 30
0.0
 11
6577.6889232591
 21
5732.5677192897
 31
0.0
  0
LINE
  5
262
330
1F
100
AcDbEntity
  8
0
  6
Continuous
 62
     7
100
AcDbLine
 10
6577.6889232591
 20
5732.5677192897
 30
0.0
 11
6579.3575850919
 21
5732.3450661391
 31
0.0
  0
LINE
  5
263
330
1F
100
AcDbEntity
  8
0
  6
Continuous
 62
     7
100
AcDbLine
 10
6579.3575850919
 20
5732.3450661391
 30
0.0
 11
6580.8332768872
 21
5732.0447183341
 31
0.0
  0
LINE
  5
264
330
1F
100
AcDbEntity
  8
0
  6
Continuous
 62
     7
100
AcDbLine
 10
6580.8332768872
 20
5732.0447183341
 30
0.0
 11
6582.0626822904
 21
5731.6774941176
 31
0.0
  0
LINE
  5
265
330
1F
100
AcDbEntity
  8
0
  6
Continuous
 62
     7
100
AcDbLine
 10
6582.0626822904
 20
5731.6774941176
 30
0.0
 11
6583.0013660386
 21
5731.2566853255
 31
0.0
  0
LINE
  5
266
330
1F
100
AcDbEntity
  8
0
  6
Continuous
 62
     7
100
AcDbLine
 10
6583.0013660386
 20
5731.2566853255
 30
0.0
 11
6583.6153832868
 21
5730.7975209445
 31
0.0
  0
LINE
  5
267
330
1F
100
AcDbEntity
  8
0
  6
Continuous
 62
     7
100
AcDbLine
 10
6583.6153832868
 20
5730.7975209445
 30
0.0
 11
6583.882561107
 21
5730.3165710658
 31
0.0
  0
LINE
  5
268
330
1F
100
AcDbEntity
  8
0
  6
Continuous
 62
     7
100
AcDbLine
 10
6583.882561107
 20
5730.3165710658
 30
0.0
 11
6583.7932435468
 21
5729.8312104434
 31
0.0
  0
LINE
  5
269
330
1F
100
AcDbEntity
  8
0
  6
Continuous
 62
     7
100
AcDbLine
 10
6583.7932435468
 20
5729.8312104434
 30
0.0
 11
6583.350649257
 21
5729.3590224475
 31
0.0
  0
LINE
  5
26A
330
1F
100
AcDbEntity
  8
0
  6
Continuous
 62
     7
100
AcDbLine
 10
6583.350649257
 20
5729.3590224475
 30
0.0
 11
6582.5707522824
 21
5728.9170540065
 31
0.0
  0
LINE
  5
26B
330
1F
100
AcDbEntity
  8
0
  6
Continuous
 62
     7
100
AcDbLine
 10
6582.5707522824
 20
5728.9170540065
 30
0.0
 11
6581.4817754224
 21
5728.5212493629
 31
0.0
  0
LINE
  5
26C
330
1F
100
AcDbEntity
  8
0
  6
Continuous
 62
     7
100
AcDbLine
 10
6581.4817754224
 20
5728.5212493629
 30
0.0
 11
6580.1230875447
 21
5728.1859434337
 31
0.0
  0
LINE
  5
26D
330
1F
100
AcDbEntity
  8
0
  6
Continuous
 62
     7
100
AcDbLine
 10
6580.1230875447
 20
5728.1859434337
 30
0.0
 11
6578.5437432721
 21
5727.9232359618
 31
0.0
  0
LINE
  5
26E
330
1F
100
AcDbEntity
  8
0
  6
Continuous
 62
     7
100
AcDbLine
 10
6578.5437432721
 20
5727.9232359618
 30
0.0
 11
6576.8008736566
 21
5727.7426636905
 31
0.0
  0
LINE
  5
26F
330
1F
100
AcDbEntity
  8
0
  6
Continuous
 62
     7
100
AcDbLine
 10
6576.8008736566
 20
5727.7426636905
 30
0.0
 11
6574.957421203
 21
5727.6506937236
 31
0.0
  0
LINE
  5
270
330
1F
100
AcDbEntity
  8
0
  6
Continuous
 62
     7
100
AcDbLine
 10
6574.957421203
 20
5727.6506937236
 30
0.0
 11
6573.0800835088
 21
5727.6506937236
 31
0.0
  0
LINE
  5
271
330
1F
100
AcDbEntity
  8
0
  6
Continuous
 62
     7
100
AcDbLine
 10
6573.0800835088
 20
5727.6506937236
 30
0.0
 11
6571.2366608575
 21
5727.7426636905
 31
0.0
  0
LINE
  5
272
330
1F
100
AcDbEntity
  8
0
  6
Continuous
 62
     7
100
AcDbLine
 10
6571.2366608575
 20
5727.7426636905
 30
0.0
 11
6569.4937614396
 21
5727.9232359618
 31
0.0
  0
LINE
  5
273
330
1F
100
AcDbEntity
  8
0
  6
Continuous
 62
     7
100
AcDbLine
 10
6569.4937614396
 20
5727.9232359618
 30
0.0
 11
6567.9144469693
 21
5728.1859434337
 31
0.0
  0
LINE
  5
274
330
1F
100
AcDbEntity
  8
0
  6
Continuous
 62
     7
100
AcDbLine
 10
6567.9144469693
 20
5728.1859434337
 30
0.0
 11
6566.5557292893
 21
5728.5212493629
 31
0.0
  0
LINE
  5
275
330
1F
100
AcDbEntity
  8
0
  6
Continuous
 62
     7
100
AcDbLine
 10
6566.5557292893
 20
5728.5212493629
 30
0.0
 11
6565.4667524293
 21
5728.9170540065
 31
0.0
  0
LINE
  5
276
330
1F
100
AcDbEntity
  8
0
  6
Continuous
 62
     7
100
AcDbLine
 10
6565.4667524293
 20
5728.9170540065
 30
0.0
 11
6564.6868852571
 21
5729.3590224475
 31
0.0
  0
LINE
  5
277
330
1F
100
AcDbEntity
  8
0
  6
Continuous
 62
     7
100
AcDbLine
 10
6564.6868852571
 20
5729.3590224475
 30
0.0
 11
6564.244261165
 21
5729.8312104434
 31
0.0
  0
LINE
  5
278
330
1F
100
AcDbEntity
  8
0
  6
Continuous
 62
     7
100
AcDbLine
 10
6564.244261165
 20
5729.8312104434
 30
0.0
 11
6564.1549436048
 21
5730.3165710658
 31
0.0
  0
LINE
  5
279
330
1F
100
AcDbEntity
  8
0
  6
Continuous
 62
     7
100
AcDbLine
 10
6564.1549436048
 20
5730.3165710658
 30
0.0
 11
6564.422121425
 21
5730.7975209445
 31
0.0
  0
LINE
  5
27A
330
1F
100
AcDbEntity
  8
0
  6
Continuous
 62
     7
100
AcDbLine
 10
6564.422121425
 20
5730.7975209445
 30
0.0
 11
6565.0361386731
 21
5731.2566853255
 31
0.0
  0
LINE
  5
27B
330
1F
100
AcDbEntity
  8
0
  6
Continuous
 62
     7
100
AcDbLine
 10
6565.0361386731
 20
5731.2566853255
 30
0.0
 11
6565.9748224214
 21
5731.6774941176
 31
0.0
  0
LINE
  5
27C
330
1F
100
AcDbEntity
  8
0
  6
Continuous
 62
     7
100
AcDbLine
 10
6565.9748224214
 20
5731.6774941176
 30
0.0
 11
6567.2042278245
 21
5732.0447183341
 31
0.0
  0
LINE
  5
27D
330
1F
100
AcDbEntity
  8
0
  6
Continuous
 62
     7
100
AcDbLine
 10
6567.2042278245
 20
5732.0447183341
 30
0.0
 11
6568.6799196199
 21
5732.3450661391
 31
0.0
  0
LINE
  5
27E
330
1F
100
AcDbEntity
  8
0
  6
Continuous
 62
     7
100
AcDbLine
 10
6568.6799196199
 20
5732.3450661391
 30
0.0
 11
6570.3485814527
 21
5732.5677192897
 31
0.0
  0
LINE
  5
27F
330
1F
100
AcDbEntity
  8
0
  6
Continuous
 62
     7
100
AcDbLine
 10
6570.3485814527
 20
5732.5677192897
 30
0.0
 11
6572.1498934224
 21
5732.7046013564
 31
0.0
  0
LINE
  5
280
330
1F
100
AcDbEntity
  8
0
  6
Continuous
 62
     7
100
AcDbLine
 10
6572.1498934224
 20
5732.7046013564
 30
0.0
 11
6574.018767257
 21
5732.7507949561
 31
0.0
  0
LINE
  5
281
330
1F
100
AcDbEntity
  8
0
  6
Continuous
 62
     7
100
AcDbLine
 10
6583.248129268
 20
5731.1039484233
 30
0.0
 11
6583.3937434152
 21
5730.6779242248
 31
0.0
  0
LINE
  5
282
330
1F
100
AcDbEntity
  8
0
  6
Continuous
 62
     7
100
AcDbLine
 10
6583.3937434152
 20
5730.6779242248
 30
0.0
 11
6583.2687524751
 21
5730.2830136508
 31
0.0
  0
LINE
  5
283
330
1F
100
AcDbEntity
  8
0
  6
Continuous
 62
     7
100
AcDbLine
 10
6582.3680368856
 20
5729.5743740291
 30
0.0
 11
6581.8137732938
 21
5729.3298757762
 31
0.0
  0
LINE
  5
284
330
1F
100
AcDbEntity
  8
0
  6
Continuous
 62
     7
100
AcDbLine
 10
6581.8137732938
 20
5729.3298757762
 30
0.0
 11
6580.7613042787
 21
5728.9920366496
 31
0.0
  0
LINE
  5
285
330
1F
100
AcDbEntity
  8
0
  6
Continuous
 62
     7
100
AcDbLine
 10
6565.861454387
 20
5729.4820464343
 30
0.0
 11
6565.3573779061
 21
5729.7493732661
 31
0.0
  0
LINE
  5
286
330
1F
100
AcDbEntity
  8
0
  6
Continuous
 62
     7
100
AcDbLine
 10
6565.3573779061
 20
5729.7493732661
 30
0.0
 11
6564.8989585832
 21
5730.115614006
 31
0.0
  0
LINE
  5
287
330
1F
100
AcDbEntity
  8
0
  6
Continuous
 62
     7
100
AcDbLine
 10
6564.7687522367
 20
5730.2830136508
 30
0.0
 11
6564.6437612966
 21
5730.6779242248
 31
0.0
  0
LINE
  5
288
330
1F
100
AcDbEntity
  8
0
  6
Continuous
 62
     7
100
AcDbLine
 10
6564.6437612966
 20
5730.6779242248
 30
0.0
 11
6564.7893754438
 21
5731.1039484233
 31
0.0
  0
LINE
  5
289
330
1F
100
AcDbEntity
  8
0
  6
Continuous
 62
     7
100
AcDbLine
 10
5961.8680683568
 20
5734.3360698909
 30
0.0
 11
5986.1694482759
 21
5734.3360698909
 31
0.0
  0
LINE
  5
28A
330
1F
100
AcDbEntity
  8
0
  6
Continuous
 62
     7
100
AcDbLine
 10
5987.1370903012
 20
5734.0681130311
 30
0.0
 11
5986.1694482759
 21
5734.3360698909
 31
0.0
  0
LINE
  5
28B
330
1F
100
AcDbEntity
  8
0
  6
Continuous
 62
     7
100
AcDbLine
 10
5961.8680683568
 20
5734.3360698909
 30
0.0
 11
5960.9004259678
 21
5734.0681140067
 31
0.0
  0
LINE
  5
28C
330
1F
100
AcDbEntity
  8
0
  6
Continuous
 62
     7
100
AcDbLine
 10
5974.0187434152
 20
5732.7507949561
 30
0.0
 11
5975.8876172498
 21
5732.7046013564
 31
0.0
  0
LINE
  5
28D
330
1F
100
AcDbEntity
  8
0
  6
Continuous
 62
     7
100
AcDbLine
 10
5975.8876172498
 20
5732.7046013564
 30
0.0
 11
5977.6889292195
 21
5732.5677192897
 31
0.0
  0
LINE
  5
28E
330
1F
100
AcDbEntity
  8
0
  6
Continuous
 62
     7
100
AcDbLine
 10
5977.6889292195
 20
5732.5677192897
 30
0.0
 11
5979.3575910523
 21
5732.3450661391
 31
0.0
  0
LINE
  5
28F
330
1F
100
AcDbEntity
  8
0
  6
Continuous
 62
     7
100
AcDbLine
 10
5979.3575910523
 20
5732.3450661391
 30
0.0
 11
5980.8332828477
 21
5732.0447183341
 31
0.0
  0
LINE
  5
290
330
1F
100
AcDbEntity
  8
0
  6
Continuous
 62
     7
100
AcDbLine
 10
5980.8332828477
 20
5732.0447183341
 30
0.0
 11
5982.0626882508
 21
5731.6774941176
 31
0.0
  0
LINE
  5
291
330
1F
100
AcDbEntity
  8
0
  6
Continuous
 62
     7
100
AcDbLine
 10
5982.0626882508
 20
5731.6774941176
 30
0.0
 11
5983.0013719991
 21
5731.2566853255
 31
0.0
  0
LINE
  5
292
330
1F
100
AcDbEntity
  8
0
  6
Continuous
 62
     7
100
AcDbLine
 10
5983.0013719991
 20
5731.2566853255
 30
0.0
 11
5983.6153892472
 21
5730.7975209445
 31
0.0
  0
LINE
  5
293
330
1F
100
AcDbEntity
  8
0
  6
Continuous
 62
     7
100
AcDbLine
 10
5983.6153892472
 20
5730.7975209445
 30
0.0
 11
5983.8825670674
 21
5730.3165710658
 31
0.0
  0
LINE
  5
294
330
1F
100
AcDbEntity
  8
0
  6
Continuous
 62
     7
100
AcDbLine
 10
5983.8825670674
 20
5730.3165710658
 30
0.0
 11
5983.7932495072
 21
5729.8312104434
 31
0.0
  0
LINE
  5
295
330
1F
100
AcDbEntity
  8
0
  6
Continuous
 62
     7
100
AcDbLine
 10
5983.7932495072
 20
5729.8312104434
 30
0.0
 11
5983.3506254151
 21
5729.3590224475
 31
0.0
  0
LINE
  5
296
330
1F
100
AcDbEntity
  8
0
  6
Continuous
 62
     7
100
AcDbLine
 10
5983.3506254151
 20
5729.3590224475
 30
0.0
 11
5982.5707582429
 21
5728.9170540065
 31
0.0
  0
LINE
  5
297
330
1F
100
AcDbEntity
  8
0
  6
Continuous
 62
     7
100
AcDbLine
 10
5982.5707582429
 20
5728.9170540065
 30
0.0
 11
5981.4817813829
 21
5728.5212493629
 31
0.0
  0
LINE
  5
298
330
1F
100
AcDbEntity
  8
0
  6
Continuous
 62
     7
100
AcDbLine
 10
5981.4817813829
 20
5728.5212493629
 30
0.0
 11
5980.1230637029
 21
5728.1859434337
 31
0.0
  0
LINE
  5
299
330
1F
100
AcDbEntity
  8
0
  6
Continuous
 62
     7
100
AcDbLine
 10
5980.1230637029
 20
5728.1859434337
 30
0.0
 11
5978.5437492326
 21
5727.9232359618
 31
0.0
  0
LINE
  5
29A
330
1F
100
AcDbEntity
  8
0
  6
Continuous
 62
     7
100
AcDbLine
 10
5978.5437492326
 20
5727.9232359618
 30
0.0
 11
5976.8008498147
 21
5727.7426636905
 31
0.0
  0
LINE
  5
29B
330
1F
100
AcDbEntity
  8
0
  6
Continuous
 62
     7
100
AcDbLine
 10
5976.8008498147
 20
5727.7426636905
 30
0.0
 11
5974.9574271634
 21
5727.6506937236
 31
0.0
  0
LINE
  5
29C
330
1F
100
AcDbEntity
  8
0
  6
Continuous
 62
     7
100
AcDbLine
 10
5974.9574271634
 20
5727.6506937236
 30
0.0
 11
5973.0800894692
 21
5727.6506937236
 31
0.0
  0
LINE
  5
29D
330
1F
100
AcDbEntity
  8
0
  6
Continuous
 62
     7
100
AcDbLine
 10
5973.0800894692
 20
5727.6506937236
 30
0.0
 11
5971.2366370156
 21
5727.7426636905
 31
0.0
  0
LINE
  5
29E
330
1F
100
AcDbEntity
  8
0
  6
Continuous
 62
     7
100
AcDbLine
 10
5971.2366370156
 20
5727.7426636905
 30
0.0
 11
5969.4937674001
 21
5727.9232359618
 31
0.0
  0
LINE
  5
29F
330
1F
100
AcDbEntity
  8
0
  6
Continuous
 62
     7
100
AcDbLine
 10
5969.4937674001
 20
5727.9232359618
 30
0.0
 11
5967.9144231275
 21
5728.1859434337
 31
0.0
  0
LINE
  5
2A0
330
1F
100
AcDbEntity
  8
0
  6
Continuous
 62
     7
100
AcDbLine
 10
5967.9144231275
 20
5728.1859434337
 30
0.0
 11
5966.5557352498
 21
5728.5212493629
 31
0.0
  0
LINE
  5
2A1
330
1F
100
AcDbEntity
  8
0
  6
Continuous
 62
     7
100
AcDbLine
 10
5966.5557352498
 20
5728.5212493629
 30
0.0
 11
5965.4667583898
 21
5728.9170540065
 31
0.0
  0
LINE
  5
2A2
330
1F
100
AcDbEntity
  8
0
  6
Continuous
 62
     7
100
AcDbLine
 10
5965.4667583898
 20
5728.9170540065
 30
0.0
 11
5964.6868614152
 21
5729.3590224475
 31
0.0
  0
LINE
  5
2A3
330
1F
100
AcDbEntity
  8
0
  6
Continuous
 62
     7
100
AcDbLine
 10
5964.6868614152
 20
5729.3590224475
 30
0.0
 11
5964.2442671254
 21
5729.8312104434
 31
0.0
  0
LINE
  5
2A4
330
1F
100
AcDbEntity
  8
0
  6
Continuous
 62
     7
100
AcDbLine
 10
5964.2442671254
 20
5729.8312104434
 30
0.0
 11
5964.1549495652
 21
5730.3165710658
 31
0.0
  0
LINE
  5
2A5
330
1F
100
AcDbEntity
  8
0
  6
Continuous
 62
     7
100
AcDbLine
 10
5964.1549495652
 20
5730.3165710658
 30
0.0
 11
5964.4221273854
 21
5730.7975209445
 31
0.0
  0
LINE
  5
2A6
330
1F
100
AcDbEntity
  8
0
  6
Continuous
 62
     7
100
AcDbLine
 10
5964.4221273854
 20
5730.7975209445
 30
0.0
 11
5965.0361446336
 21
5731.2566853255
 31
0.0
  0
LINE
  5
2A7
330
1F
100
AcDbEntity
  8
0
  6
Continuous
 62
     7
100
AcDbLine
 10
5965.0361446336
 20
5731.2566853255
 30
0.0
 11
5965.9748283818
 21
5731.6774941176
 31
0.0
  0
LINE
  5
2A8
330
1F
100
AcDbEntity
  8
0
  6
Continuous
 62
     7
100
AcDbLine
 10
5965.9748283818
 20
5731.6774941176
 30
0.0
 11
5967.204233785
 21
5732.0447183341
 31
0.0
  0
LINE
  5
2A9
330
1F
100
AcDbEntity
  8
0
  6
Continuous
 62
     7
100
AcDbLine
 10
5967.204233785
 20
5732.0447183341
 30
0.0
 11
5968.6799255803
 21
5732.3450661391
 31
0.0
  0
LINE
  5
2AA
330
1F
100
AcDbEntity
  8
0
  6
Continuous
 62
     7
100
AcDbLine
 10
5968.6799255803
 20
5732.3450661391
 30
0.0
 11
5970.3485874131
 21
5732.5677192897
 31
0.0
  0
LINE
  5
2AB
330
1F
100
AcDbEntity
  8
0
  6
Continuous
 62
     7
100
AcDbLine
 10
5970.3485874131
 20
5732.5677192897
 30
0.0
 11
5972.1498993829
 21
5732.7046013564
 31
0.0
  0
LINE
  5
2AC
330
1F
100
AcDbEntity
  8
0
  6
Continuous
 62
     7
100
AcDbLine
 10
5972.1498993829
 20
5732.7046013564
 30
0.0
 11
5974.0187434152
 21
5732.7507949561
 31
0.0
  0
LINE
  5
2AD
330
1F
100
AcDbEntity
  8
0
  6
Continuous
 62
     7
100
AcDbLine
 10
5983.2481352284
 20
5731.1039484233
 30
0.0
 11
5983.3937493756
 21
5730.6779242248
 31
0.0
  0
LINE
  5
2AE
330
1F
100
AcDbEntity
  8
0
  6
Continuous
 62
     7
100
AcDbLine
 10
5983.3937493756
 20
5730.6779242248
 30
0.0
 11
5983.2687584355
 21
5730.2830136508
 31
0.0
  0
LINE
  5
2AF
330
1F
100
AcDbEntity
  8
0
  6
Continuous
 62
     7
100
AcDbLine
 10
5982.368042846
 20
5729.5743740291
 30
0.0
 11
5981.8137792543
 21
5729.3298757762
 31
0.0
  0
LINE
  5
2B0
330
1F
100
AcDbEntity
  8
0
  6
Continuous
 62
     7
100
AcDbLine
 10
5981.8137792543
 20
5729.3298757762
 30
0.0
 11
5980.7612804368
 21
5728.9920366496
 31
0.0
  0
LINE
  5
2B1
330
1F
100
AcDbEntity
  8
0
  6
Continuous
 62
     7
100
AcDbLine
 10
5965.8614603475
 20
5729.4820464343
 30
0.0
 11
5965.3573838666
 21
5729.7493732661
 31
0.0
  0
LINE
  5
2B2
330
1F
100
AcDbEntity
  8
0
  6
Continuous
 62
     7
100
AcDbLine
 10
5965.3573838666
 20
5729.7493732661
 30
0.0
 11
5964.8989645436
 21
5730.115614006
 31
0.0
  0
LINE
  5
2B3
330
1F
100
AcDbEntity
  8
0
  6
Continuous
 62
     7
100
AcDbLine
 10
5964.7687581971
 20
5730.2830136508
 30
0.0
 11
5964.643767257
 21
5730.6779242248
 31
0.0
  0
LINE
  5
2B4
330
1F
100
AcDbEntity
  8
0
  6
Continuous
 62
     7
100
AcDbLine
 10
5964.643767257
 20
5730.6779242248
 30
0.0
 11
5964.7893814042
 21
5731.1039484233
 31
0.0
  0
LINE
  5
2B5
330
1F
100
AcDbEntity
  8
0
  6
Continuous
 62
     7
100
AcDbLine
 10
6859.0187338784
 20
4598.9578581542
 30
0.0
 11
6859.0187338784
 21
5178.9578414649
 31
0.0
  0
LINE
  5
2B6
330
1F
100
AcDbEntity
  8
0
  6
Continuous
 62
     7
100
AcDbLine
 10
6895.0187472299
 20
4598.9578581542
 30
0.0
 11
6895.0187472299
 21
5178.9578414649
 31
0.0
  0
LINE
  5
2B7
330
1F
100
AcDbEntity
  8
0
  6
Continuous
 62
     7
100
AcDbLine
 10
5689.0187767938
 20
4598.9578581542
 30
0.0
 11
5689.0187767938
 21
5178.9578414649
 31
0.0
  0
LINE
  5
2B8
330
1F
100
AcDbEntity
  8
0
  6
Continuous
 62
     7
100
AcDbLine
 10
5653.0187634423
 20
4598.9578581542
 30
0.0
 11
5653.0187634423
 21
5178.9578414649
 31
0.0
  0
LINE
  5
2B9
330
1F
100
AcDbEntity
  8
0
  6
Continuous
 62
     7
100
AcDbLine
 10
5774.4125334218
 20
5024.3948615283
 30
0.0
 11
5828.6249844029
 21
5024.3948615283
 31
0.0
  0
LINE
  5
2BA
330
1F
100
AcDbEntity
  8
0
  6
Continuous
 62
     7
100
AcDbLine
 10
5828.8282064393
 20
5149.0482009143
 30
0.0
 11
5774.2093113854
 21
5149.0482009143
 31
0.0
  0
LINE
  5
2BB
330
1F
100
AcDbEntity
  8
0
  6
Continuous
 62
     7
100
AcDbLine
 10
5778.518757005
 20
5165.2005530089
 30
0.0
 11
5824.5187608197
 21
5165.2005530089
 31
0.0
  0
LINE
  5
2BC
330
1F
100
AcDbEntity
  8
0
  6
Continuous
 62
     7
100
AcDbLine
 10
7311.9801841785
 20
5740.1717818469
 30
0.0
 11
7312.3601935912
 21
5740.1717818469
 31
0.0
  0
LINE
  5
2BD
330
1F
100
AcDbEntity
  8
0
  6
Continuous
 62
     7
100
AcDbLine
 10
7312.3601935912
 20
5747.7717912883
 30
0.0
 11
7311.9801841785
 21
5747.7717912883
 31
0.0
  0
LINE
  5
2BE
330
1F
100
AcDbEntity
  8
0
  6
Continuous
 62
     7
100
AcDbLine
 10
7311.9801841785
 20
5830.1717854232
 30
0.0
 11
7312.3601935912
 21
5830.1717854232
 31
0.0
  0
LINE
  5
2BF
330
1F
100
AcDbEntity
  8
0
  6
Continuous
 62
     7
100
AcDbLine
 10
7312.3601935912
 20
5837.7717948646
 30
0.0
 11
7311.9801841785
 21
5837.7717948646
 31
0.0
  0
LINE
  5
2C0
330
1F
100
AcDbEntity
  8
0
  6
Continuous
 62
     7
100
AcDbLine
 10
7333.3680890609
 20
4590.9578419417
 30
0.0
 11
7333.3680890609
 21
4586.9578338355
 31
0.0
  0
LINE
  5
2C1
330
1F
100
AcDbEntity
  8
0
  6
Continuous
 62
     7
100
AcDbLine
 10
7343.3681093265
 20
4586.9578338355
 30
0.0
 11
7343.3681093265
 21
4590.9578419417
 31
0.0
  0
LINE
  5
2C2
330
1F
100
AcDbEntity
  8
0
  6
Continuous
 62
     7
100
AcDbLine
 10
7765.4601819922
 20
4590.9578419417
 30
0.0
 11
7765.4601819922
 21
4586.9578338355
 31
0.0
  0
LINE
  5
2C3
330
1F
100
AcDbEntity
  8
0
  6
Continuous
 62
     7
100
AcDbLine
 10
7775.4601836313
 20
4586.9578338355
 30
0.0
 11
7775.4601836313
 21
4590.9578419417
 31
0.0
  0
LINE
  5
2C4
330
1F
100
AcDbEntity
  8
0
  6
Continuous
 62
     7
100
AcDbLine
 10
7318.368103366
 20
5169.7005546779
 30
0.0
 11
7312.1917806674
 21
5169.7005546779
 31
0.0
  0
LINE
  5
2C5
330
1F
100
AcDbEntity
  8
0
  6
Continuous
 62
     7
100
AcDbLine
 10
7312.1917806674
 20
5089.7005415649
 30
0.0
 11
7318.368103366
 21
5089.7005415649
 31
0.0
  0
LINE
  5
2C6
330
1F
100
AcDbEntity
  8
0
  6
Continuous
 62
     7
100
AcDbLine
 10
7312.1917806674
 20
5149.700543949
 30
0.0
 11
7302.1917902042
 21
5149.700543949
 31
0.0
  0
LINE
  5
2C7
330
1F
100
AcDbEntity
  8
0
  6
Continuous
 62
     7
100
AcDbLine
 10
7302.1917902042
 20
5109.7005522937
 30
0.0
 11
7312.1917806674
 21
5109.7005522937
 31
0.0
  0
LINE
  5
2C8
330
1F
100
AcDbEntity
  8
0
  6
Continuous
 62
     7
100
AcDbLine
 10
7494.8601685573
 20
5149.700543949
 30
0.0
 11
7358.3680950214
 21
5149.700543949
 31
0.0
  0
LINE
  5
2C9
330
1F
100
AcDbEntity
  8
0
  6
Continuous
 62
     7
100
AcDbLine
 10
7358.3680950214
 20
5109.7005522937
 30
0.0
 11
7494.8601685573
 21
5109.7005522937
 31
0.0
  0
LINE
  5
2CA
330
1F
100
AcDbEntity
  8
0
  6
Continuous
 62
     7
100
AcDbLine
 10
7538.8601683189
 20
5178.9578414649
 30
0.0
 11
7538.8601683189
 21
5168.2005441875
 31
0.0
  0
LINE
  5
2CB
330
1F
100
AcDbEntity
  8
0
  6
Continuous
 62
     7
100
AcDbLine
 10
7538.8601683189
 20
5154.200545618
 30
0.0
 11
7538.8601683189
 21
5151.7005480022
 31
0.0
  0
LINE
  5
2CC
330
1F
100
AcDbEntity
  8
0
  6
Continuous
 62
     7
100
AcDbLine
 10
7570.8601884652
 20
5151.7005480022
 30
0.0
 11
7570.8601884652
 21
5154.200545618
 31
0.0
  0
LINE
  5
2CD
330
1F
100
AcDbEntity
  8
0
  6
Continuous
 62
     7
100
AcDbLine
 10
7570.8601884652
 20
5168.2005441875
 30
0.0
 11
7570.8601884652
 21
5178.9578414649
 31
0.0
  0
LINE
  5
2CE
330
1F
100
AcDbEntity
  8
0
  6
Continuous
 62
     7
100
AcDbLine
 10
7520.8601914455
 20
5091.700545618
 30
0.0
 11
7527.7539752532
 21
5024.3948615283
 31
0.0
  0
LINE
  5
2CF
330
1F
100
AcDbEntity
  8
0
  6
Continuous
 62
     7
100
AcDbLine
 10
7581.966396432
 20
5024.3948615283
 30
0.0
 11
7588.8601802398
 21
5091.700545618
 31
0.0
  0
LINE
  5
2D0
330
1F
100
AcDbEntity
  8
0
  6
Continuous
 62
     7
100
AcDbLine
 10
7588.8601802398
 20
5091.700545618
 30
0.0
 11
7582.1696184684
 21
5149.0482009143
 31
0.0
  0
LINE
  5
2D1
330
1F
100
AcDbEntity
  8
0
  6
Continuous
 62
     7
100
AcDbLine
 10
7522.7312706519
 20
5107.7385462016
 30
0.0
 11
7520.8601914455
 21
5091.700545618
 31
0.0
  0
LINE
  5
2D2
330
1F
100
AcDbEntity
  8
0
  6
Continuous
 62
     7
100
AcDbLine
 10
7510.8601711799
 20
5157.2005367965
 30
0.0
 11
7506.860192876
 21
5155.7005561084
 31
0.0
  0
LINE
  5
2D3
330
1F
100
AcDbEntity
  8
0
  6
Continuous
 62
     7
100
AcDbLine
 10
7506.860192876
 20
5103.7005401343
 30
0.0
 11
7510.8601711799
 21
5102.2005594462
 31
0.0
  0
LINE
  5
2D4
330
1F
100
AcDbEntity
  8
0
  6
Continuous
 62
     7
100
AcDbLine
 10
7506.860192876
 20
5155.7005561084
 30
0.0
 11
7497.8601895381
 21
5155.7005561084
 31
0.0
  0
LINE
  5
2D5
330
1F
100
AcDbEntity
  8
0
  6
Continuous
 62
     7
100
AcDbLine
 10
7497.8601895381
 20
5103.7005401343
 30
0.0
 11
7506.860192876
 21
5103.7005401343
 31
0.0
  0
LINE
  5
2D6
330
1F
100
AcDbEntity
  8
0
  6
Continuous
 62
     7
100
AcDbLine
 10
7579.8601769019
 20
5154.200545618
 30
0.0
 11
7577.86018775
 21
5158.2005537242
 31
0.0
  0
LINE
  5
2D7
330
1F
100
AcDbEntity
  8
0
  6
Continuous
 62
     7
100
AcDbLine
 10
7531.8601690341
 20
5158.2005537242
 30
0.0
 11
7529.8601947833
 21
5154.200545618
 31
0.0
  0
LINE
  5
2D8
330
1F
100
AcDbEntity
  8
0
  6
Continuous
 62
     7
100
AcDbLine
 10
7531.8601690341
 20
5165.2005530089
 30
0.0
 11
7531.8601690341
 21
5158.2005537242
 31
0.0
  0
LINE
  5
2D9
330
1F
100
AcDbEntity
  8
0
  6
Continuous
 62
     7
100
AcDbLine
 10
7577.86018775
 20
5158.2005537242
 30
0.0
 11
7577.86018775
 21
5165.2005530089
 31
0.0
  0
LINE
  5
2DA
330
1F
100
AcDbEntity
  8
0
  6
Continuous
 62
     7
100
AcDbLine
 10
7510.8601711799
 20
5107.7005482406
 30
0.0
 11
7522.7550231029
 21
5107.7005482406
 31
0.0
  0
LINE
  5
2DB
330
1F
100
AcDbEntity
  8
0
  6
Continuous
 62
     7
100
AcDbLine
 10
7527.8601907302
 20
5151.7005480022
 30
0.0
 11
7510.8601711799
 21
5151.7005480022
 31
0.0
  0
LINE
  5
2DC
330
1F
100
AcDbEntity
  8
0
  6
Continuous
 62
     7
100
AcDbLine
 10
7538.8601683189
 20
5154.200545618
 30
0.0
 11
7538.8601683189
 21
5151.7005480022
 31
0.0
  0
LINE
  5
2DD
330
1F
100
AcDbEntity
  8
0
  6
Continuous
 62
     7
100
AcDbLine
 10
7570.8601884652
 20
5151.7005480022
 30
0.0
 11
7570.8601884652
 21
5154.200545618
 31
0.0
  0
LINE
  5
2DE
330
1F
100
AcDbEntity
  8
0
  6
Continuous
 62
     7
100
AcDbLine
 10
7371.9101809074
 20
5532.3578409046
 30
0.0
 11
7371.9101809074
 21
5542.9578415245
 31
0.0
  0
LINE
  5
2DF
330
1F
100
AcDbEntity
  8
0
  6
Continuous
 62
     7
100
AcDbLine
 10
7362.3601757098
 20
5518.9578450412
 30
0.0
 11
7364.360179763
 21
5518.9578450412
 31
0.0
  0
LINE
  5
2E0
330
1F
100
AcDbEntity
  8
0
  6
Continuous
 62
     7
100
AcDbLine
 10
7364.360179763
 20
5558.9578366965
 30
0.0
 11
7362.3601757098
 21
5558.9578366965
 31
0.0
  0
LINE
  5
2E1
330
1F
100
AcDbEntity
  8
0
  6
Continuous
 62
     7
100
AcDbLine
 10
7371.7601858188
 20
5543.2578391522
 30
0.0
 11
7371.7601858188
 21
5546.400210926
 31
0.0
  0
LINE
  5
2E2
330
1F
100
AcDbEntity
  8
0
  6
Continuous
 62
     7
100
AcDbLine
 10
7371.7601858188
 20
5531.5154708118
 30
0.0
 11
7371.7601858188
 21
5532.2578392119
 31
0.0
  0
LINE
  5
2E3
330
1F
100
AcDbEntity
  8
0
  6
Continuous
 62
     7
100
AcDbLine
 10
7364.8601733257
 20
5708.957842657
 30
0.0
 11
7365.3601966907
 21
5709.4578362197
 31
0.0
  0
LINE
  5
2E4
330
1F
100
AcDbEntity
  8
0
  6
Continuous
 62
     7
100
AcDbLine
 10
7365.3601966907
 20
5768.4578514785
 30
0.0
 11
7364.8601733257
 21
5768.9578450412
 31
0.0
  0
LINE
  5
2E5
330
1F
100
AcDbEntity
  8
0
  6
Continuous
 62
     7
100
AcDbLine
 10
7364.8601733257
 20
5768.9578450412
 30
0.0
 11
7362.3601757098
 21
5768.9578450412
 31
0.0
  0
LINE
  5
2E6
330
1F
100
AcDbEntity
  8
0
  6
Continuous
 62
     7
100
AcDbLine
 10
7362.3601757098
 20
5708.957842657
 30
0.0
 11
7364.8601733257
 21
5708.957842657
 31
0.0
  0
LINE
  5
2E7
330
1F
100
AcDbEntity
  8
0
  6
Continuous
 62
     7
100
AcDbLine
 10
7374.0101717521
 20
5724.9578452796
 30
0.0
 11
7496.3601790477
 21
5724.9578452796
 31
0.0
  0
LINE
  5
2E8
330
1F
100
AcDbEntity
  8
0
  6
Continuous
 62
     7
100
AcDbLine
 10
7365.3601966907
 20
5724.9578452796
 30
0.0
 11
7370.7308732082
 21
5724.9578452796
 31
0.0
  0
LINE
  5
2E9
330
1F
100
AcDbEntity
  8
0
  6
Continuous
 62
     7
100
AcDbLine
 10
7530.360188346
 20
5752.9578424186
 30
0.0
 11
7365.3601966907
 21
5752.9578424186
 31
0.0
  0
LINE
  5
2EA
330
1F
100
AcDbEntity
  8
0
  6
Continuous
 62
     7
100
AcDbLine
 10
7531.3601754714
 20
5751.9578552932
 30
0.0
 11
7530.360188346
 21
5752.9578424186
 31
0.0
  0
LINE
  5
2EB
330
1F
100
AcDbEntity
  8
0
  6
Continuous
 62
     7
100
AcDbLine
 10
7310.1601861526
 20
5745.8060599059
 30
0.0
 11
7310.1601861526
 21
5745.8718038291
 31
0.0
  0
LINE
  5
2EC
330
1F
100
AcDbEntity
  8
0
  6
Continuous
 62
     7
100
AcDbLine
 10
7310.1601861526
 20
5742.0717991084
 30
0.0
 11
7310.1601861526
 21
5745.8060599059
 31
0.0
  0
LINE
  5
2ED
330
1F
100
AcDbEntity
  8
0
  6
Continuous
 62
     7
100
AcDbLine
 10
7311.9801841785
 20
5747.6403332442
 30
0.0
 11
7311.9801841785
 21
5747.7717912883
 31
0.0
  0
LINE
  5
2EE
330
1F
100
AcDbEntity
  8
0
  6
Continuous
 62
     7
100
AcDbLine
 10
7311.9801841785
 20
5740.1717818469
 30
0.0
 11
7311.9801841785
 21
5747.6403332442
 31
0.0
  0
LINE
  5
2EF
330
1F
100
AcDbEntity
  8
0
  6
Continuous
 62
     7
100
AcDbLine
 10
7310.1601861526
 20
5832.0718026847
 30
0.0
 11
7310.1601861526
 21
5835.8717776031
 31
0.0
  0
LINE
  5
2F0
330
1F
100
AcDbEntity
  8
0
  6
Continuous
 62
     7
100
AcDbLine
 10
7311.9801841785
 20
5830.1717854232
 30
0.0
 11
7311.9801841785
 21
5837.7717948646
 31
0.0
  0
LINE
  5
2F1
330
1F
100
AcDbEntity
  8
0
  6
Continuous
 62
     7
100
AcDbLine
 10
7315.8601783324
 20
5824.971786806
 30
0.0
 11
7314.3601976443
 21
5824.971786806
 31
0.0
  0
LINE
  5
2F2
330
1F
100
AcDbEntity
  8
0
  6
Continuous
 62
     7
100
AcDbLine
 10
7315.8601783324
 20
5824.971786806
 30
0.0
 11
7315.8601783324
 21
5823.5578454227
 31
0.0
  0
LINE
  5
2F3
330
1F
100
AcDbEntity
  8
0
  6
Continuous
 62
     7
100
AcDbLine
 10
7314.3601976443
 20
5824.971786806
 30
0.0
 11
7314.3601976443
 21
5823.5578454227
 31
0.0
  0
LINE
  5
2F4
330
1F
100
AcDbEntity
  8
0
  6
Continuous
 62
     7
100
AcDbLine
 10
7314.3601976443
 20
5824.971786806
 30
0.0
 11
7314.3601976443
 21
5825.5578494758
 31
0.0
  0
LINE
  5
2F5
330
1F
100
AcDbEntity
  8
0
  6
Continuous
 62
     7
100
AcDbLine
 10
7315.8601783324
 20
5825.5578494758
 30
0.0
 11
7315.8601783324
 21
5824.971786806
 31
0.0
  0
LINE
  5
2F6
330
1F
100
AcDbEntity
  8
0
  6
Continuous
 62
     7
100
AcDbLine
 10
7320.3681074191
 20
4598.9578581542
 30
0.0
 11
7317.868080001
 21
4598.9578581542
 31
0.0
  0
LINE
  5
2F7
330
1F
100
AcDbEntity
  8
0
  6
Continuous
 62
     7
100
AcDbLine
 10
7320.3681074191
 20
4596.9578242988
 30
0.0
 11
7320.3681074191
 21
4598.9578581542
 31
0.0
  0
LINE
  5
2F8
330
1F
100
AcDbEntity
  8
0
  6
Continuous
 62
     7
100
AcDbLine
 10
7317.868080001
 20
4596.9578242988
 30
0.0
 11
7320.3681074191
 21
4596.9578242988
 31
0.0
  0
LINE
  5
2F9
330
1F
100
AcDbEntity
  8
0
  6
Continuous
 62
     7
100
AcDbLine
 10
7317.868080001
 20
4596.9578242988
 30
0.0
 11
7317.868080001
 21
4598.9578581542
 31
0.0
  0
LINE
  5
2FA
330
1F
100
AcDbEntity
  8
0
  6
Continuous
 62
     7
100
AcDbLine
 10
7356.3680909682
 20
4596.9578242988
 30
0.0
 11
7356.3680909682
 21
4598.9578581542
 31
0.0
  0
LINE
  5
2FB
330
1F
100
AcDbEntity
  8
0
  6
Continuous
 62
     7
100
AcDbLine
 10
7320.3681074191
 20
4596.9578242988
 30
0.0
 11
7356.3680909682
 21
4596.9578242988
 31
0.0
  0
LINE
  5
2FC
330
1F
100
AcDbEntity
  8
0
  6
Continuous
 62
     7
100
AcDbLine
 10
7356.3680909682
 20
4598.9578581542
 30
0.0
 11
7320.3681074191
 21
4598.9578581542
 31
0.0
  0
LINE
  5
2FD
330
1F
100
AcDbEntity
  8
0
  6
Continuous
 62
     7
100
AcDbLine
 10
7352.8681064654
 20
4590.9578421801
 30
0.0
 11
7323.8680947916
 21
4590.9578417033
 31
0.0
  0
LINE
  5
2FE
330
1F
100
AcDbEntity
  8
0
  6
Continuous
 62
     7
100
AcDbLine
 10
7356.3680909682
 20
4596.9578242988
 30
0.0
 11
7358.8680915687
 21
4596.9578242988
 31
0.0
  0
LINE
  5
2FF
330
1F
100
AcDbEntity
  8
0
  6
Continuous
 62
     7
100
AcDbLine
 10
7358.8680915687
 20
4596.9578242988
 30
0.0
 11
7358.8680915687
 21
4598.9578581542
 31
0.0
  0
LINE
  5
300
330
1F
100
AcDbEntity
  8
0
  6
Continuous
 62
     7
100
AcDbLine
 10
7358.8680915687
 20
4598.9578581542
 30
0.0
 11
7356.3680909682
 21
4598.9578581542
 31
0.0
  0
LINE
  5
301
330
1F
100
AcDbEntity
  8
0
  6
Continuous
 62
     7
100
AcDbLine
 10
7338.3680842925
 20
4578.957817623
 30
0.0
 11
7338.3680842925
 21
4586.9578338355
 31
0.0
  0
LINE
  5
302
330
1F
100
AcDbEntity
  8
0
  6
Continuous
 62
     7
100
AcDbLine
 10
7323.3680985976
 20
4578.957817623
 30
0.0
 11
7323.3680985976
 21
4586.9578338355
 31
0.0
  0
LINE
  5
303
330
1F
100
AcDbEntity
  8
0
  6
Continuous
 62
     7
100
AcDbLine
 10
7338.3680842925
 20
4586.9578338355
 30
0.0
 11
7323.3680985976
 21
4586.9578338355
 31
0.0
  0
LINE
  5
304
330
1F
100
AcDbEntity
  8
0
  6
Continuous
 62
     7
100
AcDbLine
 10
7338.3680842925
 20
4578.957817623
 30
0.0
 11
7323.3680985976
 21
4578.957817623
 31
0.0
  0
LINE
  5
305
330
1F
100
AcDbEntity
  8
0
  6
Continuous
 62
     7
100
AcDbLine
 10
7353.3680997897
 20
4578.957817623
 30
0.0
 11
7353.3680997897
 21
4586.9578338355
 31
0.0
  0
LINE
  5
306
330
1F
100
AcDbEntity
  8
0
  6
Continuous
 62
     7
100
AcDbLine
 10
7353.3680997897
 20
4586.9578338355
 30
0.0
 11
7338.3680842925
 21
4586.9578338355
 31
0.0
  0
LINE
  5
307
330
1F
100
AcDbEntity
  8
0
  6
Continuous
 62
     7
100
AcDbLine
 10
7353.3680997897
 20
4578.957817623
 30
0.0
 11
7338.3680842925
 21
4578.957817623
 31
0.0
  0
LINE
  5
308
330
1F
100
AcDbEntity
  8
0
  6
Continuous
 62
     7
100
AcDbLine
 10
7788.4601829682
 20
4598.9578581542
 30
0.0
 11
7752.4601817239
 21
4598.9578581542
 31
0.0
  0
LINE
  5
309
330
1F
100
AcDbEntity
  8
0
  6
Continuous
 62
     7
100
AcDbLine
 10
7788.4601829682
 20
4596.9578242988
 30
0.0
 11
7788.4601829682
 21
4598.9578581542
 31
0.0
  0
LINE
  5
30A
330
1F
100
AcDbEntity
  8
0
  6
Continuous
 62
     7
100
AcDbLine
 10
7752.4601817239
 20
4596.9578242988
 30
0.0
 11
7788.4601829682
 21
4596.9578242988
 31
0.0
  0
LINE
  5
30B
330
1F
100
AcDbEntity
  8
0
  6
Continuous
 62
     7
100
AcDbLine
 10
7752.4601817239
 20
4596.9578242988
 30
0.0
 11
7752.4601817239
 21
4598.9578581542
 31
0.0
  0
LINE
  5
30C
330
1F
100
AcDbEntity
  8
0
  6
Continuous
 62
     7
100
AcDbLine
 10
7749.9601841081
 20
4596.9578242988
 30
0.0
 11
7752.4601817239
 21
4596.9578242988
 31
0.0
  0
LINE
  5
30D
330
1F
100
AcDbEntity
  8
0
  6
Continuous
 62
     7
100
AcDbLine
 10
7749.9601841081
 20
4596.9578242988
 30
0.0
 11
7749.9601841081
 21
4598.9578581542
 31
0.0
  0
LINE
  5
30E
330
1F
100
AcDbEntity
  8
0
  6
Continuous
 62
     7
100
AcDbLine
 10
7752.4601817239
 20
4598.9578581542
 30
0.0
 11
7749.9601841081
 21
4598.9578581542
 31
0.0
  0
LINE
  5
30F
330
1F
100
AcDbEntity
  8
0
  6
Continuous
 62
     7
100
AcDbLine
 10
7784.9601834852
 20
4590.9578420877
 30
0.0
 11
7755.9601834852
 21
4590.9578420877
 31
0.0
  0
LINE
  5
310
330
1F
100
AcDbEntity
  8
0
  6
Continuous
 62
     7
100
AcDbLine
 10
7790.9601835102
 20
4596.9578242988
 30
0.0
 11
7790.9601835102
 21
4598.9578581542
 31
0.0
  0
LINE
  5
311
330
1F
100
AcDbEntity
  8
0
  6
Continuous
 62
     7
100
AcDbLine
 10
7788.4601829682
 20
4596.9578242988
 30
0.0
 11
7790.9601835102
 21
4596.9578242988
 31
0.0
  0
LINE
  5
312
330
1F
100
AcDbEntity
  8
0
  6
Continuous
 62
     7
100
AcDbLine
 10
7790.9601835102
 20
4598.9578581542
 30
0.0
 11
7788.4601829682
 21
4598.9578581542
 31
0.0
  0
LINE
  5
313
330
1F
100
AcDbEntity
  8
0
  6
Continuous
 62
     7
100
AcDbLine
 10
7770.4601828117
 20
4578.957817623
 30
0.0
 11
7770.4601828117
 21
4586.9578338355
 31
0.0
  0
LINE
  5
314
330
1F
100
AcDbEntity
  8
0
  6
Continuous
 62
     7
100
AcDbLine
 10
7755.4601840783
 20
4578.957817623
 30
0.0
 11
7755.4601840783
 21
4586.9578338355
 31
0.0
  0
LINE
  5
315
330
1F
100
AcDbEntity
  8
0
  6
Continuous
 62
     7
100
AcDbLine
 10
7770.4601828117
 20
4586.9578338355
 30
0.0
 11
7755.4601840783
 21
4586.9578338355
 31
0.0
  0
LINE
  5
316
330
1F
100
AcDbEntity
  8
0
  6
Continuous
 62
     7
100
AcDbLine
 10
7770.4601828117
 20
4578.957817623
 30
0.0
 11
7755.4601840783
 21
4578.957817623
 31
0.0
  0
LINE
  5
317
330
1F
100
AcDbEntity
  8
0
  6
Continuous
 62
     7
100
AcDbLine
 10
7785.4601829421
 20
4578.957817623
 30
0.0
 11
7785.4601829421
 21
4586.9578338355
 31
0.0
  0
LINE
  5
318
330
1F
100
AcDbEntity
  8
0
  6
Continuous
 62
     7
100
AcDbLine
 10
7785.4601829421
 20
4586.9578338355
 30
0.0
 11
7770.4601828117
 21
4586.9578338355
 31
0.0
  0
LINE
  5
319
330
1F
100
AcDbEntity
  8
0
  6
Continuous
 62
     7
100
AcDbLine
 10
7785.4601829421
 20
4578.957817623
 30
0.0
 11
7770.4601828117
 21
4578.957817623
 31
0.0
  0
LINE
  5
31A
330
1F
100
AcDbEntity
  8
0
  6
Continuous
 62
     7
100
AcDbLine
 10
7750.4601813961
 20
4598.9578581542
 30
0.0
 11
7750.4601813961
 21
5178.9578414649
 31
0.0
  0
LINE
  5
31B
330
1F
100
AcDbEntity
  8
0
  6
Continuous
 62
     7
100
AcDbLine
 10
7790.4601828304
 20
4598.9578581542
 30
0.0
 11
7790.4601828304
 21
5178.9578414649
 31
0.0
  0
LINE
  5
31C
330
1F
100
AcDbEntity
  8
0
  6
Continuous
 62
     7
100
AcDbLine
 10
7318.368103366
 20
4598.9578581542
 30
0.0
 11
7318.368103366
 21
5178.9578414649
 31
0.0
  0
LINE
  5
31D
330
1F
100
AcDbEntity
  8
0
  6
Continuous
 62
     7
100
AcDbLine
 10
7358.3680950214
 20
4598.9578581542
 30
0.0
 11
7358.3680950214
 21
5178.9578414649
 31
0.0
  0
LINE
  5
31E
330
1F
100
AcDbEntity
  8
0
  6
Continuous
 62
     7
100
AcDbLine
 10
7750.4601813961
 20
4733.9578486175
 30
0.0
 11
7358.3680950214
 21
4733.9578486175
 31
0.0
  0
LINE
  5
31F
330
1F
100
AcDbEntity
  8
0
  6
Continuous
 62
     7
100
AcDbLine
 10
7750.4601813961
 20
4735.9578228683
 30
0.0
 11
7358.3680950214
 21
4735.9578228683
 31
0.0
  0
LINE
  5
320
330
1F
100
AcDbEntity
  8
0
  6
Continuous
 62
     7
100
AcDbLine
 10
7750.4601813961
 20
4771.9578362197
 30
0.0
 11
7358.3680950214
 21
4771.9578362197
 31
0.0
  0
LINE
  5
321
330
1F
100
AcDbEntity
  8
0
  6
Continuous
 62
     7
100
AcDbLine
 10
7750.4601813961
 20
4773.9578700751
 30
0.0
 11
7358.3680950214
 21
4773.9578700751
 31
0.0
  0
LINE
  5
322
330
1F
100
AcDbEntity
  8
0
  6
Continuous
 62
     7
100
AcDbLine
 10
7312.3601935912
 20
5178.9578414649
 30
0.0
 11
7312.3601935912
 21
5823.5578454227
 31
0.0
  0
LINE
  5
323
330
1F
100
AcDbEntity
  8
0
  6
Continuous
 62
     7
100
AcDbLine
 10
7315.4601715614
 20
5823.5578454227
 30
0.0
 11
7315.4601715614
 21
5178.9578414649
 31
0.0
  0
LINE
  5
324
330
1F
100
AcDbEntity
  8
0
  6
Continuous
 62
     7
100
AcDbLine
 10
7312.3601935912
 20
5823.5578454227
 30
0.0
 11
7315.4601715614
 21
5823.5578454227
 31
0.0
  0
LINE
  5
325
330
1F
100
AcDbEntity
  8
0
  6
Continuous
 62
     7
100
AcDbLine
 10
7315.4601715614
 20
5178.9578414649
 30
0.0
 11
7312.3601935912
 21
5178.9578414649
 31
0.0
  0
LINE
  5
326
330
1F
100
AcDbEntity
  8
0
  6
Continuous
 62
     7
100
AcDbLine
 10
7312.3601935912
 20
5825.5578494758
 30
0.0
 11
7312.3601935912
 21
5846.2410784453
 31
0.0
  0
LINE
  5
327
330
1F
100
AcDbEntity
  8
0
  6
Continuous
 62
     7
100
AcDbLine
 10
7315.0175772716
 20
5848.3929849357
 30
0.0
 11
7360.6175743152
 21
5838.7004054278
 31
0.0
  0
LINE
  5
328
330
1F
100
AcDbEntity
  8
0
  6
Continuous
 62
     7
100
AcDbLine
 10
7362.3601757098
 20
5836.5484989375
 30
0.0
 11
7362.3601757098
 21
5428.9578414649
 31
0.0
  0
LINE
  5
329
330
1F
100
AcDbEntity
  8
0
  6
Continuous
 62
     7
100
AcDbLine
 10
7362.3601757098
 20
5428.9578414649
 30
0.0
 11
7790.1601828743
 21
5428.9578414649
 31
0.0
  0
LINE
  5
32A
330
1F
100
AcDbEntity
  8
0
  6
Continuous
 62
     7
100
AcDbLine
 10
7792.3601828624
 20
5426.7578414768
 30
0.0
 11
7792.3601828624
 21
5403.9578410924
 31
0.0
  0
LINE
  5
32B
330
1F
100
AcDbEntity
  8
0
  6
Continuous
 62
     7
100
AcDbLine
 10
7792.3601828624
 20
5403.9578410924
 30
0.0
 11
7789.3601828363
 21
5403.9578410924
 31
0.0
  0
LINE
  5
32C
330
1F
100
AcDbEntity
  8
0
  6
Continuous
 62
     7
100
AcDbLine
 10
7789.3601828363
 20
5403.9578410924
 30
0.0
 11
7789.3601828363
 21
5403.9478405506
 31
0.0
  0
LINE
  5
32D
330
1F
100
AcDbEntity
  8
0
  6
Continuous
 62
     7
100
AcDbLine
 10
7789.3601828363
 20
5178.9578414649
 30
0.0
 11
7789.3601828363
 21
5403.9478405506
 31
0.0
  0
LINE
  5
32E
330
1F
100
AcDbEntity
  8
0
  6
Continuous
 62
     7
100
AcDbLine
 10
7789.3601828363
 20
5178.9578414649
 30
0.0
 11
7315.4601715614
 21
5178.9578414649
 31
0.0
  0
LINE
  5
32F
330
1F
100
AcDbEntity
  8
0
  6
Continuous
 62
     7
100
AcDbLine
 10
7316.4601884891
 20
5823.5578454227
 30
0.0
 11
7316.4601884891
 21
5825.5578494758
 31
0.0
  0
LINE
  5
330
330
1F
100
AcDbEntity
  8
0
  6
Continuous
 62
     7
100
AcDbLine
 10
7316.4601884891
 20
5825.5578494758
 30
0.0
 11
7312.3601935912
 21
5825.5578494758
 31
0.0
  0
LINE
  5
331
330
1F
100
AcDbEntity
  8
0
  6
Continuous
 62
     7
100
AcDbLine
 10
7315.4601715614
 20
5823.5578454227
 30
0.0
 11
7316.4601884891
 21
5823.5578454227
 31
0.0
  0
LINE
  5
332
330
1F
100
AcDbEntity
  8
0
  6
Continuous
 62
     7
100
AcDbLine
 10
7792.4601828599
 20
5178.9578414649
 30
0.0
 11
7792.4601828599
 21
5403.9478405506
 31
0.0
  0
LINE
  5
333
330
1F
100
AcDbEntity
  8
0
  6
Continuous
 62
     7
100
AcDbLine
 10
7789.3601828363
 20
5403.9478405506
 30
0.0
 11
7792.4601828599
 21
5403.9478405506
 31
0.0
  0
LINE
  5
334
330
1F
100
AcDbEntity
  8
0
  6
Continuous
 62
     7
100
AcDbLine
 10
7792.4601828599
 20
5178.9578414649
 30
0.0
 11
7789.3601828363
 21
5178.9578414649
 31
0.0
  0
LINE
  5
335
330
1F
100
AcDbEntity
  8
0
  6
Continuous
 62
     7
100
AcDbLine
 10
7312.3601935912
 20
5823.9578521937
 30
0.0
 11
7313.5601841022
 21
5823.9578521937
 31
0.0
  0
LINE
  5
336
330
1F
100
AcDbEntity
  8
0
  6
Continuous
 62
     7
100
AcDbLine
 10
7312.3601935912
 20
5825.5578494758
 30
0.0
 11
7312.3601935912
 21
5823.9578521937
 31
0.0
  0
LINE
  5
337
330
1F
100
AcDbEntity
  8
0
  6
Continuous
 62
     7
100
AcDbLine
 10
7313.5601841022
 20
5825.5578494758
 30
0.0
 11
7313.5601841022
 21
5823.9578521937
 31
0.0
  0
LINE
  5
338
330
1F
100
AcDbEntity
  8
0
  6
Continuous
 62
     7
100
AcDbLine
 10
7312.1917806674
 20
5169.7005546779
 30
0.0
 11
7312.1917806674
 21
5089.7005415649
 31
0.0
  0
LINE
  5
339
330
1F
100
AcDbEntity
  8
0
  6
Continuous
 62
     7
100
AcDbLine
 10
7302.1917902042
 20
5149.700543949
 30
0.0
 11
7302.1917902042
 21
5109.7005522937
 31
0.0
  0
LINE
  5
33A
330
1F
100
AcDbEntity
  8
0
  6
Continuous
 62
     7
100
AcDbLine
 10
7520.8601914455
 20
5091.700545618
 30
0.0
 11
7588.8601802398
 21
5091.700545618
 31
0.0
  0
LINE
  5
33B
330
1F
100
AcDbEntity
  8
0
  6
Continuous
 62
     7
100
AcDbLine
 10
7506.860192876
 20
5155.7005561084
 30
0.0
 11
7506.860192876
 21
5103.7005401343
 31
0.0
  0
LINE
  5
33C
330
1F
100
AcDbEntity
  8
0
  6
Continuous
 62
     7
100
AcDbLine
 10
7510.8601711799
 20
5157.2005367965
 30
0.0
 11
7510.8601711799
 21
5102.2005594462
 31
0.0
  0
LINE
  5
33D
330
1F
100
AcDbEntity
  8
0
  6
Continuous
 62
     7
100
AcDbLine
 10
7532.390411954
 20
5151.7005480022
 30
0.0
 11
7579.1898332645
 21
5151.7005480022
 31
0.0
  0
LINE
  5
33E
330
1F
100
AcDbEntity
  8
0
  6
Continuous
 62
     7
100
AcDbLine
 10
7530.7383500148
 20
5021.7005527705
 30
0.0
 11
7578.9820067693
 21
5021.7005527705
 31
0.0
  0
LINE
  5
33F
330
1F
100
AcDbEntity
  8
0
  6
Continuous
 62
     7
100
AcDbLine
 10
7494.8601685573
 20
5152.7005351276
 30
0.0
 11
7494.8601685573
 21
5106.7005313129
 31
0.0
  0
LINE
  5
340
330
1F
100
AcDbEntity
  8
0
  6
Continuous
 62
     7
100
AcDbLine
 10
7531.8601690341
 20
5158.2005537242
 30
0.0
 11
7577.86018775
 21
5158.2005537242
 31
0.0
  0
LINE
  5
341
330
1F
100
AcDbEntity
  8
0
  6
Continuous
 62
     7
100
AcDbLine
 10
7529.8601947833
 20
5154.200545618
 30
0.0
 11
7579.8601769019
 21
5154.200545618
 31
0.0
  0
LINE
  5
342
330
1F
100
AcDbEntity
  8
0
  6
Continuous
 62
     7
100
AcDbLine
 10
7534.860190015
 20
5168.2005441875
 30
0.0
 11
7574.8601816703
 21
5168.2005441875
 31
0.0
  0
LINE
  5
343
330
1F
100
AcDbEntity
  8
0
  6
Continuous
 62
     7
100
AcDbLine
 10
7370.7898520042
 20
5542.9578415245
 30
0.0
 11
7370.077934127
 21
5542.9578415245
 31
0.0
  0
LINE
  5
344
330
1F
100
AcDbEntity
  8
0
  6
Continuous
 62
     7
100
AcDbLine
 10
7370.7898520042
 20
5532.3578409046
 30
0.0
 11
7370.3639768172
 21
5532.3578409046
 31
0.0
  0
LINE
  5
345
330
1F
100
AcDbEntity
  8
0
  6
Continuous
 62
     7
100
AcDbLine
 10
7371.9101809074
 20
5542.9578415245
 30
0.0
 11
7370.7898520042
 21
5542.9578415245
 31
0.0
  0
LINE
  5
346
330
1F
100
AcDbEntity
  8
0
  6
Continuous
 62
     7
100
AcDbLine
 10
7371.9101809074
 20
5532.3578409046
 30
0.0
 11
7370.7898520042
 21
5532.3578409046
 31
0.0
  0
LINE
  5
347
330
1F
100
AcDbEntity
  8
0
  6
Continuous
 62
     7
100
AcDbLine
 10
7364.360179763
 20
5530.5936328262
 30
0.0
 11
7364.360179763
 21
5518.9578450412
 31
0.0
  0
LINE
  5
348
330
1F
100
AcDbEntity
  8
0
  6
Continuous
 62
     7
100
AcDbLine
 10
7364.360179763
 20
5558.9578366965
 30
0.0
 11
7364.360179763
 21
5547.3220489115
 31
0.0
  0
LINE
  5
349
330
1F
100
AcDbEntity
  8
0
  6
Continuous
 62
     7
100
AcDbLine
 10
7371.7601858188
 20
5543.2578391522
 30
0.0
 11
7370.654966693
 21
5543.2578391522
 31
0.0
  0
LINE
  5
34A
330
1F
100
AcDbEntity
  8
0
  6
Continuous
 62
     7
100
AcDbLine
 10
7370.654966693
 20
5532.2578392119
 30
0.0
 11
7371.7601858188
 21
5532.2578392119
 31
0.0
  0
LINE
  5
34B
330
1F
100
AcDbEntity
  8
0
  6
Continuous
 62
     7
100
AcDbLine
 10
7371.2561987449
 20
5724.9578452796
 30
0.0
 11
7370.860185485
 21
5724.9578452796
 31
0.0
  0
LINE
  5
34C
330
1F
100
AcDbEntity
  8
0
  6
Continuous
 62
     7
100
AcDbLine
 10
7373.8601766635
 20
5724.9578452796
 30
0.0
 11
7371.2561987449
 21
5724.9578452796
 31
0.0
  0
LINE
  5
34D
330
1F
100
AcDbEntity
  8
0
  6
Continuous
 62
     7
100
AcDbLine
 10
7365.3601966907
 20
5750.3369367808
 30
0.0
 11
7365.3601966907
 21
5709.4578362197
 31
0.0
  0
LINE
  5
34E
330
1F
100
AcDbEntity
  8
0
  6
Continuous
 62
     7
100
AcDbLine
 10
7365.3601966907
 20
5768.4578514785
 30
0.0
 11
7365.3601966907
 21
5750.3369367808
 31
0.0
  0
LINE
  5
34F
330
1F
100
AcDbEntity
  8
0
  6
Continuous
 62
     7
100
AcDbLine
 10
7364.8601733257
 20
5750.529787609
 30
0.0
 11
7364.8601733257
 21
5768.9578450412
 31
0.0
  0
LINE
  5
350
330
1F
100
AcDbEntity
  8
0
  6
Continuous
 62
     7
100
AcDbLine
 10
7364.8601733257
 20
5708.957842657
 30
0.0
 11
7364.8601733257
 21
5750.529787609
 31
0.0
  0
LINE
  5
351
330
1F
100
AcDbEntity
  8
0
  6
Continuous
 62
     7
100
AcDbLine
 10
7530.360188346
 20
5734.0681172103
 30
0.0
 11
7530.360188346
 21
5752.9578424186
 31
0.0
  0
LINE
  5
352
330
1F
100
AcDbEntity
  8
0
  6
Continuous
 62
     7
100
AcDbLine
 10
7496.3601790477
 20
5724.9578452796
 30
0.0
 11
7496.5312145759
 21
5725.0036812514
 31
0.0
  0
LINE
  5
353
330
1F
100
AcDbEntity
  8
0
  6
Continuous
 62
     7
100
AcDbLine
 10
7496.5312145759
 20
5725.0036812514
 30
0.0
 11
7497.0431886722
 21
5725.1408613414
 31
0.0
  0
LINE
  5
354
330
1F
100
AcDbEntity
  8
0
  6
Continuous
 62
     7
100
AcDbLine
 10
7497.0431886722
 20
5725.1408613414
 30
0.0
 11
7497.8927336742
 21
5725.3684914798
 31
0.0
  0
LINE
  5
355
330
1F
100
AcDbEntity
  8
0
  6
Continuous
 62
     7
100
AcDbLine
 10
7497.8927336742
 20
5725.3684914798
 30
0.0
 11
7499.0743063499
 21
5725.6850815505
 31
0.0
  0
LINE
  5
356
330
1F
100
AcDbEntity
  8
0
  6
Continuous
 62
     7
100
AcDbLine
 10
7499.0743063499
 20
5725.6850815505
 30
0.0
 11
7500.5801878978
 21
5726.0885751933
 31
0.0
  0
LINE
  5
357
330
1F
100
AcDbEntity
  8
0
  6
Continuous
 62
     7
100
AcDbLine
 10
7500.5801878978
 20
5726.0885751933
 30
0.0
 11
7502.4004839469
 21
5726.5763200015
 31
0.0
  0
LINE
  5
358
330
1F
100
AcDbEntity
  8
0
  6
Continuous
 62
     7
100
AcDbLine
 10
7502.4004839469
 20
5726.5763200015
 30
0.0
 11
7504.5232735683
 21
5727.1451271266
 31
0.0
  0
LINE
  5
359
330
1F
100
AcDbEntity
  8
0
  6
Continuous
 62
     7
100
AcDbLine
 10
7504.5232735683
 20
5727.1451271266
 30
0.0
 11
7506.9346986819
 21
5727.7912712783
 31
0.0
  0
LINE
  5
35A
330
1F
100
AcDbEntity
  8
0
  6
Continuous
 62
     7
100
AcDbLine
 10
7506.9346986819
 20
5727.7912712783
 30
0.0
 11
7509.6189640571
 21
5728.5105205268
 31
0.0
  0
LINE
  5
35B
330
1F
100
AcDbEntity
  8
0
  6
Continuous
 62
     7
100
AcDbLine
 10
7509.6189640571
 20
5728.5105205268
 30
0.0
 11
7512.5584863235
 21
5729.2981661052
 31
0.0
  0
LINE
  5
35C
330
1F
100
AcDbEntity
  8
0
  6
Continuous
 62
     7
100
AcDbLine
 10
7512.5584863235
 20
5729.2981661052
 30
0.0
 11
7515.7340131808
 21
5730.1490522117
 31
0.0
  0
LINE
  5
35D
330
1F
100
AcDbEntity
  8
0
  6
Continuous
 62
     7
100
AcDbLine
 10
7515.7340131808
 20
5730.1490522117
 30
0.0
 11
7519.1247426082
 21
5731.0575760097
 31
0.0
  0
LINE
  5
35E
330
1F
100
AcDbEntity
  8
0
  6
Continuous
 62
     7
100
AcDbLine
 10
7519.1247426082
 20
5731.0575760097
 30
0.0
 11
7522.7085314799
 21
5732.0178664416
 31
0.0
  0
LINE
  5
35F
330
1F
100
AcDbEntity
  8
0
  6
Continuous
 62
     7
100
AcDbLine
 10
7522.7085314799
 20
5732.0178664416
 30
0.0
 11
7526.4618657638
 21
5733.0235756129
 31
0.0
  0
LINE
  5
360
330
1F
100
AcDbEntity
  8
0
  6
Continuous
 62
     7
100
AcDbLine
 10
7526.4618657638
 20
5733.0235756129
 30
0.0
 11
7530.360188346
 21
5734.0681172103
 31
0.0
  0
LINE
  5
361
330
1F
100
AcDbEntity
  8
0
  6
Continuous
 62
     7
100
AcDbLine
 10
7531.3601754714
 20
5751.9578552932
 30
0.0
 11
7531.3601754714
 21
5734.3360698909
 31
0.0
  0
LINE
  5
362
330
1F
100
AcDbEntity
  8
0
  6
Continuous
 62
     7
100
AcDbLine
 10
7531.3601754714
 20
5734.3360698909
 30
0.0
 11
7530.360188346
 21
5734.0681172103
 31
0.0
  0
LINE
  5
363
330
1F
100
AcDbEntity
  8
0
  6
Continuous
 62
     7
100
AcDbLine
 10
7752.4601817239
 20
4598.9578581542
 30
0.0
 11
7752.4601817239
 21
5178.9578414649
 31
0.0
  0
LINE
  5
364
330
1F
100
AcDbEntity
  8
0
  6
Continuous
 62
     7
100
AcDbLine
 10
7788.4601829682
 20
4598.9578581542
 30
0.0
 11
7788.4601829682
 21
5178.9578414649
 31
0.0
  0
LINE
  5
365
330
1F
100
AcDbEntity
  8
0
  6
Continuous
 62
     7
100
AcDbLine
 10
7320.3681074191
 20
4598.9578581542
 30
0.0
 11
7320.3681074191
 21
5178.9578414649
 31
0.0
  0
LINE
  5
366
330
1F
100
AcDbEntity
  8
0
  6
Continuous
 62
     7
100
AcDbLine
 10
7356.3680909682
 20
4598.9578581542
 30
0.0
 11
7356.3680909682
 21
5178.9578414649
 31
0.0
  0
LINE
  5
367
330
1F
100
AcDbEntity
  8
0
  6
Continuous
 62
     7
100
AcDbLine
 10
7527.7539752532
 20
5024.3948615283
 30
0.0
 11
7581.966396432
 21
5024.3948615283
 31
0.0
  0
LINE
  5
368
330
1F
100
AcDbEntity
  8
0
  6
Continuous
 62
     7
100
AcDbLine
 10
7582.1696184684
 20
5149.0482009143
 30
0.0
 11
7529.6384357024
 21
5149.0482009143
 31
0.0
  0
LINE
  5
369
330
1F
100
AcDbEntity
  8
0
  6
Continuous
 62
     7
100
AcDbLine
 10
7497.8601895381
 20
5155.7005561084
 30
0.0
 11
7497.8601895381
 21
5103.7005401343
 31
0.0
  0
LINE
  5
36A
330
1F
100
AcDbEntity
  8
0
  6
Continuous
 62
     7
100
AcDbLine
 10
7531.8601690341
 20
5165.2005530089
 30
0.0
 11
7577.86018775
 21
5165.2005530089
 31
0.0
  0
LINE
  5
36B
330
1F
100
AcDbEntity
  8
0
  6
Continuous
 62
     7
100
AcDbLine
 10
5798.7187413171
 20
4160.1399729935
 30
0.0
 11
5798.7187413171
 21
4159.7599635807
 31
0.0
  0
LINE
  5
36C
330
1F
100
AcDbEntity
  8
0
  6
Continuous
 62
     7
100
AcDbLine
 10
5806.3187507585
 20
4159.7599635807
 30
0.0
 11
5806.3187507585
 21
4160.1399729935
 31
0.0
  0
LINE
  5
36D
330
1F
100
AcDbEntity
  8
0
  6
Continuous
 62
     7
100
AcDbLine
 10
5658.7187556222
 20
4160.1399729935
 30
0.0
 11
5658.7187556222
 21
4159.7599635807
 31
0.0
  0
LINE
  5
36E
330
1F
100
AcDbEntity
  8
0
  6
Continuous
 62
     7
100
AcDbLine
 10
5666.3187650636
 20
4159.7599635807
 30
0.0
 11
5666.3187650636
 21
4160.1399729935
 31
0.0
  0
LINE
  5
36F
330
1F
100
AcDbEntity
  8
0
  6
Continuous
 62
     7
100
AcDbLine
 10
5841.5187505677
 20
4159.7599635807
 30
0.0
 11
5841.5187505677
 21
4159.9283765046
 31
0.0
  0
LINE
  5
370
330
1F
100
AcDbEntity
  8
0
  6
Continuous
 62
     7
100
AcDbLine
 10
5761.518767257
 20
4159.9283765046
 30
0.0
 11
5761.518767257
 21
4159.7599635807
 31
0.0
  0
LINE
  5
371
330
1F
100
AcDbEntity
  8
0
  6
Continuous
 62
     7
100
AcDbLine
 10
5821.5187696412
 20
4159.9283765046
 30
0.0
 11
5821.5187696412
 21
4169.9283669678
 31
0.0
  0
LINE
  5
372
330
1F
100
AcDbEntity
  8
0
  6
Continuous
 62
     7
100
AcDbLine
 10
5781.5187481835
 20
4169.9283669678
 30
0.0
 11
5781.5187481835
 21
4159.9283765046
 31
0.0
  0
LINE
  5
373
330
1F
100
AcDbEntity
  8
0
  6
Continuous
 62
     7
100
AcDbLine
 10
6604.0187684491
 20
4107.2599838463
 30
0.0
 11
6604.0187684491
 21
4109.7599814621
 31
0.0
  0
LINE
  5
374
330
1F
100
AcDbEntity
  8
0
  6
Continuous
 62
     7
100
AcDbLine
 10
6544.0187660649
 20
4109.7599814621
 30
0.0
 11
6544.0187660649
 21
4107.2599838463
 31
0.0
  0
LINE
  5
375
330
1F
100
AcDbEntity
  8
0
  6
Continuous
 62
     7
100
AcDbLine
 10
6544.0187660649
 20
4107.2599838463
 30
0.0
 11
6544.5187596276
 21
4106.7599604813
 31
0.0
  0
LINE
  5
376
330
1F
100
AcDbEntity
  8
0
  6
Continuous
 62
     7
100
AcDbLine
 10
6603.5187450841
 20
4106.7599604813
 30
0.0
 11
6604.0187684491
 21
4107.2599838463
 31
0.0
  0
LINE
  5
377
330
1F
100
AcDbEntity
  8
0
  6
Continuous
 62
     7
100
AcDbLine
 10
6004.0187446073
 20
4107.2599838463
 30
0.0
 11
6004.0187446073
 21
4109.7599814621
 31
0.0
  0
LINE
  5
378
330
1F
100
AcDbEntity
  8
0
  6
Continuous
 62
     7
100
AcDbLine
 10
5944.0187422231
 20
4109.7599814621
 30
0.0
 11
5944.0187422231
 21
4107.2599838463
 31
0.0
  0
LINE
  5
379
330
1F
100
AcDbEntity
  8
0
  6
Continuous
 62
     7
100
AcDbLine
 10
5944.0187422231
 20
4107.2599838463
 30
0.0
 11
5944.5187655881
 21
4106.7599604813
 31
0.0
  0
LINE
  5
37A
330
1F
100
AcDbEntity
  8
0
  6
Continuous
 62
     7
100
AcDbLine
 10
6003.5187510446
 20
4106.7599604813
 30
0.0
 11
6004.0187446073
 21
4107.2599838463
 31
0.0
  0
LINE
  5
37B
330
1F
100
AcDbEntity
  8
0
  6
Continuous
 62
     7
100
AcDbLine
 10
6560.0187686875
 20
4106.7599604813
 30
0.0
 11
6560.0187686875
 21
3941.759968826
 31
0.0
  0
LINE
  5
37C
330
1F
100
AcDbEntity
  8
0
  6
Continuous
 62
     7
100
AcDbLine
 10
6588.0187658265
 20
3941.759968826
 30
0.0
 11
6588.0187658265
 21
4106.7599604813
 31
0.0
  0
LINE
  5
37D
330
1F
100
AcDbEntity
  8
0
  6
Continuous
 62
     7
100
AcDbLine
 10
6560.0187686875
 20
3941.759968826
 30
0.0
 11
6561.0187558129
 21
3940.7599817006
 31
0.0
  0
LINE
  5
37E
330
1F
100
AcDbEntity
  8
0
  6
Continuous
 62
     7
100
AcDbLine
 10
6587.0187488988
 20
3940.7599817006
 30
0.0
 11
6588.0187658265
 21
3941.759968826
 31
0.0
  0
LINE
  5
37F
330
1F
100
AcDbEntity
  8
0
  6
Continuous
 62
     7
100
AcDbLine
 10
5960.0187448457
 20
4106.7599604813
 30
0.0
 11
5960.0187448457
 21
3941.759968826
 31
0.0
  0
LINE
  5
380
330
1F
100
AcDbEntity
  8
0
  6
Continuous
 62
     7
100
AcDbLine
 10
5988.0187419847
 20
3941.759968826
 30
0.0
 11
5988.0187419847
 21
4106.7599604813
 31
0.0
  0
LINE
  5
381
330
1F
100
AcDbEntity
  8
0
  6
Continuous
 62
     7
100
AcDbLine
 10
5960.0187448457
 20
3941.759968826
 30
0.0
 11
5961.0187617734
 21
3940.7599817006
 31
0.0
  0
LINE
  5
382
330
1F
100
AcDbEntity
  8
0
  6
Continuous
 62
     7
100
AcDbLine
 10
5987.0187548593
 20
3940.7599817006
 30
0.0
 11
5988.0187419847
 21
3941.759968826
 31
0.0
  0
LINE
  5
383
330
1F
100
AcDbEntity
  8
0
  6
Continuous
 62
     7
100
AcDbLine
 10
5800.3656772569
 20
4160.1399729935
 30
0.0
 11
5806.3187507585
 21
4160.1399729935
 31
0.0
  0
LINE
  5
384
330
1F
100
AcDbEntity
  8
0
  6
Continuous
 62
     7
100
AcDbLine
 10
5798.7187413171
 20
4160.1399729935
 30
0.0
 11
5800.3656772569
 21
4160.1399729935
 31
0.0
  0
LINE
  5
385
330
1F
100
AcDbEntity
  8
0
  6
Continuous
 62
     7
100
AcDbLine
 10
5801.4422265485
 20
4161.9599710194
 30
0.0
 11
5804.4187632993
 21
4161.9599710194
 31
0.0
  0
LINE
  5
386
330
1F
100
AcDbEntity
  8
0
  6
Continuous
 62
     7
100
AcDbLine
 10
5800.6187585786
 20
4161.9599710194
 30
0.0
 11
5801.4422265485
 21
4161.9599710194
 31
0.0
  0
LINE
  5
387
330
1F
100
AcDbEntity
  8
0
  6
Continuous
 62
     7
100
AcDbLine
 10
5662.6216677621
 20
4161.9599710194
 30
0.0
 11
5664.4187478021
 21
4161.9599710194
 31
0.0
  0
LINE
  5
388
330
1F
100
AcDbEntity
  8
0
  6
Continuous
 62
     7
100
AcDbLine
 10
5660.6187728837
 20
4161.9599710194
 30
0.0
 11
5662.6216677621
 21
4161.9599710194
 31
0.0
  0
LINE
  5
389
330
1F
100
AcDbEntity
  8
0
  6
Continuous
 62
     7
100
AcDbLine
 10
5662.7246645883
 20
4160.1399729935
 30
0.0
 11
5666.3187650636
 21
4160.1399729935
 31
0.0
  0
LINE
  5
38A
330
1F
100
AcDbEntity
  8
0
  6
Continuous
 62
     7
100
AcDbLine
 10
5658.7187556222
 20
4160.1399729935
 30
0.0
 11
5662.7246645883
 21
4160.1399729935
 31
0.0
  0
LINE
  5
38B
330
1F
100
AcDbEntity
  8
0
  6
Continuous
 62
     7
100
AcDbLine
 10
6852.3687628701
 20
3679.6599743121
 30
0.0
 11
5695.6687478021
 21
3679.6599743121
 31
0.0
  0
LINE
  5
38C
330
1F
100
AcDbEntity
  8
0
  6
Continuous
 62
     7
100
AcDbLine
 10
5695.6687478021
 20
3679.6599743121
 30
0.0
 11
5695.6687478021
 21
3679.7599743096
 31
0.0
  0
LINE
  5
38D
330
1F
100
AcDbEntity
  8
0
  6
Continuous
 62
     7
100
AcDbLine
 10
6852.3687628701
 20
3679.6599743121
 30
0.0
 11
6852.3687628701
 21
3679.7599743096
 31
0.0
  0
LINE
  5
38E
330
1F
100
AcDbEntity
  8
0
  6
Continuous
 62
     7
100
AcDbLine
 10
5695.1030401185
 20
3679.7599743096
 30
0.0
 11
5695.3468827203
 21
3679.6916785989
 31
0.0
  0
LINE
  5
38F
330
1F
100
AcDbEntity
  8
0
  6
Continuous
 62
     7
100
AcDbLine
 10
5695.3468827203
 20
3679.6916785989
 30
0.0
 11
5695.6687478021
 21
3679.6599743121
 31
0.0
  0
LINE
  5
390
330
1F
100
AcDbEntity
  8
0
  6
Continuous
 62
     7
100
AcDbLine
 10
6852.3687628701
 20
3679.6599743121
 30
0.0
 11
6852.6906279519
 21
3679.6916785989
 31
0.0
  0
LINE
  5
391
330
1F
100
AcDbEntity
  8
0
  6
Continuous
 62
     7
100
AcDbLine
 10
6852.6906279519
 20
3679.6916785989
 30
0.0
 11
6852.9344705537
 21
3679.7599743096
 31
0.0
  0
LINE
  5
392
330
1F
100
AcDbEntity
  8
0
  6
Continuous
 62
     7
100
AcDbLine
 10
6899.0187553361
 20
4159.7599635807
 30
0.0
 11
6897.0187810853
 21
4159.7599635807
 31
0.0
  0
LINE
  5
393
330
1F
100
AcDbEntity
  8
0
  6
Continuous
 62
     7
100
AcDbLine
 10
6899.0187553361
 20
4159.7599635807
 30
0.0
 11
6899.0187553361
 21
4157.1025799004
 31
0.0
  0
LINE
  5
394
330
1F
100
AcDbEntity
  8
0
  6
Continuous
 62
     7
100
AcDbLine
 10
6899.0187553361
 20
4157.1025799004
 30
0.0
 11
6897.0187810853
 21
4157.1025799004
 31
0.0
  0
LINE
  5
395
330
1F
100
AcDbEntity
  8
0
  6
Continuous
 62
     7
100
AcDbLine
 10
6897.0187810853
 20
4159.7599635807
 30
0.0
 11
6897.0187810853
 21
4157.1025799004
 31
0.0
  0
LINE
  5
396
330
1F
100
AcDbEntity
  8
0
  6
Continuous
 62
     7
100
AcDbLine
 10
6899.0187553361
 20
4111.5025828568
 30
0.0
 11
6897.0187810853
 21
4111.5025828568
 31
0.0
  0
LINE
  5
397
330
1F
100
AcDbEntity
  8
0
  6
Continuous
 62
     7
100
AcDbLine
 10
6899.0187553361
 20
4157.1025799004
 30
0.0
 11
6899.0187553361
 21
4111.5025828568
 31
0.0
  0
LINE
  5
398
330
1F
100
AcDbEntity
  8
0
  6
Continuous
 62
     7
100
AcDbLine
 10
6897.0187810853
 20
4157.1025799004
 30
0.0
 11
6897.0187810853
 21
4111.5025828568
 31
0.0
  0
LINE
  5
399
330
1F
100
AcDbEntity
  8
0
  6
Continuous
 62
     7
100
AcDbLine
 10
6899.0187553361
 20
4109.7599814621
 30
0.0
 11
6897.0187810853
 21
4109.7599814621
 31
0.0
  0
LINE
  5
39A
330
1F
100
AcDbEntity
  8
0
  6
Continuous
 62
     7
100
AcDbLine
 10
6899.0187553361
 20
4111.5025828568
 30
0.0
 11
6899.0187553361
 21
4109.7599814621
 31
0.0
  0
LINE
  5
39B
330
1F
100
AcDbEntity
  8
0
  6
Continuous
 62
     7
100
AcDbLine
 10
6897.0187810853
 20
4111.5025828568
 30
0.0
 11
6897.0187810853
 21
4109.7599814621
 31
0.0
  0
LINE
  5
39C
330
1F
100
AcDbEntity
  8
0
  6
Continuous
 62
     7
100
AcDbLine
 10
6899.0187553361
 20
3681.9599742977
 30
0.0
 11
6897.0187810853
 21
3681.9599742977
 31
0.0
  0
LINE
  5
39D
330
1F
100
AcDbEntity
  8
0
  6
Continuous
 62
     7
100
AcDbLine
 10
6899.0187553361
 20
4109.7599814621
 30
0.0
 11
6899.0187553361
 21
3681.9599742977
 31
0.0
  0
LINE
  5
39E
330
1F
100
AcDbEntity
  8
0
  6
Continuous
 62
     7
100
AcDbLine
 10
6897.0187810853
 20
4109.7599814621
 30
0.0
 11
6897.0187810853
 21
3681.9599742977
 31
0.0
  0
LINE
  5
39F
330
1F
100
AcDbEntity
  8
0
  6
Continuous
 62
     7
100
AcDbLine
 10
6899.0187553361
 20
3679.7599743096
 30
0.0
 11
6897.0187810853
 21
3679.7599743096
 31
0.0
  0
LINE
  5
3A0
330
1F
100
AcDbEntity
  8
0
  6
Continuous
 62
     7
100
AcDbLine
 10
6899.0187553361
 20
3681.9599742977
 30
0.0
 11
6899.0187553361
 21
3679.7599743096
 31
0.0
  0
LINE
  5
3A1
330
1F
100
AcDbEntity
  8
0
  6
Continuous
 62
     7
100
AcDbLine
 10
6897.0187810853
 20
3681.9599742977
 30
0.0
 11
6897.0187810853
 21
3679.7599743096
 31
0.0
  0
LINE
  5
3A2
330
1F
100
AcDbEntity
  8
0
  6
Continuous
 62
     7
100
AcDbLine
 10
6896.6997770265
 20
3679.7599743096
 30
0.0
 11
6896.5235260919
 21
3679.7195399396
 31
0.0
  0
LINE
  5
3A3
330
1F
100
AcDbEntity
  8
0
  6
Continuous
 62
     7
100
AcDbLine
 10
6896.5235260919
 20
3679.7195399396
 30
0.0
 11
6895.918777366
 21
3679.6599743121
 31
0.0
  0
LINE
  5
3A4
330
1F
100
AcDbEntity
  8
0
  6
Continuous
 62
     7
100
AcDbLine
 10
6895.918777366
 20
3679.6599743121
 30
0.0
 11
6857.1187762216
 21
3679.6599743121
 31
0.0
  0
LINE
  5
3A5
330
1F
100
AcDbEntity
  8
0
  6
Continuous
 62
     7
100
AcDbLine
 10
6856.3377169564
 20
3679.7599743096
 30
0.0
 11
6856.513967891
 21
3679.7195399396
 31
0.0
  0
LINE
  5
3A6
330
1F
100
AcDbEntity
  8
0
  6
Continuous
 62
     7
100
AcDbLine
 10
6856.513967891
 20
3679.7195399396
 30
0.0
 11
6857.1187762216
 21
3679.6599743121
 31
0.0
  0
LINE
  5
3A7
330
1F
100
AcDbEntity
  8
0
  6
Continuous
 62
     7
100
AcDbLine
 10
5649.0187553361
 20
4157.1025799004
 30
0.0
 11
5651.0187295869
 21
4157.1025799004
 31
0.0
  0
LINE
  5
3A8
330
1F
100
AcDbEntity
  8
0
  6
Continuous
 62
     7
100
AcDbLine
 10
5649.0187553361
 20
4159.7599635807
 30
0.0
 11
5651.0187295869
 21
4159.7599635807
 31
0.0
  0
LINE
  5
3A9
330
1F
100
AcDbEntity
  8
0
  6
Continuous
 62
     7
100
AcDbLine
 10
5651.0187295869
 20
4159.7599635807
 30
0.0
 11
5651.0187295869
 21
4157.1025799004
 31
0.0
  0
LINE
  5
3AA
330
1F
100
AcDbEntity
  8
0
  6
Continuous
 62
     7
100
AcDbLine
 10
5649.0187553361
 20
4159.7599635807
 30
0.0
 11
5649.0187553361
 21
4157.1025799004
 31
0.0
  0
LINE
  5
3AB
330
1F
100
AcDbEntity
  8
0
  6
Continuous
 62
     7
100
AcDbLine
 10
5649.0187553361
 20
4111.5025828568
 30
0.0
 11
5651.0187295869
 21
4111.5025828568
 31
0.0
  0
LINE
  5
3AC
330
1F
100
AcDbEntity
  8
0
  6
Continuous
 62
     7
100
AcDbLine
 10
5651.0187295869
 20
4157.1025799004
 30
0.0
 11
5651.0187295869
 21
4111.5025828568
 31
0.0
  0
LINE
  5
3AD
330
1F
100
AcDbEntity
  8
0
  6
Continuous
 62
     7
100
AcDbLine
 10
5649.0187553361
 20
4157.1025799004
 30
0.0
 11
5649.0187553361
 21
4111.5025828568
 31
0.0
  0
LINE
  5
3AE
330
1F
100
AcDbEntity
  8
0
  6
Continuous
 62
     7
100
AcDbLine
 10
5649.0187553361
 20
4109.7599814621
 30
0.0
 11
5651.0187295869
 21
4109.7599814621
 31
0.0
  0
LINE
  5
3AF
330
1F
100
AcDbEntity
  8
0
  6
Continuous
 62
     7
100
AcDbLine
 10
5651.0187295869
 20
4111.5025828568
 30
0.0
 11
5651.0187295869
 21
4109.7599814621
 31
0.0
  0
LINE
  5
3B0
330
1F
100
AcDbEntity
  8
0
  6
Continuous
 62
     7
100
AcDbLine
 10
5649.0187553361
 20
4111.5025828568
 30
0.0
 11
5649.0187553361
 21
4109.7599814621
 31
0.0
  0
LINE
  5
3B1
330
1F
100
AcDbEntity
  8
0
  6
Continuous
 62
     7
100
AcDbLine
 10
5649.0187553361
 20
3681.9599742977
 30
0.0
 11
5651.0187295869
 21
3681.9599742977
 31
0.0
  0
LINE
  5
3B2
330
1F
100
AcDbEntity
  8
0
  6
Continuous
 62
     7
100
AcDbLine
 10
5651.0187295869
 20
4109.7599814621
 30
0.0
 11
5651.0187295869
 21
3681.9599742977
 31
0.0
  0
LINE
  5
3B3
330
1F
100
AcDbEntity
  8
0
  6
Continuous
 62
     7
100
AcDbLine
 10
5649.0187553361
 20
4109.7599814621
 30
0.0
 11
5649.0187553361
 21
3681.9599742977
 31
0.0
  0
LINE
  5
3B4
330
1F
100
AcDbEntity
  8
0
  6
Continuous
 62
     7
100
AcDbLine
 10
5649.0187553361
 20
3679.7599743096
 30
0.0
 11
5651.0187295869
 21
3679.7599743096
 31
0.0
  0
LINE
  5
3B5
330
1F
100
AcDbEntity
  8
0
  6
Continuous
 62
     7
100
AcDbLine
 10
5651.0187295869
 20
3681.9599742977
 30
0.0
 11
5651.0187295869
 21
3679.7599743096
 31
0.0
  0
LINE
  5
3B6
330
1F
100
AcDbEntity
  8
0
  6
Continuous
 62
     7
100
AcDbLine
 10
5649.0187553361
 20
3681.9599742977
 30
0.0
 11
5649.0187553361
 21
3679.7599743096
 31
0.0
  0
LINE
  5
3B7
330
1F
100
AcDbEntity
  8
0
  6
Continuous
 62
     7
100
AcDbLine
 10
5651.3377336457
 20
3679.7599743096
 30
0.0
 11
5651.5139845803
 21
3679.7195399396
 31
0.0
  0
LINE
  5
3B8
330
1F
100
AcDbEntity
  8
0
  6
Continuous
 62
     7
100
AcDbLine
 10
5651.5139845803
 20
3679.7195399396
 30
0.0
 11
5652.1187333062
 21
3679.6599743121
 31
0.0
  0
LINE
  5
3B9
330
1F
100
AcDbEntity
  8
0
  6
Continuous
 62
     7
100
AcDbLine
 10
5652.1187333062
 20
3679.6599743121
 30
0.0
 11
5690.9187344506
 21
3679.6599743121
 31
0.0
  0
LINE
  5
3BA
330
1F
100
AcDbEntity
  8
0
  6
Continuous
 62
     7
100
AcDbLine
 10
5691.6997937158
 20
3679.7599743096
 30
0.0
 11
5691.5235427812
 21
3679.7195399396
 31
0.0
  0
LINE
  5
3BB
330
1F
100
AcDbEntity
  8
0
  6
Continuous
 62
     7
100
AcDbLine
 10
5691.5235427812
 20
3679.7195399396
 30
0.0
 11
5690.9187344506
 21
3679.6599743121
 31
0.0
  0
LINE
  5
3BC
330
1F
100
AcDbEntity
  8
0
  6
Continuous
 62
     7
100
AcDbLine
 10
6897.0187810853
 20
4159.7599635807
 30
0.0
 11
5651.0187295869
 21
4159.7599635807
 31
0.0
  0
LINE
  5
3BD
330
1F
100
AcDbEntity
  8
0
  6
Continuous
 62
     7
100
AcDbLine
 10
5651.0187295869
 20
4157.1025799004
 30
0.0
 11
6897.0187810853
 21
4157.1025799004
 31
0.0
  0
LINE
  5
3BE
330
1F
100
AcDbEntity
  8
0
  6
Continuous
 62
     7
100
AcDbLine
 10
6897.0187810853
 20
4111.5025828568
 30
0.0
 11
5651.0187295869
 21
4111.5025828568
 31
0.0
  0
LINE
  5
3BF
330
1F
100
AcDbEntity
  8
0
  6
Continuous
 62
     7
100
AcDbLine
 10
5651.0187295869
 20
4109.7599814621
 30
0.0
 11
6897.0187810853
 21
4109.7599814621
 31
0.0
  0
LINE
  5
3C0
330
1F
100
AcDbEntity
  8
0
  6
Continuous
 62
     7
100
AcDbLine
 10
6897.0187810853
 20
3724.7599760977
 30
0.0
 11
5651.0187295869
 21
3724.7599760977
 31
0.0
  0
LINE
  5
3C1
330
1F
100
AcDbEntity
  8
0
  6
Continuous
 62
     7
100
AcDbLine
 10
5651.0187295869
 20
3722.5599761096
 30
0.0
 11
6897.0187810853
 21
3722.5599761096
 31
0.0
  0
LINE
  5
3C2
330
1F
100
AcDbEntity
  8
0
  6
Continuous
 62
     7
100
AcDbLine
 10
6897.0187810853
 20
3681.9599742977
 30
0.0
 11
5651.0187295869
 21
3681.9599742977
 31
0.0
  0
LINE
  5
3C3
330
1F
100
AcDbEntity
  8
0
  6
Continuous
 62
     7
100
AcDbLine
 10
5651.0187295869
 20
3681.9599742977
 30
0.0
 11
5651.0187295869
 21
3722.5599761096
 31
0.0
  0
LINE
  5
3C4
330
1F
100
AcDbEntity
  8
0
  6
Continuous
 62
     7
100
AcDbLine
 10
6897.0187810853
 20
3681.9599742977
 30
0.0
 11
6897.0187810853
 21
3722.5599761096
 31
0.0
  0
LINE
  5
3C5
330
1F
100
AcDbEntity
  8
0
  6
Continuous
 62
     7
100
AcDbLine
 10
5651.0187295869
 20
3679.7599743096
 30
0.0
 11
6897.0187810853
 21
3679.7599743096
 31
0.0
  0
LINE
  5
3C6
330
1F
100
AcDbEntity
  8
0
  6
Continuous
 62
     7
100
AcDbLine
 10
6897.0187810853
 20
3725.1024234084
 30
0.0
 11
5651.0187295869
 21
3725.1024234084
 31
0.0
  0
LINE
  5
3C7
330
1F
100
AcDbEntity
  8
0
  6
Continuous
 62
     7
100
AcDbLine
 10
5651.0187295869
 20
3850.4774372069
 30
0.0
 11
6897.0187810853
 21
3850.4774372069
 31
0.0
  0
LINE
  5
3C8
330
1F
100
AcDbEntity
  8
0
  6
Continuous
 62
     7
100
AcDbLine
 10
6897.0187810853
 20
3851.1349807469
 30
0.0
 11
5651.0187295869
 21
3851.1349807469
 31
0.0
  0
LINE
  5
3C9
330
1F
100
AcDbEntity
  8
0
  6
Continuous
 62
     7
100
AcDbLine
 10
5800.7687553361
 20
3922.4561267323
 30
0.0
 11
5800.7687553361
 21
3912.0638218869
 31
0.0
  0
LINE
  5
3CA
330
1F
100
AcDbEntity
  8
0
  6
Continuous
 62
     7
100
AcDbLine
 10
5802.2687553361
 20
3912.0638218869
 30
0.0
 11
5802.2687553361
 21
3922.4561267323
 31
0.0
  0
LINE
  5
3CB
330
1F
100
AcDbEntity
  8
0
  6
Continuous
 62
     7
100
AcDbLine
 10
5838.4678868249
 20
4159.9283765046
 30
0.0
 11
5806.3187507585
 21
4159.9283765046
 31
0.0
  0
LINE
  5
3CC
330
1F
100
AcDbEntity
  8
0
  6
Continuous
 62
     7
100
AcDbLine
 10
5798.7187413171
 20
4159.9283765046
 30
0.0
 11
5761.518767257
 21
4159.9283765046
 31
0.0
  0
LINE
  5
3CD
330
1F
100
AcDbEntity
  8
0
  6
Continuous
 62
     7
100
AcDbLine
 10
5841.5187505677
 20
4159.9283765046
 30
0.0
 11
5838.4678868249
 21
4159.9283765046
 31
0.0
  0
LINE
  5
3CE
330
1F
100
AcDbEntity
  8
0
  6
Continuous
 62
     7
100
AcDbLine
 10
5819.9933079675
 20
4169.9283669678
 30
0.0
 11
5781.5187481835
 21
4169.9283669678
 31
0.0
  0
LINE
  5
3CF
330
1F
100
AcDbEntity
  8
0
  6
Continuous
 62
     7
100
AcDbLine
 10
5821.5187696412
 20
4169.9283669678
 30
0.0
 11
5819.9933079675
 21
4169.9283669678
 31
0.0
  0
LINE
  5
3D0
330
1F
100
AcDbEntity
  8
0
  6
Continuous
 62
     7
100
AcDbLine
 10
5789.4717363313
 20
3909.1903368918
 30
0.0
 11
5790.9452525571
 21
3907.3377351252
 31
0.0
  0
LINE
  5
3D1
330
1F
100
AcDbEntity
  8
0
  6
Continuous
 62
     7
100
AcDbLine
 10
5790.9452525571
 20
3907.3377351252
 30
0.0
 11
5792.2195104554
 21
3906.1346004692
 31
0.0
  0
LINE
  5
3D2
330
1F
100
AcDbEntity
  8
0
  6
Continuous
 62
     7
100
AcDbLine
 10
5810.8180073693
 20
3906.1346004692
 30
0.0
 11
5812.0922652677
 21
3907.3377351252
 31
0.0
  0
LINE
  5
3D3
330
1F
100
AcDbEntity
  8
0
  6
Continuous
 62
     7
100
AcDbLine
 10
5812.0922652677
 20
3907.3377351252
 30
0.0
 11
5813.5657814935
 21
3909.1903368918
 31
0.0
  0
LINE
  5
3D4
330
1F
100
AcDbEntity
  8
0
  6
Continuous
 62
     7
100
AcDbLine
 10
5814.5307806924
 20
3910.8617554394
 30
0.0
 11
5815.3984157041
 21
3913.064161965
 31
0.0
  0
LINE
  5
3D5
330
1F
100
AcDbEntity
  8
0
  6
Continuous
 62
     7
100
AcDbLine
 10
5815.3984157041
 20
3913.064161965
 30
0.0
 11
5815.8032504514
 21
3914.7692869393
 31
0.0
  0
LINE
  5
3D6
330
1F
100
AcDbEntity
  8
0
  6
Continuous
 62
     7
100
AcDbLine
 10
5806.5040019944
 20
3930.8760414807
 30
0.0
 11
5804.8249093488
 21
3931.378031799
 31
0.0
  0
LINE
  5
3D7
330
1F
100
AcDbEntity
  8
0
  6
Continuous
 62
     7
100
AcDbLine
 10
5804.8249093488
 20
3931.378031799
 30
0.0
 11
5802.4837581113
 21
3931.7278216568
 31
0.0
  0
LINE
  5
3D8
330
1F
100
AcDbEntity
  8
0
  6
Continuous
 62
     7
100
AcDbLine
 10
5800.5537597135
 20
3931.7278216568
 30
0.0
 11
5798.212608476
 21
3931.378031799
 31
0.0
  0
LINE
  5
3D9
330
1F
100
AcDbEntity
  8
0
  6
Continuous
 62
     7
100
AcDbLine
 10
5798.212608476
 20
3931.378031799
 30
0.0
 11
5796.5335158303
 21
3930.8760414807
 31
0.0
  0
LINE
  5
3DA
330
1F
100
AcDbEntity
  8
0
  6
Continuous
 62
     7
100
AcDbLine
 10
5787.2342673734
 20
3914.7692869393
 30
0.0
 11
5787.6391021207
 21
3913.064161965
 31
0.0
  0
LINE
  5
3DB
330
1F
100
AcDbEntity
  8
0
  6
Continuous
 62
     7
100
AcDbLine
 10
5787.6391021207
 20
3913.064161965
 30
0.0
 11
5788.5067371324
 21
3910.8617554394
 31
0.0
  0
LINE
  5
3DC
330
1F
100
AcDbEntity
  8
0
  6
Continuous
 62
     7
100
AcDbLine
 10
5802.4837580988
 20
3926.3539858823
 30
0.0
 11
5802.4837580988
 21
3933.5654742065
 31
0.0
  0
LINE
  5
3DD
330
1F
100
AcDbEntity
  8
0
  6
Continuous
 62
     7
100
AcDbLine
 10
5816.1222247079
 20
3909.942934939
 30
0.0
 11
5809.876909633
 21
3913.5486881224
 31
0.0
  0
LINE
  5
3DE
330
1F
100
AcDbEntity
  8
0
  6
Continuous
 62
     7
100
AcDbLine
 10
5808.9119104341
 20
3911.8772546736
 30
0.0
 11
5815.157225509
 21
3908.2715163914
 31
0.0
  0
LINE
  5
3DF
330
1F
100
AcDbEntity
  8
0
  6
Continuous
 62
     7
100
AcDbLine
 10
5787.8802923158
 20
3908.2715163914
 30
0.0
 11
5794.1256073907
 21
3911.8772546736
 31
0.0
  0
LINE
  5
3E0
330
1F
100
AcDbEntity
  8
0
  6
Continuous
 62
     7
100
AcDbLine
 10
5793.1606081918
 20
3913.5486881224
 30
0.0
 11
5786.9152633145
 21
3909.942934939
 31
0.0
  0
LINE
  5
3E1
330
1F
100
AcDbEntity
  8
0
  6
Continuous
 62
     7
100
AcDbLine
 10
5800.553759701
 20
3933.5654746283
 30
0.0
 11
5800.553759701
 21
3926.3539863041
 31
0.0
  0
LINE
  5
3E2
330
1F
100
AcDbEntity
  8
0
  6
Continuous
 62
     7
100
AcDbLine
 10
6546.3404265836
 20
4107.2599838463
 30
0.0
 11
6604.0187684491
 21
4107.2599838463
 31
0.0
  0
LINE
  5
3E3
330
1F
100
AcDbEntity
  8
0
  6
Continuous
 62
     7
100
AcDbLine
 10
6544.0187660649
 20
4107.2599838463
 30
0.0
 11
6546.3404265836
 21
4107.2599838463
 31
0.0
  0
LINE
  5
3E4
330
1F
100
AcDbEntity
  8
0
  6
Continuous
 62
     7
100
AcDbLine
 10
6546.8017367318
 20
4106.7599604813
 30
0.0
 11
6544.5187596276
 21
4106.7599604813
 31
0.0
  0
LINE
  5
3E5
330
1F
100
AcDbEntity
  8
0
  6
Continuous
 62
     7
100
AcDbLine
 10
6603.5187450841
 20
4106.7599604813
 30
0.0
 11
6546.8017367318
 21
4106.7599604813
 31
0.0
  0
LINE
  5
3E6
330
1F
100
AcDbEntity
  8
0
  6
Continuous
 62
     7
100
AcDbLine
 10
5946.340432544
 20
4107.2599838463
 30
0.0
 11
6004.0187446073
 21
4107.2599838463
 31
0.0
  0
LINE
  5
3E7
330
1F
100
AcDbEntity
  8
0
  6
Continuous
 62
     7
100
AcDbLine
 10
5944.0187422231
 20
4107.2599838463
 30
0.0
 11
5946.340432544
 21
4107.2599838463
 31
0.0
  0
LINE
  5
3E8
330
1F
100
AcDbEntity
  8
0
  6
Continuous
 62
     7
100
AcDbLine
 10
5946.8017426923
 20
4106.7599604813
 30
0.0
 11
5944.5187655881
 21
4106.7599604813
 31
0.0
  0
LINE
  5
3E9
330
1F
100
AcDbEntity
  8
0
  6
Continuous
 62
     7
100
AcDbLine
 10
6003.5187510446
 20
4106.7599604813
 30
0.0
 11
5946.8017426923
 21
4106.7599604813
 31
0.0
  0
LINE
  5
3EA
330
1F
100
AcDbEntity
  8
0
  6
Continuous
 62
     7
100
AcDbLine
 10
6560.0187686875
 20
3941.759968826
 30
0.0
 11
6588.0187658265
 21
3941.759968826
 31
0.0
  0
LINE
  5
3EB
330
1F
100
AcDbEntity
  8
0
  6
Continuous
 62
     7
100
AcDbLine
 10
6587.0187488988
 20
3940.7599817006
 30
0.0
 11
6561.0187558129
 21
3940.7599817006
 31
0.0
  0
LINE
  5
3EC
330
1F
100
AcDbEntity
  8
0
  6
Continuous
 62
     7
100
AcDbLine
 10
5960.0187448457
 20
3941.759968826
 30
0.0
 11
5988.0187419847
 21
3941.759968826
 31
0.0
  0
LINE
  5
3ED
330
1F
100
AcDbEntity
  8
0
  6
Continuous
 62
     7
100
AcDbLine
 10
5987.0187548593
 20
3940.7599817006
 30
0.0
 11
5961.0187617734
 21
3940.7599817006
 31
0.0
  0
LINE
  5
3EE
330
1F
100
AcDbEntity
  8
0
  6
Continuous
 62
     7
100
AcDbLine
 10
6895.918777366
 20
3679.7599743096
 30
0.0
 11
6895.918777366
 21
3679.6599743121
 31
0.0
  0
LINE
  5
3EF
330
1F
100
AcDbEntity
  8
0
  6
Continuous
 62
     7
100
AcDbLine
 10
6857.1187762216
 20
3679.7599743096
 30
0.0
 11
6857.1187762216
 21
3679.6599743121
 31
0.0
  0
LINE
  5
3F0
330
1F
100
AcDbEntity
  8
0
  6
Continuous
 62
     7
100
AcDbLine
 10
5652.1187333062
 20
3679.7599743096
 30
0.0
 11
5652.1187333062
 21
3679.6599743121
 31
0.0
  0
LINE
  5
3F1
330
1F
100
AcDbEntity
  8
0
  6
Continuous
 62
     7
100
AcDbLine
 10
5690.9187344506
 20
3679.7599743096
 30
0.0
 11
5690.9187344506
 21
3679.6599743121
 31
0.0
  0
LINE
  5
3F2
330
1F
100
AcDbEntity
  8
0
  6
Continuous
 62
     7
100
AcDbLine
 10
5651.0187295869
 20
4109.4175229756
 30
0.0
 11
5944.0187422231
 21
4109.4175229756
 31
0.0
  0
LINE
  5
3F3
330
1F
100
AcDbEntity
  8
0
  6
Continuous
 62
     7
100
AcDbLine
 10
6004.0187446073
 20
4109.4175229756
 30
0.0
 11
6544.0187660649
 21
4109.4175229756
 31
0.0
  0
LINE
  5
3F4
330
1F
100
AcDbEntity
  8
0
  6
Continuous
 62
     7
100
AcDbLine
 10
6604.0187684491
 20
4109.4175229756
 30
0.0
 11
6897.0187810853
 21
4109.4175229756
 31
0.0
  0
LINE
  5
3F5
330
1F
100
AcDbEntity
  8
0
  6
Continuous
 62
     7
100
AcDbLine
 10
6897.0187810853
 20
3984.042520353
 30
0.0
 11
6588.0187658265
 21
3984.042520353
 31
0.0
  0
LINE
  5
3F6
330
1F
100
AcDbEntity
  8
0
  6
Continuous
 62
     7
100
AcDbLine
 10
6560.0187686875
 20
3984.042520353
 30
0.0
 11
5988.0187419847
 21
3984.042520353
 31
0.0
  0
LINE
  5
3F7
330
1F
100
AcDbEntity
  8
0
  6
Continuous
 62
     7
100
AcDbLine
 10
5960.0187448457
 20
3984.042520353
 30
0.0
 11
5651.0187295869
 21
3984.042520353
 31
0.0
  0
LINE
  5
3F8
330
1F
100
AcDbEntity
  8
0
  6
Continuous
 62
     7
100
AcDbLine
 10
5651.0187295869
 20
3983.3849619118
 30
0.0
 11
5960.0187448457
 21
3983.3849619118
 31
0.0
  0
LINE
  5
3F9
330
1F
100
AcDbEntity
  8
0
  6
Continuous
 62
     7
100
AcDbLine
 10
5988.0187419847
 20
3983.3849619118
 30
0.0
 11
6560.0187686875
 21
3983.3849619118
 31
0.0
  0
LINE
  5
3FA
330
1F
100
AcDbEntity
  8
0
  6
Continuous
 62
     7
100
AcDbLine
 10
6588.0187658265
 20
3983.3849619118
 30
0.0
 11
6897.0187810853
 21
3983.3849619118
 31
0.0
  0
LWPOLYLINE
  5
3FB
330
1F
100
AcDbEntity
  8
0
  6
Continuous
 62
     7
100
AcDbPolyline
 90
        5
 70
   128
 43
0.0
 10
6566.4672851562
 20
5532.3578409046
 10
6562.7717591514
 20
5533.8622160809
 10
6561.1692023433
 20
5537.6634281557
 10
6562.7743163912
 20
5541.4578017152
 10
6566.4687661126
 20
5542.9578415245
  0
LWPOLYLINE
  5
3FC
330
1F
100
AcDbEntity
  8
0
  6
Continuous
 62
     7
100
AcDbPolyline
 90
        5
 70
   128
 43
0.0
 10
6581.5658569336
 20
5542.9578415245
 10
6585.2638782541
 20
5541.4573127301
 10
6586.8685479722
 20
5537.6548512978
 10
6585.2644632279
 20
5533.8589238969
 10
6581.5687684014
 20
5532.3578409046
  0
LWPOLYLINE
  5
3FD
330
1F
100
AcDbEntity
  8
0
  6
Continuous
 62
     7
100
AcDbPolyline
 90
        5
 70
   128
 43
0.0
 10
5966.4649963379
 20
5532.3578409046
 10
5962.7717545886
 20
5533.8622263953
 10
5961.1692116575
 20
5537.663430325
 10
5962.7743136232
 20
5541.4577898115
 10
5966.4687422708
 20
5542.9578415245
  0
LWPOLYLINE
  5
3FE
330
1F
100
AcDbEntity
  8
0
  6
Continuous
 62
     7
100
AcDbPolyline
 90
        5
 70
   128
 43
0.0
 10
5981.5673828125
 20
5542.9578415245
 10
5985.2638730863
 20
5541.4573236568
 10
5986.8685565269
 20
5537.654847584
 10
5985.2644580368
 20
5533.8589129993
 10
5981.5687445596
 20
5532.3578409046
  0
LWPOLYLINE
  5
3FF
330
1F
100
AcDbEntity
  8
0
  6
Continuous
 62
     7
100
AcDbPolyline
 90
        3
 70
   128
 43
0.0
 10
6592.1821594238
 20
5547.3220489115
 10
6571.6066789457
 20
5546.4043642174
 10
6555.8517483666
 20
5547.3220489115
  0
LWPOLYLINE
  5
400
330
1F
100
AcDbEntity
  8
0
  6
Continuous
 62
     7
100
AcDbPolyline
 90
        3
 70
   128
 43
0.0
 10
6592.1821594238
 20
5530.5936328262
 10
6593.9900975071
 20
5540.0274128156
 10
6592.1857563451
 20
5547.3220489115
  0
LWPOLYLINE
  5
401
330
1F
100
AcDbEntity
  8
0
  6
Continuous
 62
     7
100
AcDbPolyline
 90
        3
 70
   128
 43
0.0
 10
6555.850982666
 20
5530.5936328262
 10
6576.4308266953
 20
5531.5113174517
 10
6592.1857563451
 20
5530.5936328262
  0
LWPOLYLINE
  5
402
330
1F
100
AcDbEntity
  8
0
  6
Continuous
 62
     7
100
AcDbPolyline
 90
        3
 70
   128
 43
0.0
 10
6555.850982666
 20
5547.3220489115
 10
6554.0474049072
 20
5537.8882688953
 10
6555.8517483666
 20
5530.5936328262
  0
LWPOLYLINE
  5
403
330
1F
100
AcDbEntity
  8
0
  6
Continuous
 62
     7
100
AcDbPolyline
 90
        5
 70
   128
 43
0.0
 10
6566.5168762207
 20
5543.2578391522
 10
6562.6818814911
 20
5541.6963103718
 10
6561.0192320886
 20
5537.7519881233
 10
6562.6844934056
 20
5533.8149134678
 10
6566.5187446073
 20
5532.2578392119
  0
LWPOLYLINE
  5
404
330
1F
100
AcDbEntity
  8
0
  6
Continuous
 62
     7
100
AcDbPolyline
 90
        5
 70
   128
 43
0.0
 10
6581.5162658691
 20
5532.2578392119
 10
6585.355625462
 20
5533.8193722289
 10
6587.0182704594
 20
5537.7636913055
 10
6585.3530139473
 20
5541.7007701302
 10
6581.5187601045
 20
5543.2578391522
  0
LWPOLYLINE
  5
405
330
1F
100
AcDbEntity
  8
0
  6
Continuous
 62
     7
100
AcDbPolyline
 90
        3
 70
   128
 43
0.0
 10
5992.1836853027
 20
5547.3220489115
 10
5971.6066839769
 20
5546.4043642861
 10
5955.8517543271
 20
5547.3220489115
  0
LWPOLYLINE
  5
406
330
1F
100
AcDbEntity
  8
0
  6
Continuous
 62
     7
100
AcDbPolyline
 90
        3
 70
   128
 43
0.0
 10
5992.1836853027
 20
5530.5936328262
 10
5993.990105765
 20
5540.0274128424
 10
5992.1857623056
 20
5547.3220489115
  0
LWPOLYLINE
  5
407
330
1F
100
AcDbEntity
  8
0
  6
Continuous
 62
     7
100
AcDbPolyline
 90
        3
 70
   128
 43
0.0
 10
5955.8486938477
 20
5530.5936328262
 10
5976.4308317265
 20
5531.5113175203
 10
5992.1857623056
 20
5530.5936328262
  0
LWPOLYLINE
  5
408
330
1F
100
AcDbEntity
  8
0
  6
Continuous
 62
     7
100
AcDbPolyline
 90
        3
 70
   128
 43
0.0
 10
5955.8486938477
 20
5547.3220489115
 10
5954.0474131651
 20
5537.8882689221
 10
5955.8517543271
 20
5530.5936328262
  0
LWPOLYLINE
  5
409
330
1F
100
AcDbEntity
  8
0
  6
Continuous
 62
     7
100
AcDbPolyline
 90
        5
 70
   128
 43
0.0
 10
5966.5184020996
 20
5543.2578391522
 10
5962.6818843422
 20
5541.6963125847
 10
5961.0192406026
 20
5537.7519932873
 10
5962.6844972454
 20
5533.8149155049
 10
5966.5187505677
 20
5532.2578392119
  0
LWPOLYLINE
  5
40A
330
1F
100
AcDbEntity
  8
0
  6
Continuous
 62
     7
100
AcDbPolyline
 90
        5
 70
   128
 43
0.0
 10
5981.517791748
 20
5532.2578392119
 10
5985.3556283131
 20
5533.8193744418
 10
5987.0182789734
 20
5537.7636964695
 10
5985.3530177871
 20
5541.7007721673
 10
5981.5187660649
 20
5543.2578391522
  0
LWPOLYLINE
  5
40B
330
1F
100
AcDbEntity
  8
0
  6
Continuous
 62
     7
100
AcDbPolyline
 90
       12
 70
   128
 43
0.0
 10
7529.6363830566
 20
5149.0482009143
 10
7533.2812750449
 20
5123.8284965333
 10
7523.7592978425
 20
5109.0016346912
 10
7522.771934963
 20
5107.7568278342
 10
7522.7331631558
 20
5107.7084251044
 10
7522.7305996998
 20
5107.7052320042
 10
7522.7304494807
 20
5107.7050462569
 10
7522.7304440376
 20
5107.7050400479
 10
7522.7305396538
 20
5107.7051609453
 10
7522.7307968923
 20
5107.7054835502
 10
7522.7358027418
 20
5107.7117394466
 10
7522.7550529052
 20
5107.7357745856
  0
LWPOLYLINE
  5
40C
330
1F
100
AcDbEntity
  8
0
  6
Continuous
 62
     7
100
AcDbPolyline
 90
        3
 70
   128
 43
0.0
 10
7527.8587341309
 20
5151.7005480022
 10
7528.4533838921
 20
5150.8413809402
 10
7529.6384357024
 20
5149.0482009143
  0
LINE
  5
40D
330
1F
100
AcDbEntity
  8
0
  6
Continuous
 62
     7
100
AcDbLine
 10
7527.8587341309
 20
5151.7005480022
 30
0.0
 11
7532.390411954
 21
5151.7005480022
 31
0.0
  0
LWPOLYLINE
  5
40E
330
1F
100
AcDbEntity
  8
0
  6
Continuous
 62
     7
100
AcDbPolyline
 90
        5
 70
   128
 43
0.0
 10
7370.7885742188
 20
5532.3578409046
 10
7369.3511745083
 20
5533.8622263953
 10
7368.513158858
 20
5537.663430325
 10
7369.3528647086
 20
5541.4577898115
 10
7370.7898520042
 20
5542.9578415245
  0
LWPOLYLINE
  5
40F
330
1F
100
AcDbEntity
  8
0
  6
Continuous
 62
     7
100
AcDbPolyline
 90
        3
 70
   128
 43
0.0
 10
7364.3569946289
 20
5547.3220489115
 10
7362.4081259891
 20
5537.8882689221
 10
7364.360179763
 20
5530.5936328262
  0
LWPOLYLINE
  5
410
330
1F
100
AcDbEntity
  8
0
  6
Continuous
 62
     7
100
AcDbPolyline
 90
       10
 70
   128
 43
0.0
 10
7371.6735839844
 20
5546.400210926
 10
7371.7091253769
 20
5546.3957244191
 10
7371.7092829784
 20
5546.3957037681
 10
7371.7092911463
 20
5546.3957027621
 10
7371.7092924216
 20
5546.3957026798
 10
7371.7092740647
 20
5546.3957053176
 10
7371.7085544147
 20
5546.3958028387
 10
7371.6846363698
 20
5546.3990132837
 10
7371.2899265934
 20
5546.4516569348
 10
7364.360179763
 20
5547.3220489115
  0
LWPOLYLINE
  5
411
330
1F
100
AcDbEntity
  8
0
  6
Continuous
 62
     7
100
AcDbPolyline
 90
       11
 70
   128
 43
0.0
 10
7364.3569946289
 20
5530.5936328262
 10
7371.293948285
 20
5531.4645601634
 10
7371.6533232842
 20
5531.5124906023
 10
7371.6788849039
 20
5531.5159107268
 10
7371.6806072551
 20
5531.5161416627
 10
7371.6806649677
 20
5531.5161494948
 10
7371.6806676262
 20
5531.5161498718
 10
7371.6806677845
 20
5531.5161499144
 10
7371.6806607266
 20
5531.5161490134
 10
7371.6804251924
 20
5531.5161177733
 10
7371.6755770255
 20
5531.5154708118
  0
LWPOLYLINE
  5
412
330
1F
100
AcDbEntity
  8
0
  6
Continuous
 62
     7
100
AcDbPolyline
 90
        5
 70
   128
 43
0.0
 10
7370.6512451172
 20
5543.2578391522
 10
7369.1577921551
 20
5541.6963125847
 10
7368.2772629705
 20
5537.7519932873
 10
7369.1595410466
 20
5533.8149155049
 10
7370.654966693
 20
5532.2578392119
  0
LWPOLYLINE
  5
413
330
1F
100
AcDbEntity
  8
0
  6
Continuous
 62
     7
100
AcDbPolyline
 90
        3
 70
   128
 43
0.0
 10
6590.9690856934
 20
4106.7599604813
 10
6589.4007610968
 20
4105.3910477613
 10
6588.0187658265
 20
4104.5260976044
  0
LWPOLYLINE
  5
414
330
1F
100
AcDbEntity
  8
0
  6
Continuous
 62
     7
100
AcDbPolyline
 90
        3
 70
   128
 43
0.0
 10
6560.0166320801
 20
4104.452009031
 10
6558.3227219761
 20
4105.6425638301
 10
6557.1105984643
 20
4106.7599604813
  0
LWPOLYLINE
  5
415
330
1F
100
AcDbEntity
  8
0
  6
Continuous
 62
     7
100
AcDbPolyline
 90
        3
 70
   128
 43
0.0
 10
5990.9706115723
 20
4106.7599604813
 10
5989.4007484119
 20
4105.3910307104
 10
5988.0187419847
 20
4104.5260976044
  0
LWPOLYLINE
  5
416
330
1F
100
AcDbEntity
  8
0
  6
Continuous
 62
     7
100
AcDbPolyline
 90
        3
 70
   128
 43
0.0
 10
5960.018157959
 20
4104.452009031
 10
5958.3231606147
 20
4105.643422484
 10
5957.1105746224
 20
4106.7599604813
  0
ENDSEC
  0
SECTION
  2
OBJECTS
  0
DICTIONARY
  5
C
330
0
100
AcDbDictionary
281
     1
  3
ACAD_GROUP
350
D
  3
ACAD_LAYOUT
350
1A
  3
ACAD_MLINESTYLE
350
17
  3
ACAD_PLOTSETTINGS
350
19
  3
ACAD_PLOTSTYLENAME
350
E
  3
ACAD_SCALELIST
350
47
  3
DWGPROPS
350
417
  0
DICTIONARY
  5
D
102
{ACAD_REACTORS
330
C
102
}
330
C
100
AcDbDictionary
281
     1
  0
DICTIONARY
  5
1A
102
{ACAD_REACTORS
330
C
102
}
330
C
100
AcDbDictionary
281
     1
  3
Layout1
350
1E
  3
Layout2
350
26
  3
Model
350
22
  0
DICTIONARY
  5
17
102
{ACAD_REACTORS
330
C
102
}
330
C
100
AcDbDictionary
281
     1
  3
Standard
350
18
  0
DICTIONARY
  5
19
102
{ACAD_REACTORS
330
C
102
}
330
C
100
AcDbDictionary
281
     1
  0
ACDBDICTIONARYWDFLT
  5
E
102
{ACAD_REACTORS
330
C
102
}
330
C
100
AcDbDictionary
281
     1
  3
Normal
350
F
100
AcDbDictionaryWithDefault
340
F
  0
DICTIONARY
  5
47
102
{ACAD_REACTORS
330
C
102
}
330
C
100
AcDbDictionary
281
     1
  3
A0
350
48
  3
A1
350
49
  3
A2
350
4A
  3
A3
350
4B
  3
A4
350
4C
  3
A5
350
4D
  3
A6
350
4E
  3
A7
350
4F
  3
A8
350
50
  3
A9
350
51
  3
B0
350
52
  3
B1
350
53
  3
B2
350
54
  3
B3
350
55
  3
B4
350
56
  3
B5
350
57
  3
B6
350
58
  3
B7
350
59
  3
B8
350
5A
  3
B9
350
5B
  3
C0
350
5C
  3
C1
350
5D
  3
C2
350
5E
  3
C3
350
5F
  3
C4
350
60
  3
C5
350
61
  3
C6
350
62
  3
C7
350
63
  3
C8
350
64
  3
C9
350
65
  3
D0
350
66
  3
D1
350
67
  3
D2
350
68
  0
XRECORD
  5
417
102
{ACAD_REACTORS
330
C
102
}
330
C
100
AcDbXrecord
280
     1
  1
DWGPROPS COOKIE
  2

  3

  4

  6

  7

  8
radek.stransky
  9

300
=
301
=
302
=
303
=
304
=
305
=
306
=
307
=
308
=
309
=
 40
0.0
 41
2459096.376310347
 42
2459096.376340903
  1

 90
        0
  0
LAYOUT
  5
1E
102
{ACAD_REACTORS
330
1A
102
}
330
1A
100
AcDbPlotSettings
  1

  2
none_device
  4

  6

 40
0.0
 41
0.0
 42
0.0
 43
0.0
 44
0.0
 45
0.0
 46
0.0
 47
0.0
 48
0.0
 49
0.0
140
0.0
141
0.0
142
1.0
143
1.0
 70
   688
 72
     1
 73
     0
 74
     5
  7

 75
    16
147
1.0
148
0.0
149
0.0
100
AcDbLayout
  1
Layout1
 70
     1
 71
     1
 10
0.0
 20
0.0
 11
420.0
 21
297.0
 12
0.0
 22
0.0
 32
0.0
 14
1.0000000000E+20
 24
1.0000000000E+20
 34
1.0000000000E+20
 15
-1.0000000000E+20
 25
-1.0000000000E+20
 35
-1.0000000000E+20
146
0.0
 13
0.0
 23
0.0
 33
0.0
 16
1.0
 26
0.0
 36
0.0
 17
0.0
 27
1.0
 37
0.0
 76
     0
330
1B
  0
LAYOUT
  5
26
102
{ACAD_REACTORS
330
1A
102
}
330
1A
100
AcDbPlotSettings
  1

  2
none_device
  4

  6

 40
0.0
 41
0.0
 42
0.0
 43
0.0
 44
0.0
 45
0.0
 46
0.0
 47
0.0
 48
0.0
 49
0.0
140
0.0
141
0.0
142
1.0
143
1.0
 70
   688
 72
     1
 73
     0
 74
     5
  7

 75
    16
147
1.0
148
0.0
149
0.0
100
AcDbLayout
  1
Layout2
 70
     1
 71
     2
 10
0.0
 20
0.0
 11
0.0
 21
0.0
 12
0.0
 22
0.0
 32
0.0
 14
0.0
 24
0.0
 34
0.0
 15
0.0
 25
0.0
 35
0.0
146
0.0
 13
0.0
 23
0.0
 33
0.0
 16
1.0
 26
0.0
 36
0.0
 17
0.0
 27
1.0
 37
0.0
 76
     0
330
23
  0
LAYOUT
  5
22
102
{ACAD_REACTORS
330
1A
102
}
330
1A
100
AcDbPlotSettings
  1

  2
none_device
  4
ANSI_A_(11.00_x_8.50_Inches)
  6

 40
6.35
 41
19.05
 42
6.35000508
 43
19.05000254
 44
279.4
 45
215.9
 46
-529.0025041085
 47
-380.6139276539
 48
0.0
 49
0.0
140
0.0
141
0.0
142
0.0038800597
143
1.0
 70
  1696
 72
     0
 73
     0
 74
     0
  7

 75
     0
147
0.0179189148
148
-1300.4909072572
149
0.0
100
AcDbLayout
  1
Model
 70
     1
 71
     0
 10
0.0
 20
0.0
 11
420.0
 21
297.0
 12
0.0
 22
0.0
 32
0.0
 14
5649.0187553361
 24
3679.6599743121
 34
0.0
 15
7792.4601828599
 25
5848.4410560817
 35
0.0
146
0.0
 13
0.0
 23
0.0
 33
0.0
 16
1.0
 26
0.0
 36
0.0
 17
0.0
 27
1.0
 37
0.0
 76
     0
330
1F
331
29
  0
MLINESTYLE
  5
18
102
{ACAD_REACTORS
330
17
102
}
330
17
100
AcDbMlineStyle
  2
Standard
 70
     0
  3

 62
   256
 51
90.0
 52
90.0
 71
     2
 49
0.5
 62
   256
  6
BYLAYER
 49
-0.5
 62
   256
  6
BYLAYER
  0
ACDBPLACEHOLDER
  5
F
102
{ACAD_REACTORS
330
E
102
}
330
E
  0
SCALE
  5
48
102
{ACAD_REACTORS
330
47
102
}
330
47
100
AcDbScale
 70
     0
300
1:1
140
1.0
141
1.0
290
     1
  0
SCALE
  5
49
102
{ACAD_REACTORS
330
47
102
}
330
47
100
AcDbScale
 70
     0
300
1:2
140
1.0
141
2.0
290
     0
  0
SCALE
  5
4A
102
{ACAD_REACTORS
330
47
102
}
330
47
100
AcDbScale
 70
     0
300
1:4
140
1.0
141
4.0
290
     0
  0
SCALE
  5
4B
102
{ACAD_REACTORS
330
47
102
}
330
47
100
AcDbScale
 70
     0
300
1:5
140
1.0
141
5.0
290
     0
  0
SCALE
  5
4C
102
{ACAD_REACTORS
330
47
102
}
330
47
100
AcDbScale
 70
     0
300
1:8
140
1.0
141
8.0
290
     0
  0
SCALE
  5
4D
102
{ACAD_REACTORS
330
47
102
}
330
47
100
AcDbScale
 70
     0
300
1:10
140
1.0
141
10.0
290
     0
  0
SCALE
  5
4E
102
{ACAD_REACTORS
330
47
102
}
330
47
100
AcDbScale
 70
     0
300
1:16
140
1.0
141
16.0
290
     0
  0
SCALE
  5
4F
102
{ACAD_REACTORS
330
47
102
}
330
47
100
AcDbScale
 70
     0
300
1:20
140
1.0
141
20.0
290
     0
  0
SCALE
  5
50
102
{ACAD_REACTORS
330
47
102
}
330
47
100
AcDbScale
 70
     0
300
1:30
140
1.0
141
30.0
290
     0
  0
SCALE
  5
51
102
{ACAD_REACTORS
330
47
102
}
330
47
100
AcDbScale
 70
     0
300
1:40
140
1.0
141
40.0
290
     0
  0
SCALE
  5
52
102
{ACAD_REACTORS
330
47
102
}
330
47
100
AcDbScale
 70
     0
300
1:50
140
1.0
141
50.0
290
     0
  0
SCALE
  5
53
102
{ACAD_REACTORS
330
47
102
}
330
47
100
AcDbScale
 70
     0
300
1:100
140
1.0
141
100.0
290
     0
  0
SCALE
  5
54
102
{ACAD_REACTORS
330
47
102
}
330
47
100
AcDbScale
 70
     0
300
2:1
140
2.0
141
1.0
290
     0
  0
SCALE
  5
55
102
{ACAD_REACTORS
330
47
102
}
330
47
100
AcDbScale
 70
     0
300
4:1
140
4.0
141
1.0
290
     0
  0
SCALE
  5
56
102
{ACAD_REACTORS
330
47
102
}
330
47
100
AcDbScale
 70
     0
300
8:1
140
8.0
141
1.0
290
     0
  0
SCALE
  5
57
102
{ACAD_REACTORS
330
47
102
}
330
47
100
AcDbScale
 70
     0
300
10:1
140
10.0
141
1.0
290
     0
  0
SCALE
  5
58
102
{ACAD_REACTORS
330
47
102
}
330
47
100
AcDbScale
 70
     0
300
100:1
140
100.0
141
1.0
290
     0
  0
SCALE
  5
59
102
{ACAD_REACTORS
330
47
102
}
330
47
100
AcDbScale
 70
     0
300
1/128" = 1'-0"
140
0.0078125
141
12.0
290
     0
  0
SCALE
  5
5A
102
{ACAD_REACTORS
330
47
102
}
330
47
100
AcDbScale
 70
     0
300
1/64" = 1'-0"
140
0.015625
141
12.0
290
     0
  0
SCALE
  5
5B
102
{ACAD_REACTORS
330
47
102
}
330
47
100
AcDbScale
 70
     0
300
1/32" = 1'-0"
140
0.03125
141
12.0
290
     0
  0
SCALE
  5
5C
102
{ACAD_REACTORS
330
47
102
}
330
47
100
AcDbScale
 70
     0
300
1/16" = 1'-0"
140
0.0625
141
12.0
290
     0
  0
SCALE
  5
5D
102
{ACAD_REACTORS
330
47
102
}
330
47
100
AcDbScale
 70
     0
300
3/32" = 1'-0"
140
0.09375
141
12.0
290
     0
  0
SCALE
  5
5E
102
{ACAD_REACTORS
330
47
102
}
330
47
100
AcDbScale
 70
     0
300
1/8" = 1'-0"
140
0.125
141
12.0
290
     0
  0
SCALE
  5
5F
102
{ACAD_REACTORS
330
47
102
}
330
47
100
AcDbScale
 70
     0
300
3/16" = 1'-0"
140
0.1875
141
12.0
290
     0
  0
SCALE
  5
60
102
{ACAD_REACTORS
330
47
102
}
330
47
100
AcDbScale
 70
     0
300
1/4" = 1'-0"
140
0.25
141
12.0
290
     0
  0
SCALE
  5
61
102
{ACAD_REACTORS
330
47
102
}
330
47
100
AcDbScale
 70
     0
300
3/8" = 1'-0"
140
0.375
141
12.0
290
     0
  0
SCALE
  5
62
102
{ACAD_REACTORS
330
47
102
}
330
47
100
AcDbScale
 70
     0
300
1/2" = 1'-0"
140
0.5
141
12.0
290
     0
  0
SCALE
  5
63
102
{ACAD_REACTORS
330
47
102
}
330
47
100
AcDbScale
 70
     0
300
3/4" = 1'-0"
140
0.75
141
12.0
290
     0
  0
SCALE
  5
64
102
{ACAD_REACTORS
330
47
102
}
330
47
100
AcDbScale
 70
     0
300
1" = 1'-0"
140
1.0
141
12.0
290
     0
  0
SCALE
  5
65
102
{ACAD_REACTORS
330
47
102
}
330
47
100
AcDbScale
 70
     0
300
1-1/2" = 1'-0"
140
1.5
141
12.0
290
     0
  0
SCALE
  5
66
102
{ACAD_REACTORS
330
47
102
}
330
47
100
AcDbScale
 70
     0
300
3" = 1'-0"
140
3.0
141
12.0
290
     0
  0
SCALE
  5
67
102
{ACAD_REACTORS
330
47
102
}
330
47
100
AcDbScale
 70
     0
300
6" = 1'-0"
140
6.0
141
12.0
290
     0
  0
SCALE
  5
68
102
{ACAD_REACTORS
330
47
102
}
330
47
100
AcDbScale
 70
     0
300
1'-0" = 1'-0"
140
12.0
141
12.0
290
     0
  0
ENDSEC
  0
EOF
