  0
SECTION
  2
HEADER
  9
$ACADVER
  1
AC1015
  9
$ACADMAINTVER
 70
     6
  9
$DWGCODEPAGE
  3
ANSI_1250
  9
$INSBASE
 10
0.0
 20
0.0
 30
0.0
  9
$EXTMIN
 10
0.0
 20
0.0
 30
0.0
  9
$EXTMAX
 10
20000.0
 20
10000.0
 30
0.0
  9
$LIMMIN
 10
0.0
 20
0.0
  9
$LIMMAX
 10
20000.0
 20
10000.0
  9
$ORTHOMODE
 70
     0
  9
$REGENMODE
 70
     1
  9
$FILLMODE
 70
     1
  9
$QTEXTMODE
 70
     0
  9
$MIRRTEXT
 70
     1
  9
$LTSCALE
 40
1.0
  9
$ATTMODE
 70
     1
  9
$TEXTSIZE
 40
2.0
  9
$TRACEWID
 40
1.0
  9
$TEXTSTYLE
  7
Standard
  9
$CLAYER
  8
0
  9
$CELTYPE
  6
ByLayer
  9
$CECOLOR
 62
   256
  9
$CELTSCALE
 40
1.0
  9
$DISPSILH
 70
     0
  9
$DIMSCALE
 40
1.0
  9
$DIMASZ
 40
2.0
  9
$DIMEXO
 40
1.0
  9
$DIMDLI
 40
3.75
  9
$DIMRND
 40
0.0
  9
$DIMDLE
 40
0.0
  9
$DIMEXE
 40
1.0
  9
$DIMTP
 40
0.0
  9
$DIMTM
 40
0.0
  9
$DIMTXT
 40
2.0
  9
$DIMCEN
 40
2.5
  9
$DIMTSZ
 40
0.0
  9
$DIMTOL
 70
     0
  9
$DIMLIM
 70
     0
  9
$DIMTIH
 70
     1
  9
$DIMTOH
 70
     1
  9
$DIMSE1
 70
     0
  9
$DIMSE2
 70
     0
  9
$DIMTAD
 70
     1
  9
$DIMZIN
 70
     0
  9
$DIMBLK
  1

  9
$DIMASO
 70
     1
  9
$DIMSHO
 70
     1
  9
$DIMPOST
  1

  9
$DIMAPOST
  1

  9
$DIMALT
 70
     0
  9
$DIMALTD
 70
     3
  9
$DIMALTF
 40
0.0393700787
  9
$DIMLFAC
 40
1.0
  9
$DIMTOFL
 70
     1
  9
$DIMTVP
 40
0.0
  9
$DIMTIX
 70
     0
  9
$DIMSOXD
 70
     0
  9
$DIMSAH
 70
     0
  9
$DIMBLK1
  1

  9
$DIMBLK2
  1

  9
$DIMSTYLE
  2
ISO-25
  9
$DIMCLRD
 70
     0
  9
$DIMCLRE
 70
     0
  9
$DIMCLRT
 70
     0
  9
$DIMTFAC
 40
1.0
  9
$DIMGAP
 40
1.524
  9
$DIMJUST
 70
     0
  9
$DIMSD1
 70
     0
  9
$DIMSD2
 70
     0
  9
$DIMTOLJ
 70
     0
  9
$DIMTZIN
 70
     0
  9
$DIMALTZ
 70
     0
  9
$DIMALTTZ
 70
     0
  9
$DIMUPT
 70
     0
  9
$DIMDEC
 70
     2
  9
$DIMTDEC
 70
     0
  9
$DIMALTU
 70
     2
  9
$DIMALTTD
 70
     3
  9
$DIMTXSTY
  7
Standard
  9
$DIMAUNIT
 70
     0
  9
$DIMADEC
 70
     2
  9
$DIMALTRND
 40
0.0
  9
$DIMAZIN
 70
     0
  9
$DIMDSEP
 70
    44
  9
$DIMATFIT
 70
     3
  9
$DIMFRAC
 70
     0
  9
$DIMLDRBLK
  1

  9
$DIMLUNIT
 70
     2
  9
$DIMLWD
 70
    -2
  9
$DIMLWE
 70
    -2
  9
$DIMTMOVE
 70
     0
  9
$LUNITS
 70
     2
  9
$LUPREC
 70
     3
  9
$SKETCHINC
 40
1.0
  9
$FILLETRAD
 40
10.0
  9
$AUNITS
 70
     0
  9
$AUPREC
 70
     2
  9
$MENU
  1
.
  9
$ELEVATION
 40
0.0
  9
$PELEVATION
 40
0.0
  9
$THICKNESS
 40
0.0
  9
$LIMCHECK
 70
     0
  9
$CHAMFERA
 40
0.0
  9
$CHAMFERB
 40
0.0
  9
$CHAMFERC
 40
0.0
  9
$CHAMFERD
 40
0.0
  9
$SKPOLY
 70
     0
  9
$TDCREATE
 40
2458677.445303796
  9
$TDUCREATE
 40
2458677.361970463
  9
$TDUPDATE
 40
2458677.445303923
  9
$TDUUPDATE
 40
2458677.36197059
  9
$TDINDWG
 40
0.0000000116
  9
$TDUSRTIMER
 40
0.0000000116
  9
$USRTIMER
 70
     1
  9
$ANGBASE
 50
0.0
  9
$ANGDIR
 70
     0
  9
$PDMODE
 70
     0
  9
$PDSIZE
 40
-1.0
  9
$PLINEWID
 40
0.0
  9
$SPLFRAME
 70
     0
  9
$SPLINETYPE
 70
     6
  9
$SPLINESEGS
 70
     8
  9
$HANDSEED
  5
19E
  9
$SURFTAB1
 70
     6
  9
$SURFTAB2
 70
     6
  9
$SURFTYPE
 70
     6
  9
$SURFU
 70
     6
  9
$SURFV
 70
     6
  9
$UCSBASE
  2

  9
$UCSNAME
  2

  9
$UCSORG
 10
0.0
 20
0.0
 30
0.0
  9
$UCSXDIR
 10
1.0
 20
0.0
 30
0.0
  9
$UCSYDIR
 10
0.0
 20
1.0
 30
0.0
  9
$UCSORTHOREF
  2

  9
$UCSORTHOVIEW
 70
     0
  9
$UCSORGTOP
 10
0.0
 20
0.0
 30
0.0
  9
$UCSORGBOTTOM
 10
0.0
 20
0.0
 30
0.0
  9
$UCSORGLEFT
 10
0.0
 20
0.0
 30
0.0
  9
$UCSORGRIGHT
 10
0.0
 20
0.0
 30
0.0
  9
$UCSORGFRONT
 10
0.0
 20
0.0
 30
0.0
  9
$UCSORGBACK
 10
0.0
 20
0.0
 30
0.0
  9
$PUCSBASE
  2

  9
$PUCSNAME
  2

  9
$PUCSORG
 10
0.0
 20
0.0
 30
0.0
  9
$PUCSXDIR
 10
1.0
 20
0.0
 30
0.0
  9
$PUCSYDIR
 10
0.0
 20
1.0
 30
0.0
  9
$PUCSORTHOREF
  2

  9
$PUCSORTHOVIEW
 70
     0
  9
$PUCSORGTOP
 10
0.0
 20
0.0
 30
0.0
  9
$PUCSORGBOTTOM
 10
0.0
 20
0.0
 30
0.0
  9
$PUCSORGLEFT
 10
0.0
 20
0.0
 30
0.0
  9
$PUCSORGRIGHT
 10
0.0
 20
0.0
 30
0.0
  9
$PUCSORGFRONT
 10
0.0
 20
0.0
 30
0.0
  9
$PUCSORGBACK
 10
0.0
 20
0.0
 30
0.0
  9
$USERI1
 70
     0
  9
$USERI2
 70
     0
  9
$USERI3
 70
     0
  9
$USERI4
 70
     0
  9
$USERI5
 70
     0
  9
$USERR1
 40
0.0
  9
$USERR2
 40
0.0
  9
$USERR3
 40
0.0
  9
$USERR4
 40
0.0
  9
$USERR5
 40
0.0
  9
$WORLDVIEW
 70
     1
  9
$SHADEDGE
 70
     3
  9
$SHADEDIF
 70
    70
  9
$TILEMODE
 70
     1
  9
$MAXACTVP
 70
    64
  9
$PINSBASE
 10
0.0
 20
0.0
 30
0.0
  9
$PLIMCHECK
 70
     0
  9
$PEXTMIN
 10
1.0000000000E+20
 20
1.0000000000E+20
 30
1.0000000000E+20
  9
$PEXTMAX
 10
-1.0000000000E+20
 20
-1.0000000000E+20
 30
-1.0000000000E+20
  9
$PLIMMIN
 10
0.0
 20
0.0
  9
$PLIMMAX
 10
420.0
 20
297.0
  9
$UNITMODE
 70
     0
  9
$VISRETAIN
 70
     1
  9
$PLINEGEN
 70
     0
  9
$PSLTSCALE
 70
     1
  9
$TREEDEPTH
 70
  3020
  9
$CMLSTYLE
  2
Standard
  9
$CMLJUST
 70
     0
  9
$CMLSCALE
 40
20.0
  9
$PROXYGRAPHICS
 70
     1
  9
$MEASUREMENT
 70
     1
  9
$CELWEIGHT
370
    -1
  9
$ENDCAPS
280
     0
  9
$JOINSTYLE
280
     0
  9
$LWDISPLAY
290
     1
  9
$INSUNITS
 70
     4
  9
$HYPERLINKBASE
  1

  9
$STYLESHEET
  1

  9
$XEDIT
290
     1
  9
$CEPSNTYPE
380
     0
  9
$PSTYLEMODE
290
     1
  9
$FINGERPRINTGUID
  2
{3EBEBF3C-B640-46EF-9932-76B923E61E4A}
  9
$VERSIONGUID
  2
{FAEB1C32-E019-11D5-929B-00C0DF256EC4}
  9
$EXTNAMES
290
     1
  9
$PSVPSCALE
 40
0.0
  9
$OLESTARTUP
290
     0
  0
ENDSEC
  0
SECTION
  2
CLASSES
  0
CLASS
  1
ACDBDICTIONARYWDFLT
  2
AcDbDictionaryWithDefault
  3
ObjectDBX Classes
 90
        0
280
     0
281
     0
  0
CLASS
  1
VISUALSTYLE
  2
AcDbVisualStyle
  3
ObjectDBX Classes
 90
     4095
280
     0
281
     0
  0
CLASS
  1
MATERIAL
  2
AcDbMaterial
  3
ObjectDBX Classes
 90
     1153
280
     0
281
     0
  0
CLASS
  1
SCALE
  2
AcDbScale
  3
ObjectDBX Classes
 90
     1153
280
     0
281
     0
  0
CLASS
  1
TABLESTYLE
  2
AcDbTableStyle
  3
ObjectDBX Classes
 90
     4095
280
     0
281
     0
  0
CLASS
  1
MLEADERSTYLE
  2
AcDbMLeaderStyle
  3
ACDB_MLEADERSTYLE_CLASS
 90
     4095
280
     0
281
     0
  0
CLASS
  1
SUN
  2
AcDbSun
  3
SCENEOE
 90
     1153
280
     0
281
     0
  0
CLASS
  1
ACDBPLACEHOLDER
  2
AcDbPlaceHolder
  3
ObjectDBX Classes
 90
        0
280
     0
281
     0
  0
CLASS
  1
LAYOUT
  2
AcDbLayout
  3
ObjectDBX Classes
 90
        0
280
     0
281
     0
  0
ENDSEC
  0
SECTION
  2
TABLES
  0
TABLE
  2
VPORT
  5
8
330
0
100
AcDbSymbolTable
 70
     1
  0
VPORT
  5
29
330
8
100
AcDbSymbolTableRecord
100
AcDbViewportTableRecord
  2
*Active
 70
     0
 10
0.0
 20
0.0
 11
1.0
 21
1.0
 12
10000.0
 22
5000.0
 13
0.0
 23
0.0
 14
10.0
 24
10.0
 15
10.0
 25
10.0
 16
0.0
 26
0.0
 36
1.0
 17
0.0
 27
0.0
 37
0.0
 40
10000.0
 41
2.0
 42
50.0
 43
0.0
 44
0.0
 50
0.0
 51
0.0
 71
     0
 72
  2000
 73
     1
 74
     3
 75
     0
 76
     0
 77
     0
 78
     0
281
     0
 65
     1
110
0.0
120
0.0
130
0.0
111
1.0
121
0.0
131
0.0
112
0.0
122
1.0
132
0.0
 79
     0
146
0.0
  0
ENDTAB
  0
TABLE
  2
LTYPE
  5
5
330
0
100
AcDbSymbolTable
 70
     6
  0
LTYPE
  5
14
330
5
100
AcDbSymbolTableRecord
100
AcDbLinetypeTableRecord
  2
ByBlock
 70
     0
  3

 72
    65
 73
     0
 40
0.0
  0
LTYPE
  5
15
330
5
100
AcDbSymbolTableRecord
100
AcDbLinetypeTableRecord
  2
ByLayer
 70
     0
  3

 72
    65
 73
     0
 40
0.0
  0
LTYPE
  5
16
330
5
100
AcDbSymbolTableRecord
100
AcDbLinetypeTableRecord
  2
Continuous
 70
     0
  3
Solid line
 72
    65
 73
     0
 40
0.0
  0
LTYPE
  5
6E
330
5
100
AcDbSymbolTableRecord
100
AcDbLinetypeTableRecord
  2
HIDDEN
 70
     0
  3
Hidden __ __ __ __ __ __ __ __ __ __ __ __ __ __
 72
    65
 73
     2
 40
1.905
 49
1.27
 74
     0
 49
-0.635
 74
     0
  0
LTYPE
  5
6F
330
5
100
AcDbSymbolTableRecord
100
AcDbLinetypeTableRecord
  2
PHANTOM
 70
     0
  3
Phantom ______  __  __  ______  __  __  ______
 72
    65
 73
     6
 40
12.7
 49
6.35
 74
     0
 49
-1.27
 74
     0
 49
1.27
 74
     0
 49
-1.27
 74
     0
 49
1.27
 74
     0
 49
-1.27
 74
     0
  0
LTYPE
  5
70
330
5
100
AcDbSymbolTableRecord
100
AcDbLinetypeTableRecord
  2
CENTER
 70
     0
  3
Center ____ _ ____ _ ____ _ ____ _ ____ _ ____
 72
    65
 73
     4
 40
10.16
 49
6.35
 74
     0
 49
-1.27
 74
     0
 49
1.27
 74
     0
 49
-1.27
 74
     0
  0
LTYPE
  5
71
330
5
100
AcDbSymbolTableRecord
100
AcDbLinetypeTableRecord
  2
CENTERX2
 70
     0
  3
Center (2x) ________  __  ________  __  _____
 72
    65
 73
     4
 40
20.32
 49
12.7
 74
     0
 49
-2.54
 74
     0
 49
2.54
 74
     0
 49
-2.54
 74
     0
  0
LTYPE
  5
72
330
5
100
AcDbSymbolTableRecord
100
AcDbLinetypeTableRecord
  2
DOT2
 70
     0
  3
Dot (.5x) ........................................
 72
    65
 73
     2
 40
0.635
 49
0.0
 74
     0
 49
-0.635
 74
     0
  0
ENDTAB
  0
TABLE
  2
LAYER
  5
2
330
0
100
AcDbSymbolTable
 70
    13
  0
LAYER
  5
10
330
2
100
AcDbSymbolTableRecord
100
AcDbLayerTableRecord
  2
0
 70
     0
 62
     7
  6
Continuous
370
    -3
390
F
  0
LAYER
  5
73
330
2
100
AcDbSymbolTableRecord
100
AcDbLayerTableRecord
  2
FORMAT
 70
     0
 62
     7
  6
Continuous
370
    -3
390
F
  0
LAYER
  5
74
330
2
100
AcDbSymbolTableRecord
100
AcDbLayerTableRecord
  2
OSA
 70
     0
 62
     7
  6
CENTER
370
    -3
390
F
  0
LAYER
  5
75
330
2
100
AcDbSymbolTableRecord
100
AcDbLayerTableRecord
  2
0_35
 70
     0
 62
     7
  6
Continuous
370
    35
390
F
  0
LAYER
  5
76
330
2
100
AcDbSymbolTableRecord
100
AcDbLayerTableRecord
  2
0_5
 70
     0
 62
     7
  6
Continuous
370
    50
390
F
  0
LAYER
  5
77
330
2
100
AcDbSymbolTableRecord
100
AcDbLayerTableRecord
  2
0_25
 70
     0
 62
     7
  6
Continuous
370
    25
390
F
  0
LAYER
  5
78
330
2
100
AcDbSymbolTableRecord
100
AcDbLayerTableRecord
  2
0_18
 70
     0
 62
     7
  6
Continuous
370
    -3
390
F
  0
LAYER
  5
79
330
2
100
AcDbSymbolTableRecord
100
AcDbLayerTableRecord
  2
SLD-0
 70
     0
 62
   179
  6
Continuous
370
    -3
390
F
  0
LAYER
  5
7A
330
2
100
AcDbSymbolTableRecord
100
AcDbLayerTableRecord
  2
KOTY
 70
     0
 62
     7
  6
Continuous
370
    -3
390
F
  0
LAYER
  5
7B
330
2
100
AcDbSymbolTableRecord
100
AcDbLayerTableRecord
  2
SILNA
 70
     0
 62
   179
  6
Continuous
370
    -3
390
F
  0
LAYER
  5
7C
330
2
100
AcDbSymbolTableRecord
100
AcDbLayerTableRecord
  2
0_18_1
 70
     0
 62
   179
  6
Continuous
370
    -3
390
F
  0
LAYER
  5
7D
330
2
100
AcDbSymbolTableRecord
100
AcDbLayerTableRecord
  2
0_35_1
 70
     0
 62
   179
  6
Continuous
370
    35
390
F
  0
LAYER
  5
7E
330
2
100
AcDbSymbolTableRecord
100
AcDbLayerTableRecord
  2
0_5_1
 70
     0
 62
   179
  6
Continuous
370
    50
390
F
  0
ENDTAB
  0
TABLE
  2
STYLE
  5
3
330
0
100
AcDbSymbolTable
 70
     1
  0
STYLE
  5
11
330
3
100
AcDbSymbolTableRecord
100
AcDbTextStyleTableRecord
  2
Standard
 70
     0
 40
0.0
 41
1.0
 50
0.0
 71
     0
 42
2.0
  3
txt
  4

  0
ENDTAB
  0
TABLE
  2
VIEW
  5
6
330
0
100
AcDbSymbolTable
 70
     0
  0
ENDTAB
  0
TABLE
  2
UCS
  5
7
330
0
100
AcDbSymbolTable
 70
     0
  0
ENDTAB
  0
TABLE
  2
APPID
  5
9
330
0
100
AcDbSymbolTable
 70
     1
  0
APPID
  5
12
330
9
100
AcDbSymbolTableRecord
100
AcDbRegAppTableRecord
  2
ACAD
 70
     0
  0
ENDTAB
  0
TABLE
  2
DIMSTYLE
  5
A
330
0
100
AcDbSymbolTable
 70
     1
100
AcDbDimStyleTable
  0
DIMSTYLE
105
27
330
A
100
AcDbSymbolTableRecord
100
AcDbDimStyleTableRecord
  2
ISO-25
 70
     0
 41
2.5
 42
0.625
 43
3.75
 44
1.25
 73
     0
 74
     0
 77
     1
 78
     8
140
2.5
141
2.5
143
0.0393700787
147
0.625
171
     3
172
     1
178
     0
271
     2
272
     2
274
     3
278
    44
283
     0
284
     8
340
11
  0
ENDTAB
  0
TABLE
  2
BLOCK_RECORD
  5
1
330
0
100
AcDbSymbolTable
 70
     1
  0
BLOCK_RECORD
  5
1F
330
1
100
AcDbSymbolTableRecord
100
AcDbBlockTableRecord
  2
*Model_Space
340
22
  0
BLOCK_RECORD
  5
1B
330
1
100
AcDbSymbolTableRecord
100
AcDbBlockTableRecord
  2
*Paper_Space
340
1E
  0
BLOCK_RECORD
  5
23
330
1
100
AcDbSymbolTableRecord
100
AcDbBlockTableRecord
  2
*Paper_Space0
340
26
  0
ENDTAB
  0
ENDSEC
  0
SECTION
  2
BLOCKS
  0
BLOCK
  5
20
330
1F
100
AcDbEntity
  8
0
100
AcDbBlockBegin
  2
*Model_Space
 70
     0
 10
0.0
 20
0.0
 30
0.0
  3
*Model_Space
  1

  0
ENDBLK
  5
21
330
1F
100
AcDbEntity
  8
0
100
AcDbBlockEnd
  0
BLOCK
  5
1C
330
1B
100
AcDbEntity
 67
     1
  8
0
100
AcDbBlockBegin
  2
*Paper_Space
 70
     0
 10
0.0
 20
0.0
 30
0.0
  3
*Paper_Space
  1

  0
ENDBLK
  5
1D
330
1B
100
AcDbEntity
 67
     1
  8
0
100
AcDbBlockEnd
  0
BLOCK
  5
24
330
23
100
AcDbEntity
  8
0
100
AcDbBlockBegin
  2
*Paper_Space0
 70
     0
 10
0.0
 20
0.0
 30
0.0
  3
*Paper_Space0
  1

  0
ENDBLK
  5
25
330
23
100
AcDbEntity
  8
0
100
AcDbBlockEnd
  0
ENDSEC
  0
SECTION
  2
ENTITIES
  0
LINE
  5
7F
330
1F
100
AcDbEntity
  8
0
  6
Continuous
 62
     7
370
    25
100
AcDbLine
 10
6240.0187553361
 20
5104.6951970516
 30
0.0
 11
6246.912541056
 21
5037.3895211903
 31
0.0
  0
LINE
  5
80
330
1F
100
AcDbEntity
  8
0
  6
Continuous
 62
     7
370
    25
100
AcDbLine
 10
6301.1249696162
 20
5037.3895211903
 30
0.0
 11
6308.0187553361
 21
5104.6951970516
 31
0.0
  0
LINE
  5
81
330
1F
100
AcDbEntity
  8
0
  6
Continuous
 62
     7
370
    25
100
AcDbLine
 10
6308.0187553361
 20
5104.6951970516
 30
0.0
 11
6301.3281970913
 21
5162.0428391503
 31
0.0
  0
LINE
  5
82
330
1F
100
AcDbEntity
  8
0
  6
Continuous
 62
     7
370
    25
100
AcDbLine
 10
6246.7093135809
 20
5162.0428391503
 30
0.0
 11
6240.0187553361
 21
5104.6951970516
 31
0.0
  0
ARC
  5
83
330
1F
100
AcDbEntity
  8
0
  6
Continuous
 62
     7
370
    25
100
AcDbCircle
 10
6249.6891029982
 20
5161.6951970516
 30
0.0
 40
3.0
100
AcDbArc
 50
90.0
 51
173.345574954
  0
ARC
  5
84
330
1F
100
AcDbEntity
  8
0
  6
Continuous
 62
     7
370
    25
100
AcDbCircle
 10
6298.348407674
 20
5161.6951970516
 30
0.0
 40
3.0
100
AcDbArc
 50
6.654425046
 51
90.0
  0
ARC
  5
85
330
1F
100
AcDbEntity
  8
0
  6
Continuous
 62
     7
370
    25
100
AcDbCircle
 10
6249.8969274699
 20
5037.6951970516
 30
0.0
 40
3.000000000000424
100
AcDbArc
 50
185.8481280262
 51
270.0
  0
ARC
  5
86
330
1F
100
AcDbEntity
  8
0
  6
Continuous
 62
     7
370
    25
100
AcDbCircle
 10
6298.1405832023
 20
5037.6951970516
 30
0.0
 40
3.000000000000424
100
AcDbArc
 50
270.0
 51
354.1518719738
  0
LINE
  5
87
330
1F
100
AcDbEntity
  8
0
  6
Continuous
 62
     7
370
    25
100
AcDbLine
 10
6299.0187553361
 20
5167.1951970516
 30
0.0
 11
6297.0187553361
 21
5171.1951970516
 31
0.0
  0
LINE
  5
88
330
1F
100
AcDbEntity
  8
0
  6
Continuous
 62
     7
370
    25
100
AcDbLine
 10
6251.0187553361
 20
5171.1951970516
 30
0.0
 11
6249.0187553361
 21
5167.1951970516
 31
0.0
  0
ARC
  5
89
330
1F
100
AcDbEntity
  8
0
  6
Continuous
 62
     7
370
    25
100
AcDbCircle
 10
6254.0187553361
 20
5178.1951970516
 30
0.0
 40
3.0
100
AcDbArc
 50
90.0
 51
180.0
  0
ARC
  5
8A
330
1F
100
AcDbEntity
  8
0
  6
Continuous
 62
     7
370
    25
100
AcDbCircle
 10
6294.0187553361
 20
5178.1951970516
 30
0.0
 40
3.0
100
AcDbArc
 50
0.0
 51
90.0
  0
LINE
  5
8B
330
1F
100
AcDbEntity
  8
0
  6
Continuous
 62
     7
370
    25
100
AcDbLine
 10
6251.0187553361
 20
5178.1951970516
 30
0.0
 11
6251.0187553361
 21
5171.1951970516
 31
0.0
  0
LINE
  5
8C
330
1F
100
AcDbEntity
  8
0
  6
Continuous
 62
     7
370
    25
100
AcDbLine
 10
6297.0187553361
 20
5171.1951970516
 30
0.0
 11
6297.0187553361
 21
5178.1951970516
 31
0.0
  0
LINE
  5
8D
330
1F
100
AcDbEntity
  8
0
  6
Continuous
 62
     7
370
    25
100
AcDbLine
 10
6258.0187553361
 20
5167.1951970516
 30
0.0
 11
6258.0187553361
 21
5164.6951970516
 31
0.0
  0
LINE
  5
8E
330
1F
100
AcDbEntity
  8
0
  6
Continuous
 62
     7
370
    25
100
AcDbLine
 10
6290.0187553361
 20
5164.6951970516
 30
0.0
 11
6290.0187553361
 21
5167.1951970516
 31
0.0
  0
LINE
  5
8F
330
1F
100
AcDbEntity
  8
0
  6
Continuous
 62
     7
370
    25
100
AcDbLine
 10
6244.0187553361
 20
5203.3951970516
 30
0.0
 11
6246.0187553361
 21
5199.3951970516
 31
0.0
  0
LINE
  5
90
330
1F
100
AcDbEntity
  8
0
  6
Continuous
 62
     7
370
    25
100
AcDbLine
 10
6302.0187553361
 20
5199.3951970516
 30
0.0
 11
6304.0187553361
 21
5203.3951970516
 31
0.0
  0
LINE
  5
91
330
1F
100
AcDbEntity
  8
0
  6
Continuous
 62
     7
370
    25
100
AcDbLine
 10
6246.0187553361
 20
5199.3951970516
 30
0.0
 11
6246.0187553361
 21
5192.3951970516
 31
0.0
  0
LINE
  5
92
330
1F
100
AcDbEntity
  8
0
  6
Continuous
 62
     7
370
    25
100
AcDbLine
 10
6302.0187553361
 20
5192.3951970516
 30
0.0
 11
6302.0187553361
 21
5199.3951970516
 31
0.0
  0
ARC
  5
93
330
1F
100
AcDbEntity
  8
0
  6
Continuous
 62
     7
370
    25
100
AcDbCircle
 10
6249.0187553361
 20
5192.3951970516
 30
0.0
 40
3.0
100
AcDbArc
 50
180.0
 51
270.0
  0
ARC
  5
94
330
1F
100
AcDbEntity
  8
0
  6
Continuous
 62
     7
370
    25
100
AcDbCircle
 10
6299.0187553361
 20
5192.3951970516
 30
0.0
 40
3.0
100
AcDbArc
 50
270.0
 51
0.0
  0
LINE
  5
95
330
1F
100
AcDbEntity
  8
0
  6
Continuous
 62
     7
370
    25
100
AcDbLine
 10
6258.0187553361
 20
5189.3951970516
 30
0.0
 11
6258.0187553361
 21
5181.1951970516
 31
0.0
  0
LINE
  5
96
330
1F
100
AcDbEntity
  8
0
  6
Continuous
 62
     7
370
    25
100
AcDbLine
 10
6258.0187553361
 20
5167.1951970516
 30
0.0
 11
6258.0187553361
 21
5164.6951970516
 31
0.0
  0
LINE
  5
97
330
1F
100
AcDbEntity
  8
0
  6
Continuous
 62
     7
370
    25
100
AcDbLine
 10
6290.0187553361
 20
5164.6951970516
 30
0.0
 11
6290.0187553361
 21
5167.1951970516
 31
0.0
  0
LINE
  5
98
330
1F
100
AcDbEntity
  8
0
  6
Continuous
 62
     7
370
    25
100
AcDbLine
 10
6290.0187553361
 20
5181.1951970516
 30
0.0
 11
6290.0187553361
 21
5189.3951970516
 31
0.0
  0
LINE
  5
99
330
1F
100
AcDbEntity
  8
0
  6
Continuous
 62
     7
370
    25
100
AcDbLine
 10
6239.0187553361
 20
5243.3951970516
 30
0.0
 11
6242.0187553361
 21
5236.3951970516
 31
0.0
  0
LINE
  5
9A
330
1F
100
AcDbEntity
  8
0
  6
Continuous
 62
     7
370
    25
100
AcDbLine
 10
6306.0187553361
 20
5236.3951970516
 30
0.0
 11
6309.0187553361
 21
5243.3951970516
 31
0.0
  0
LINE
  5
9B
330
1F
100
AcDbEntity
  8
0
  6
Continuous
 62
     7
370
    25
100
AcDbLine
 10
6242.0187553361
 20
5236.3951970516
 30
0.0
 11
6247.5187553361
 21
5230.8951970516
 31
0.0
  0
LINE
  5
9C
330
1F
100
AcDbEntity
  8
0
  6
Continuous
 62
     7
370
    25
100
AcDbLine
 10
6300.5187553361
 20
5230.8951970516
 30
0.0
 11
6306.0187553361
 21
5236.3951970516
 31
0.0
  0
LINE
  5
9D
330
1F
100
AcDbEntity
  8
0
  6
Continuous
 62
     7
370
    25
100
AcDbLine
 10
6244.5187553361
 20
5206.3951970516
 30
0.0
 11
6244.5187553361
 21
5203.3951970516
 31
0.0
  0
LINE
  5
9E
330
1F
100
AcDbEntity
  8
0
  6
Continuous
 62
     7
370
    25
100
AcDbLine
 10
6303.5187553361
 20
5203.3951970516
 30
0.0
 11
6303.5187553361
 21
5206.3951970516
 31
0.0
  0
LINE
  5
9F
330
1F
100
AcDbEntity
  8
0
  6
Continuous
 62
     7
370
    25
100
AcDbLine
 10
6247.5187553361
 20
5230.8951970516
 30
0.0
 11
6247.5187553361
 21
5206.3951970516
 31
0.0
  0
LINE
  5
A0
330
1F
100
AcDbEntity
  8
0
  6
Continuous
 62
     7
370
    25
100
AcDbLine
 10
6300.5187553361
 20
5206.3951970516
 30
0.0
 11
6300.5187553361
 21
5230.8951970516
 31
0.0
  0
ARC
  5
A1
330
1F
100
AcDbEntity
  8
0
  6
Continuous
 62
     7
370
    25
100
AcDbCircle
 10
6057.0187553361
 20
5389.7037121338
 30
0.0
 40
3.0
100
AcDbArc
 50
90.0
 51
180.0
  0
ARC
  5
A2
330
1F
100
AcDbEntity
  8
0
  6
Continuous
 62
     7
370
    25
100
AcDbCircle
 10
6491.0187553361
 20
5389.7037121338
 30
0.0
 40
3.0
100
AcDbArc
 50
0.0
 51
90.0
  0
LINE
  5
A3
330
1F
100
AcDbEntity
  8
0
  6
Continuous
 62
     7
370
    25
100
AcDbLine
 10
6054.0187553361
 20
5389.7037121338
 30
0.0
 11
6054.0187553361
 21
5385.2037121338
 31
0.0
  0
LINE
  5
A4
330
1F
100
AcDbEntity
  8
0
  6
Continuous
 62
     7
370
    25
100
AcDbLine
 10
6494.0187553361
 20
5385.2037121338
 30
0.0
 11
6494.0187553361
 21
5389.7037121338
 31
0.0
  0
ARC
  5
A5
330
1F
100
AcDbEntity
  8
0
  6
Continuous
 62
     7
370
    25
100
AcDbCircle
 10
6288.7055919298
 20
5438.497114029
 30
0.0
 40
201.2000000000003
100
AcDbArc
 50
195.3596883968
 51
255.3981952538
  0
ARC
  5
A6
330
1F
100
AcDbEntity
  8
0
  6
Continuous
 62
     7
370
    25
100
AcDbCircle
 10
6259.3319187424
 20
5438.497114029
 30
0.0
 40
201.2000000000005
100
AcDbArc
 50
284.6018047462
 51
344.6403116032
  0
ARC
  5
A7
330
1F
100
AcDbEntity
  8
0
  6
Continuous
 62
     7
370
    25
100
AcDbCircle
 10
6311.0123858932
 20
5240.1183618525
 30
0.0
 40
3.800000000000225
100
AcDbArc
 50
104.6018047462
 51
113.4985656759
  0
ARC
  5
A8
330
1F
100
AcDbEntity
  8
0
  6
Continuous
 62
     7
370
    25
100
AcDbCircle
 10
6237.025124779
 20
5240.1183618525
 30
0.0
 40
3.800000000000455
100
AcDbArc
 50
66.5014343241
 51
75.3981952538
  0
LINE
  5
A9
330
1F
100
AcDbEntity
  8
0
  6
Continuous
 62
     7
370
    25
100
AcDbLine
 10
6238.5402840024
 20
5243.6032280663
 30
0.0
 11
6239.0187553361
 21
5243.3951970516
 31
0.0
  0
LINE
  5
AA
330
1F
100
AcDbEntity
  8
0
  6
Continuous
 62
     7
370
    25
100
AcDbLine
 10
6309.0187553361
 20
5243.3951970516
 30
0.0
 11
6309.4972266698
 21
5243.6032280663
 31
0.0
  0
ARC
  5
AB
330
1F
100
AcDbEntity
  8
0
  6
Continuous
 62
     7
370
    25
100
AcDbCircle
 10
6274.0446895567
 20
5142.6951970516
 30
0.0
 40
40.00000000000055
100
AcDbArc
 50
177.2972950957
 51
216.0526380017
  0
ARC
  5
AC
330
1F
100
AcDbEntity
  8
0
  6
Continuous
 62
     7
370
    25
100
AcDbCircle
 10
6274.0446895567
 20
5142.6951970516
 30
0.0
 40
40.00000000000009
100
AcDbArc
 50
323.8386707996
 51
54.9457599025
  0
ARC
  5
AD
330
1F
100
AcDbEntity
  8
0
  6
Continuous
 62
     7
370
    25
100
AcDbCircle
 10
6274.0446895567
 20
5142.6951970516
 30
0.0
 40
40.00000000000089
100
AcDbArc
 50
125.1450495812
 51
177.2972950957
  0
ARC
  5
AE
330
1F
100
AcDbEntity
  8
0
  6
Continuous
 62
     7
370
    25
100
AcDbCircle
 10
6274.0463449325
 20
5142.6951970516
 30
0.0
 40
39.99999999999984
100
AcDbArc
 50
323.8352055979
 51
54.9486564135
  0
LINE
  5
AF
330
1F
100
AcDbEntity
  8
0
  6
Continuous
 62
     7
370
    25
100
AcDbLine
 10
6240.0187553361
 20
5104.6951970516
 30
0.0
 11
6308.0187553361
 21
5104.6951970516
 31
0.0
  0
LINE
  5
B0
330
1F
100
AcDbEntity
  8
0
  6
Continuous
 62
     7
370
    25
100
AcDbLine
 10
6249.6891029982
 20
5164.6951970516
 30
0.0
 11
6298.348407674
 21
5164.6951970516
 31
0.0
  0
LINE
  5
B1
330
1F
100
AcDbEntity
  8
0
  6
Continuous
 62
     7
370
    25
100
AcDbLine
 10
6249.8969274699
 20
5034.6951970516
 30
0.0
 11
6298.1405832023
 21
5034.6951970516
 31
0.0
  0
LINE
  5
B2
330
1F
100
AcDbEntity
  8
0
  6
Continuous
 62
     7
370
    25
100
AcDbLine
 10
6251.0187553361
 20
5171.1951970516
 30
0.0
 11
6297.0187553361
 21
5171.1951970516
 31
0.0
  0
LINE
  5
B3
330
1F
100
AcDbEntity
  8
0
  6
Continuous
 62
     7
370
    25
100
AcDbLine
 10
6249.0187553361
 20
5167.1951970516
 30
0.0
 11
6299.0187553361
 21
5167.1951970516
 31
0.0
  0
LINE
  5
B4
330
1F
100
AcDbEntity
  8
0
  6
Continuous
 62
     7
370
    25
100
AcDbLine
 10
6254.0187553361
 20
5181.1951970516
 30
0.0
 11
6294.0187553361
 21
5181.1951970516
 31
0.0
  0
LINE
  5
B5
330
1F
100
AcDbEntity
  8
0
  6
Continuous
 62
     7
370
    25
100
AcDbLine
 10
6290.5236110046
 20
5164.6951970516
 30
0.0
 11
6290.0187553361
 21
5165.0649390688
 31
0.0
  0
LINE
  5
B6
330
1F
100
AcDbEntity
  8
0
  6
Continuous
 62
     7
370
    25
100
AcDbLine
 10
6258.0187553361
 20
5165.0579917941
 30
0.0
 11
6257.5236112055
 21
5164.6951970516
 31
0.0
  0
LINE
  5
B7
330
1F
100
AcDbEntity
  8
0
  6
Continuous
 62
     7
370
    25
100
AcDbLine
 10
6273.4327562366
 20
5199.3951970516
 30
0.0
 11
6302.0187553361
 21
5199.3951970516
 31
0.0
  0
LINE
  5
B8
330
1F
100
AcDbEntity
  8
0
  6
Continuous
 62
     7
370
    25
100
AcDbLine
 10
6246.0187553361
 20
5199.3951970516
 30
0.0
 11
6273.4327562366
 21
5199.3951970516
 31
0.0
  0
LINE
  5
B9
330
1F
100
AcDbEntity
  8
0
  6
Continuous
 62
     7
370
    25
100
AcDbLine
 10
6273.3908991581
 20
5203.3951970516
 30
0.0
 11
6304.0187553361
 21
5203.3951970516
 31
0.0
  0
LINE
  5
BA
330
1F
100
AcDbEntity
  8
0
  6
Continuous
 62
     7
370
    25
100
AcDbLine
 10
6244.0187553361
 20
5203.3951970516
 30
0.0
 11
6273.3908991581
 21
5203.3951970516
 31
0.0
  0
LINE
  5
BB
330
1F
100
AcDbEntity
  8
0
  6
Continuous
 62
     7
370
    25
100
AcDbLine
 10
6273.4955418544
 20
5189.3951970516
 30
0.0
 11
6299.0187553361
 21
5189.3951970516
 31
0.0
  0
LINE
  5
BC
330
1F
100
AcDbEntity
  8
0
  6
Continuous
 62
     7
370
    25
100
AcDbLine
 10
6249.0187553361
 20
5189.3951970516
 30
0.0
 11
6273.4955418544
 21
5189.3951970516
 31
0.0
  0
LINE
  5
BD
330
1F
100
AcDbEntity
  8
0
  6
Continuous
 62
     7
370
    25
100
AcDbLine
 10
6239.0187553361
 20
5243.3951970516
 30
0.0
 11
6309.0187553361
 21
5243.3951970516
 31
0.0
  0
LINE
  5
BE
330
1F
100
AcDbEntity
  8
0
  6
Continuous
 62
     7
370
    25
100
AcDbLine
 10
6242.0187553361
 20
5236.3951970516
 30
0.0
 11
6306.0187553361
 21
5236.3951970516
 31
0.0
  0
LINE
  5
BF
330
1F
100
AcDbEntity
  8
0
  6
Continuous
 62
     7
370
    25
100
AcDbLine
 10
6247.5187553361
 20
5230.8951970516
 30
0.0
 11
6300.5187553361
 21
5230.8951970516
 31
0.0
  0
LINE
  5
C0
330
1F
100
AcDbEntity
  8
0
  6
Continuous
 62
     7
370
    25
100
AcDbLine
 10
6244.5187553361
 20
5206.3951970516
 30
0.0
 11
6303.5187553361
 21
5206.3951970516
 31
0.0
  0
LINE
  5
C1
330
1F
100
AcDbEntity
  8
0
  6
Continuous
 62
     7
370
    25
100
AcDbLine
 10
6274.0187553361
 20
5392.7037121338
 30
0.0
 11
6491.0187553361
 21
5392.7037121338
 31
0.0
  0
LINE
  5
C2
330
1F
100
AcDbEntity
  8
0
  6
Continuous
 62
     7
370
    25
100
AcDbLine
 10
6057.0187553361
 20
5392.7037121338
 30
0.0
 11
6274.0187553361
 21
5392.7037121338
 31
0.0
  0
LINE
  5
C3
330
1F
100
AcDbEntity
  8
0
  6
Continuous
 62
     7
370
    25
100
AcDbLine
 10
6274.0187553361
 20
5385.2037121338
 30
0.0
 11
6054.0187553361
 21
5385.2037121338
 31
0.0
  0
LINE
  5
C4
330
1F
100
AcDbEntity
  8
0
  6
Continuous
 62
     7
370
    25
100
AcDbLine
 10
6494.0187553361
 20
5385.2037121338
 30
0.0
 11
6274.0187553361
 21
5385.2037121338
 31
0.0
  0
LINE
  5
C5
330
1F
100
AcDbEntity
  8
0
  6
Continuous
 62
     8
370
    25
100
AcDbLine
 10
6246.912541056
 20
5037.3895211903
 30
0.0
 11
6301.1249696162
 21
5037.3895211903
 31
0.0
  0
LINE
  5
C6
330
1F
100
AcDbEntity
  8
0
  6
Continuous
 62
     8
370
    25
100
AcDbLine
 10
6301.3281970913
 20
5162.0428391503
 30
0.0
 11
6246.7093135809
 21
5162.0428391503
 31
0.0
  0
LINE
  5
C7
330
1F
100
AcDbEntity
  8
0
  6
Continuous
 62
     8
370
    25
100
AcDbLine
 10
6251.0187553361
 20
5178.1951970516
 30
0.0
 11
6297.0187553361
 21
5178.1951970516
 31
0.0
  0
LINE
  5
C8
330
1F
100
AcDbEntity
  8
0
  6
Continuous
 62
     8
370
    25
100
AcDbLine
 10
6273.4327562366
 20
5192.3951970516
 30
0.0
 11
6302.0187553361
 21
5192.3951970516
 31
0.0
  0
LINE
  5
C9
330
1F
100
AcDbEntity
  8
0
  6
Continuous
 62
     8
370
    25
100
AcDbLine
 10
6246.0187553361
 20
5192.3951970516
 30
0.0
 11
6273.4327562366
 21
5192.3951970516
 31
0.0
  0
LINE
  5
CA
330
1F
100
AcDbEntity
  8
0
  6
Continuous
 62
     8
370
    25
100
AcDbLine
 10
6274.0187553361
 20
5389.7037121338
 30
0.0
 11
6054.0187553361
 21
5389.7037121338
 31
0.0
  0
LINE
  5
CB
330
1F
100
AcDbEntity
  8
0
  6
Continuous
 62
     8
370
    25
100
AcDbLine
 10
6494.0187553361
 20
5389.7037121338
 30
0.0
 11
6274.0187553361
 21
5389.7037121338
 31
0.0
  0
LINE
  5
CC
330
1F
100
AcDbEntity
  8
0
  6
Continuous
 62
     8
370
    25
100
AcDbLine
 10
6310.0544065021
 20
5243.795626527
 30
0.0
 11
6237.9831041701
 21
5243.795626527
 31
0.0
  0
LINE
  5
CD
330
1F
100
AcDbEntity
  8
0
  6
Continuous
 62
     8
370
    25
100
AcDbLine
 10
6309.4972266698
 20
5243.6032280663
 30
0.0
 11
6238.5402840024
 21
5243.6032280663
 31
0.0
  0
SPLINE
  5
CE
330
1F
100
AcDbEntity
  8
0
  6
Continuous
 62
     7
370
    25
100
AcDbSpline
210
0.0
220
0.0
230
1.0
 70
     8
 71
     3
 72
    23
 73
    19
 74
     0
 42
0.000000001
 43
0.00000001
 40
0.0
 40
0.0
 40
0.0
 40
0.0
 40
0.0058175819900486
 40
0.0249688862610862
 40
0.0629029253109831
 40
0.1392565396442565
 40
0.1939188978565152
 40
0.2670252877335653
 40
0.3327445178527022
 40
0.4007319581479121
 40
0.4721151779059774
 40
0.5454965075892161
 40
0.6201540350752234
 40
0.6956395117552908
 40
0.7716710400894946
 40
0.8480637938236607
 40
0.9246901752578054
 40
1.0
 40
1.0
 40
1.0
 40
1.0
 10
6918.79629252102
 20
5163.083688801661
 30
0.0
 10
6918.795195524131
 20
5163.141359606961
 30
0.0
 10
6918.790487246603
 20
5163.388880962153
 30
0.0
 10
6918.76117643737
 20
5164.047534949208
 30
0.0
 10
6918.64219287835
 20
5165.415274945801
 30
0.0
 10
6918.335366862332
 20
5167.14307334758
 30
0.0
 10
6917.757056499517
 20
5169.173498157179
 30
0.0
 10
6917.019957022419
 20
5171.038096296728
 30
0.0
 10
6916.023154259734
 20
5172.93322024816
 30
0.0
 10
6914.845195028392
 20
5174.700625467776
 30
0.0
 10
6913.43228875851
 20
5176.391784518519
 30
0.0
 10
6911.788626857779
 20
5177.961851771171
 30
0.0
 10
6909.941858982728
 20
5179.359116526949
 30
0.0
 10
6907.921466460941
 20
5180.545782111673
 30
0.0
 10
6905.759305070124
 20
5181.49648197221
 30
0.0
 10
6903.488816743954
 20
5182.181860451093
 30
0.0
 10
6901.160150248405
 20
5182.618666029493
 30
0.0
 10
6899.588040399261
 20
5182.660052575021
 30
0.0
 10
6898.808796793051
 20
5182.680566536564
 30
0.0
  0
SPLINE
  5
CF
330
1F
100
AcDbEntity
  8
0
  6
Continuous
 62
     7
370
    25
100
AcDbSpline
210
0.0
220
0.0
230
1.0
 70
     8
 71
     3
 72
    27
 73
    23
 74
     0
 42
0.000000001
 43
0.00000001
 40
0.0
 40
0.0
 40
0.0
 40
0.0
 40
0.0110887557278817
 40
0.091431559996836
 40
0.1693082022249603
 40
0.2449258796494291
 40
0.3183968316185016
 40
0.3897605815677931
 40
0.4589955627814389
 40
0.526022439859871
 40
0.5907012818913291
 40
0.6528231023182488
 40
0.7120953136983967
 40
0.7681200366170247
 40
0.8203641482314239
 40
0.8681214846564568
 40
0.9104736622112259
 40
0.9462724166518454
 40
0.9741773093384573
 40
0.9923355514028308
 40
0.9997577363539374
 40
1.0
 40
1.0
 40
1.0
 40
1.0
 10
6898.793805316183
 20
5102.714532387997
 30
0.0
 10
6898.90884475261
 20
5102.708242585265
 30
0.0
 10
6899.857394381776
 20
5102.656380456639
 30
0.0
 10
6901.616994629285
 20
5102.862180383905
 30
0.0
 10
6904.001167230818
 20
5103.328883167989
 30
0.0
 10
6906.242453352505
 20
5104.084004572574
 30
0.0
 10
6908.319895877456
 20
5105.057292495122
 30
0.0
 10
6910.217535114187
 20
5106.22541394261
 30
0.0
 10
6911.922925249639
 20
5107.552210327407
 30
0.0
 10
6913.427803805657
 20
5109.003955845255
 30
0.0
 10
6914.728119072844
 20
5110.545457086527
 30
0.0
 10
6915.824176564152
 20
5112.141017979694
 30
0.0
 10
6916.720746862433
 20
5113.754073162851
 30
0.0
 10
6917.427199622579
 20
5115.346864791761
 30
0.0
 10
6917.957673630408
 20
5116.880233983327
 30
0.0
 10
6918.331217661178
 20
5118.311954334149
 30
0.0
 10
6918.571921824583
 20
5119.599476176139
 30
0.0
 10
6918.708226289108
 20
5120.690022436896
 30
0.0
 10
6918.771669274928
 20
5121.54611162911
 30
0.0
 10
6918.792671201209
 20
5122.085203322764
 30
0.0
 10
6918.798074799722
 20
5122.368679702958
 30
0.0
 10
6918.798746863647
 20
5122.428316586276
 30
0.0
 10
6918.798768106747
 20
5122.430201633662
 30
0.0
  0
LINE
  5
D0
330
1F
100
AcDbEntity
  8
0
  6
Continuous
 62
     7
370
    25
100
AcDbLine
 10
6898.8005261678
 20
5182.6951970516
 30
0.0
 11
6883.8005262592
 21
5182.6951970516
 31
0.0
  0
LINE
  5
D1
330
1F
100
AcDbEntity
  8
0
  6
Continuous
 62
     7
370
    25
100
AcDbLine
 10
6883.8005262592
 20
5102.6951970516
 30
0.0
 11
6898.8005261678
 21
5102.6951970516
 31
0.0
  0
LINE
  5
D2
330
1F
100
AcDbEntity
  8
0
  6
Continuous
 62
     7
370
    25
100
AcDbLine
 10
7073.7992716718
 20
5162.6951970516
 30
0.0
 11
6918.800526046
 21
5162.6951970516
 31
0.0
  0
LINE
  5
D3
330
1F
100
AcDbEntity
  8
0
  6
Continuous
 62
     7
370
    25
100
AcDbLine
 10
6918.800526046
 20
5122.6951970516
 30
0.0
 11
7073.7992716718
 21
5122.6951970516
 31
0.0
  0
LINE
  5
D4
330
1F
100
AcDbEntity
  8
0
  6
Continuous
 62
     7
370
    25
100
AcDbLine
 10
6883.7967033325
 20
5162.6951970516
 30
0.0
 11
6873.80052632
 21
5162.6951970516
 31
0.0
  0
LINE
  5
D5
330
1F
100
AcDbEntity
  8
0
  6
Continuous
 62
     7
370
    25
100
AcDbLine
 10
6873.80052632
 20
5122.6951970516
 30
0.0
 11
6883.7967033325
 21
5122.6951970516
 31
0.0
  0
LINE
  5
D6
330
1F
100
AcDbEntity
  8
0
  6
Continuous
 62
     7
370
    25
100
AcDbLine
 10
7167.8005247368
 20
5104.6951970516
 30
0.0
 11
7161.1099664919
 21
5162.0428391503
 31
0.0
  0
LINE
  5
D7
330
1F
100
AcDbEntity
  8
0
  6
Continuous
 62
     7
370
    25
100
AcDbLine
 10
7101.6716055443
 20
5120.7330325447
 30
0.0
 11
7099.8005247368
 21
5104.6951970516
 31
0.0
  0
LINE
  5
D8
330
1F
100
AcDbEntity
  8
0
  6
Continuous
 62
     7
370
    25
100
AcDbLine
 10
7099.8005247368
 20
5104.6951970516
 30
0.0
 11
7106.6943104566
 21
5037.3895211903
 31
0.0
  0
LINE
  5
D9
330
1F
100
AcDbEntity
  8
0
  6
Continuous
 62
     7
370
    25
100
AcDbLine
 10
7160.9067390169
 20
5037.3895211903
 30
0.0
 11
7167.8005247368
 21
5104.6951970516
 31
0.0
  0
LINE
  5
DA
330
1F
100
AcDbEntity
  8
0
  6
Continuous
 62
     7
370
    25
100
AcDbLine
 10
7089.8005248791
 20
5170.1951970281
 30
0.0
 11
7085.8005249103
 21
5168.6951970294
 31
0.0
  0
LINE
  5
DB
330
1F
100
AcDbEntity
  8
0
  6
Continuous
 62
     7
370
    25
100
AcDbLine
 10
7085.8005249103
 20
5116.6951970739
 30
0.0
 11
7089.8005248791
 21
5115.1951970752
 31
0.0
  0
ARC
  5
DC
330
1F
100
AcDbEntity
  8
0
  6
Continuous
 62
     7
370
    25
100
AcDbCircle
 10
7158.1301770747
 20
5161.6951970516
 30
0.0
 40
3.0
100
AcDbArc
 50
6.654425046
 51
90.0
  0
ARC
  5
DD
330
1F
100
AcDbEntity
  8
0
  6
Continuous
 62
     7
370
    25
100
AcDbCircle
 10
7109.6786968706
 20
5037.6951970516
 30
0.0
 40
3.0
100
AcDbArc
 50
185.8481280262
 51
270.0
  0
ARC
  5
DE
330
1F
100
AcDbEntity
  8
0
  6
Continuous
 62
     7
370
    25
100
AcDbCircle
 10
7157.922352603
 20
5037.6951970516
 30
0.0
 40
3.000000000000424
100
AcDbArc
 50
270.0
 51
354.1518719738
  0
LINE
  5
DF
330
1F
100
AcDbEntity
  8
0
  6
Continuous
 62
     7
370
    25
100
AcDbLine
 10
7085.8005250291
 20
5168.6951970516
 30
0.0
 11
7076.8005250839
 21
5168.6951970516
 31
0.0
  0
LINE
  5
E0
330
1F
100
AcDbEntity
  8
0
  6
Continuous
 62
     7
370
    25
100
AcDbLine
 10
7076.8005250839
 20
5116.6951970516
 30
0.0
 11
7085.8005250291
 21
5116.6951970516
 31
0.0
  0
SPLINE
  5
E1
330
1F
100
AcDbEntity
  8
0
  6
Continuous
 62
     7
370
    25
100
AcDbSpline
210
0.0
220
0.0
230
1.0
 70
     8
 71
     3
 72
    14
 73
    10
 74
     0
 42
0.000000001
 43
0.00000001
 40
0.0
 40
0.0
 40
0.0
 40
0.0
 40
0.0531329499994908
 40
0.1533622122520859
 40
0.3234364641131863
 40
0.503768225741543
 40
0.685866816868944
 40
0.8898625253530386
 40
1.0
 40
1.0
 40
1.0
 40
1.0
 10
7073.819009845347
 20
5119.397264064499
 30
0.0
 10
7073.827131496243
 20
5119.319914570435
 30
0.0
 10
7073.850573717095
 20
5119.096654060215
 30
0.0
 10
7073.974393949215
 20
5118.635658648808
 30
0.0
 10
7074.261846213534
 20
5118.034134010823
 30
0.0
 10
7074.776369980641
 20
5117.431059069744
 30
0.0
 10
7075.471428991903
 20
5116.968018672116
 30
0.0
 10
7076.174554299745
 20
5116.706851912828
 30
0.0
 10
7076.637409749064
 20
5116.724795110353
 30
0.0
 10
7076.799690377321
 20
5116.731086131386
 30
0.0
  0
SPLINE
  5
E2
330
1F
100
AcDbEntity
  8
0
  6
Continuous
 62
     7
370
    25
100
AcDbSpline
210
0.0
220
0.0
230
1.0
 70
     8
 71
     3
 72
    16
 73
    12
 74
     0
 42
0.000000001
 43
0.00000001
 40
0.0
 40
0.0
 40
0.0
 40
0.0
 40
0.0427657806252831
 40
0.2492196233332201
 40
0.4218905277987917
 40
0.5718300989353999
 40
0.702297334536015
 40
0.8133613154449715
 40
0.903577601340995
 40
0.9707331921903276
 40
1.0
 40
1.0
 40
1.0
 40
1.0
 10
7076.810046012817
 20
5168.67155009077
 30
0.0
 10
7076.745776563441
 20
5168.679105492775
 30
0.0
 10
7076.371243286343
 20
5168.723134957789
 30
0.0
 10
7075.735849880955
 20
5168.531781864225
 30
0.0
 10
7075.029971192116
 20
5168.156649258913
 30
0.0
 10
7074.524489345157
 20
5167.683571389753
 30
0.0
 10
7074.184033684822
 20
5167.196786128537
 30
0.0
 10
7073.975169618679
 20
5166.738427713288
 30
0.0
 10
7073.86573555533
 20
5166.348043374514
 30
0.0
 10
7073.819547046803
 20
5166.067618332799
 30
0.0
 10
7073.810340039529
 20
5165.925081047906
 30
0.0
 10
7073.807545463621
 20
5165.881817123955
 30
0.0
  0
LINE
  5
E3
330
1F
100
AcDbEntity
  8
0
  6
Continuous
 62
     7
370
    25
100
AcDbLine
 10
7158.8005247368
 20
5167.1951970516
 30
0.0
 11
7156.8005247368
 21
5171.1951970516
 31
0.0
  0
LINE
  5
E4
330
1F
100
AcDbEntity
  8
0
  6
Continuous
 62
     7
370
    25
100
AcDbLine
 10
7110.8005247368
 20
5171.1951970516
 30
0.0
 11
7108.8005247368
 21
5167.1951970516
 31
0.0
  0
ARC
  5
E5
330
1F
100
AcDbEntity
  8
0
  6
Continuous
 62
     7
370
    25
100
AcDbCircle
 10
7113.8005247368
 20
5178.1951970516
 30
0.0
 40
3.000000000000909
100
AcDbArc
 50
90.0
 51
180.0
  0
ARC
  5
E6
330
1F
100
AcDbEntity
  8
0
  6
Continuous
 62
     7
370
    25
100
AcDbCircle
 10
7153.8005247368
 20
5178.1951970516
 30
0.0
 40
3.0
100
AcDbArc
 50
0.0
 51
90.0
  0
LINE
  5
E7
330
1F
100
AcDbEntity
  8
0
  6
Continuous
 62
     7
370
    25
100
AcDbLine
 10
7110.8005247368
 20
5178.1951970516
 30
0.0
 11
7110.8005247368
 21
5171.1951970516
 31
0.0
  0
LINE
  5
E8
330
1F
100
AcDbEntity
  8
0
  6
Continuous
 62
     7
370
    25
100
AcDbLine
 10
7156.8005247368
 20
5171.1951970516
 30
0.0
 11
7156.8005247368
 21
5178.1951970516
 31
0.0
  0
LINE
  5
E9
330
1F
100
AcDbEntity
  8
0
  6
Continuous
 62
     7
370
    25
100
AcDbLine
 10
7089.8005250047
 20
5120.6951970516
 30
0.0
 11
7101.6953700941
 21
5120.6951970516
 31
0.0
  0
LINE
  5
EA
330
1F
100
AcDbEntity
  8
0
  6
Continuous
 62
     7
370
    25
100
AcDbLine
 10
7106.8005249012
 20
5164.6951970516
 30
0.0
 11
7089.8005250047
 21
5164.6951970516
 31
0.0
  0
LINE
  5
EB
330
1F
100
AcDbEntity
  8
0
  6
Continuous
 62
     7
370
    25
100
AcDbLine
 10
7117.8005247368
 20
5167.1951970516
 30
0.0
 11
7117.8005247368
 21
5164.6951970516
 31
0.0
  0
LINE
  5
EC
330
1F
100
AcDbEntity
  8
0
  6
Continuous
 62
     7
370
    25
100
AcDbLine
 10
7149.8005247368
 20
5164.6951970516
 30
0.0
 11
7149.8005247368
 21
5167.1951970516
 31
0.0
  0
LINE
  5
ED
330
1F
100
AcDbEntity
  8
0
  6
Continuous
 62
     7
370
    25
100
AcDbLine
 10
7103.8005247368
 20
5203.3951970516
 30
0.0
 11
7105.8005247368
 21
5199.3951970516
 31
0.0
  0
LINE
  5
EE
330
1F
100
AcDbEntity
  8
0
  6
Continuous
 62
     7
370
    25
100
AcDbLine
 10
7161.8005247368
 20
5199.3951970516
 30
0.0
 11
7163.8005247368
 21
5203.3951970516
 31
0.0
  0
LINE
  5
EF
330
1F
100
AcDbEntity
  8
0
  6
Continuous
 62
     7
370
    25
100
AcDbLine
 10
7105.8005247368
 20
5199.3951970516
 30
0.0
 11
7105.8005247368
 21
5192.3951970516
 31
0.0
  0
LINE
  5
F0
330
1F
100
AcDbEntity
  8
0
  6
Continuous
 62
     7
370
    25
100
AcDbLine
 10
7161.8005247368
 20
5192.3951970516
 30
0.0
 11
7161.8005247368
 21
5199.3951970516
 31
0.0
  0
ARC
  5
F1
330
1F
100
AcDbEntity
  8
0
  6
Continuous
 62
     7
370
    25
100
AcDbCircle
 10
7108.8005247368
 20
5192.3951970516
 30
0.0
 40
3.0
100
AcDbArc
 50
180.0
 51
270.0
  0
ARC
  5
F2
330
1F
100
AcDbEntity
  8
0
  6
Continuous
 62
     7
370
    25
100
AcDbCircle
 10
7158.8005247368
 20
5192.3951970516
 30
0.0
 40
3.000000000000909
100
AcDbArc
 50
270.0
 51
0.0
  0
LINE
  5
F3
330
1F
100
AcDbEntity
  8
0
  6
Continuous
 62
     7
370
    25
100
AcDbLine
 10
7117.8005247368
 20
5189.3951970516
 30
0.0
 11
7117.8005247368
 21
5181.1951970516
 31
0.0
  0
LINE
  5
F4
330
1F
100
AcDbEntity
  8
0
  6
Continuous
 62
     7
370
    25
100
AcDbLine
 10
7117.8005247368
 20
5167.1951970516
 30
0.0
 11
7117.8005247368
 21
5164.6951970516
 31
0.0
  0
LINE
  5
F5
330
1F
100
AcDbEntity
  8
0
  6
Continuous
 62
     7
370
    25
100
AcDbLine
 10
7149.8005247368
 20
5164.6951970516
 30
0.0
 11
7149.8005247368
 21
5167.1951970516
 31
0.0
  0
LINE
  5
F6
330
1F
100
AcDbEntity
  8
0
  6
Continuous
 62
     7
370
    25
100
AcDbLine
 10
7149.8005247368
 20
5181.1951970516
 30
0.0
 11
7149.8005247368
 21
5189.3951970516
 31
0.0
  0
LINE
  5
F7
330
1F
100
AcDbEntity
  8
0
  6
Continuous
 62
     7
370
    25
100
AcDbLine
 10
7098.8005247368
 20
5243.3951970516
 30
0.0
 11
7101.8005247368
 21
5236.3951970516
 31
0.0
  0
LINE
  5
F8
330
1F
100
AcDbEntity
  8
0
  6
Continuous
 62
     7
370
    25
100
AcDbLine
 10
7165.8005247368
 20
5236.3951970516
 30
0.0
 11
7168.8005247368
 21
5243.3951970516
 31
0.0
  0
LINE
  5
F9
330
1F
100
AcDbEntity
  8
0
  6
Continuous
 62
     7
370
    25
100
AcDbLine
 10
7101.8005247368
 20
5236.3951970516
 30
0.0
 11
7106.3114856623
 21
5231.8842361261
 31
0.0
  0
LINE
  5
FA
330
1F
100
AcDbEntity
  8
0
  6
Continuous
 62
     7
370
    25
100
AcDbLine
 10
7160.3005247368
 20
5230.8951970516
 30
0.0
 11
7165.8005247368
 21
5236.3951970516
 31
0.0
  0
LINE
  5
FB
330
1F
100
AcDbEntity
  8
0
  6
Continuous
 62
     7
370
    25
100
AcDbLine
 10
7104.3005247368
 20
5206.3951970516
 30
0.0
 11
7104.3005247368
 21
5203.3951970516
 31
0.0
  0
LINE
  5
FC
330
1F
100
AcDbEntity
  8
0
  6
Continuous
 62
     7
370
    25
100
AcDbLine
 10
7163.3005247368
 20
5203.3951970516
 30
0.0
 11
7163.3005247368
 21
5206.3951970516
 31
0.0
  0
LINE
  5
FD
330
1F
100
AcDbEntity
  8
0
  6
Continuous
 62
     7
370
    25
100
AcDbLine
 10
7107.3005247368
 20
5206.9331627643
 30
0.0
 11
7107.3005247368
 21
5206.3951970516
 31
0.0
  0
LINE
  5
FE
330
1F
100
AcDbEntity
  8
0
  6
Continuous
 62
     7
370
    25
100
AcDbLine
 10
7160.3005247368
 20
5206.3951970516
 30
0.0
 11
7160.3005247368
 21
5230.8951970516
 31
0.0
  0
LINE
  5
FF
330
1F
100
AcDbEntity
  8
0
  6
Continuous
 62
     7
370
    25
100
AcDbLine
 10
6971.29870287
 20
5338.6405752094
 30
0.0
 11
6973.3095195779
 21
5339.5316465218
 31
0.0
  0
LINE
  5
100
330
1F
100
AcDbEntity
  8
0
  6
Continuous
 62
     7
370
    25
100
AcDbLine
 10
6956.5799399796
 20
5378.0572130492
 30
0.0
 11
6954.2827562253
 21
5377.0392413292
 31
0.0
  0
LINE
  5
101
330
1F
100
AcDbEntity
  8
0
  6
Continuous
 62
     7
370
    25
100
AcDbLine
 10
6954.2827562253
 20
5377.0392413292
 30
0.0
 11
6954.1268000528
 21
5373.6887670834
 31
0.0
  0
LINE
  5
102
330
1F
100
AcDbEntity
  8
0
  6
Continuous
 62
     7
370
    25
100
AcDbLine
 10
6968.7118971769
 20
5340.7756246949
 30
0.0
 11
6971.29870287
 21
5338.6405752094
 31
0.0
  0
LINE
  5
103
330
1F
100
AcDbEntity
  8
0
  6
Continuous
 62
     7
370
    25
100
AcDbLine
 10
6966.4262622888
 20
5339.762770728
 30
0.0
 11
6968.7118971769
 21
5340.7756246949
 31
0.0
  0
LINE
  5
104
330
1F
100
AcDbEntity
  8
0
  6
Continuous
 62
     7
370
    25
100
AcDbLine
 10
6954.1268000528
 20
5373.6887670834
 30
0.0
 11
6948.4584255303
 21
5371.1768892453
 31
0.0
  0
LINE
  5
105
330
1F
100
AcDbEntity
  8
0
  6
Continuous
 62
     7
370
    25
100
AcDbLine
 10
6954.3115362275
 20
5310.3309272169
 30
0.0
 11
6988.9447316393
 21
5232.1766796135
 31
0.0
  0
LINE
  5
106
330
1F
100
AcDbEntity
  8
0
  6
Continuous
 62
     7
370
    25
100
AcDbLine
 10
7011.8010805202
 20
5242.305219283
 30
0.0
 11
6977.1678851084
 21
5320.4594668864
 31
0.0
  0
ARC
  5
107
330
1F
100
AcDbEntity
  8
0
  6
Continuous
 62
     7
370
    25
100
AcDbCircle
 10
7027.8005247368
 20
5249.3951970516
 30
0.0
 40
17.5
100
AcDbArc
 50
203.9
 51
270.0
  0
ARC
  5
108
330
1F
100
AcDbEntity
  8
0
  6
Continuous
 62
     7
370
    25
100
AcDbCircle
 10
7027.8005247368
 20
5249.3951970516
 30
0.0
 40
42.5
100
AcDbArc
 50
203.9
 51
270.0
  0
LINE
  5
109
330
1F
100
AcDbEntity
  8
0
  6
Continuous
 62
     7
370
    25
100
AcDbLine
 10
7106.3134183865
 20
5231.8951970516
 30
0.0
 11
7027.8005247368
 21
5231.8951970516
 31
0.0
  0
LINE
  5
10A
330
1F
100
AcDbEntity
  8
0
  6
Continuous
 62
     7
370
    25
100
AcDbLine
 10
7027.8005247368
 20
5206.8951970516
 30
0.0
 11
7107.3184116696
 21
5206.8951970516
 31
0.0
  0
LINE
  5
10B
330
1F
100
AcDbEntity
  8
0
  6
Continuous
 62
     7
370
    25
100
AcDbLine
 10
6975.3393771979
 20
5319.6491837128
 30
0.0
 11
6966.4262622888
 21
5339.762770728
 31
0.0
  0
LINE
  5
10C
330
1F
100
AcDbEntity
  8
0
  6
Continuous
 62
     7
370
    25
100
AcDbLine
 10
6947.2269292289
 20
5331.2547974056
 30
0.0
 11
6956.140044138
 21
5311.1412103905
 31
0.0
  0
ARC
  5
10D
330
1F
100
AcDbEntity
  8
0
  6
Continuous
 62
     7
370
    25
100
AcDbCircle
 10
6896.8005247368
 20
5389.7037121338
 30
0.0
 40
3.0
100
AcDbArc
 50
90.0
 51
180.0
  0
ARC
  5
10E
330
1F
100
AcDbEntity
  8
0
  6
Continuous
 62
     7
370
    25
100
AcDbCircle
 10
7330.8005247368
 20
5389.7037121338
 30
0.0
 40
3.0
100
AcDbArc
 50
0.0
 51
90.0
  0
LINE
  5
10F
330
1F
100
AcDbEntity
  8
0
  6
Continuous
 62
     7
370
    25
100
AcDbLine
 10
6893.8005247368
 20
5389.7037121338
 30
0.0
 11
6893.8005247368
 21
5385.2037121338
 31
0.0
  0
LINE
  5
110
330
1F
100
AcDbEntity
  8
0
  6
Continuous
 62
     7
370
    25
100
AcDbLine
 10
7333.8005247368
 20
5385.2037121338
 30
0.0
 11
7333.8005247368
 21
5389.7037121338
 31
0.0
  0
ARC
  5
111
330
1F
100
AcDbEntity
  8
0
  6
Continuous
 62
     7
370
    25
100
AcDbCircle
 10
7148.4873613305
 20
5438.497114029
 30
0.0
 40
201.2000000000003
100
AcDbArc
 50
209.4639656963
 51
255.3981952538
  0
ARC
  5
112
330
1F
100
AcDbEntity
  8
0
  6
Continuous
 62
     7
370
    25
100
AcDbCircle
 10
7148.4873613305
 20
5438.497114029
 30
0.0
 40
201.1999999999998
100
AcDbArc
 50
195.3596883968
 51
197.4814567554
  0
ARC
  5
113
330
1F
100
AcDbEntity
  8
0
  6
Continuous
 62
     7
370
    25
100
AcDbCircle
 10
7119.1136881431
 20
5438.497114029
 30
0.0
 40
201.2000000000005
100
AcDbArc
 50
284.6018047462
 51
344.6403116032
  0
ARC
  5
114
330
1F
100
AcDbEntity
  8
0
  6
Continuous
 62
     7
370
    25
100
AcDbCircle
 10
7170.7941552939
 20
5240.1183618525
 30
0.0
 40
3.800000000000225
100
AcDbArc
 50
104.6018047462
 51
113.498565676
  0
ARC
  5
115
330
1F
100
AcDbEntity
  8
0
  6
Continuous
 62
     7
370
    25
100
AcDbCircle
 10
7096.8068941797
 20
5240.1183618525
 30
0.0
 40
3.800000000000225
100
AcDbArc
 50
66.5014343241
 51
75.3981952538
  0
LINE
  5
116
330
1F
100
AcDbEntity
  8
0
  6
Continuous
 62
     7
370
    25
100
AcDbLine
 10
7098.3220534031
 20
5243.6032280663
 30
0.0
 11
7098.8005247368
 21
5243.3951970516
 31
0.0
  0
LINE
  5
117
330
1F
100
AcDbEntity
  8
0
  6
Continuous
 62
     7
370
    25
100
AcDbLine
 10
7168.8005247368
 20
5243.3951970516
 30
0.0
 11
7169.2789960705
 21
5243.6032280663
 31
0.0
  0
LWPOLYLINE
  5
118
330
1F
100
AcDbEntity
  8
0
  6
Continuous
 62
     7
370
    25
100
AcDbPolyline
 90
       14
 70
   128
 43
0.0
 10
6918.7983213334
 20
5143.6382666292
 10
6918.7983271331
 20
5140.967078191
 10
6918.7983721724
 20
5138.3267280748
 10
6918.7984556476
 20
5135.764333391
 10
6918.7985760692
 20
5133.3256201334
 10
6918.7987312881
 20
5131.0541071979
 10
6918.7989185345
 20
5128.9903297866
 10
6918.799134467
 20
5127.1711160563
 10
6918.7993752323
 20
5125.6289299191
 10
6918.7996365338
 20
5124.3912917233
 10
6918.7999137087
 20
5123.4802871516
 10
6918.8002018108
 20
5122.9121731023
 10
6918.8004956989
 20
5122.6970875841
 10
6918.8005173925
 20
5122.6953507684
  0
LWPOLYLINE
  5
119
330
1F
100
AcDbEntity
  8
0
  6
Continuous
 62
     7
370
    25
100
AcDbPolyline
 90
       13
 70
   128
 43
0.0
 10
6918.8005168243
 20
5162.6950224886
 10
6918.8004089167
 20
5162.6670154042
 10
6918.8001161897
 20
5162.347352014
 10
6918.7998307766
 20
5161.676995453
 10
6918.7995577705
 20
5160.6679082499
 10
6918.7993020434
 20
5159.3380975896
 10
6918.7990681586
 20
5157.7112939749
 10
6918.7988602898
 20
5155.816527755
 10
6918.7986821465
 20
5153.6876110777
 10
6918.7985369076
 20
5151.3625345118
 10
6918.798427165
 20
5148.8827891035
 10
6918.7983548769
 20
5146.2926259685
 10
6918.7983213334
 20
5143.6382666292
  0
LWPOLYLINE
  5
11A
330
1F
100
AcDbEntity
  8
0
  6
Continuous
 62
     7
370
    25
100
AcDbPolyline
 90
       19
 70
   128
 43
0.0
 10
6883.796116834
 20
5144.5813362068
 10
6883.7961167175
 20
5140.8315553578
 10
6883.7961553522
 20
5137.0981522591
 10
6883.7962323986
 20
5133.4139361912
 10
6883.7963471796
 20
5129.8112841774
 10
6883.7964986865
 20
5126.3218564533
 10
6883.7966855878
 20
5122.9763182351
 10
6883.7969062412
 20
5119.8040702329
 10
6883.7971587073
 20
5116.8329902763
 10
6883.7974407676
 20
5114.0891883227
 10
6883.7977499434
 20
5111.5967770024
 10
6883.7980835175
 20
5109.3776597157
 10
6883.7984385585
 20
5107.451338145
 10
6883.7988119463
 20
5105.8347408737
 10
6883.7992003995
 20
5104.5420746166
 10
6883.7996005044
 20
5103.5846993713
 10
6883.8000087449
 20
5102.9710285859
 10
6883.8004215334
 20
5102.7064552213
 10
6883.8005262592
 20
5102.6951970516
  0
LWPOLYLINE
  5
11B
330
1F
100
AcDbEntity
  8
0
  6
Continuous
 62
     7
370
    25
100
AcDbPolyline
 90
       18
 70
   128
 43
0.0
 10
6883.8005262592
 20
5182.6951970516
 10
6883.8004240182
 20
5182.6844668607
 10
6883.8000112134
 20
5182.4219996104
 10
6883.7996029348
 20
5181.8104117908
 10
6883.7992027705
 20
5180.8550780576
 10
6883.798814237
 20
5179.564393918
 10
6883.7984407488
 20
5177.9497019508
 10
6883.7980855881
 20
5176.0251921268
 10
6883.7977518762
 20
5173.8077771077
 10
6883.7974425456
 20
5171.3169436164
 10
6883.7971603149
 20
5168.5745811872
 10
6883.7969076641
 20
5165.6047897996
 10
6883.7966868137
 20
5162.4336680872
 10
6883.7964997045
 20
5159.0890839817
 10
6883.7963479808
 20
5155.6004298083
 10
6883.796232976
 20
5151.9983639855
 10
6883.7961557007
 20
5148.3145415971
 10
6883.796116834
 20
5144.5813362068
  0
LWPOLYLINE
  5
11C
330
1F
100
AcDbEntity
  8
0
  6
Continuous
 62
     7
370
    25
100
AcDbPolyline
 90
       14
 70
   128
 43
0.0
 10
6873.7983216075
 20
5143.6382666292
 10
6873.7983274071
 20
5140.967078191
 10
6873.7983724464
 20
5138.3267280748
 10
6873.7984559216
 20
5135.764333391
 10
6873.7985763432
 20
5133.3256201334
 10
6873.7987315621
 20
5131.0541071979
 10
6873.7989188085
 20
5128.9903297866
 10
6873.799134741
 20
5127.1711160563
 10
6873.7993755063
 20
5125.6289299191
 10
6873.7996368078
 20
5124.3912917233
 10
6873.7999139828
 20
5123.4802871516
 10
6873.8002020849
 20
5122.9121731023
 10
6873.800495973
 20
5122.6970875841
 10
6873.80052632
 20
5122.6951970516
  0
LWPOLYLINE
  5
11D
330
1F
100
AcDbEntity
  8
0
  6
Continuous
 62
     7
370
    25
100
AcDbPolyline
 90
       13
 70
   128
 43
0.0
 10
6873.80052632
 20
5162.6951970516
 10
6873.8004091908
 20
5162.6670154042
 10
6873.8001164637
 20
5162.347352014
 10
6873.7998310506
 20
5161.676995453
 10
6873.7995580445
 20
5160.6679082499
 10
6873.7993023174
 20
5159.3380975896
 10
6873.7990684326
 20
5157.7112939749
 10
6873.7988605638
 20
5155.816527755
 10
6873.7986824205
 20
5153.6876110777
 10
6873.7985371817
 20
5151.3625345118
 10
6873.798427439
 20
5148.8827891035
 10
6873.798355151
 20
5146.2926259685
 10
6873.7983216075
 20
5143.6382666292
  0
SPLINE
  5
11E
330
1F
100
AcDbEntity
  8
0
  6
Continuous
 62
     7
370
    25
100
AcDbSpline
210
0.0
220
0.0
230
1.0
 70
     8
 71
     3
 72
    26
 73
    22
 74
     0
 42
0.000000001
 43
0.00000001
 40
0.0
 40
0.0
 40
0.0
 40
0.0
 40
0.0518180051599343
 40
0.111387230484442
 40
0.1722916700338583
 40
0.2247017248036645
 40
0.2783752544458678
 40
0.3194365240598568
 40
0.361642316196423
 40
0.4027301859686781
 40
0.4449748237585139
 40
0.5015346440870948
 40
0.5596735324694222
 40
0.6344526957217357
 40
0.7113887293615091
 40
0.7734357340788611
 40
0.8371113554579465
 40
0.8877665172644477
 40
0.9398020969166568
 40
0.9905091605147969
 40
0.9999999999999999
 40
0.9999999999999999
 40
0.9999999999999999
 40
0.9999999999999999
 10
7108.577615405594
 20
5162.042839150322
 30
0.0
 10
7108.904632820122
 20
5161.524819232795
 30
0.0
 10
7109.607584699726
 20
5160.411291149824
 30
0.0
 10
7110.866886559774
 20
5158.217195938655
 30
0.0
 10
7112.128552057194
 20
5155.68139405049
 30
0.0
 10
7113.227787238101
 20
5152.908727927045
 30
0.0
 10
7113.969880987884
 20
5150.210894359764
 30
0.0
 10
7114.345812607989
 20
5147.523999979615
 30
0.0
 10
7114.369507641049
 20
5144.993342027004
 30
0.0
 10
7114.049547744866
 20
5142.428151893432
 30
0.0
 10
7113.350164825646
 20
5139.639963517456
 30
0.0
 10
7112.214488637949
 20
5136.67113014788
 30
0.0
 10
7110.553730982042
 20
5133.357107929342
 30
0.0
 10
7108.540586416289
 20
5130.027573580188
 30
0.0
 10
7106.500674517089
 20
5127.046138981638
 30
0.0
 10
7104.728453896722
 20
5124.627138125963
 30
0.0
 10
7103.412524934636
 20
5122.906128500514
 30
0.0
 10
7102.446272322185
 20
5121.673279005114
 30
0.0
 10
7101.882277750289
 20
5120.963983823946
 30
0.0
 10
7101.630110028432
 20
5120.649070028282
 30
0.0
 10
7101.68639616409
 20
5120.719212891618
 30
0.0
 10
7101.695270271848
 20
5120.730271659828
 30
0.0
  0
LINE
  5
11F
330
1F
100
AcDbEntity
  8
0
  6
Continuous
 62
     7
370
    25
100
AcDbLine
 10
7099.8005249438
 20
5104.6951970516
 30
0.0
 11
7167.8005247368
 21
5104.6951970516
 31
0.0
  0
LWPOLYLINE
  5
120
330
1F
100
AcDbEntity
  8
0
  6
Continuous
 62
     7
370
    25
100
AcDbPolyline
 90
       40
 70
   128
 43
0.0
 10
7089.8023459181
 20
5164.6951970516
 10
7089.8020921964
 20
5166.2447953836
 10
7089.8017857293
 20
5167.7100769239
 10
7089.8014628267
 20
5168.8492512498
 10
7089.8011276981
 20
5169.6474674817
 10
7089.8007847125
 20
5170.0943196504
 10
7089.8004383412
 20
5170.1839823544
 10
7089.8000930997
 20
5169.9152867034
 10
7089.7997534888
 20
5169.2917355559
 10
7089.7994239357
 20
5168.321457855
 10
7089.7991087368
 20
5167.0171026541
 10
7089.7988120011
 20
5165.3956742181
 10
7089.798537597
 20
5163.4783103464
 10
7089.7982891018
 20
5161.2900068092
 10
7089.798069755
 20
5158.8592914897
 10
7089.7978824161
 20
5156.2178524794
 10
7089.7977295274
 20
5153.4001249754
 10
7089.7976130821
 20
5150.4428423648
 10
7089.7975345981
 20
5147.384557349
 10
7089.7974950987
 20
5144.2651393504
 10
7089.7974950987
 20
5141.1252547529
 10
7089.7975345981
 20
5138.0058367542
 10
7089.7976130821
 20
5134.9475517385
 10
7089.7977295274
 20
5131.9902691279
 10
7089.7978824161
 20
5129.1725416239
 10
7089.798069755
 20
5126.5311026136
 10
7089.7982891018
 20
5124.1003872941
 10
7089.798537597
 20
5121.9120837569
 10
7089.7988120011
 20
5119.9947198852
 10
7089.7991087368
 20
5118.3732914492
 10
7089.7994239357
 20
5117.0689362483
 10
7089.7997534888
 20
5116.0986585473
 10
7089.8000930997
 20
5115.4751073999
 10
7089.8004383412
 20
5115.2064117489
 10
7089.8007847125
 20
5115.2960744529
 10
7089.8011276981
 20
5115.7429266216
 10
7089.8014628267
 20
5116.5411428535
 10
7089.8017857293
 20
5117.6803171794
 10
7089.8020921964
 20
5119.1455987197
 10
7089.8023459181
 20
5120.6951970516
  0
LWPOLYLINE
  5
121
330
1F
100
AcDbEntity
  8
0
  6
Continuous
 62
     7
370
    25
100
AcDbPolyline
 90
       26
 70
   128
 43
0.0
 10
7089.8005250047
 20
5120.6951970516
 10
7089.8002918719
 20
5120.7968565668
 10
7089.7999847496
 20
5121.2467829836
 10
7089.7996864983
 20
5122.0488917665
 10
7089.7994020152
 20
5123.1900123114
 10
7089.7991359716
 20
5124.6514074505
 10
7089.7988927358
 20
5126.409081116
 10
7089.7986763019
 20
5128.4341723549
 10
7089.7984902236
 20
5130.693429225
 10
7089.7983375564
 20
5133.1497547911
 10
7089.798220807
 20
5135.7628162551
 10
7089.7981418925
 20
5138.4897072202
 10
7089.7981021086
 20
5141.2856522121
 10
7089.7981021086
 20
5144.1047418912
 10
7089.7981418925
 20
5146.9006868831
 10
7089.798220807
 20
5149.6275778482
 10
7089.7983375564
 20
5152.2406393122
 10
7089.7984902236
 20
5154.6969648783
 10
7089.7986763019
 20
5156.9562217484
 10
7089.7988927358
 20
5158.9813129873
 10
7089.7991359716
 20
5160.7389866528
 10
7089.7994020152
 20
5162.2003817918
 10
7089.7996864983
 20
5163.3415023367
 10
7089.7999847496
 20
5164.1436111196
 10
7089.8002918719
 20
5164.5935375365
 10
7089.8005250047
 20
5164.6951970516
  0
LWPOLYLINE
  5
122
330
1F
100
AcDbEntity
  8
0
  6
Continuous
 62
     7
370
    25
100
AcDbPolyline
 90
       29
 70
   128
 43
0.0
 10
7085.8005249103
 20
5168.6951970294
 10
7085.8003581931
 20
5168.6512091667
 10
7085.8000267772
 20
5168.30019863
 10
7085.7997020994
 20
5167.6029243718
 10
7085.7993885503
 20
5166.5688158305
 10
7085.7990903701
 20
5165.21185755
 10
7085.7988115912
 20
5163.5504000633
 10
7085.7985559836
 20
5161.6069117325
 10
7085.798327004
 20
5159.4076749035
 10
7085.7981277488
 20
5156.9824304815
 10
7085.7979609128
 20
5154.3639757369
 10
7085.7978287521
 20
5151.5877207781
 10
7085.7977330539
 20
5148.6912096909
 10
7085.7976751124
 20
5145.7136128189
 10
7085.7976557111
 20
5142.6951970516
 10
7085.7976751124
 20
5139.6767812844
 10
7085.7977330539
 20
5136.6991844123
 10
7085.7978287521
 20
5133.8026733252
 10
7085.7979609128
 20
5131.0264183664
 10
7085.7981277488
 20
5128.4079636218
 10
7085.798327004
 20
5125.9827191998
 10
7085.7985559836
 20
5123.7834823707
 10
7085.7988115912
 20
5121.83999404
 10
7085.7990903701
 20
5120.1785365532
 10
7085.7993885503
 20
5118.8215782728
 10
7085.7997020994
 20
5117.7874697314
 10
7085.8000267772
 20
5117.0901954733
 10
7085.8003581931
 20
5116.7391849366
 10
7085.8005249103
 20
5116.6951970739
  0
ARC
  5
123
330
1F
100
AcDbEntity
  8
0
  6
Continuous
 62
     7
370
    25
100
AcDbCircle
 10
7111.4306918393
 20
5161.836447091
 30
0.0
 40
2.860531911820844
100
AcDbArc
 50
92.0224820601
 51
175.862420479
  0
LINE
  5
124
330
1F
100
AcDbEntity
  8
0
  6
Continuous
 62
     7
370
    25
100
AcDbLine
 10
7111.3297389741
 20
5164.6951970516
 30
0.0
 11
7158.1301770747
 21
5164.6951970516
 31
0.0
  0
LINE
  5
125
330
1F
100
AcDbEntity
  8
0
  6
Continuous
 62
     7
370
    25
100
AcDbLine
 10
7109.6786970175
 20
5034.6951970516
 30
0.0
 11
7157.922352603
 21
5034.6951970516
 31
0.0
  0
LWPOLYLINE
  5
126
330
1F
100
AcDbEntity
  8
0
  6
Continuous
 62
     7
370
    25
100
AcDbPolyline
 90
       27
 70
   128
 43
0.0
 10
7073.8005250272
 20
5165.6951970416
 10
7073.8003657246
 20
5165.6498118055
 10
7073.8000494829
 20
5165.2878038184
 10
7073.799740742
 20
5164.5694969264
 10
7073.7994443709
 20
5163.5062192584
 10
7073.7991650436
 20
5162.1147393382
 10
7073.7989071653
 20
5160.4170016355
 10
7073.7986748027
 20
5158.439780488
 10
7073.7984716205
 20
5156.2142578544
 10
7073.798300823
 20
5153.775531556
 10
7073.7981651036
 20
5151.1620617634
 10
7073.7980666029
 20
5148.4150644564
 10
7073.7980068741
 20
5145.5778614236
 10
7073.7979868593
 20
5142.6951970516
 10
7073.7980068741
 20
5139.8125326797
 10
7073.7980666029
 20
5136.9753296468
 10
7073.7981651036
 20
5134.2283323399
 10
7073.798300823
 20
5131.6148625473
 10
7073.7984716205
 20
5129.1761362489
 10
7073.7986748027
 20
5126.9506136153
 10
7073.7989071653
 20
5124.9733924678
 10
7073.7991650436
 20
5123.2756547651
 10
7073.7994443709
 20
5121.8841748449
 10
7073.799740742
 20
5120.8208971769
 10
7073.8000494829
 20
5120.1025902849
 10
7073.8003657246
 20
5119.7405822978
 10
7073.800531034
 20
5119.695259859
  0
LINE
  5
127
330
1F
100
AcDbEntity
  8
0
  6
Continuous
 62
     7
370
    25
100
AcDbLine
 10
7110.8005248768
 20
5171.1951970516
 30
0.0
 11
7156.8005247368
 21
5171.1951970516
 31
0.0
  0
LINE
  5
128
330
1F
100
AcDbEntity
  8
0
  6
Continuous
 62
     7
370
    25
100
AcDbLine
 10
7108.800524889
 20
5167.1951970516
 30
0.0
 11
7158.8005247368
 21
5167.1951970516
 31
0.0
  0
LINE
  5
129
330
1F
100
AcDbEntity
  8
0
  6
Continuous
 62
     7
370
    25
100
AcDbLine
 10
7113.8005248586
 20
5181.1951970516
 30
0.0
 11
7153.8005247368
 21
5181.1951970516
 31
0.0
  0
SPLINE
  5
12A
330
1F
100
AcDbEntity
  8
0
  6
Continuous
 62
     7
370
    25
100
AcDbSpline
210
0.0
220
0.0
230
1.0
 70
     8
 71
     3
 72
    11
 73
     7
 74
     0
 42
0.000000001
 43
0.00000001
 40
0.0
 40
0.0
 40
0.0
 40
0.0
 40
0.156147409152302
 40
0.4307960512583154
 40
0.7130079383195164
 40
1.0
 40
1.0
 40
1.0
 40
1.0
 10
7106.800524901199
 20
5164.695197051642
 30
0.0
 10
7106.809927890156
 20
5164.681680337188
 30
0.0
 10
7106.835869854448
 20
5164.644388990222
 30
0.0
 10
7107.119403827518
 20
5164.235607717265
 30
0.0
 10
7107.702325430451
 20
5163.387105605769
 30
0.0
 10
7108.284223154898
 20
5162.493429665578
 30
0.0
 10
7108.577615405594
 20
5162.042839150322
 30
0.0
  0
SPLINE
  5
12B
330
1F
100
AcDbEntity
  8
0
  6
Continuous
 62
     7
370
    25
100
AcDbSpline
210
0.0
220
0.0
230
1.0
 70
    24
 71
     3
 72
    12
 73
     8
 74
     0
 42
0.000000001
 43
0.00000001
 40
0.0
 40
0.0
 40
0.0
 40
0.0
 40
0.0026572740835318
 40
0.0516700043743782
 40
0.3670805910300629
 40
0.7311420885359107
 40
1.0
 40
1.0
 40
1.0
 40
1.0
 10
7106.800524901199
 20
5164.695197051642
 30
0.0
 10
7106.803919980378
 20
5164.695197051642
 30
0.0
 10
7106.869936413206
 20
5164.695197051642
 30
0.0
 10
7107.350152054885
 20
5164.695197051643
 30
0.0
 10
7108.437284167627
 20
5164.695197051642
 30
0.0
 10
7110.030192387252
 20
5164.695197051642
 30
0.0
 10
7110.942289242043
 20
5164.695197051642
 30
0.0
 10
7111.329738974119
 20
5164.695197051642
 30
0.0
  0
LINE
  5
12C
330
1F
100
AcDbEntity
  8
0
  6
Continuous
 62
     7
370
    25
100
AcDbLine
 10
7163.7939539609
 20
5203.3951970516
 30
0.0
 11
7163.8005247368
 21
5203.3951970516
 31
0.0
  0
LINE
  5
12D
330
1F
100
AcDbEntity
  8
0
  6
Continuous
 62
     7
370
    25
100
AcDbLine
 10
7103.8005247368
 20
5203.3951970516
 30
0.0
 11
7163.7939539609
 21
5203.3951970516
 31
0.0
  0
LINE
  5
12E
330
1F
100
AcDbEntity
  8
0
  6
Continuous
 62
     7
370
    25
100
AcDbLine
 10
7161.7943920126
 20
5199.3951970516
 30
0.0
 11
7161.8005247368
 21
5199.3951970516
 31
0.0
  0
LINE
  5
12F
330
1F
100
AcDbEntity
  8
0
  6
Continuous
 62
     7
370
    25
100
AcDbLine
 10
7105.8005247368
 20
5199.3951970516
 30
0.0
 11
7161.7943920126
 21
5199.3951970516
 31
0.0
  0
LINE
  5
130
330
1F
100
AcDbEntity
  8
0
  6
Continuous
 62
     7
370
    25
100
AcDbLine
 10
7158.7950490902
 20
5189.3951970516
 30
0.0
 11
7158.8005247368
 21
5189.3951970516
 31
0.0
  0
LINE
  5
131
330
1F
100
AcDbEntity
  8
0
  6
Continuous
 62
     7
370
    25
100
AcDbLine
 10
7108.8005247368
 20
5189.3951970516
 30
0.0
 11
7158.7950490902
 21
5189.3951970516
 31
0.0
  0
LINE
  5
132
330
1F
100
AcDbEntity
  8
0
  6
Continuous
 62
     7
370
    25
100
AcDbLine
 10
7133.8005247368
 20
5243.3951970516
 30
0.0
 11
7168.8005247368
 21
5243.3951970516
 31
0.0
  0
LINE
  5
133
330
1F
100
AcDbEntity
  8
0
  6
Continuous
 62
     7
370
    25
100
AcDbLine
 10
7098.8005247368
 20
5243.3951970516
 30
0.0
 11
7133.8005247368
 21
5243.3951970516
 31
0.0
  0
LINE
  5
134
330
1F
100
AcDbEntity
  8
0
  6
Continuous
 62
     7
370
    25
100
AcDbLine
 10
7133.8005247368
 20
5236.3951970516
 30
0.0
 11
7165.8005247368
 21
5236.3951970516
 31
0.0
  0
LINE
  5
135
330
1F
100
AcDbEntity
  8
0
  6
Continuous
 62
     7
370
    25
100
AcDbLine
 10
7101.8005247368
 20
5236.3951970516
 30
0.0
 11
7133.8005247368
 21
5236.3951970516
 31
0.0
  0
SPLINE
  5
136
330
1F
100
AcDbEntity
  8
0
  6
Continuous
 62
     7
370
    25
100
AcDbSpline
210
0.0
220
0.0
230
1.0
 70
     8
 71
     3
 72
    10
 73
     6
 74
     0
 42
0.000000001
 43
0.00000001
 40
0.0
 40
0.0
 40
0.0
 40
0.0
 40
0.4575030543493602
 40
0.9222007526202838
 40
1.0
 40
1.0
 40
1.0
 40
1.0
 10
7106.313517174558
 20
5231.886267638381
 30
0.0
 10
7106.376077820999
 20
5231.843243898566
 30
0.0
 10
7106.502182935889
 20
5231.756519832225
 30
0.0
 10
7107.225489951039
 20
5231.259719705094
 30
0.0
 10
7107.690591450018
 20
5230.940916481182
 30
0.0
 10
7107.757291450573
 20
5230.895197051642
 30
0.0
  0
LINE
  5
137
330
1F
100
AcDbEntity
  8
0
  6
Continuous
 62
     7
370
    25
100
AcDbLine
 10
7107.7572914506
 20
5230.8951970516
 30
0.0
 11
7160.3005247368
 21
5230.8951970516
 31
0.0
  0
LINE
  5
138
330
1F
100
AcDbEntity
  8
0
  6
Continuous
 62
     7
370
    25
100
AcDbLine
 10
7133.8005247368
 20
5206.3951970516
 30
0.0
 11
7163.3005247368
 21
5206.3951970516
 31
0.0
  0
LINE
  5
139
330
1F
100
AcDbEntity
  8
0
  6
Continuous
 62
     7
370
    25
100
AcDbLine
 10
7104.3005247368
 20
5206.3951970516
 30
0.0
 11
7133.8005247368
 21
5206.3951970516
 31
0.0
  0
SPLINE
  5
13A
330
1F
100
AcDbEntity
  8
0
  6
Continuous
 62
     7
370
    25
100
AcDbSpline
210
0.0
220
0.0
230
1.0
 70
     8
 71
     3
 72
    14
 73
    10
 74
     0
 42
0.000000001
 43
0.00000001
 40
0.0
 40
0.0
 40
0.0
 40
0.0
 40
0.1533532004492852
 40
0.3112237015158296
 40
0.4645392318064814
 40
0.6224054285958078
 40
0.7729384801680801
 40
0.9287239189072578
 40
1.0
 40
1.0
 40
1.0
 40
1.0
 10
7109.800524736784
 20
5213.917971476591
 30
0.0
 10
7109.644308493137
 20
5213.295158166862
 30
0.0
 10
7109.327274369023
 20
5212.031185435683
 30
0.0
 10
7108.779582887983
 20
5210.417794394612
 30
0.0
 10
7108.250702453804
 20
5209.039384501182
 30
0.0
 10
7107.796155485658
 20
5207.974826552173
 30
0.0
 10
7107.46912100363
 20
5207.253281385944
 30
0.0
 10
7107.305594713253
 20
5206.90594063329
 30
0.0
 10
7107.315349659979
 20
5206.92665910262
 30
0.0
 10
7107.318411800911
 20
5206.933162764275
 30
0.0
  0
SPLINE
  5
13B
330
1F
100
AcDbEntity
  8
0
  6
Continuous
 62
     7
370
    25
100
AcDbSpline
210
0.0
220
0.0
230
1.0
 70
     8
 71
     3
 72
    10
 73
     6
 74
     0
 42
0.000000001
 43
0.00000001
 40
0.0
 40
0.0
 40
0.0
 40
0.0
 40
0.1883898901716211
 40
0.6332747442565645
 40
1.0
 40
1.0
 40
1.0
 40
1.0
 10
7107.757291450573
 20
5230.895197051642
 30
0.0
 10
7107.862722444131
 20
5230.652001054575
 30
0.0
 10
7108.217129920148
 20
5229.834494962783
 30
0.0
 10
7109.002320630108
 20
5227.899233682656
 30
0.0
 10
7109.552105132562
 20
5225.814436327561
 30
0.0
 10
7109.800524736784
 20
5224.872422626693
 30
0.0
  0
LINE
  5
13C
330
1F
100
AcDbEntity
  8
0
  6
Continuous
 62
     7
370
    25
100
AcDbLine
 10
6971.29870287
 20
5338.6405752094
 30
0.0
 11
6954.2827562253
 21
5377.0392413292
 31
0.0
  0
LINE
  5
13D
330
1F
100
AcDbEntity
  8
0
  6
Continuous
 62
     7
370
    25
100
AcDbLine
 10
6968.7118971769
 20
5340.7756246949
 30
0.0
 11
6954.1268000528
 21
5373.6887670834
 31
0.0
  0
LWPOLYLINE
  5
13E
330
1F
100
AcDbEntity
  8
0
  6
Continuous
 62
     7
370
    25
100
AcDbPolyline
 90
       16
 70
   128
 43
0.0
 10
6966.4262622888
 20
5339.762770728
 10
6965.8614623411
 20
5339.82176348
 10
6964.2965459817
 20
5339.9405151923
 10
6961.7869105938
 20
5339.9647141529
 10
6960.1553522954
 20
5339.8413468044
 10
6958.3509657449
 20
5339.5418002994
 10
6955.5619281973
 20
5338.6446662289
 10
6952.9917467557
 20
5337.2123073199
 10
6950.8777953843
 20
5335.4969689151
 10
6949.0086601691
 20
5333.5302787727
 10
6948.2470423089
 20
5332.6048702834
 10
6947.6720062135
 20
5331.8591951028
 10
6947.3510935169
 20
5331.4257713035
 10
6947.2273962471
 20
5331.255443893
 10
6947.2269292289
 20
5331.2547974056
 10
6947.2269292289
 20
5331.2547974056
  0
LINE
  5
13F
330
1F
100
AcDbEntity
  8
0
  6
Continuous
 62
     7
370
    25
100
AcDbLine
 10
6947.2269292289
 20
5331.2547974056
 30
0.0
 11
6948.4584255303
 21
5371.1768892453
 31
0.0
  0
LINE
  5
140
330
1F
100
AcDbEntity
  8
0
  6
Continuous
 62
     7
370
    25
100
AcDbLine
 10
6954.3115362275
 20
5310.3309272169
 30
0.0
 11
6977.1678851084
 21
5320.4594668864
 31
0.0
  0
LINE
  5
141
330
1F
100
AcDbEntity
  8
0
  6
Continuous
 62
     7
370
    25
100
AcDbLine
 10
7109.8005247368
 20
5213.9179714766
 30
0.0
 11
7109.8005247368
 21
5224.8724226267
 31
0.0
  0
LINE
  5
142
330
1F
100
AcDbEntity
  8
0
  6
Continuous
 62
     7
370
    25
100
AcDbLine
 10
7330.8005247368
 20
5392.7037121338
 30
0.0
 11
6896.8005247368
 21
5392.7037121338
 31
0.0
  0
LINE
  5
143
330
1F
100
AcDbEntity
  8
0
  6
Continuous
 62
     7
370
    25
100
AcDbLine
 10
7333.8005247368
 20
5385.2037121338
 30
0.0
 11
6893.8005247368
 21
5385.2037121338
 31
0.0
  0
LWPOLYLINE
  5
144
330
1F
100
AcDbEntity
  8
0
  6
Continuous
 62
     8
370
    25
100
AcDbPolyline
 90
       19
 70
   128
 43
0.0
 10
6898.7961167427
 20
5144.5813362068
 10
6898.7961166261
 20
5140.8315553578
 10
6898.7961552609
 20
5137.0981522591
 10
6898.7962323073
 20
5133.4139361912
 10
6898.7963470883
 20
5129.8112841774
 10
6898.7964985952
 20
5126.3218564533
 10
6898.7966854965
 20
5122.9763182351
 10
6898.7969061498
 20
5119.8040702329
 10
6898.797158616
 20
5116.8329902763
 10
6898.7974406763
 20
5114.0891883227
 10
6898.797749852
 20
5111.5967770024
 10
6898.7980834261
 20
5109.3776597157
 10
6898.7984384671
 20
5107.451338145
 10
6898.7988118549
 20
5105.8347408737
 10
6898.7992003081
 20
5104.5420746166
 10
6898.7996004131
 20
5103.5846993713
 10
6898.8000086536
 20
5102.9710285859
 10
6898.800421442
 20
5102.7064552213
 10
6898.80052627
 20
5102.6951970624
  0
LWPOLYLINE
  5
145
330
1F
100
AcDbEntity
  8
0
  6
Continuous
 62
     8
370
    25
100
AcDbPolyline
 90
       18
 70
   128
 43
0.0
 10
6898.8005262283
 20
5182.6951970479
 10
6898.8004239268
 20
5182.6844668607
 10
6898.800011122
 20
5182.4219996104
 10
6898.7996028435
 20
5181.8104117908
 10
6898.7992026791
 20
5180.8550780576
 10
6898.7988141456
 20
5179.564393918
 10
6898.7984406574
 20
5177.9497019508
 10
6898.7980854968
 20
5176.0251921268
 10
6898.7977517849
 20
5173.8077771077
 10
6898.7974424543
 20
5171.3169436164
 10
6898.7971602235
 20
5168.5745811872
 10
6898.7969075728
 20
5165.6047897996
 10
6898.7966867224
 20
5162.4336680872
 10
6898.7964996132
 20
5159.0890839817
 10
6898.7963478895
 20
5155.6004298083
 10
6898.7962328847
 20
5151.9983639855
 10
6898.7961556093
 20
5148.3145415971
 10
6898.7961167427
 20
5144.5813362068
  0
LINE
  5
146
330
1F
100
AcDbEntity
  8
0
  6
Continuous
 62
     8
370
    25
100
AcDbLine
 10
7161.1099664919
 20
5162.0428391503
 30
0.0
 11
7108.5776154056
 21
5162.0428391503
 31
0.0
  0
LINE
  5
147
330
1F
100
AcDbEntity
  8
0
  6
Continuous
 62
     8
370
    25
100
AcDbLine
 10
7106.6943106217
 20
5037.3895211903
 30
0.0
 11
7160.9067390169
 21
5037.3895211903
 31
0.0
  0
LWPOLYLINE
  5
148
330
1F
100
AcDbEntity
  8
0
  6
Continuous
 62
     8
370
    25
100
AcDbPolyline
 90
       29
 70
   128
 43
0.0
 10
7076.8005250839
 20
5168.6951970516
 10
7076.8003582479
 20
5168.6512091667
 10
7076.800026832
 20
5168.30019863
 10
7076.7997021542
 20
5167.6029243718
 10
7076.7993886051
 20
5166.5688158305
 10
7076.7990904249
 20
5165.21185755
 10
7076.798811646
 20
5163.5504000633
 10
7076.7985560384
 20
5161.6069117325
 10
7076.7983270588
 20
5159.4076749035
 10
7076.7981278036
 20
5156.9824304815
 10
7076.7979609676
 20
5154.3639757369
 10
7076.7978288069
 20
5151.5877207781
 10
7076.7977331087
 20
5148.6912096909
 10
7076.7976751672
 20
5145.7136128189
 10
7076.7976557659
 20
5142.6951970516
 10
7076.7976751672
 20
5139.6767812844
 10
7076.7977331087
 20
5136.6991844123
 10
7076.7978288069
 20
5133.8026733252
 10
7076.7979609676
 20
5131.0264183664
 10
7076.7981278036
 20
5128.4079636218
 10
7076.7983270588
 20
5125.9827191998
 10
7076.7985560384
 20
5123.7834823707
 10
7076.798811646
 20
5121.83999404
 10
7076.7990904249
 20
5120.1785365532
 10
7076.7993886051
 20
5118.8215782728
 10
7076.7997021542
 20
5117.7874697314
 10
7076.800026832
 20
5117.0901954733
 10
7076.8003582479
 20
5116.7391849366
 10
7076.8005250839
 20
5116.6951970516
  0
LINE
  5
149
330
1F
100
AcDbEntity
  8
0
  6
Continuous
 62
     8
370
    25
100
AcDbLine
 10
7110.8005248768
 20
5178.1951970516
 30
0.0
 11
7156.8005247368
 21
5178.1951970516
 31
0.0
  0
LINE
  5
14A
330
1F
100
AcDbEntity
  8
0
  6
Continuous
 62
     8
370
    25
100
AcDbLine
 10
7161.7943920126
 20
5192.3951970516
 30
0.0
 11
7161.8005247368
 21
5192.3951970516
 31
0.0
  0
LINE
  5
14B
330
1F
100
AcDbEntity
  8
0
  6
Continuous
 62
     8
370
    25
100
AcDbLine
 10
7105.8005247368
 20
5192.3951970516
 30
0.0
 11
7161.7943920126
 21
5192.3951970516
 31
0.0
  0
LINE
  5
14C
330
1F
100
AcDbEntity
  8
0
  6
Continuous
 62
     8
370
    25
100
AcDbLine
 10
6988.9447316393
 20
5232.1766796135
 30
0.0
 11
7011.8010805202
 21
5242.305219283
 31
0.0
  0
LINE
  5
14D
330
1F
100
AcDbEntity
  8
0
  6
Continuous
 62
     8
370
    25
100
AcDbLine
 10
7027.8005247368
 20
5206.8951970516
 30
0.0
 11
7027.8005247368
 21
5231.8951970516
 31
0.0
  0
LINE
  5
14E
330
1F
100
AcDbEntity
  8
0
  6
Continuous
 62
     8
370
    25
100
AcDbLine
 10
7333.8005247368
 20
5389.7037121338
 30
0.0
 11
6893.8005247368
 21
5389.7037121338
 31
0.0
  0
LINE
  5
14F
330
1F
100
AcDbEntity
  8
0
  6
Continuous
 62
     8
370
    25
100
AcDbLine
 10
7169.8361759028
 20
5243.795626527
 30
0.0
 11
7097.7648735708
 21
5243.795626527
 31
0.0
  0
LINE
  5
150
330
1F
100
AcDbEntity
  8
0
  6
Continuous
 62
     8
370
    25
100
AcDbLine
 10
7169.2789960705
 20
5243.6032280663
 30
0.0
 11
7098.3220534031
 21
5243.6032280663
 31
0.0
  0
ARC
  5
151
330
1F
100
AcDbEntity
  8
0
  6
Continuous
 62
     7
370
    25
100
AcDbCircle
 10
6274.0187553361
 20
4559.2312996141
 30
0.0
 40
8.552641741590202
100
AcDbArc
 50
239.9834855425
 51
300.0165144575
  0
LINE
  5
152
330
1F
100
AcDbEntity
  8
0
  6
Continuous
 62
     7
370
    25
100
AcDbLine
 10
6314.0448363842
 20
4622.0468429889
 30
0.0
 11
6314.0463446889
 21
4635.7141746167
 31
0.0
  0
LINE
  5
153
330
1F
100
AcDbEntity
  8
0
  6
Continuous
 62
     7
370
    25
100
AcDbLine
 10
6234.0463451761
 20
4635.7230032876
 30
0.0
 11
6234.0448369615
 21
4622.0564878707
 31
0.0
  0
LINE
  5
154
330
1F
100
AcDbEntity
  8
0
  6
Continuous
 62
     7
370
    25
100
AcDbLine
 10
6294.0463448107
 20
4635.7163817845
 30
0.0
 11
6294.0474483945
 21
4645.7163817236
 31
0.0
  0
LINE
  5
155
330
1F
100
AcDbEntity
  8
0
  6
Continuous
 62
     7
370
    25
100
AcDbLine
 10
6254.0474486381
 20
4645.720796059
 30
0.0
 11
6254.0463450543
 21
4635.7207961199
 31
0.0
  0
LINE
  5
156
330
1F
100
AcDbEntity
  8
0
  6
Continuous
 62
     7
370
    25
100
AcDbLine
 10
6292.2187553361
 20
4553.4395792151
 30
0.0
 11
6292.2187553361
 21
4553.4983861828
 31
0.0
  0
LINE
  5
157
330
1F
100
AcDbEntity
  8
0
  6
Continuous
 62
     7
370
    25
100
AcDbLine
 10
6255.8187553361
 20
4553.4983861828
 30
0.0
 11
6255.8187553361
 21
4553.4395792151
 31
0.0
  0
LINE
  5
158
330
1F
100
AcDbEntity
  8
0
  6
Continuous
 62
     7
370
    25
100
AcDbLine
 10
6279.7687553361
 20
4553.0748981496
 30
0.0
 11
6279.7687553361
 21
4553.8615847216
 31
0.0
  0
LINE
  5
159
330
1F
100
AcDbEntity
  8
0
  6
Continuous
 62
     7
370
    25
100
AcDbLine
 10
6268.2687553361
 20
4553.4632224713
 30
0.0
 11
6268.2687553361
 21
4553.0748981496
 31
0.0
  0
CIRCLE
  5
15A
330
1F
100
AcDbEntity
  8
0
  6
Continuous
 62
     7
370
    25
100
AcDbCircle
 10
6274.0187553361
 20
4385.7185904745
 30
0.0
 40
24.96512544439511
  0
CIRCLE
  5
15B
330
1F
100
AcDbEntity
  8
0
  6
Continuous
 62
     7
370
    25
100
AcDbCircle
 10
6274.0187553361
 20
4385.7185904745
 30
0.0
 40
35.00000000000023
  0
CIRCLE
  5
15C
330
1F
100
AcDbEntity
  8
0
  6
Continuous
 62
     7
370
    25
100
AcDbCircle
 10
6274.0187553361
 20
4385.7185904745
 30
0.0
 40
35.16921944985939
  0
CIRCLE
  5
15D
330
1F
100
AcDbEntity
  8
0
  6
Continuous
 62
     7
370
    25
100
AcDbCircle
 10
6274.0187553361
 20
4385.7185904745
 30
0.0
 40
22.00000000000016
  0
CIRCLE
  5
15E
330
1F
100
AcDbEntity
  8
0
  6
Continuous
 62
     7
370
    25
100
AcDbCircle
 10
6274.0187553361
 20
4385.7185904745
 30
0.0
 40
20.50000000000001
  0
CIRCLE
  5
15F
330
1F
100
AcDbEntity
  8
0
  6
Continuous
 62
     7
370
    25
100
AcDbCircle
 10
6274.0187553361
 20
4385.7185904745
 30
0.0
 40
19.48700763430462
  0
CIRCLE
  5
160
330
1F
100
AcDbEntity
  8
0
  6
Continuous
 62
     7
370
    25
100
AcDbCircle
 10
6274.0187553361
 20
4385.7185904745
 30
0.0
 40
5.6999999999997
  0
CIRCLE
  5
161
330
1F
100
AcDbEntity
  8
0
  6
Continuous
 62
     7
370
    25
100
AcDbCircle
 10
6278.2623600502
 20
4399.0599479403
 30
0.0
 40
5.00000000000015
  0
CIRCLE
  5
162
330
1F
100
AcDbEntity
  8
0
  6
Continuous
 62
     7
370
    25
100
AcDbCircle
 10
6287.6945121795
 20
4388.7141997214
 30
0.0
 40
4.999999999999283
  0
CIRCLE
  5
163
330
1F
100
AcDbEntity
  8
0
  6
Continuous
 62
     7
370
    25
100
AcDbCircle
 10
6283.4509074654
 20
4375.3728422556
 30
0.0
 40
4.999999999999875
  0
CIRCLE
  5
164
330
1F
100
AcDbEntity
  8
0
  6
Continuous
 62
     7
370
    25
100
AcDbCircle
 10
6269.775150622
 20
4372.3772330087
 30
0.0
 40
5.00000000000015
  0
CIRCLE
  5
165
330
1F
100
AcDbEntity
  8
0
  6
Continuous
 62
     7
370
    25
100
AcDbCircle
 10
6260.3429984927
 20
4382.7229812276
 30
0.0
 40
5.000000000001017
  0
CIRCLE
  5
166
330
1F
100
AcDbEntity
  8
0
  6
Continuous
 62
     7
370
    25
100
AcDbCircle
 10
6264.5866032068
 20
4396.0643386934
 30
0.0
 40
5.000000000001017
  0
LWPOLYLINE
  5
167
330
1F
100
AcDbEntity
  8
0
  6
Continuous
 62
     7
370
    25
100
AcDbPolyline
 90
       12
 70
   128
 43
0.0
 10
6279.1262955633
 20
4553.5748416026
 10
6278.6435044896
 20
4554.0966538365
 10
6277.850939616
 20
4554.5500858251
 10
6276.8016883263
 20
4554.9047658994
 10
6275.5660313099
 20
4555.1369369667
 10
6274.2267350382
 20
4555.2310478022
 10
6272.8735079217
 20
4555.1807946974
 10
6271.5969914833
 20
4554.9895436931
 10
6270.4826890301
 20
4554.6701051168
 10
6269.6052384925
 20
4554.2438755237
 10
6269.0234130446
 20
4553.7394045188
 10
6268.776184374
 20
4553.1904824536
  0
ARC
  5
168
330
1F
100
AcDbEntity
  8
0
  6
Continuous
 62
     7
370
    25
100
AcDbCircle
 10
6273.6732446342
 20
4560.8685840611
 30
0.0
 40
9.106834987349304
100
AcDbArc
 50
237.4704440612
 51
306.7830449496
  0
LWPOLYLINE
  5
169
330
1F
100
AcDbEntity
  8
0
  6
Continuous
 62
     7
370
    25
100
AcDbPolyline
 90
        3
 70
   128
 43
0.0
 10
6268.9112151089
 20
4552.5767086198
 10
6269.3940061826
 20
4552.0548963858
 10
6269.7402997673
 20
4551.8257274752
  0
ARC
  5
16A
330
1F
100
AcDbEntity
  8
0
  6
Continuous
 62
     7
370
    25
100
AcDbCircle
 10
6277.4520756389
 20
4553.5204316683
 30
0.0
 40
1.893746530091396
100
AcDbArc
 50
296.5050612464
 51
342.8200215546
  0
ARC
  5
16B
330
1F
100
AcDbEntity
  8
0
  6
Continuous
 62
     7
370
    25
100
AcDbCircle
 10
6278.3036802564
 20
4553.0721252246
 30
0.0
 40
0.9640641575468852
100
AcDbArc
 50
353.3850027694
 51
31.429921805
  0
ARC
  5
16C
330
1F
100
AcDbEntity
  8
0
  6
Continuous
 62
     7
370
    25
100
AcDbCircle
 10
6269.7338304158
 20
4553.0794249978
 30
0.0
 40
0.9640641575571464
100
AcDbArc
 50
173.3850027696
 51
211.4299218047
  0
LINE
  5
16D
330
1F
100
AcDbEntity
  8
0
  6
Continuous
 62
     7
370
    25
100
AcDbLine
 10
6279.0086609799
 20
4552.9516848525
 30
0.0
 11
6278.1025751215
 21
4552.9180366739
 31
0.0
  0
LINE
  5
16E
330
1F
100
AcDbEntity
  8
0
  6
Continuous
 62
     7
370
    25
100
AcDbLine
 10
6269.7999048158
 20
4552.6097107792
 30
0.0
 11
6269.1638804272
 21
4552.586091536
 31
0.0
  0
ARC
  5
16F
330
1F
100
AcDbEntity
  8
0
  6
Continuous
 62
     7
370
    25
100
AcDbCircle
 10
6273.8082753691
 20
4560.2548102273
 30
0.0
 40
9.106834987348536
100
AcDbArc
 50
237.4704440611
 51
306.7830449496
  0
ARC
  5
170
330
1F
100
AcDbEntity
  8
0
  6
Continuous
 62
     7
370
    25
100
AcDbCircle
 10
6274.0187553361
 20
4385.7185904745
 30
0.0
 40
5.25000000000011
100
AcDbArc
 50
13.3779965643
 51
176.9515751608
  0
LINE
  5
171
330
1F
100
AcDbEntity
  8
0
  6
Continuous
 62
     7
370
    25
100
AcDbLine
 10
6279.1262955633
 20
4386.9333055966
 30
0.0
 11
6268.776184374
 21
4385.9977852228
 31
0.0
  0
ARC
  5
172
330
1F
100
AcDbEntity
  8
0
  6
Continuous
 62
     7
370
    25
100
AcDbCircle
 10
6274.0187553361
 20
4385.7185904745
 30
0.0
 40
5.25000000000011
100
AcDbArc
 50
193.3779965643
 51
356.9515751608
  0
LINE
  5
173
330
1F
100
AcDbEntity
  8
0
  6
Continuous
 62
     7
370
    25
100
AcDbLine
 10
6268.9112151089
 20
4384.5038753525
 30
0.0
 11
6279.2613262982
 21
4385.4393957262
 31
0.0
  0
ARC
  5
174
330
1F
100
AcDbEntity
  8
0
  6
Continuous
 62
     7
370
    25
100
AcDbCircle
 10
6274.0187553361
 20
4385.7185904745
 30
0.0
 40
5.25000000000011
100
AcDbArc
 50
356.9515751608
 51
13.3779965643
  0
ARC
  5
175
330
1F
100
AcDbEntity
  8
0
  6
Continuous
 62
     7
370
    25
100
AcDbCircle
 10
6274.0187553361
 20
4385.7185904745
 30
0.0
 40
5.25000000000011
100
AcDbArc
 50
176.9515751608
 51
193.3779965643
  0
LINE
  5
176
330
1F
100
AcDbEntity
  8
0
  6
Continuous
 62
     7
370
    25
100
AcDbLine
 10
6234.0908389334
 20
4635.7229983773
 30
0.0
 11
6234.0463451761
 21
4635.7230032876
 31
0.0
  0
LINE
  5
177
330
1F
100
AcDbEntity
  8
0
  6
Continuous
 62
     7
370
    25
100
AcDbLine
 10
6314.0463446889
 20
4635.7141746167
 30
0.0
 11
6234.0908389334
 21
4635.7229983773
 31
0.0
  0
LINE
  5
178
330
1F
100
AcDbEntity
  8
0
  6
Continuous
 62
     7
370
    25
100
AcDbLine
 10
6290.9307860302
 20
4600.7167253994
 30
0.0
 11
6257.1077178678
 21
4600.7204580586
 31
0.0
  0
LINE
  5
179
330
1F
100
AcDbEntity
  8
0
  6
Continuous
 62
     7
370
    25
100
AcDbLine
 10
6254.0696955168
 20
4645.7207936038
 30
0.0
 11
6254.0474486381
 21
4645.720796059
 31
0.0
  0
LINE
  5
17A
330
1F
100
AcDbEntity
  8
0
  6
Continuous
 62
     7
370
    25
100
AcDbLine
 10
6294.0474483945
 20
4645.7163817236
 30
0.0
 11
6254.0696955168
 21
4645.7207936038
 31
0.0
  0
LINE
  5
17B
330
1F
100
AcDbEntity
  8
0
  6
Continuous
 62
     7
370
    25
100
AcDbLine
 10
6273.7048272471
 20
4370.7218758625
 30
0.0
 11
6274.4946738553
 21
4370.7261423234
 31
0.0
  0
ARC
  5
17C
330
1F
100
AcDbEntity
  8
0
  6
Continuous
 62
     7
370
    25
100
AcDbCircle
 10
6274.0187553361
 20
4385.7185904745
 30
0.0
 40
14.99999999999994
100
AcDbArc
 50
292.8922780785
 51
331.8181799712
  0
ARC
  5
17D
330
1F
100
AcDbEntity
  8
0
  6
Continuous
 62
     7
370
    25
100
AcDbCircle
 10
6274.0187553361
 20
4385.7185904745
 30
0.0
 40
15.00000000000074
100
AcDbArc
 50
352.8922780785
 51
31.8181799712
  0
ARC
  5
17E
330
1F
100
AcDbEntity
  8
0
  6
Continuous
 62
     7
370
    25
100
AcDbCircle
 10
6274.0187553361
 20
4385.7185904745
 30
0.0
 40
15.00000000000002
100
AcDbArc
 50
52.8922780785
 51
91.8181799712
  0
ARC
  5
17F
330
1F
100
AcDbEntity
  8
0
  6
Continuous
 62
     7
370
    25
100
AcDbCircle
 10
6274.0187553361
 20
4385.7185904745
 30
0.0
 40
15.00000000000015
100
AcDbArc
 50
112.8922780785
 51
151.8181799712
  0
ARC
  5
180
330
1F
100
AcDbEntity
  8
0
  6
Continuous
 62
     7
370
    25
100
AcDbCircle
 10
6274.0187553361
 20
4385.7185904745
 30
0.0
 40
15.00000000000031
100
AcDbArc
 50
172.8922780785
 51
211.8181799712
  0
ARC
  5
181
330
1F
100
AcDbEntity
  8
0
  6
Continuous
 62
     7
370
    25
100
AcDbCircle
 10
6274.0187553361
 20
4385.7185904745
 30
0.0
 40
15.00000000000074
100
AcDbArc
 50
232.8922780785
 51
268.8007954751
  0
ARC
  5
182
330
1F
100
AcDbEntity
  8
0
  6
Continuous
 62
     7
370
    25
100
AcDbCircle
 10
6274.0203681762
 20
4579.0389433092
 30
0.0
 40
31.3052175524857
100
AcDbArc
 50
268.7205351578
 51
274.749492587
  0
LWPOLYLINE
  5
183
330
1F
100
AcDbEntity
  8
0
  6
Continuous
 62
     7
370
    25
100
AcDbPolyline
 90
       12
 70
   128
 43
0.0
 10
6276.6124208398
 20
4547.8412204917
 10
6278.6969718614
 20
4548.091662745
 10
6280.6509500225
 20
4548.4811911859
 10
6282.4198181898
 20
4548.9989337562
 10
6283.9542058019
 20
4549.630439836
 10
6285.2112868419
 20
4550.3580835727
 10
6286.1559751469
 20
4551.1615558327
 10
6286.7619036914
 20
4552.0184310461
 10
6287.0121605127
 20
4552.9047931231
 10
6286.8997607376
 20
4553.7959029708
 10
6286.4278415362
 20
4554.6668889825
 10
6285.6095745603
 20
4555.4934412243
  0
ARC
  5
184
330
1F
100
AcDbEntity
  8
0
  6
Continuous
 62
     7
370
    25
100
AcDbCircle
 10
6280.0903341839
 20
4548.4544942916
 30
0.0
 40
8.944763174796904
100
AcDbArc
 50
51.8999950925
 51
65.8217115209
  0
LWPOLYLINE
  5
185
330
1F
100
AcDbEntity
  8
0
  6
Continuous
 62
     7
370
    25
100
AcDbPolyline
 90
       12
 70
   128
 43
0.0
 10
6283.7539067413
 20
4556.6145815687
 10
6282.1837280712
 20
4557.231058487
 10
6280.3856583147
 20
4557.7315335613
 10
6278.4098830736
 20
4558.1020381215
 10
6276.3115478555
 20
4558.3322310816
 10
6274.1492189175
 20
4558.4156875673
 10
6271.983248634
 20
4558.3500782395
 10
6269.8740910121
 20
4558.1372343084
 10
6267.8806143712
 20
4557.7830964227
 10
6266.0584582795
 20
4557.2975488613
 10
6264.458480608
 20
4556.694143655
 10
6263.1253380461
 20
4555.9897223378
  0
ARC
  5
186
330
1F
100
AcDbEntity
  8
0
  6
Continuous
 62
     7
370
    25
100
AcDbCircle
 10
6266.1731871998
 20
4550.9519360093
 30
0.0
 40
5.888011171535156
100
AcDbArc
 50
121.1738418288
 51
139.5895319619
  0
LWPOLYLINE
  5
187
330
1F
100
AcDbEntity
  8
0
  6
Continuous
 62
     7
370
    25
100
AcDbPolyline
 90
       12
 70
   128
 43
0.0
 10
6261.6899384272
 20
4554.7688923883
 10
6261.1755660757
 20
4553.9019732166
 10
6261.0196576711
 20
4553.0119697015
 10
6261.2265647449
 20
4552.123722571
 10
6261.7905123509
 20
4551.262023531
 10
6262.6957602489
 20
4550.4509233087
 10
6263.9170422274
 20
4549.7130603765
 10
6265.4202713048
 20
4549.0690290941
 10
6267.1634911244
 20
4548.5368049029
 10
6269.0980469912
 20
4548.1312426165
 10
6271.1699438641
 20
4547.8636618112
 10
6273.321353402
 20
4547.7415308865
  0
LWPOLYLINE
  5
188
330
1F
100
AcDbEntity
  8
0
  6
Continuous
 62
     7
370
    25
100
AcDbPolyline
 90
       46
 70
   128
 43
0.0
 10
6257.6306536562
 20
4556.6920563178
 10
6256.6883851436
 20
4555.7233422964
 10
6256.0834325737
 20
4554.7101774244
 10
6255.8275706603
 20
4553.6722818035
 10
6255.9257794644
 20
4552.6298568914
 10
6256.3761474634
 20
4551.6031923033
 10
6257.1699087565
 20
4550.6122708976
 10
6258.291613683
 20
4549.6763798322
 10
6259.7194295324
 20
4548.8137351623
 10
6261.4255654933
 20
4548.0411272851
 10
6263.37681357
 20
4547.373594134
 10
6265.5351949381
 20
4546.8241284825
 10
6267.8586991595
 20
4546.4034250546
 10
6270.3021018674
 20
4546.119672364
 10
6272.8178450074
 20
4545.9783933339
 10
6275.356962501
 20
4545.9823378
 10
6277.8700333142
 20
4546.1314289878
 10
6280.3081433824
 20
4546.4227650069
 10
6282.6238376664
 20
4546.850675333
 10
6284.7720438109
 20
4547.4068311784
 10
6286.710949427
 20
4548.0804076022
 10
6288.4028159222
 20
4548.8582942055
 10
6289.8147130397
 20
4549.7253503104
 10
6290.9191598082
 20
4550.664699656
 10
6291.6946594276
 20
4551.6580588759
 10
6292.1261176798
 20
4552.6860933627
 10
6292.2051367209
 20
4553.7287935945
 10
6291.930178535
 20
4554.7658645975
 10
6291.3065948704
 20
4555.7771209641
 10
6290.346523074
 20
4556.7428797394
 10
6289.0686498511
 20
4557.6443435275
 10
6287.4978475505
 20
4558.4639663612
 10
6285.6646900522
 20
4559.1857952141
 10
6283.6048576816
 20
4559.7957805089
 10
6281.358442733
 20
4560.2820495756
 10
6278.9691691179
 20
4560.6351377399
 10
6276.4835413296
 20
4560.8481725423
 10
6273.9499392856
 20
4560.9170075028
 10
6271.4176766677
 20
4560.8403028271
 10
6268.9360410874
 20
4560.6195514845
 10
6266.5533347585
 20
4560.2590501488
 10
6264.3159343493
 20
4559.7658155684
 10
6262.2673883138
 20
4559.1494479933
 10
6260.4475692705
 20
4558.4219443174
 10
6258.8918979269
 20
4557.5974645721
 10
6257.6306536562
 20
4556.6920563178
  0
LINE
  5
189
330
1F
100
AcDbEntity
  8
0
  6
Continuous
 62
     7
370
    25
100
AcDbLine
 10
6276.6124208398
 20
4550.9664936879
 30
0.0
 11
6276.6124208398
 21
4547.8412204917
 31
0.0
  0
LINE
  5
18A
330
1F
100
AcDbEntity
  8
0
  6
Continuous
 62
     7
370
    25
100
AcDbLine
 10
6279.5013949533
 20
4553.7868873611
 30
0.0
 11
6285.6095745603
 21
4555.4934412243
 31
0.0
  0
LWPOLYLINE
  5
18B
330
1F
100
AcDbEntity
  8
0
  6
Continuous
 62
     7
370
    25
100
AcDbPolyline
 90
        9
 70
   128
 43
0.0
 10
6276.0692934639
 20
4550.8678310696
 10
6277.0422251296
 20
4551.0654591703
 10
6277.9074341251
 20
4551.3346812167
 10
6278.6340940724
 20
4551.6659051442
 10
6279.1963149328
 20
4552.0473298341
 10
6279.5740654387
 20
4552.4653655737
 10
6279.7538867842
 20
4552.9051182415
 10
6279.7293721466
 20
4553.3509199675
 10
6279.5013949533
 20
4553.7868873611
  0
LINE
  5
18C
330
1F
100
AcDbEntity
  8
0
  6
Continuous
 62
     7
370
    25
100
AcDbLine
 10
6276.6124208398
 20
4547.8412204917
 30
0.0
 11
6276.0692934639
 21
4550.8678310696
 31
0.0
  0
LINE
  5
18D
330
1F
100
AcDbEntity
  8
0
  6
Continuous
 62
     7
370
    25
100
AcDbLine
 10
6272.7782260262
 20
4550.7681414645
 30
0.0
 11
6273.321353402
 21
4547.7415308865
 31
0.0
  0
LWPOLYLINE
  5
18E
330
1F
100
AcDbEntity
  8
0
  6
Continuous
 62
     7
370
    25
100
AcDbPolyline
 90
        9
 70
   128
 43
0.0
 10
6268.34124541
 20
4553.4488356735
 10
6268.2713566418
 20
4553.0038456328
 10
6268.4062409244
 20
4552.5613871097
 10
6268.7410924895
 20
4552.1372243805
 10
6269.2639809701
 20
4551.746469864
 10
6269.9562764649
 20
4551.4030456838
 10
6270.7933133004
 20
4551.1191876392
 10
6271.7452688393
 20
4550.9050092582
 10
6272.7782260262
 20
4550.7681414645
  0
LINE
  5
18F
330
1F
100
AcDbEntity
  8
0
  6
Continuous
 62
     7
370
    25
100
AcDbLine
 10
6261.6899384272
 20
4554.7688923883
 30
0.0
 11
6268.34124541
 21
4553.4488356735
 31
0.0
  0
LINE
  5
190
330
1F
100
AcDbEntity
  8
0
  6
Continuous
 62
     7
370
    25
100
AcDbLine
 10
6269.7766450288
 20
4554.6696656231
 30
0.0
 11
6263.1253380461
 21
4555.9897223378
 31
0.0
  0
ARC
  5
191
330
1F
100
AcDbEntity
  8
0
  6
Continuous
 62
     7
370
    25
100
AcDbCircle
 10
6274.0565559829
 20
4543.3870998688
 30
0.0
 40
12.06705961589587
100
AcDbArc
 50
72.6963655394
 51
110.7736622054
  0
LINE
  5
192
330
1F
100
AcDbEntity
  8
0
  6
Continuous
 62
     7
370
    25
100
AcDbLine
 10
6283.7539067413
 20
4556.6145815687
 30
0.0
 11
6277.6457271344
 21
4554.9080277055
 31
0.0
  0
LWPOLYLINE
  5
193
330
1F
100
AcDbEntity
  8
0
  6
Continuous
 62
     7
370
    25
100
AcDbPolyline
 90
        3
 70
   128
 43
0.0
 10
6278.9392313098
 20
4553.4398196133
 10
6279.0147094398
 20
4552.9922746717
 10
6279.0096299338
 20
4552.9508438737
  0
LWPOLYLINE
  5
194
330
1F
100
AcDbEntity
  8
0
  6
Continuous
 62
     7
370
    25
100
AcDbPolyline
 90
        3
 70
   128
 43
0.0
 10
6269.1629114733
 20
4552.5851785916
 10
6269.041950237
 20
4552.8772576341
 10
6269.019736754
 20
4553.0341985951
  0
LINE
  5
195
330
1F
100
AcDbEntity
  8
0
  6
Continuous
 62
     7
370
    25
100
AcDbLine
 10
6277.6457271344
 20
4558.2038723571
 30
0.0
 11
6277.6457271344
 21
4554.9080277055
 31
0.0
  0
LINE
  5
196
330
1F
100
AcDbEntity
  8
0
  6
Continuous
 62
     7
370
    25
100
AcDbLine
 10
6269.7766450288
 20
4558.1235906285
 30
0.0
 11
6269.7766450288
 21
4554.6696656231
 31
0.0
  0
CIRCLE
  5
197
330
1F
100
AcDbEntity
  8
0
  6
Continuous
 62
     7
370
    25
100
AcDbCircle
 10
6274.0187553361
 20
4405.7185904745
 30
0.0
 40
217.0
  0
CIRCLE
  5
198
330
1F
100
AcDbEntity
  8
0
  6
Continuous
 62
     7
370
    25
100
AcDbCircle
 10
6274.0187553361
 20
4405.7185904745
 30
0.0
 40
220.0
  0
CIRCLE
  5
199
330
1F
100
AcDbEntity
  8
0
  6
Continuous
 62
     7
370
    25
100
AcDbCircle
 10
6274.0187553361
 20
4385.7185904745
 30
0.0
 40
182.3618983210181
  0
CIRCLE
  5
19A
330
1F
100
AcDbEntity
  8
0
  6
Continuous
 62
     7
370
    25
100
AcDbCircle
 10
6274.0187553361
 20
4596.2185904745
 30
0.0
 40
17.5
  0
CIRCLE
  5
19B
330
1F
100
AcDbEntity
  8
0
  6
Continuous
 62
     7
370
    25
100
AcDbCircle
 10
6274.0187553361
 20
4385.7185904745
 30
0.0
 40
179.449848051343
  0
SPLINE
  5
19C
330
1F
100
AcDbEntity
  8
0
  6
Continuous
 62
     7
370
    25
100
AcDbSpline
210
0.0
220
0.0
230
1.0
 70
     8
 71
     3
 72
    30
 73
    26
 74
     0
 42
0.000000001
 43
0.00000001
 40
0.0
 40
0.0
 40
0.0
 40
0.0
 40
0.0248259075741133
 40
0.0718963639603466
 40
0.1174670139363404
 40
0.1643656336386165
 40
0.2098283294473632
 40
0.2566086588769056
 40
0.3020943549176945
 40
0.3488891782416032
 40
0.3945578975314767
 40
0.4415375368042421
 40
0.4874436907723994
 40
0.5346733487307812
 40
0.5807080087372496
 40
0.6280811377556008
 40
0.674044760817266
 40
0.721353809237375
 40
0.7670951860592752
 40
0.8141757329459617
 40
0.8597003705419318
 40
0.9065498225257952
 40
0.9520020836068056
 40
0.9987682514514161
 40
1.0
 40
1.0
 40
1.0
 40
1.0
 10
6256.428458342212
 20
4551.814264215276
 30
0.0
 10
6256.28028756085
 20
4552.023646944866
 30
0.0
 10
6255.8511817812
 20
4552.630023847251
 30
0.0
 10
6255.706252492534
 20
4553.669954663114
 30
0.0
 10
6255.965478817983
 20
4554.897687901097
 30
0.0
 10
6256.754321161739
 20
4556.082416288385
 30
0.0
 10
6258.03308927226
 20
4557.209527343447
 30
0.0
 10
6259.749204263895
 20
4558.227374548737
 30
0.0
 10
6261.883338213374
 20
4559.125355823485
 30
0.0
 10
6264.340219567171
 20
4559.862433383048
 30
0.0
 10
6267.095107447347
 20
4560.429743908633
 30
0.0
 10
6270.027090722378
 20
4560.800707800371
 30
0.0
 10
6273.103666579083
 20
4560.969441124437
 30
0.0
 10
6276.1865867304
 20
4560.926781833326
 30
0.0
 10
6279.239053626564
 20
4560.672178603388
 30
0.0
 10
6282.117815694953
 20
4560.217030160125
 30
0.0
 10
6284.789855303152
 20
4559.566900684385
 30
0.0
 10
6287.12670341925
 20
4558.754067677943
 30
0.0
 10
6289.105572771314
 20
4557.788329083362
 30
0.0
 10
6290.634438944631
 20
4556.71775182553
 30
0.0
 10
6291.697112974232
 20
4555.554057548981
 30
0.0
 10
6292.265839678405
 20
4554.350587158073
 30
0.0
 10
6292.2656128125
 20
4553.127674619426
 30
0.0
 10
6292.062702915189
 20
4552.299405237064
 30
0.0
 10
6291.725523823613
 20
4551.901785637981
 30
0.0
 10
6291.716870950992
 20
4551.891581708293
 30
0.0
  0
CIRCLE
  5
19D
330
1F
100
AcDbEntity
  8
0
  6
Continuous
 62
     7
370
    25
100
AcDbCircle
 10
6274.0187553361
 20
4385.7185904745
 30
0.0
 40
35.73313135827266
  0
ENDSEC
  0
SECTION
  2
OBJECTS
  0
DICTIONARY
  5
C
330
0
100
AcDbDictionary
281
     1
  3
ACAD_GROUP
350
D
  3
ACAD_LAYOUT
350
1A
  3
ACAD_MLINESTYLE
350
17
  3
ACAD_PLOTSETTINGS
350
19
  3
ACAD_PLOTSTYLENAME
350
E
  3
ACAD_SCALELIST
350
47
  0
DICTIONARY
  5
D
102
{ACAD_REACTORS
330
C
102
}
330
C
100
AcDbDictionary
281
     1
  0
DICTIONARY
  5
1A
102
{ACAD_REACTORS
330
C
102
}
330
C
100
AcDbDictionary
281
     1
  3
Layout1
350
1E
  3
Layout2
350
26
  3
Model
350
22
  0
DICTIONARY
  5
17
102
{ACAD_REACTORS
330
C
102
}
330
C
100
AcDbDictionary
281
     1
  3
Standard
350
18
  0
DICTIONARY
  5
19
102
{ACAD_REACTORS
330
C
102
}
330
C
100
AcDbDictionary
281
     1
  0
ACDBDICTIONARYWDFLT
  5
E
102
{ACAD_REACTORS
330
C
102
}
330
C
100
AcDbDictionary
281
     1
  3
Normal
350
F
100
AcDbDictionaryWithDefault
340
F
  0
DICTIONARY
  5
47
102
{ACAD_REACTORS
330
C
102
}
330
C
100
AcDbDictionary
281
     1
  3
A0
350
48
  3
A1
350
49
  3
A2
350
4A
  3
A3
350
4B
  3
A4
350
4C
  3
A5
350
4D
  3
A6
350
4E
  3
A7
350
4F
  3
A8
350
50
  3
A9
350
51
  3
B0
350
52
  3
B1
350
53
  3
B2
350
54
  3
B3
350
55
  3
B4
350
56
  3
B5
350
57
  3
B6
350
58
  3
B7
350
59
  3
B8
350
5A
  3
B9
350
5B
  3
C0
350
5C
  3
C1
350
5D
  3
C2
350
5E
  3
C3
350
5F
  3
C4
350
60
  3
C5
350
61
  3
C6
350
62
  3
C7
350
63
  3
C8
350
64
  3
C9
350
65
  3
D0
350
66
  3
D1
350
67
  3
D2
350
68
  0
LAYOUT
  5
1E
102
{ACAD_REACTORS
330
1A
102
}
330
1A
100
AcDbPlotSettings
  1

  2
none_device
  4

  6

 40
0.0
 41
0.0
 42
0.0
 43
0.0
 44
0.0
 45
0.0
 46
0.0
 47
0.0
 48
0.0
 49
0.0
140
0.0
141
0.0
142
1.0
143
1.0
 70
   688
 72
     1
 73
     0
 74
     5
  7

 75
    16
147
1.0
148
0.0
149
0.0
100
AcDbLayout
  1
Layout1
 70
     1
 71
     1
 10
0.0
 20
0.0
 11
420.0
 21
297.0
 12
0.0
 22
0.0
 32
0.0
 14
1.0000000000E+20
 24
1.0000000000E+20
 34
1.0000000000E+20
 15
-1.0000000000E+20
 25
-1.0000000000E+20
 35
-1.0000000000E+20
146
0.0
 13
0.0
 23
0.0
 33
0.0
 16
1.0
 26
0.0
 36
0.0
 17
0.0
 27
1.0
 37
0.0
 76
     0
330
1B
  0
LAYOUT
  5
26
102
{ACAD_REACTORS
330
1A
102
}
330
1A
100
AcDbPlotSettings
  1

  2
none_device
  4

  6

 40
0.0
 41
0.0
 42
0.0
 43
0.0
 44
0.0
 45
0.0
 46
0.0
 47
0.0
 48
0.0
 49
0.0
140
0.0
141
0.0
142
1.0
143
1.0
 70
   688
 72
     1
 73
     0
 74
     5
  7

 75
    16
147
1.0
148
0.0
149
0.0
100
AcDbLayout
  1
Layout2
 70
     1
 71
     2
 10
0.0
 20
0.0
 11
0.0
 21
0.0
 12
0.0
 22
0.0
 32
0.0
 14
0.0
 24
0.0
 34
0.0
 15
0.0
 25
0.0
 35
0.0
146
0.0
 13
0.0
 23
0.0
 33
0.0
 16
1.0
 26
0.0
 36
0.0
 17
0.0
 27
1.0
 37
0.0
 76
     0
330
23
  0
LAYOUT
  5
22
102
{ACAD_REACTORS
330
1A
102
}
330
1A
100
AcDbPlotSettings
  1

  2
none_device
  4
Letter_(8.50_x_11.00_Inches)
  6

 40
6.35
 41
6.35
 42
6.35000508
 43
6.35000508
 44
215.9
 45
279.4
 46
0.0
 47
0.0
 48
0.0
 49
0.0
140
0.0
141
0.0
142
1.0
143
1.0
 70
  1712
 72
     1
 73
     0
 74
     0
  7

 75
     0
147
1.0
148
0.0
149
0.0
100
AcDbLayout
  1
Model
 70
     1
 71
     0
 10
0.0
 20
0.0
 11
20000.0
 21
10000.0
 12
0.0
 22
0.0
 32
0.0
 14
0.0
 24
0.0
 34
0.0
 15
20000.0
 25
10000.0
 35
0.0
146
0.0
 13
0.0
 23
0.0
 33
0.0
 16
1.0
 26
0.0
 36
0.0
 17
0.0
 27
1.0
 37
0.0
 76
     0
330
1F
331
29
  0
MLINESTYLE
  5
18
102
{ACAD_REACTORS
330
17
102
}
330
17
100
AcDbMlineStyle
  2
Standard
 70
     0
  3

 62
   256
 51
90.0
 52
90.0
 71
     2
 49
0.5
 62
   256
  6
BYLAYER
 49
-0.5
 62
   256
  6
BYLAYER
  0
ACDBPLACEHOLDER
  5
F
102
{ACAD_REACTORS
330
E
102
}
330
E
  0
SCALE
  5
48
102
{ACAD_REACTORS
330
47
102
}
330
47
100
AcDbScale
 70
     0
300
1:1
140
1.0
141
1.0
290
     1
  0
SCALE
  5
49
102
{ACAD_REACTORS
330
47
102
}
330
47
100
AcDbScale
 70
     0
300
1:2
140
1.0
141
2.0
290
     0
  0
SCALE
  5
4A
102
{ACAD_REACTORS
330
47
102
}
330
47
100
AcDbScale
 70
     0
300
1:4
140
1.0
141
4.0
290
     0
  0
SCALE
  5
4B
102
{ACAD_REACTORS
330
47
102
}
330
47
100
AcDbScale
 70
     0
300
1:5
140
1.0
141
5.0
290
     0
  0
SCALE
  5
4C
102
{ACAD_REACTORS
330
47
102
}
330
47
100
AcDbScale
 70
     0
300
1:8
140
1.0
141
8.0
290
     0
  0
SCALE
  5
4D
102
{ACAD_REACTORS
330
47
102
}
330
47
100
AcDbScale
 70
     0
300
1:10
140
1.0
141
10.0
290
     0
  0
SCALE
  5
4E
102
{ACAD_REACTORS
330
47
102
}
330
47
100
AcDbScale
 70
     0
300
1:16
140
1.0
141
16.0
290
     0
  0
SCALE
  5
4F
102
{ACAD_REACTORS
330
47
102
}
330
47
100
AcDbScale
 70
     0
300
1:20
140
1.0
141
20.0
290
     0
  0
SCALE
  5
50
102
{ACAD_REACTORS
330
47
102
}
330
47
100
AcDbScale
 70
     0
300
1:30
140
1.0
141
30.0
290
     0
  0
SCALE
  5
51
102
{ACAD_REACTORS
330
47
102
}
330
47
100
AcDbScale
 70
     0
300
1:40
140
1.0
141
40.0
290
     0
  0
SCALE
  5
52
102
{ACAD_REACTORS
330
47
102
}
330
47
100
AcDbScale
 70
     0
300
1:50
140
1.0
141
50.0
290
     0
  0
SCALE
  5
53
102
{ACAD_REACTORS
330
47
102
}
330
47
100
AcDbScale
 70
     0
300
1:100
140
1.0
141
100.0
290
     0
  0
SCALE
  5
54
102
{ACAD_REACTORS
330
47
102
}
330
47
100
AcDbScale
 70
     0
300
2:1
140
2.0
141
1.0
290
     0
  0
SCALE
  5
55
102
{ACAD_REACTORS
330
47
102
}
330
47
100
AcDbScale
 70
     0
300
4:1
140
4.0
141
1.0
290
     0
  0
SCALE
  5
56
102
{ACAD_REACTORS
330
47
102
}
330
47
100
AcDbScale
 70
     0
300
8:1
140
8.0
141
1.0
290
     0
  0
SCALE
  5
57
102
{ACAD_REACTORS
330
47
102
}
330
47
100
AcDbScale
 70
     0
300
10:1
140
10.0
141
1.0
290
     0
  0
SCALE
  5
58
102
{ACAD_REACTORS
330
47
102
}
330
47
100
AcDbScale
 70
     0
300
100:1
140
100.0
141
1.0
290
     0
  0
SCALE
  5
59
102
{ACAD_REACTORS
330
47
102
}
330
47
100
AcDbScale
 70
     0
300
1/128" = 1'-0"
140
0.0078125
141
12.0
290
     0
  0
SCALE
  5
5A
102
{ACAD_REACTORS
330
47
102
}
330
47
100
AcDbScale
 70
     0
300
1/64" = 1'-0"
140
0.015625
141
12.0
290
     0
  0
SCALE
  5
5B
102
{ACAD_REACTORS
330
47
102
}
330
47
100
AcDbScale
 70
     0
300
1/32" = 1'-0"
140
0.03125
141
12.0
290
     0
  0
SCALE
  5
5C
102
{ACAD_REACTORS
330
47
102
}
330
47
100
AcDbScale
 70
     0
300
1/16" = 1'-0"
140
0.0625
141
12.0
290
     0
  0
SCALE
  5
5D
102
{ACAD_REACTORS
330
47
102
}
330
47
100
AcDbScale
 70
     0
300
3/32" = 1'-0"
140
0.09375
141
12.0
290
     0
  0
SCALE
  5
5E
102
{ACAD_REACTORS
330
47
102
}
330
47
100
AcDbScale
 70
     0
300
1/8" = 1'-0"
140
0.125
141
12.0
290
     0
  0
SCALE
  5
5F
102
{ACAD_REACTORS
330
47
102
}
330
47
100
AcDbScale
 70
     0
300
3/16" = 1'-0"
140
0.1875
141
12.0
290
     0
  0
SCALE
  5
60
102
{ACAD_REACTORS
330
47
102
}
330
47
100
AcDbScale
 70
     0
300
1/4" = 1'-0"
140
0.25
141
12.0
290
     0
  0
SCALE
  5
61
102
{ACAD_REACTORS
330
47
102
}
330
47
100
AcDbScale
 70
     0
300
3/8" = 1'-0"
140
0.375
141
12.0
290
     0
  0
SCALE
  5
62
102
{ACAD_REACTORS
330
47
102
}
330
47
100
AcDbScale
 70
     0
300
1/2" = 1'-0"
140
0.5
141
12.0
290
     0
  0
SCALE
  5
63
102
{ACAD_REACTORS
330
47
102
}
330
47
100
AcDbScale
 70
     0
300
3/4" = 1'-0"
140
0.75
141
12.0
290
     0
  0
SCALE
  5
64
102
{ACAD_REACTORS
330
47
102
}
330
47
100
AcDbScale
 70
     0
300
1" = 1'-0"
140
1.0
141
12.0
290
     0
  0
SCALE
  5
65
102
{ACAD_REACTORS
330
47
102
}
330
47
100
AcDbScale
 70
     0
300
1-1/2" = 1'-0"
140
1.5
141
12.0
290
     0
  0
SCALE
  5
66
102
{ACAD_REACTORS
330
47
102
}
330
47
100
AcDbScale
 70
     0
300
3" = 1'-0"
140
3.0
141
12.0
290
     0
  0
SCALE
  5
67
102
{ACAD_REACTORS
330
47
102
}
330
47
100
AcDbScale
 70
     0
300
6" = 1'-0"
140
6.0
141
12.0
290
     0
  0
SCALE
  5
68
102
{ACAD_REACTORS
330
47
102
}
330
47
100
AcDbScale
 70
     0
300
1'-0" = 1'-0"
140
12.0
141
12.0
290
     0
  0
ENDSEC
  0
EOF
