  0
SECTION
  2
HEADER
  9
$ACADVER
  1
AC1015
  9
$ACADMAINTVER
 70
     6
  9
$DWGCODEPAGE
  3
ANSI_1250
  9
$INSBASE
 10
0.0
 20
0.0
 30
0.0
  9
$EXTMIN
 10
0.0
 20
0.0
 30
0.0
  9
$EXTMAX
 10
20000.0
 20
10000.0
 30
0.0
  9
$LIMMIN
 10
0.0
 20
0.0
  9
$LIMMAX
 10
20000.0
 20
10000.0
  9
$ORTHOMODE
 70
     0
  9
$REGENMODE
 70
     1
  9
$FILLMODE
 70
     1
  9
$QTEXTMODE
 70
     0
  9
$MIRRTEXT
 70
     1
  9
$LTSCALE
 40
1.0
  9
$ATTMODE
 70
     1
  9
$TEXTSIZE
 40
2.0
  9
$TRACEWID
 40
1.0
  9
$TEXTSTYLE
  7
Standard
  9
$CLAYER
  8
0
  9
$CELTYPE
  6
ByLayer
  9
$CECOLOR
 62
   256
  9
$CELTSCALE
 40
1.0
  9
$DISPSILH
 70
     0
  9
$DIMSCALE
 40
1.0
  9
$DIMASZ
 40
2.0
  9
$DIMEXO
 40
1.0
  9
$DIMDLI
 40
3.75
  9
$DIMRND
 40
0.0
  9
$DIMDLE
 40
0.0
  9
$DIMEXE
 40
1.0
  9
$DIMTP
 40
0.0
  9
$DIMTM
 40
0.0
  9
$DIMTXT
 40
2.0
  9
$DIMCEN
 40
2.5
  9
$DIMTSZ
 40
0.0
  9
$DIMTOL
 70
     0
  9
$DIMLIM
 70
     0
  9
$DIMTIH
 70
     1
  9
$DIMTOH
 70
     1
  9
$DIMSE1
 70
     0
  9
$DIMSE2
 70
     0
  9
$DIMTAD
 70
     1
  9
$DIMZIN
 70
     0
  9
$DIMBLK
  1

  9
$DIMASO
 70
     1
  9
$DIMSHO
 70
     1
  9
$DIMPOST
  1

  9
$DIMAPOST
  1

  9
$DIMALT
 70
     0
  9
$DIMALTD
 70
     3
  9
$DIMALTF
 40
0.0393700787
  9
$DIMLFAC
 40
1.0
  9
$DIMTOFL
 70
     1
  9
$DIMTVP
 40
0.0
  9
$DIMTIX
 70
     0
  9
$DIMSOXD
 70
     0
  9
$DIMSAH
 70
     0
  9
$DIMBLK1
  1

  9
$DIMBLK2
  1

  9
$DIMSTYLE
  2
ISO-25
  9
$DIMCLRD
 70
     0
  9
$DIMCLRE
 70
     0
  9
$DIMCLRT
 70
     0
  9
$DIMTFAC
 40
1.0
  9
$DIMGAP
 40
1.524
  9
$DIMJUST
 70
     0
  9
$DIMSD1
 70
     0
  9
$DIMSD2
 70
     0
  9
$DIMTOLJ
 70
     0
  9
$DIMTZIN
 70
     0
  9
$DIMALTZ
 70
     0
  9
$DIMALTTZ
 70
     0
  9
$DIMUPT
 70
     0
  9
$DIMDEC
 70
     2
  9
$DIMTDEC
 70
     0
  9
$DIMALTU
 70
     2
  9
$DIMALTTD
 70
     3
  9
$DIMTXSTY
  7
Standard
  9
$DIMAUNIT
 70
     0
  9
$DIMADEC
 70
     2
  9
$DIMALTRND
 40
0.0
  9
$DIMAZIN
 70
     0
  9
$DIMDSEP
 70
    44
  9
$DIMATFIT
 70
     3
  9
$DIMFRAC
 70
     0
  9
$DIMLDRBLK
  1

  9
$DIMLUNIT
 70
     2
  9
$DIMLWD
 70
    -2
  9
$DIMLWE
 70
    -2
  9
$DIMTMOVE
 70
     0
  9
$LUNITS
 70
     2
  9
$LUPREC
 70
     3
  9
$SKETCHINC
 40
1.0
  9
$FILLETRAD
 40
10.0
  9
$AUNITS
 70
     0
  9
$AUPREC
 70
     2
  9
$MENU
  1
.
  9
$ELEVATION
 40
0.0
  9
$PELEVATION
 40
0.0
  9
$THICKNESS
 40
0.0
  9
$LIMCHECK
 70
     0
  9
$CHAMFERA
 40
0.0
  9
$CHAMFERB
 40
0.0
  9
$CHAMFERC
 40
0.0
  9
$CHAMFERD
 40
0.0
  9
$SKPOLY
 70
     0
  9
$TDCREATE
 40
2458669.464951945
  9
$TDUCREATE
 40
2458669.381618611
  9
$TDUPDATE
 40
2458669.464953623
  9
$TDUUPDATE
 40
2458669.381620289
  9
$TDINDWG
 40
0.0000000116
  9
$TDUSRTIMER
 40
0.0000000116
  9
$USRTIMER
 70
     1
  9
$ANGBASE
 50
0.0
  9
$ANGDIR
 70
     0
  9
$PDMODE
 70
     0
  9
$PDSIZE
 40
-1.0
  9
$PLINEWID
 40
0.0
  9
$SPLFRAME
 70
     0
  9
$SPLINETYPE
 70
     6
  9
$SPLINESEGS
 70
     8
  9
$HANDSEED
  5
C6
  9
$SURFTAB1
 70
     6
  9
$SURFTAB2
 70
     6
  9
$SURFTYPE
 70
     6
  9
$SURFU
 70
     6
  9
$SURFV
 70
     6
  9
$UCSBASE
  2

  9
$UCSNAME
  2

  9
$UCSORG
 10
0.0
 20
0.0
 30
0.0
  9
$UCSXDIR
 10
1.0
 20
0.0
 30
0.0
  9
$UCSYDIR
 10
0.0
 20
1.0
 30
0.0
  9
$UCSORTHOREF
  2

  9
$UCSORTHOVIEW
 70
     0
  9
$UCSORGTOP
 10
0.0
 20
0.0
 30
0.0
  9
$UCSORGBOTTOM
 10
0.0
 20
0.0
 30
0.0
  9
$UCSORGLEFT
 10
0.0
 20
0.0
 30
0.0
  9
$UCSORGRIGHT
 10
0.0
 20
0.0
 30
0.0
  9
$UCSORGFRONT
 10
0.0
 20
0.0
 30
0.0
  9
$UCSORGBACK
 10
0.0
 20
0.0
 30
0.0
  9
$PUCSBASE
  2

  9
$PUCSNAME
  2

  9
$PUCSORG
 10
0.0
 20
0.0
 30
0.0
  9
$PUCSXDIR
 10
1.0
 20
0.0
 30
0.0
  9
$PUCSYDIR
 10
0.0
 20
1.0
 30
0.0
  9
$PUCSORTHOREF
  2

  9
$PUCSORTHOVIEW
 70
     0
  9
$PUCSORGTOP
 10
0.0
 20
0.0
 30
0.0
  9
$PUCSORGBOTTOM
 10
0.0
 20
0.0
 30
0.0
  9
$PUCSORGLEFT
 10
0.0
 20
0.0
 30
0.0
  9
$PUCSORGRIGHT
 10
0.0
 20
0.0
 30
0.0
  9
$PUCSORGFRONT
 10
0.0
 20
0.0
 30
0.0
  9
$PUCSORGBACK
 10
0.0
 20
0.0
 30
0.0
  9
$USERI1
 70
     0
  9
$USERI2
 70
     0
  9
$USERI3
 70
     0
  9
$USERI4
 70
     0
  9
$USERI5
 70
     0
  9
$USERR1
 40
0.0
  9
$USERR2
 40
0.0
  9
$USERR3
 40
0.0
  9
$USERR4
 40
0.0
  9
$USERR5
 40
0.0
  9
$WORLDVIEW
 70
     1
  9
$SHADEDGE
 70
     3
  9
$SHADEDIF
 70
    70
  9
$TILEMODE
 70
     1
  9
$MAXACTVP
 70
    64
  9
$PINSBASE
 10
0.0
 20
0.0
 30
0.0
  9
$PLIMCHECK
 70
     0
  9
$PEXTMIN
 10
1.0000000000E+20
 20
1.0000000000E+20
 30
1.0000000000E+20
  9
$PEXTMAX
 10
-1.0000000000E+20
 20
-1.0000000000E+20
 30
-1.0000000000E+20
  9
$PLIMMIN
 10
0.0
 20
0.0
  9
$PLIMMAX
 10
420.0
 20
297.0
  9
$UNITMODE
 70
     0
  9
$VISRETAIN
 70
     1
  9
$PLINEGEN
 70
     0
  9
$PSLTSCALE
 70
     1
  9
$TREEDEPTH
 70
  3020
  9
$CMLSTYLE
  2
Standard
  9
$CMLJUST
 70
     0
  9
$CMLSCALE
 40
20.0
  9
$PROXYGRAPHICS
 70
     1
  9
$MEASUREMENT
 70
     1
  9
$CELWEIGHT
370
    -1
  9
$ENDCAPS
280
     0
  9
$JOINSTYLE
280
     0
  9
$LWDISPLAY
290
     1
  9
$INSUNITS
 70
     4
  9
$HYPERLINKBASE
  1

  9
$STYLESHEET
  1

  9
$XEDIT
290
     1
  9
$CEPSNTYPE
380
     0
  9
$PSTYLEMODE
290
     1
  9
$FINGERPRINTGUID
  2
{E92A21B5-97A1-4416-AD8B-42B615878C1D}
  9
$VERSIONGUID
  2
{FAEB1C32-E019-11D5-929B-00C0DF256EC4}
  9
$EXTNAMES
290
     1
  9
$PSVPSCALE
 40
0.0
  9
$OLESTARTUP
290
     0
  0
ENDSEC
  0
SECTION
  2
CLASSES
  0
CLASS
  1
ACDBDICTIONARYWDFLT
  2
AcDbDictionaryWithDefault
  3
ObjectDBX Classes
 90
        0
280
     0
281
     0
  0
CLASS
  1
VISUALSTYLE
  2
AcDbVisualStyle
  3
ObjectDBX Classes
 90
     4095
280
     0
281
     0
  0
CLASS
  1
MATERIAL
  2
AcDbMaterial
  3
ObjectDBX Classes
 90
     1153
280
     0
281
     0
  0
CLASS
  1
SCALE
  2
AcDbScale
  3
ObjectDBX Classes
 90
     1153
280
     0
281
     0
  0
CLASS
  1
TABLESTYLE
  2
AcDbTableStyle
  3
ObjectDBX Classes
 90
     4095
280
     0
281
     0
  0
CLASS
  1
MLEADERSTYLE
  2
AcDbMLeaderStyle
  3
ACDB_MLEADERSTYLE_CLASS
 90
     4095
280
     0
281
     0
  0
CLASS
  1
SUN
  2
AcDbSun
  3
SCENEOE
 90
     1153
280
     0
281
     0
  0
CLASS
  1
ACDBPLACEHOLDER
  2
AcDbPlaceHolder
  3
ObjectDBX Classes
 90
        0
280
     0
281
     0
  0
CLASS
  1
LAYOUT
  2
AcDbLayout
  3
ObjectDBX Classes
 90
        0
280
     0
281
     0
  0
ENDSEC
  0
SECTION
  2
TABLES
  0
TABLE
  2
VPORT
  5
8
330
0
100
AcDbSymbolTable
 70
     1
  0
VPORT
  5
29
330
8
100
AcDbSymbolTableRecord
100
AcDbViewportTableRecord
  2
*Active
 70
     0
 10
0.0
 20
0.0
 11
1.0
 21
1.0
 12
10000.0
 22
5000.0
 13
0.0
 23
0.0
 14
10.0
 24
10.0
 15
10.0
 25
10.0
 16
0.0
 26
0.0
 36
1.0
 17
0.0
 27
0.0
 37
0.0
 40
10000.0
 41
2.0
 42
50.0
 43
0.0
 44
0.0
 50
0.0
 51
0.0
 71
     0
 72
  2000
 73
     1
 74
     3
 75
     0
 76
     0
 77
     0
 78
     0
281
     0
 65
     1
110
0.0
120
0.0
130
0.0
111
1.0
121
0.0
131
0.0
112
0.0
122
1.0
132
0.0
 79
     0
146
0.0
  0
ENDTAB
  0
TABLE
  2
LTYPE
  5
5
330
0
100
AcDbSymbolTable
 70
     6
  0
LTYPE
  5
14
330
5
100
AcDbSymbolTableRecord
100
AcDbLinetypeTableRecord
  2
ByBlock
 70
     0
  3

 72
    65
 73
     0
 40
0.0
  0
LTYPE
  5
15
330
5
100
AcDbSymbolTableRecord
100
AcDbLinetypeTableRecord
  2
ByLayer
 70
     0
  3

 72
    65
 73
     0
 40
0.0
  0
LTYPE
  5
16
330
5
100
AcDbSymbolTableRecord
100
AcDbLinetypeTableRecord
  2
Continuous
 70
     0
  3
Solid line
 72
    65
 73
     0
 40
0.0
  0
LTYPE
  5
6E
330
5
100
AcDbSymbolTableRecord
100
AcDbLinetypeTableRecord
  2
HIDDEN
 70
     0
  3
Hidden __ __ __ __ __ __ __ __ __ __ __ __ __ __
 72
    65
 73
     2
 40
1.905
 49
1.27
 74
     0
 49
-0.635
 74
     0
  0
LTYPE
  5
6F
330
5
100
AcDbSymbolTableRecord
100
AcDbLinetypeTableRecord
  2
PHANTOM
 70
     0
  3
Phantom ______  __  __  ______  __  __  ______
 72
    65
 73
     6
 40
12.7
 49
6.35
 74
     0
 49
-1.27
 74
     0
 49
1.27
 74
     0
 49
-1.27
 74
     0
 49
1.27
 74
     0
 49
-1.27
 74
     0
  0
LTYPE
  5
70
330
5
100
AcDbSymbolTableRecord
100
AcDbLinetypeTableRecord
  2
CENTER
 70
     0
  3
Center ____ _ ____ _ ____ _ ____ _ ____ _ ____
 72
    65
 73
     4
 40
10.16
 49
6.35
 74
     0
 49
-1.27
 74
     0
 49
1.27
 74
     0
 49
-1.27
 74
     0
  0
LTYPE
  5
71
330
5
100
AcDbSymbolTableRecord
100
AcDbLinetypeTableRecord
  2
CENTERX2
 70
     0
  3
Center (2x) ________  __  ________  __  _____
 72
    65
 73
     4
 40
20.32
 49
12.7
 74
     0
 49
-2.54
 74
     0
 49
2.54
 74
     0
 49
-2.54
 74
     0
  0
LTYPE
  5
72
330
5
100
AcDbSymbolTableRecord
100
AcDbLinetypeTableRecord
  2
DOT2
 70
     0
  3
Dot (.5x) ........................................
 72
    65
 73
     2
 40
0.635
 49
0.0
 74
     0
 49
-0.635
 74
     0
  0
ENDTAB
  0
TABLE
  2
LAYER
  5
2
330
0
100
AcDbSymbolTable
 70
    13
  0
LAYER
  5
10
330
2
100
AcDbSymbolTableRecord
100
AcDbLayerTableRecord
  2
0
 70
     0
 62
     7
  6
Continuous
370
    -3
390
F
  0
LAYER
  5
73
330
2
100
AcDbSymbolTableRecord
100
AcDbLayerTableRecord
  2
FORMAT
 70
     0
 62
     7
  6
Continuous
370
    -3
390
F
  0
LAYER
  5
74
330
2
100
AcDbSymbolTableRecord
100
AcDbLayerTableRecord
  2
OSA
 70
     0
 62
     7
  6
CENTER
370
    -3
390
F
  0
LAYER
  5
75
330
2
100
AcDbSymbolTableRecord
100
AcDbLayerTableRecord
  2
0_35
 70
     0
 62
     7
  6
Continuous
370
    35
390
F
  0
LAYER
  5
76
330
2
100
AcDbSymbolTableRecord
100
AcDbLayerTableRecord
  2
0_5
 70
     0
 62
     7
  6
Continuous
370
    50
390
F
  0
LAYER
  5
77
330
2
100
AcDbSymbolTableRecord
100
AcDbLayerTableRecord
  2
0_25
 70
     0
 62
     7
  6
Continuous
370
    25
390
F
  0
LAYER
  5
78
330
2
100
AcDbSymbolTableRecord
100
AcDbLayerTableRecord
  2
0_18
 70
     0
 62
     7
  6
Continuous
370
    -3
390
F
  0
LAYER
  5
79
330
2
100
AcDbSymbolTableRecord
100
AcDbLayerTableRecord
  2
SLD-0
 70
     0
 62
   179
  6
Continuous
370
    -3
390
F
  0
LAYER
  5
7A
330
2
100
AcDbSymbolTableRecord
100
AcDbLayerTableRecord
  2
KOTY
 70
     0
 62
     7
  6
Continuous
370
    -3
390
F
  0
LAYER
  5
7B
330
2
100
AcDbSymbolTableRecord
100
AcDbLayerTableRecord
  2
SILNA
 70
     0
 62
   179
  6
Continuous
370
    -3
390
F
  0
LAYER
  5
7C
330
2
100
AcDbSymbolTableRecord
100
AcDbLayerTableRecord
  2
0_18_1
 70
     0
 62
   179
  6
Continuous
370
    -3
390
F
  0
LAYER
  5
7D
330
2
100
AcDbSymbolTableRecord
100
AcDbLayerTableRecord
  2
0_35_1
 70
     0
 62
   179
  6
Continuous
370
    35
390
F
  0
LAYER
  5
7E
330
2
100
AcDbSymbolTableRecord
100
AcDbLayerTableRecord
  2
0_5_1
 70
     0
 62
   179
  6
Continuous
370
    50
390
F
  0
ENDTAB
  0
TABLE
  2
STYLE
  5
3
330
0
100
AcDbSymbolTable
 70
     1
  0
STYLE
  5
11
330
3
100
AcDbSymbolTableRecord
100
AcDbTextStyleTableRecord
  2
Standard
 70
     0
 40
0.0
 41
1.0
 50
0.0
 71
     0
 42
2.0
  3
txt
  4

  0
ENDTAB
  0
TABLE
  2
VIEW
  5
6
330
0
100
AcDbSymbolTable
 70
     0
  0
ENDTAB
  0
TABLE
  2
UCS
  5
7
330
0
100
AcDbSymbolTable
 70
     0
  0
ENDTAB
  0
TABLE
  2
APPID
  5
9
330
0
100
AcDbSymbolTable
 70
     1
  0
APPID
  5
12
330
9
100
AcDbSymbolTableRecord
100
AcDbRegAppTableRecord
  2
ACAD
 70
     0
  0
ENDTAB
  0
TABLE
  2
DIMSTYLE
  5
A
330
0
100
AcDbSymbolTable
 70
     1
100
AcDbDimStyleTable
  0
DIMSTYLE
105
27
330
A
100
AcDbSymbolTableRecord
100
AcDbDimStyleTableRecord
  2
ISO-25
 70
     0
 41
2.5
 42
0.625
 43
3.75
 44
1.25
 73
     0
 74
     0
 77
     1
 78
     8
140
2.5
141
2.5
143
0.0393700787
147
0.625
171
     3
172
     1
178
     0
271
     2
272
     2
274
     3
278
    44
283
     0
284
     8
340
11
  0
ENDTAB
  0
TABLE
  2
BLOCK_RECORD
  5
1
330
0
100
AcDbSymbolTable
 70
     1
  0
BLOCK_RECORD
  5
1F
330
1
100
AcDbSymbolTableRecord
100
AcDbBlockTableRecord
  2
*Model_Space
340
22
  0
BLOCK_RECORD
  5
1B
330
1
100
AcDbSymbolTableRecord
100
AcDbBlockTableRecord
  2
*Paper_Space
340
1E
  0
BLOCK_RECORD
  5
23
330
1
100
AcDbSymbolTableRecord
100
AcDbBlockTableRecord
  2
*Paper_Space0
340
26
  0
ENDTAB
  0
ENDSEC
  0
SECTION
  2
BLOCKS
  0
BLOCK
  5
20
330
1F
100
AcDbEntity
  8
0
100
AcDbBlockBegin
  2
*Model_Space
 70
     0
 10
0.0
 20
0.0
 30
0.0
  3
*Model_Space
  1

  0
ENDBLK
  5
21
330
1F
100
AcDbEntity
  8
0
100
AcDbBlockEnd
  0
BLOCK
  5
1C
330
1B
100
AcDbEntity
 67
     1
  8
0
100
AcDbBlockBegin
  2
*Paper_Space
 70
     0
 10
0.0
 20
0.0
 30
0.0
  3
*Paper_Space
  1

  0
ENDBLK
  5
1D
330
1B
100
AcDbEntity
 67
     1
  8
0
100
AcDbBlockEnd
  0
BLOCK
  5
24
330
23
100
AcDbEntity
  8
0
100
AcDbBlockBegin
  2
*Paper_Space0
 70
     0
 10
0.0
 20
0.0
 30
0.0
  3
*Paper_Space0
  1

  0
ENDBLK
  5
25
330
23
100
AcDbEntity
  8
0
100
AcDbBlockEnd
  0
ENDSEC
  0
SECTION
  2
ENTITIES
  0
LINE
  5
7F
330
1F
100
AcDbEntity
  8
0
  6
Continuous
 62
     7
370
    25
100
AcDbLine
 10
6900.5187553361
 20
4966.1994420927
 30
0.0
 11
6870.5187553361
 21
4966.1994420927
 31
0.0
  0
LINE
  5
80
330
1F
100
AcDbEntity
  8
0
  6
Continuous
 62
     7
370
    25
100
AcDbLine
 10
6870.5187553361
 20
5392.1994420927
 30
0.0
 11
6870.5187553361
 21
4966.1994420927
 31
0.0
  0
LINE
  5
81
330
1F
100
AcDbEntity
  8
0
  6
Continuous
 62
     7
370
    25
100
AcDbLine
 10
5677.5187553361
 20
5392.1994420927
 30
0.0
 11
6870.5187553361
 21
5392.1994420927
 31
0.0
  0
LINE
  5
82
330
1F
100
AcDbEntity
  8
0
  6
Continuous
 62
     7
370
    25
100
AcDbLine
 10
5677.5187553361
 20
4966.1994420927
 30
0.0
 11
5677.5187553361
 21
5392.1994420927
 31
0.0
  0
LINE
  5
83
330
1F
100
AcDbEntity
  8
0
  6
Continuous
 62
     7
370
    25
100
AcDbLine
 10
5677.5187553361
 20
4966.1994420927
 30
0.0
 11
5647.5187553361
 21
4966.1994420927
 31
0.0
  0
LINE
  5
84
330
1F
100
AcDbEntity
  8
0
  6
Continuous
 62
     7
370
    25
100
AcDbLine
 10
6900.5187553361
 20
4966.1994420927
 30
0.0
 11
6900.5187553361
 21
5422.1994420927
 31
0.0
  0
LINE
  5
85
330
1F
100
AcDbEntity
  8
0
  6
Continuous
 62
     7
370
    25
100
AcDbLine
 10
6900.5187553361
 20
5422.1994420927
 30
0.0
 11
5647.5187553361
 21
5422.1994420927
 31
0.0
  0
LINE
  5
86
330
1F
100
AcDbEntity
  8
0
  6
Continuous
 62
     7
370
    25
100
AcDbLine
 10
5647.5187553361
 20
4966.1994420927
 30
0.0
 11
5647.5187553361
 21
5422.1994420927
 31
0.0
  0
LINE
  5
87
330
1F
100
AcDbEntity
  8
0
  6
Continuous
 62
     7
370
    25
100
AcDbLine
 10
6870.5187553361
 20
4966.1994420927
 30
0.0
 11
5677.5187553361
 21
4966.1994420927
 31
0.0
  0
LINE
  5
88
330
1F
100
AcDbEntity
  8
0
  6
Continuous
 62
     7
370
    25
100
AcDbLine
 10
6870.8796420154
 20
4965.1994420927
 30
0.0
 11
6620.8796420154
 21
4965.1994420927
 31
0.0
  0
LINE
  5
89
330
1F
100
AcDbEntity
  8
0
  6
Continuous
 62
     7
370
    25
100
AcDbLine
 10
6620.8796420154
 20
4965.1994420927
 30
0.0
 11
6620.8796420154
 21
4966.1994420927
 31
0.0
  0
LINE
  5
8A
330
1F
100
AcDbEntity
  8
0
  6
Continuous
 62
     7
370
    25
100
AcDbLine
 10
6870.8796420154
 20
4965.1994420927
 30
0.0
 11
6870.8796420154
 21
4966.1994420927
 31
0.0
  0
LINE
  5
8B
330
1F
100
AcDbEntity
  8
0
  6
Continuous
 62
     7
370
    25
100
AcDbLine
 10
5647.5187553361
 20
5462.1994420927
 30
0.0
 11
6900.5187553361
 21
5462.1994420927
 31
0.0
  0
LINE
  5
8C
330
1F
100
AcDbEntity
  8
0
  6
Continuous
 62
     7
370
    25
100
AcDbLine
 10
6900.5187553361
 20
5462.1994420927
 30
0.0
 11
6900.5187553361
 21
5422.1994420927
 31
0.0
  0
LINE
  5
8D
330
1F
100
AcDbEntity
  8
0
  6
Continuous
 62
     7
370
    25
100
AcDbLine
 10
5647.5187553361
 20
5422.1994420927
 30
0.0
 11
5647.5187553361
 21
5462.1994420927
 31
0.0
  0
LINE
  5
8E
330
1F
100
AcDbEntity
  8
0
  6
Continuous
 62
     7
370
    25
100
AcDbLine
 10
7316.8605160447
 20
5462.1994420927
 30
0.0
 11
7313.8605160447
 21
5462.1994420927
 31
0.0
  0
LINE
  5
8F
330
1F
100
AcDbEntity
  8
0
  6
Continuous
 62
     7
370
    25
100
AcDbLine
 10
7316.8605160447
 20
5422.1994420927
 30
0.0
 11
7316.8605160447
 21
5462.1994420927
 31
0.0
  0
LINE
  5
90
330
1F
100
AcDbEntity
  8
0
  6
Continuous
 62
     7
370
    25
100
AcDbLine
 10
7738.8605160447
 20
5422.1994420927
 30
0.0
 11
7316.8605160447
 21
5422.1994420927
 31
0.0
  0
LINE
  5
91
330
1F
100
AcDbEntity
  8
0
  6
Continuous
 62
     7
370
    25
100
AcDbLine
 10
7738.8605160447
 20
4966.1994420927
 30
0.0
 11
7738.8605160447
 21
5422.1994420927
 31
0.0
  0
LINE
  5
92
330
1F
100
AcDbEntity
  8
0
  6
Continuous
 62
     7
370
    25
100
AcDbLine
 10
7738.8605160447
 20
4966.1994420927
 30
0.0
 11
7313.8605160447
 21
4966.1994420927
 31
0.0
  0
LINE
  5
93
330
1F
100
AcDbEntity
  8
0
  6
Continuous
 62
     7
370
    25
100
AcDbLine
 10
7313.8605160447
 20
5462.1994420927
 30
0.0
 11
7313.8605160447
 21
4966.1994420927
 31
0.0
  0
LINE
  5
94
330
1F
100
AcDbEntity
  8
0
  6
Continuous
 62
     7
370
    25
100
AcDbLine
 10
7663.8605160447
 20
4965.1994420927
 30
0.0
 11
7663.8605160447
 21
4966.1994420927
 31
0.0
  0
LINE
  5
95
330
1F
100
AcDbEntity
  8
0
  6
Continuous
 62
     7
370
    25
100
AcDbLine
 10
7663.8605160447
 20
4965.1994420927
 30
0.0
 11
7413.8605160447
 21
4965.1994420927
 31
0.0
  0
LINE
  5
96
330
1F
100
AcDbEntity
  8
0
  6
Continuous
 62
     7
370
    25
100
AcDbLine
 10
7413.8605160447
 20
4965.1994420927
 30
0.0
 11
7413.8605160447
 21
4966.1994420927
 31
0.0
  0
SPLINE
  5
97
330
1F
100
AcDbEntity
  8
0
  6
Continuous
 62
     7
370
    25
100
AcDbSpline
210
0.0
220
0.0
230
1.0
 70
     8
 71
     3
 72
     9
 73
     5
 74
     0
 42
0.000000001
 43
0.00000001
 40
0.0
 40
0.0
 40
0.0
 40
0.0
 40
0.9771071422687971
 40
1.0
 40
1.0
 40
1.0
 40
1.0
 10
6746.564187957717
 20
4353.334526354481
 30
0.0
 10
6745.975915014095
 20
4353.28117039059
 30
0.0
 10
6745.373859294538
 20
4353.226564338108
 30
0.0
 10
6744.778608965891
 20
4353.277801036424
 30
0.0
 10
6744.764981984803
 20
4353.278973990868
 30
0.0
  0
SPLINE
  5
98
330
1F
100
AcDbEntity
  8
0
  6
Continuous
 62
     7
370
    25
100
AcDbSpline
210
0.0
220
0.0
230
1.0
 70
     8
 71
     3
 72
    11
 73
     7
 74
     0
 42
0.000000001
 43
0.00000001
 40
0.0
 40
0.0
 40
0.0
 40
0.0
 40
0.0767981087779542
 40
0.7654753657168059
 40
0.8927985660153279
 40
1.0
 40
1.0
 40
1.0
 40
1.0
 10
6735.103799824914
 20
4355.379351498249
 30
0.0
 10
6734.980061358575
 20
4355.423410807601
 30
0.0
 10
6733.746713958727
 20
4355.862566360719
 30
0.0
 10
6732.57905493041
 20
4356.56134175313
 30
0.0
 10
6731.376599471255
 20
4357.25552200422
 30
0.0
 10
6731.12160433145
 20
4357.440112676902
 30
0.0
 10
6731.005045809869
 20
4357.524489249419
 30
0.0
  0
CIRCLE
  5
99
330
1F
100
AcDbEntity
  8
0
  6
Continuous
 62
     7
370
    25
100
AcDbCircle
 10
6745.9113038416
 20
4350.2668836879
 30
0.0
 40
36.49923460791295
  0
CIRCLE
  5
9A
330
1F
100
AcDbEntity
  8
0
  6
Continuous
 62
     7
370
    25
100
AcDbCircle
 10
6745.9034334669
 20
4350.2668878338
 30
0.0
 40
36.6917479931158
  0
CIRCLE
  5
9B
330
1F
100
AcDbEntity
  8
0
  6
Continuous
 62
     7
370
    25
100
AcDbCircle
 10
6745.8950368874
 20
4350.2666900251
 30
0.0
 40
26.11438827999627
  0
CIRCLE
  5
9C
330
1F
100
AcDbEntity
  8
0
  6
Continuous
 62
     7
370
    25
100
AcDbCircle
 10
6745.8793033958
 20
4350.2666245789
 30
0.0
 40
24.49948830907918
  0
LWPOLYLINE
  5
9D
330
1F
100
AcDbEntity
  8
0
  6
Continuous
 62
     7
370
    25
100
AcDbPolyline
 90
        3
 70
   128
 43
0.0
 10
6748.7937364387
 20
4374.5824046597
 10
6745.8409909578
 20
4374.7660621807
 10
6745.7993021252
 20
4374.7660976515
  0
ARC
  5
9E
330
1F
100
AcDbEntity
  8
0
  6
Continuous
 62
     7
370
    25
100
AcDbCircle
 10
6745.7986245765
 20
4350.2661333069
 30
0.0
 40
24.50003566467586
100
AcDbArc
 50
270.0015845152
 51
82.9780669059
  0
CIRCLE
  5
9F
330
1F
100
AcDbEntity
  8
0
  6
Continuous
 62
     7
370
    25
100
AcDbCircle
 10
6745.7911159187
 20
4350.2666148991
 30
0.0
 40
23.55704022892933
  0
CIRCLE
  5
A0
330
1F
100
AcDbEntity
  8
0
  6
Continuous
 62
     7
370
    25
100
AcDbCircle
 10
6745.783205312
 20
4350.2662435167
 30
0.0
 40
6.179096598230069
  0
SPLINE
  5
A1
330
1F
100
AcDbEntity
  8
0
  6
Continuous
 62
     7
370
    25
100
AcDbSpline
210
0.0
220
0.0
230
1.0
 70
    11
 71
     3
 72
    26
 73
    22
 74
     0
 42
0.000000001
 43
0.00000001
 40
0.0
 40
0.0
 40
0.0
 40
0.0
 40
0.0536472078844424
 40
0.1072997174133888
 40
0.1608187184991275
 40
0.214253803610415
 40
0.2678237548995819
 40
0.3215618845136081
 40
0.3753758631179867
 40
0.4291877588805803
 40
0.4829562180736506
 40
0.5366664022251125
 40
0.5903213970299747
 40
0.6439364195215522
 40
0.6975341018214881
 40
0.7511400393424346
 40
0.8047783884573977
 40
0.8584674889464967
 40
0.9122153836824779
 40
0.9660146554640172
 40
1.0
 40
1.0
 40
1.0
 40
1.0
 10
6735.228178619211
 20
4355.491422289368
 30
0.0
 10
6735.561173989477
 20
4354.967732252682
 30
0.0
 10
6736.227197638023
 20
4353.920300426041
 30
0.0
 10
6736.496470334722
 20
4352.041562588844
 30
0.0
 10
6736.171228728957
 20
4350.198741362612
 30
0.0
 10
6735.246633609345
 20
4348.563908852721
 30
0.0
 10
6733.836945303181
 20
4347.32619525369
 30
0.0
 10
6732.093131176116
 20
4346.622463406239
 30
0.0
 10
6730.211883022899
 20
4346.536302652025
 30
0.0
 10
6728.407393555786
 20
4347.079262597657
 30
0.0
 10
6726.88518528798
 20
4348.189810308559
 30
0.0
 10
6725.817445300487
 20
4349.741383565989
 30
0.0
 10
6725.323925605498
 20
4351.557954378782
 30
0.0
 10
6725.459147120991
 20
4353.434473107974
 30
0.0
 10
6726.206941095026
 20
4355.159922484015
 30
0.0
 10
6727.483053845426
 20
4356.540825420419
 30
0.0
 10
6729.143528673972
 20
4357.42166609095
 30
0.0
 10
6731.004713510836
 20
4357.704741049015
 30
0.0
 10
6732.847555819747
 20
4357.350736763392
 30
0.0
 10
6734.29742497446
 20
4356.536655774376
 30
0.0
 10
6734.96841025702
 20
4355.783141362443
 30
0.0
 10
6735.228178619211
 20
4355.491422289368
 30
0.0
  0
SPLINE
  5
A2
330
1F
100
AcDbEntity
  8
0
  6
Continuous
 62
     7
370
    25
100
AcDbSpline
210
0.0
220
0.0
230
1.0
 70
    11
 71
     3
 72
    26
 73
    22
 74
     0
 42
0.000000001
 43
0.00000001
 40
0.0
 40
0.0
 40
0.0
 40
0.0
 40
0.0537906528572844
 40
0.1075800343267898
 40
0.1613964711451108
 40
0.2152044423048418
 40
0.2689187362134098
 40
0.3224537086462568
 40
0.3758867226899177
 40
0.429440352459527
 40
0.4831672320450912
 40
0.5369784271021638
 40
0.5907927854588338
 40
0.6445661075254686
 40
0.6982816371630391
 40
0.7519411518723382
 40
0.8055590047808274
 40
0.8591573592726098
 40
0.9127617279340775
 40
0.9663965674840058
 40
1.0
 40
1.0
 40
1.0
 40
1.0
 10
6744.271742920943
 20
4367.45516923703
 30
0.0
 10
6744.60390152832
 20
4366.929044433016
 30
0.0
 10
6745.268210892219
 20
4365.876807260398
 30
0.0
 10
6745.529801948911
 20
4363.992948830879
 30
0.0
 10
6745.193933174303
 20
4362.145533102406
 30
0.0
 10
6744.253512576932
 20
4360.508929179591
 30
0.0
 10
6742.828323846632
 20
4359.278701782775
 30
0.0
 10
6741.079439588964
 20
4358.590427370705
 30
0.0
 10
6739.205202213322
 20
4358.518241766231
 30
0.0
 10
6737.411532714445
 20
4359.068608567642
 30
0.0
 10
6735.897591409517
 20
4360.183322277768
 30
0.0
 10
6734.836476792718
 20
4361.739459602801
 30
0.0
 10
6734.350887340811
 20
4363.560797887053
 30
0.0
 10
6734.496478337057
 20
4365.440090826264
 30
0.0
 10
6735.256020062179
 20
4367.164184930785
 30
0.0
 10
6736.54280804279
 20
4368.538744679505
 30
0.0
 10
6738.210223844807
 20
4369.409160509753
 30
0.0
 10
6740.07288706833
 20
4369.68006205201
 30
0.0
 10
6741.911726986144
 20
4369.315190486468
 30
0.0
 10
6743.351473225468
 20
4368.496018087038
 30
0.0
 10
6744.015836065644
 20
4367.744606515423
 30
0.0
 10
6744.271742920943
 20
4367.45516923703
 30
0.0
  0
SPLINE
  5
A3
330
1F
100
AcDbEntity
  8
0
  6
Continuous
 62
     7
370
    25
100
AcDbSpline
210
0.0
220
0.0
230
1.0
 70
    11
 71
     3
 72
    26
 73
    22
 74
     0
 42
0.000000001
 43
0.00000001
 40
0.0
 40
0.0
 40
0.0
 40
0.0
 40
0.0536289995832365
 40
0.1072568460891733
 40
0.1609153676640837
 40
0.2146296343374779
 40
0.268401760002737
 40
0.3222156390340601
 40
0.3760279458847931
 40
0.4297575347762022
 40
0.4833128803451094
 40
0.5367459192403884
 40
0.5902793785161361
 40
0.6439908597765099
 40
0.6977974594700143
 40
0.751614199495612
 40
0.8053931961398672
 40
0.8591152006898218
 40
0.912780292704892
 40
0.9664016946692219
 40
1.0
 40
1.0
 40
1.0
 40
1.0
 10
6759.158293377278
 20
4365.62427452577
 30
0.0
 10
6759.490420408651
 20
4365.099366719282
 30
0.0
 10
6760.154667330332
 20
4364.049562392354
 30
0.0
 10
6760.418970287587
 20
4362.169576782388
 30
0.0
 10
6760.087792998961
 20
4360.324962494128
 30
0.0
 10
6759.153195355948
 20
4358.688219914662
 30
0.0
 10
6757.731311819634
 20
4357.453383613773
 30
0.0
 10
6755.978678351442
 20
4356.758347984081
 30
0.0
 10
6754.094650614855
 20
4356.683409280007
 30
0.0
 10
6752.293879944452
 20
4357.236580804878
 30
0.0
 10
6750.781119802822
 20
4358.352439393814
 30
0.0
 10
6749.723970992784
 20
4359.902371714459
 30
0.0
 10
6749.237327938713
 20
4361.714654497764
 30
0.0
 10
6749.377156776744
 20
4363.589860226395
 30
0.0
 10
6750.131361240892
 20
4365.316356632528
 30
0.0
 10
6751.416293873023
 20
4366.69659568451
 30
0.0
 10
6753.085318758634
 20
4367.572594932916
 30
0.0
 10
6754.951414407728
 20
4367.847211923719
 30
0.0
 10
6756.793604422189
 20
4367.484110854161
 30
0.0
 10
6758.23612330384
 20
4366.665445873336
 30
0.0
 10
6758.901846916847
 20
4365.913814074359
 30
0.0
 10
6759.158293377278
 20
4365.62427452577
 30
0.0
  0
SPLINE
  5
A4
330
1F
100
AcDbEntity
  8
0
  6
Continuous
 62
     7
370
    25
100
AcDbSpline
210
0.0
220
0.0
230
1.0
 70
    11
 71
     3
 72
    26
 73
    22
 74
     0
 42
0.000000001
 43
0.00000001
 40
0.0
 40
0.0
 40
0.0
 40
0.0
 40
0.0536294452053744
 40
0.1072599744138008
 40
0.1608668897041102
 40
0.2144644609331082
 40
0.2680783002312012
 40
0.3217311957135212
 40
0.3754387257267361
 40
0.4292046595899353
 40
0.4830153157198668
 40
0.5368310212310646
 40
0.5905750139480234
 40
0.6441518335194408
 40
0.6975881575669727
 40
0.751101654058156
 40
0.804795961046545
 40
0.8585966835747342
 40
0.9124152413408589
 40
0.9661998075958365
 40
1.0
 40
1.0
 40
1.0
 40
1.0
 10
6765.006625051226
 20
4351.823542928139
 30
0.0
 10
6765.339989868348
 20
4351.299487226383
 30
0.0
 10
6766.006726240837
 20
4350.251365230222
 30
0.0
 10
6766.275792213435
 20
4348.37164453901
 30
0.0
 10
6765.94897231424
 20
4346.526523166435
 30
0.0
 10
6765.019216370154
 20
4344.889092799413
 30
0.0
 10
6763.603083779313
 20
4343.652489401871
 30
0.0
 10
6761.856214771988
 20
4342.953207056319
 30
0.0
 10
6759.975443805261
 20
4342.871155477786
 30
0.0
 10
6758.172169523527
 20
4343.416496388262
 30
0.0
 10
6756.65036025723
 20
4344.528914314789
 30
0.0
 10
6755.583078359048
 20
4346.083047021233
 30
0.0
 10
6755.091876483642
 20
4347.901716692998
 30
0.0
 10
6755.23075274749
 20
4349.776861204042
 30
0.0
 10
6755.980067973012
 20
4351.497535962213
 30
0.0
 10
6757.255223197245
 20
4352.874903456453
 30
0.0
 10
6758.916369925992
 20
4353.755339615647
 30
0.0
 10
6760.781096255221
 20
4354.038235741043
 30
0.0
 10
6762.627559402513
 20
4353.682424166457
 30
0.0
 10
6764.077604101273
 20
4352.866835596062
 30
0.0
 10
6764.747934937001
 20
4352.114052522621
 30
0.0
 10
6765.006625051226
 20
4351.823542928139
 30
0.0
  0
SPLINE
  5
A5
330
1F
100
AcDbEntity
  8
0
  6
Continuous
 62
     7
370
    25
100
AcDbSpline
210
0.0
220
0.0
230
1.0
 70
    11
 71
     3
 72
    26
 73
    22
 74
     0
 42
0.000000001
 43
0.00000001
 40
0.0
 40
0.0
 40
0.0
 40
0.0
 40
0.0537910058901723
 40
0.1075833788204282
 40
0.1613394743992251
 40
0.2150366708392981
 40
0.2686811950588205
 40
0.3222903099118802
 40
0.3758876912617484
 40
0.4294989939798958
 40
0.4831474565139273
 40
0.5368495208602239
 40
0.5906102754171934
 40
0.6444179729708096
 40
0.698235854963145
 40
0.751990879880656
 40
0.8055857705448237
 40
0.859027422089098
 40
0.9125254071038916
 40
0.966204636128361
 40
1.0
 40
1.0
 40
1.0
 40
1.0
 10
6755.978686286471
 20
4339.840254941385
 30
0.0
 10
6756.311854097454
 20
4339.314650933232
 30
0.0
 10
6756.978198186517
 20
4338.26342955927
 30
0.0
 10
6757.243565848928
 20
4336.37955394908
 30
0.0
 10
6756.910978484763
 20
4334.532068275453
 30
0.0
 10
6755.974283690316
 20
4332.895552682054
 30
0.0
 10
6754.552297953854
 20
4331.663715929857
 30
0.0
 10
6752.802775632355
 20
4330.971974760773
 30
0.0
 10
6750.923567436068
 20
4330.897993454394
 30
0.0
 10
6749.125467839002
 20
4331.449531527368
 30
0.0
 10
6747.610424558631
 20
4332.564870855767
 30
0.0
 10
6746.549001696622
 20
4334.119234369404
 30
0.0
 10
6746.061509986948
 20
4335.938299731197
 30
0.0
 10
6746.204163866704
 20
4337.817116769803
 30
0.0
 10
6746.961748783817
 20
4339.542692667972
 30
0.0
 10
6748.248220694254
 20
4340.918627063885
 30
0.0
 10
6749.914695885521
 20
4341.788809336563
 30
0.0
 10
6751.773946827516
 20
4342.060230349264
 30
0.0
 10
6753.610333932148
 20
4341.699029820748
 30
0.0
 10
6755.053081774633
 20
4340.882997663682
 30
0.0
 10
6755.720739948297
 20
4340.130845213401
 30
0.0
 10
6755.97868628647
 20
4339.840254941385
 30
0.0
  0
SPLINE
  5
A6
330
1F
100
AcDbEntity
  8
0
  6
Continuous
 62
     7
370
    25
100
AcDbSpline
210
0.0
220
0.0
230
1.0
 70
    11
 71
     3
 72
    26
 73
    22
 74
     0
 42
0.000000001
 43
0.00000001
 40
0.0
 40
0.0
 40
0.0
 40
0.0
 40
0.0536305645324593
 40
0.1072560498675073
 40
0.1610088640350611
 40
0.214826184503595
 40
0.2686346360175129
 40
0.3223966550720391
 40
0.3760999521588279
 40
0.4297493535284109
 40
0.4833612139276527
 40
0.536958758808742
 40
0.5905676430638143
 40
0.6442115524208604
 40
0.6979078253393245
 40
0.7516629348136776
 40
0.8054671625818742
 40
0.8592868023527153
 40
0.9130528888727725
 40
0.9666674660934294
 40
1.0
 40
1.0
 40
1.0
 40
1.0
 10
6741.093069601297
 20
4341.668956831852
 30
0.0
 10
6741.424981922917
 20
4341.144013658552
 30
0.0
 10
6742.088775131694
 20
4340.094177027815
 30
0.0
 10
6742.353511582178
 20
4338.214864557128
 30
0.0
 10
6742.023154708496
 20
4336.369524309781
 30
0.0
 10
6741.087826167102
 20
4334.731399317384
 30
0.0
 10
6739.66465399462
 20
4333.497023147253
 30
0.0
 10
6737.912316089351
 20
4332.804374063171
 30
0.0
 10
6736.030644084451
 20
4332.731853540608
 30
0.0
 10
6734.232080726834
 20
4333.286293715438
 30
0.0
 10
6732.719021343776
 20
4334.40416456287
 30
0.0
 10
6731.661070123116
 20
4335.959054665474
 30
0.0
 10
6731.176676665245
 20
4337.776109953697
 30
0.0
 10
6731.320309800022
 20
4339.651375149712
 30
0.0
 10
6732.076373697629
 20
4341.374110307841
 30
0.0
 10
6733.360907250259
 20
4342.750179738943
 30
0.0
 10
6735.029186255012
 20
4343.623036288295
 30
0.0
 10
6736.895386993378
 20
4343.894599394329
 30
0.0
 10
6738.737377425063
 20
4343.527491622366
 30
0.0
 10
6740.17602837284
 20
4342.706343407908
 30
0.0
 10
6740.838934266654
 20
4341.956442908245
 30
0.0
 10
6741.093069601296
 20
4341.668956831852
 30
0.0
  0
SPLINE
  5
A7
330
1F
100
AcDbEntity
  8
0
  6
Continuous
 62
     7
370
    25
100
AcDbSpline
210
0.0
220
0.0
230
1.0
 70
     8
 71
     3
 72
    10
 73
     6
 74
     0
 42
0.000000001
 43
0.00000001
 40
0.0
 40
0.0
 40
0.0
 40
0.0
 40
0.3727501304295579
 40
0.745494433270443
 40
1.0
 40
1.0
 40
1.0
 40
1.0
 10
6735.220038672616
 20
4355.49155978706
 30
0.0
 10
6734.790223613335
 20
4355.937007947361
 30
0.0
 10
6733.930600214516
 20
4356.82789730381
 30
0.0
 10
6732.354142238359
 20
4357.524019395327
 30
0.0
 10
6731.311752106625
 20
4357.529446020233
 30
0.0
 10
6730.888804085269
 20
4357.53164786405
 30
0.0
  0
SPLINE
  5
A8
330
1F
100
AcDbEntity
  8
0
  6
Continuous
 62
     7
370
    25
100
AcDbSpline
210
0.0
220
0.0
230
1.0
 70
     8
 71
     3
 72
    15
 73
    11
 74
     0
 42
0.000000001
 43
0.00000001
 40
0.0
 40
0.0
 40
0.0
 40
0.0
 40
0.000909691475079
 40
0.1520553633739518
 40
0.303296441011569
 40
0.4544868551771358
 40
0.6053737825089627
 40
0.7557471417348437
 40
0.9059166330046764
 40
1.0
 40
1.0
 40
1.0
 40
1.0
 10
6730.892718404782
 20
4346.601341350305
 30
0.0
 10
6730.896374464439
 20
4346.600722588646
 30
0.0
 10
6731.507486577668
 20
4346.497296282691
 30
0.0
 10
6732.765098253333
 20
4346.861969812304
 30
0.0
 10
6734.403769048055
 20
4347.719667186197
 30
0.0
 10
6735.653138493243
 20
4349.147151813394
 30
0.0
 10
6736.363199362641
 20
4350.888083815445
 30
0.0
 10
6736.450403868128
 20
4352.760743485163
 30
0.0
 10
6736.003639697922
 20
4354.350738851571
 30
0.0
 10
6735.437939734747
 20
4355.174324248162
 30
0.0
 10
6735.220038672616
 20
4355.49155978706
 30
0.0
  0
SPLINE
  5
A9
330
1F
100
AcDbEntity
  8
0
  6
Continuous
 62
     7
370
    25
100
AcDbSpline
210
0.0
220
0.0
230
1.0
 70
     8
 71
     3
 72
    10
 73
     6
 74
     0
 42
0.000000001
 43
0.00000001
 40
0.0
 40
0.0
 40
0.0
 40
0.0
 40
0.3694406328067323
 40
0.7388788804798327
 40
1.0
 40
1.0
 40
1.0
 40
1.0
 10
6741.085084526711
 20
4341.66889620335
 30
0.0
 10
6740.658819791533
 20
4342.113693816475
 30
0.0
 10
6739.80629307317
 20
4343.003286171086
 30
0.0
 10
6738.227368327889
 20
4343.707859783621
 30
0.0
 10
6737.176880060355
 20
4343.720398242281
 30
0.0
 10
6736.74186206406
 20
4343.725590546975
 30
0.0
  0
SPLINE
  5
AA
330
1F
100
AcDbEntity
  8
0
  6
Continuous
 62
     7
370
    25
100
AcDbSpline
210
0.0
220
0.0
230
1.0
 70
     8
 71
     3
 72
    14
 73
    10
 74
     0
 42
0.000000001
 43
0.00000001
 40
0.0
 40
0.0
 40
0.0
 40
0.0
 40
0.1485208609554962
 40
0.2994887251977433
 40
0.4506162726004322
 40
0.6019041976169797
 40
0.7532994367516127
 40
0.9046684467542976
 40
1.0
 40
1.0
 40
1.0
 40
1.0
 10
6736.749457086314
 20
4332.794504460358
 30
0.0
 10
6737.357901910675
 20
4332.851394886331
 30
0.0
 10
6738.584816188094
 20
4332.966113054817
 30
0.0
 10
6740.225943124906
 20
4333.9011236699
 30
0.0
 10
6741.484247673966
 20
4335.289495400906
 30
0.0
 10
6742.210602686122
 20
4337.031538909167
 30
0.0
 10
6742.313227502051
 20
4338.907211569525
 30
0.0
 10
6741.873633941963
 20
4340.512736045047
 30
0.0
 10
6741.304869853708
 20
4341.346650021262
 30
0.0
 10
6741.085084526711
 20
4341.66889620335
 30
0.0
  0
SPLINE
  5
AB
330
1F
100
AcDbEntity
  8
0
  6
Continuous
 62
     7
370
    25
100
AcDbSpline
210
0.0
220
0.0
230
1.0
 70
     8
 71
     3
 72
    10
 73
     6
 74
     0
 42
0.000000001
 43
0.00000001
 40
0.0
 40
0.0
 40
0.0
 40
0.0
 40
0.3712068091218516
 40
0.7424255978934056
 40
0.9999999999999999
 40
0.9999999999999999
 40
0.9999999999999999
 40
0.9999999999999999
 10
6744.263613530316
 20
4367.455293988697
 30
0.0
 10
6743.835755044754
 20
4367.901518233364
 30
0.0
 10
6742.980024265707
 20
4368.793981123325
 30
0.0
 10
6741.400109282111
 20
4369.496811632356
 30
0.0
 10
6740.351196809895
 20
4369.505847620439
 30
0.0
 10
6739.921527712309
 20
4369.509549058785
 30
0.0
  0
SPLINE
  5
AC
330
1F
100
AcDbEntity
  8
0
  6
Continuous
 62
     7
370
    25
100
AcDbSpline
210
0.0
220
0.0
230
1.0
 70
     8
 71
     3
 72
    14
 73
    10
 74
     0
 42
0.000000001
 43
0.00000001
 40
0.0
 40
0.0
 40
0.0
 40
0.0
 40
0.1503787068350813
 40
0.3008917533719585
 40
0.4512573546642904
 40
0.6020563209691496
 40
0.7532999067895286
 40
0.9047195236205705
 40
1.0
 40
1.0
 40
1.0
 40
1.0
 10
6739.921030874829
 20
4358.577101659696
 30
0.0
 10
6740.536977584971
 20
4358.63684028947
 30
0.0
 10
6741.769421256678
 20
4358.756370916081
 30
0.0
 10
6743.411897139109
 20
4359.698800113163
 30
0.0
 10
6744.663386165563
 20
4361.086415301523
 30
0.0
 10
6745.386542875253
 20
4362.824144841766
 30
0.0
 10
6745.489258567846
 20
4364.6970246114
 30
0.0
 10
6745.050594743093
 20
4366.300661676447
 30
0.0
 10
6744.482877288327
 20
4367.133597592652
 30
0.0
 10
6744.263613530316
 20
4367.455293988697
 30
0.0
  0
SPLINE
  5
AD
330
1F
100
AcDbEntity
  8
0
  6
Continuous
 62
     7
370
    25
100
AcDbSpline
210
0.0
220
0.0
230
1.0
 70
     8
 71
     3
 72
    10
 73
     6
 74
     0
 42
0.000000001
 43
0.00000001
 40
0.0
 40
0.0
 40
0.0
 40
0.0
 40
0.3720493008172476
 40
0.7441065570847419
 40
1.0
 40
1.0
 40
1.0
 40
1.0
 10
6755.970770109544
 20
4339.840106251755
 30
0.0
 10
6755.541353165982
 20
4340.28636585011
 30
0.0
 10
6754.682510096729
 20
4341.178894589094
 30
0.0
 10
6753.102465561426
 20
4341.879134786221
 30
0.0
 10
6752.055366603306
 20
4341.886336621339
 30
0.0
 10
6751.628667886646
 20
4341.889271409669
 30
0.0
  0
SPLINE
  5
AE
330
1F
100
AcDbEntity
  8
0
  6
Continuous
 62
     7
370
    25
100
AcDbSpline
210
0.0
220
0.0
230
1.0
 70
     8
 71
     3
 72
    14
 73
    10
 74
     0
 42
0.000000001
 43
0.00000001
 40
0.0
 40
0.0
 40
0.0
 40
0.0
 40
0.150532990891748
 40
0.3013391494306199
 40
0.4521292540385978
 40
0.6029749892450292
 40
0.753938341542002
 40
0.9050592445015566
 40
1.0
 40
1.0
 40
1.0
 40
1.0
 10
6751.637397773594
 20
4330.957155274591
 30
0.0
 10
6752.254313801111
 20
4331.017325985249
 30
0.0
 10
6753.489265354924
 20
4331.137776596524
 30
0.0
 10
6755.134075097962
 20
4332.083180027736
 30
0.0
 10
6756.385505050725
 20
4333.476155266452
 30
0.0
 10
6757.104182693492
 20
4335.218211191481
 30
0.0
 10
6757.200558187036
 20
4337.090742737571
 30
0.0
 10
6756.757844003037
 20
4338.69008960159
 30
0.0
 10
6756.189904599574
 20
4339.519922449137
 30
0.0
 10
6755.970770109545
 20
4339.840106251755
 30
0.0
  0
SPLINE
  5
AF
330
1F
100
AcDbEntity
  8
0
  6
Continuous
 62
     7
370
    25
100
AcDbSpline
210
0.0
220
0.0
230
1.0
 70
     8
 71
     3
 72
    10
 73
     6
 74
     0
 42
0.000000001
 43
0.00000001
 40
0.0
 40
0.0
 40
0.0
 40
0.0
 40
0.3708695782722223
 40
0.7417388577592309
 40
1.0
 40
1.0
 40
1.0
 40
1.0
 10
6759.150239067341
 20
4365.624302762114
 30
0.0
 10
6758.722399244353
 20
4366.069911045741
 30
0.0
 10
6757.866719943057
 20
4366.961127253997
 30
0.0
 10
6756.287209831678
 20
4367.663080456245
 30
0.0
 10
6755.23874141664
 20
4367.672642010363
 30
0.0
 10
6754.808339959136
 20
4367.676567075505
 30
0.0
  0
SPLINE
  5
B0
330
1F
100
AcDbEntity
  8
0
  6
Continuous
 62
     7
370
    25
100
AcDbSpline
210
0.0
220
0.0
230
1.0
 70
     8
 71
     3
 72
    14
 73
    10
 74
     0
 42
0.000000001
 43
0.00000001
 40
0.0
 40
0.0
 40
0.0
 40
0.0
 40
0.1490986185286209
 40
0.3003211311002083
 40
0.4516932802240917
 40
0.6030223613866376
 40
0.7542132214417097
 40
0.9052383524283022
 40
1.0
 40
1.0
 40
1.0
 40
1.0
 10
6754.808176323324
 20
4356.745839463097
 30
0.0
 10
6755.418916367257
 20
4356.803637301721
 30
0.0
 10
6756.64909638242
 20
4356.920056303066
 30
0.0
 10
6758.293762836563
 20
4357.858464552152
 30
0.0
 10
6759.552963074935
 20
4359.250818831829
 30
0.0
 10
6760.277876689369
 20
4360.995954145687
 30
0.0
 10
6760.377646587049
 20
4362.871871655518
 30
0.0
 10
6759.936408777206
 20
4364.473428465799
 30
0.0
 10
6759.369000134085
 20
4365.304058309052
 30
0.0
 10
6759.150239067341
 20
4365.624302762114
 30
0.0
  0
SPLINE
  5
B1
330
1F
100
AcDbEntity
  8
0
  6
Continuous
 62
     7
370
    25
100
AcDbSpline
210
0.0
220
0.0
230
1.0
 70
     8
 71
     3
 72
    10
 73
     6
 74
     0
 42
0.000000001
 43
0.00000001
 40
0.0
 40
0.0
 40
0.0
 40
0.0
 40
0.372084559832198
 40
0.7441570156149865
 40
1.0
 40
1.0
 40
1.0
 40
1.0
 10
6764.998656490597
 20
4351.823461559909
 30
0.0
 10
6764.569018107018
 20
4352.268672225067
 30
0.0
 10
6763.709755316158
 20
4353.159079072515
 30
0.0
 10
6762.131723662165
 20
4353.856127185338
 30
0.0
 10
6761.087678484596
 20
4353.862848023929
 30
0.0
 10
6760.662284208593
 20
4353.86558641718
 30
0.0
  0
SPLINE
  5
B2
330
1F
100
AcDbEntity
  8
0
  6
Continuous
 62
     7
370
    25
100
AcDbSpline
210
0.0
220
0.0
230
1.0
 70
     8
 71
     3
 72
    14
 73
    10
 74
     0
 42
0.000000001
 43
0.00000001
 40
0.0
 40
0.0
 40
0.0
 40
0.0
 40
0.1512553317323649
 40
0.3023899119672872
 40
0.4533589063515942
 40
0.6041849228544668
 40
0.7549197265220141
 40
0.9056313907025231
 40
1.0
 40
1.0
 40
1.0
 40
1.0
 10
6760.667094324522
 20
4342.932759932664
 30
0.0
 10
6761.286727344414
 20
4342.993711221853
 30
0.0
 10
6762.525498713274
 20
4343.115565141056
 30
0.0
 10
6764.173707106273
 20
4344.0660540299
 30
0.0
 10
6765.424445219609
 20
4345.464026121946
 30
0.0
 10
6766.139680545471
 20
4347.2094513257
 30
0.0
 10
6766.231351648207
 20
4349.082279991455
 30
0.0
 10
6765.785319972048
 20
4350.678262688261
 30
0.0
 10
6765.217353155976
 20
4351.505090133841
 30
0.0
 10
6764.998656490597
 20
4351.823461559909
 30
0.0
  0
CIRCLE
  5
B3
330
1F
100
AcDbEntity
  8
0
  6
Continuous
 62
     7
370
    25
100
AcDbCircle
 10
6745.7794270331
 20
4350.2662082059
 30
0.0
 40
4.99989426708267
  0
CIRCLE
  5
B4
330
1F
100
AcDbEntity
  8
0
  6
Continuous
 62
     7
370
    25
100
AcDbCircle
 10
6745.7671905277
 20
4350.2661749895
 30
0.0
 40
3.199926061596763
  0
LINE
  5
B5
330
1F
100
AcDbEntity
  8
0
  6
Continuous
 62
     7
370
    25
100
AcDbLine
 10
5647.5187553361
 20
4575.2660976515
 30
0.0
 11
6900.5187553361
 21
4575.2660976515
 31
0.0
  0
LINE
  5
B6
330
1F
100
AcDbEntity
  8
0
  6
Continuous
 62
     7
370
    25
100
AcDbLine
 10
6900.5187553361
 20
4572.2660976515
 30
0.0
 11
6900.5187553361
 21
4575.2660976515
 31
0.0
  0
LINE
  5
B7
330
1F
100
AcDbEntity
  8
0
  6
Continuous
 62
     7
370
    25
100
AcDbLine
 10
5647.5187553361
 20
4572.2660976515
 30
0.0
 11
6900.5187553361
 21
4572.2660976515
 31
0.0
  0
LINE
  5
B8
330
1F
100
AcDbEntity
  8
0
  6
Continuous
 62
     7
370
    25
100
AcDbLine
 10
5647.5187553361
 20
4572.2660976515
 30
0.0
 11
5647.5187553361
 21
4575.2660976515
 31
0.0
  0
LINE
  5
B9
330
1F
100
AcDbEntity
  8
0
  6
Continuous
 62
     7
370
    25
100
AcDbLine
 10
6900.5187553361
 20
4150.2660976515
 30
0.0
 11
5647.5187553361
 21
4150.2660976515
 31
0.0
  0
LINE
  5
BA
330
1F
100
AcDbEntity
  8
0
  6
Continuous
 62
     7
370
    25
100
AcDbLine
 10
5653.5187553361
 20
4510.2660976515
 30
0.0
 11
5653.5187553361
 21
4190.2660976515
 31
0.0
  0
LINE
  5
BB
330
1F
100
AcDbEntity
  8
0
  6
Continuous
 62
     7
370
    25
100
AcDbLine
 10
6894.5187553361
 20
4190.2660976515
 30
0.0
 11
5653.5187553361
 21
4190.2660976515
 31
0.0
  0
LINE
  5
BC
330
1F
100
AcDbEntity
  8
0
  6
Continuous
 62
     7
370
    25
100
AcDbLine
 10
6894.5187553361
 20
4510.2660976515
 30
0.0
 11
6894.5187553361
 21
4190.2660976515
 31
0.0
  0
LINE
  5
BD
330
1F
100
AcDbEntity
  8
0
  6
Continuous
 62
     7
370
    25
100
AcDbLine
 10
6894.5187553361
 20
4510.2660976515
 30
0.0
 11
5653.5187553361
 21
4510.2660976515
 31
0.0
  0
LINE
  5
BE
330
1F
100
AcDbEntity
  8
0
  6
Continuous
 62
     7
370
    25
100
AcDbLine
 10
6900.5187553361
 20
4150.2660976515
 30
0.0
 11
6900.5187553361
 21
4572.2660976515
 31
0.0
  0
LINE
  5
BF
330
1F
100
AcDbEntity
  8
0
  6
Continuous
 62
     7
370
    25
100
AcDbLine
 10
5647.5187553361
 20
4150.2660976515
 30
0.0
 11
5647.5187553361
 21
4572.2660976515
 31
0.0
  0
LWPOLYLINE
  5
C0
330
1F
100
AcDbEntity
  8
0
  6
Continuous
 62
     7
370
    25
100
AcDbPolyline
 90
        6
 70
   128
 43
0.0
 10
6894.5187553361
 20
4424.0540963388
 10
6649.7933946078
 20
4424.0744106781
 10
6400.7247347419
 20
4424.0954553906
 10
6151.6560749077
 20
4424.1168785708
 10
5902.587415105
 20
4424.1386854242
 10
5653.5187553361
 20
4424.1608809242
  0
LWPOLYLINE
  5
C1
330
1F
100
AcDbEntity
  8
0
  6
Continuous
 62
     7
370
    25
100
AcDbPolyline
 90
        4
 70
   128
 43
0.0
 10
6894.5187553361
 20
4276.4780989643
 10
6649.7933748649
 20
4276.4577846234
 10
6151.6560650363
 20
4276.4153167315
 10
5653.5187553361
 20
4276.3713143789
  0
CIRCLE
  5
C2
330
1F
100
AcDbEntity
  8
0
  6
Continuous
 62
     7
370
    25
100
AcDbCircle
 10
6745.9044044116
 20
4350.2661715893
 30
0.0
 40
32.99964439529419
  0
SPLINE
  5
C3
330
1F
100
AcDbEntity
  8
0
  6
Continuous
 62
     8
370
    25
100
AcDbSpline
210
0.0
220
0.0
230
1.0
 70
     8
 71
     3
 72
    11
 73
     7
 74
     0
 42
0.000000001
 43
0.00000001
 40
0.0
 40
0.0
 40
0.0
 40
0.0
 40
0.231190342775317
 40
0.5431320525214897
 40
0.8454072727088447
 40
1.0
 40
1.0
 40
1.0
 40
1.0
 10
6727.538414244518
 20
4356.448221704967
 30
0.0
 10
6728.015585086133
 20
4356.011594495197
 30
0.0
 10
6729.136595486042
 20
4354.98583264986
 30
0.0
 10
6731.501609807749
 20
4353.354112605043
 30
0.0
 10
6733.94969187824
 20
4351.952154955962
 30
0.0
 10
6735.684282030914
 20
4351.345563579814
 30
0.0
 10
6736.271224108847
 20
4351.140308175692
 30
0.0
  0
SPLINE
  5
C4
330
1F
100
AcDbEntity
  8
0
  6
Continuous
 62
     8
370
    25
100
AcDbSpline
210
0.0
220
0.0
230
1.0
 70
     8
 71
     3
 72
    10
 73
     6
 74
     0
 42
0.000000001
 43
0.00000001
 40
0.0
 40
0.0
 40
0.0
 40
0.0
 40
0.3468892976000019
 40
0.8431953995925319
 40
1.0
 40
1.0
 40
1.0
 40
1.0
 10
6742.683833014465
 20
4349.617147010666
 30
0.0
 10
6743.392159976874
 20
4349.537472472846
 30
0.0
 10
6745.113913978057
 20
4349.343804913143
 30
0.0
 10
6747.214492020197
 20
4349.395076462131
 30
0.0
 10
6748.52946063993
 20
4349.606781689344
 30
0.0
 10
6748.845169949558
 20
4349.65760975484
 30
0.0
  0
SPLINE
  5
C5
330
1F
100
AcDbEntity
  8
0
  6
Continuous
 62
     8
370
    25
100
AcDbSpline
210
0.0
220
0.0
230
1.0
 70
     8
 71
     3
 72
    10
 73
     6
 74
     0
 42
0.000000001
 43
0.00000001
 40
0.0
 40
0.0
 40
0.0
 40
0.0
 40
0.036488315855214
 40
0.6628587639365848
 40
1.0
 40
1.0
 40
1.0
 40
1.0
 10
6756.320353000552
 20
4351.713171427603
 30
0.0
 10
6756.374531699329
 20
4351.734118851188
 30
0.0
 10
6757.358759786088
 20
4352.114656647463
 30
0.0
 10
6758.673776749249
 20
4352.847588845312
 30
0.0
 10
6759.763339297059
 20
4353.579796829723
 30
0.0
 10
6760.144586842036
 20
4353.836002861245
 30
0.0
  0
ENDSEC
  0
SECTION
  2
OBJECTS
  0
DICTIONARY
  5
C
330
0
100
AcDbDictionary
281
     1
  3
ACAD_GROUP
350
D
  3
ACAD_LAYOUT
350
1A
  3
ACAD_MLINESTYLE
350
17
  3
ACAD_PLOTSETTINGS
350
19
  3
ACAD_PLOTSTYLENAME
350
E
  3
ACAD_SCALELIST
350
47
  0
DICTIONARY
  5
D
102
{ACAD_REACTORS
330
C
102
}
330
C
100
AcDbDictionary
281
     1
  0
DICTIONARY
  5
1A
102
{ACAD_REACTORS
330
C
102
}
330
C
100
AcDbDictionary
281
     1
  3
Layout1
350
1E
  3
Layout2
350
26
  3
Model
350
22
  0
DICTIONARY
  5
17
102
{ACAD_REACTORS
330
C
102
}
330
C
100
AcDbDictionary
281
     1
  3
Standard
350
18
  0
DICTIONARY
  5
19
102
{ACAD_REACTORS
330
C
102
}
330
C
100
AcDbDictionary
281
     1
  0
ACDBDICTIONARYWDFLT
  5
E
102
{ACAD_REACTORS
330
C
102
}
330
C
100
AcDbDictionary
281
     1
  3
Normal
350
F
100
AcDbDictionaryWithDefault
340
F
  0
DICTIONARY
  5
47
102
{ACAD_REACTORS
330
C
102
}
330
C
100
AcDbDictionary
281
     1
  3
A0
350
48
  3
A1
350
49
  3
A2
350
4A
  3
A3
350
4B
  3
A4
350
4C
  3
A5
350
4D
  3
A6
350
4E
  3
A7
350
4F
  3
A8
350
50
  3
A9
350
51
  3
B0
350
52
  3
B1
350
53
  3
B2
350
54
  3
B3
350
55
  3
B4
350
56
  3
B5
350
57
  3
B6
350
58
  3
B7
350
59
  3
B8
350
5A
  3
B9
350
5B
  3
C0
350
5C
  3
C1
350
5D
  3
C2
350
5E
  3
C3
350
5F
  3
C4
350
60
  3
C5
350
61
  3
C6
350
62
  3
C7
350
63
  3
C8
350
64
  3
C9
350
65
  3
D0
350
66
  3
D1
350
67
  3
D2
350
68
  0
LAYOUT
  5
1E
102
{ACAD_REACTORS
330
1A
102
}
330
1A
100
AcDbPlotSettings
  1

  2
none_device
  4

  6

 40
0.0
 41
0.0
 42
0.0
 43
0.0
 44
0.0
 45
0.0
 46
0.0
 47
0.0
 48
0.0
 49
0.0
140
0.0
141
0.0
142
1.0
143
1.0
 70
   688
 72
     1
 73
     0
 74
     5
  7

 75
    16
147
1.0
148
0.0
149
0.0
100
AcDbLayout
  1
Layout1
 70
     1
 71
     1
 10
0.0
 20
0.0
 11
420.0
 21
297.0
 12
0.0
 22
0.0
 32
0.0
 14
1.0000000000E+20
 24
1.0000000000E+20
 34
1.0000000000E+20
 15
-1.0000000000E+20
 25
-1.0000000000E+20
 35
-1.0000000000E+20
146
0.0
 13
0.0
 23
0.0
 33
0.0
 16
1.0
 26
0.0
 36
0.0
 17
0.0
 27
1.0
 37
0.0
 76
     0
330
1B
  0
LAYOUT
  5
26
102
{ACAD_REACTORS
330
1A
102
}
330
1A
100
AcDbPlotSettings
  1

  2
none_device
  4

  6

 40
0.0
 41
0.0
 42
0.0
 43
0.0
 44
0.0
 45
0.0
 46
0.0
 47
0.0
 48
0.0
 49
0.0
140
0.0
141
0.0
142
1.0
143
1.0
 70
   688
 72
     1
 73
     0
 74
     5
  7

 75
    16
147
1.0
148
0.0
149
0.0
100
AcDbLayout
  1
Layout2
 70
     1
 71
     2
 10
0.0
 20
0.0
 11
0.0
 21
0.0
 12
0.0
 22
0.0
 32
0.0
 14
0.0
 24
0.0
 34
0.0
 15
0.0
 25
0.0
 35
0.0
146
0.0
 13
0.0
 23
0.0
 33
0.0
 16
1.0
 26
0.0
 36
0.0
 17
0.0
 27
1.0
 37
0.0
 76
     0
330
23
  0
LAYOUT
  5
22
102
{ACAD_REACTORS
330
1A
102
}
330
1A
100
AcDbPlotSettings
  1

  2
none_device
  4
Letter_(8.50_x_11.00_Inches)
  6

 40
6.35
 41
6.35
 42
6.35000508
 43
6.35000508
 44
215.9
 45
279.4
 46
0.0
 47
0.0
 48
0.0
 49
0.0
140
0.0
141
0.0
142
1.0
143
1.0
 70
  1712
 72
     1
 73
     0
 74
     0
  7

 75
     0
147
1.0
148
0.0
149
0.0
100
AcDbLayout
  1
Model
 70
     1
 71
     0
 10
0.0
 20
0.0
 11
20000.0
 21
10000.0
 12
0.0
 22
0.0
 32
0.0
 14
0.0
 24
0.0
 34
0.0
 15
20000.0
 25
10000.0
 35
0.0
146
0.0
 13
0.0
 23
0.0
 33
0.0
 16
1.0
 26
0.0
 36
0.0
 17
0.0
 27
1.0
 37
0.0
 76
     0
330
1F
331
29
  0
MLINESTYLE
  5
18
102
{ACAD_REACTORS
330
17
102
}
330
17
100
AcDbMlineStyle
  2
Standard
 70
     0
  3

 62
   256
 51
90.0
 52
90.0
 71
     2
 49
0.5
 62
   256
  6
BYLAYER
 49
-0.5
 62
   256
  6
BYLAYER
  0
ACDBPLACEHOLDER
  5
F
102
{ACAD_REACTORS
330
E
102
}
330
E
  0
SCALE
  5
48
102
{ACAD_REACTORS
330
47
102
}
330
47
100
AcDbScale
 70
     0
300
1:1
140
1.0
141
1.0
290
     1
  0
SCALE
  5
49
102
{ACAD_REACTORS
330
47
102
}
330
47
100
AcDbScale
 70
     0
300
1:2
140
1.0
141
2.0
290
     0
  0
SCALE
  5
4A
102
{ACAD_REACTORS
330
47
102
}
330
47
100
AcDbScale
 70
     0
300
1:4
140
1.0
141
4.0
290
     0
  0
SCALE
  5
4B
102
{ACAD_REACTORS
330
47
102
}
330
47
100
AcDbScale
 70
     0
300
1:5
140
1.0
141
5.0
290
     0
  0
SCALE
  5
4C
102
{ACAD_REACTORS
330
47
102
}
330
47
100
AcDbScale
 70
     0
300
1:8
140
1.0
141
8.0
290
     0
  0
SCALE
  5
4D
102
{ACAD_REACTORS
330
47
102
}
330
47
100
AcDbScale
 70
     0
300
1:10
140
1.0
141
10.0
290
     0
  0
SCALE
  5
4E
102
{ACAD_REACTORS
330
47
102
}
330
47
100
AcDbScale
 70
     0
300
1:16
140
1.0
141
16.0
290
     0
  0
SCALE
  5
4F
102
{ACAD_REACTORS
330
47
102
}
330
47
100
AcDbScale
 70
     0
300
1:20
140
1.0
141
20.0
290
     0
  0
SCALE
  5
50
102
{ACAD_REACTORS
330
47
102
}
330
47
100
AcDbScale
 70
     0
300
1:30
140
1.0
141
30.0
290
     0
  0
SCALE
  5
51
102
{ACAD_REACTORS
330
47
102
}
330
47
100
AcDbScale
 70
     0
300
1:40
140
1.0
141
40.0
290
     0
  0
SCALE
  5
52
102
{ACAD_REACTORS
330
47
102
}
330
47
100
AcDbScale
 70
     0
300
1:50
140
1.0
141
50.0
290
     0
  0
SCALE
  5
53
102
{ACAD_REACTORS
330
47
102
}
330
47
100
AcDbScale
 70
     0
300
1:100
140
1.0
141
100.0
290
     0
  0
SCALE
  5
54
102
{ACAD_REACTORS
330
47
102
}
330
47
100
AcDbScale
 70
     0
300
2:1
140
2.0
141
1.0
290
     0
  0
SCALE
  5
55
102
{ACAD_REACTORS
330
47
102
}
330
47
100
AcDbScale
 70
     0
300
4:1
140
4.0
141
1.0
290
     0
  0
SCALE
  5
56
102
{ACAD_REACTORS
330
47
102
}
330
47
100
AcDbScale
 70
     0
300
8:1
140
8.0
141
1.0
290
     0
  0
SCALE
  5
57
102
{ACAD_REACTORS
330
47
102
}
330
47
100
AcDbScale
 70
     0
300
10:1
140
10.0
141
1.0
290
     0
  0
SCALE
  5
58
102
{ACAD_REACTORS
330
47
102
}
330
47
100
AcDbScale
 70
     0
300
100:1
140
100.0
141
1.0
290
     0
  0
SCALE
  5
59
102
{ACAD_REACTORS
330
47
102
}
330
47
100
AcDbScale
 70
     0
300
1/128" = 1'-0"
140
0.0078125
141
12.0
290
     0
  0
SCALE
  5
5A
102
{ACAD_REACTORS
330
47
102
}
330
47
100
AcDbScale
 70
     0
300
1/64" = 1'-0"
140
0.015625
141
12.0
290
     0
  0
SCALE
  5
5B
102
{ACAD_REACTORS
330
47
102
}
330
47
100
AcDbScale
 70
     0
300
1/32" = 1'-0"
140
0.03125
141
12.0
290
     0
  0
SCALE
  5
5C
102
{ACAD_REACTORS
330
47
102
}
330
47
100
AcDbScale
 70
     0
300
1/16" = 1'-0"
140
0.0625
141
12.0
290
     0
  0
SCALE
  5
5D
102
{ACAD_REACTORS
330
47
102
}
330
47
100
AcDbScale
 70
     0
300
3/32" = 1'-0"
140
0.09375
141
12.0
290
     0
  0
SCALE
  5
5E
102
{ACAD_REACTORS
330
47
102
}
330
47
100
AcDbScale
 70
     0
300
1/8" = 1'-0"
140
0.125
141
12.0
290
     0
  0
SCALE
  5
5F
102
{ACAD_REACTORS
330
47
102
}
330
47
100
AcDbScale
 70
     0
300
3/16" = 1'-0"
140
0.1875
141
12.0
290
     0
  0
SCALE
  5
60
102
{ACAD_REACTORS
330
47
102
}
330
47
100
AcDbScale
 70
     0
300
1/4" = 1'-0"
140
0.25
141
12.0
290
     0
  0
SCALE
  5
61
102
{ACAD_REACTORS
330
47
102
}
330
47
100
AcDbScale
 70
     0
300
3/8" = 1'-0"
140
0.375
141
12.0
290
     0
  0
SCALE
  5
62
102
{ACAD_REACTORS
330
47
102
}
330
47
100
AcDbScale
 70
     0
300
1/2" = 1'-0"
140
0.5
141
12.0
290
     0
  0
SCALE
  5
63
102
{ACAD_REACTORS
330
47
102
}
330
47
100
AcDbScale
 70
     0
300
3/4" = 1'-0"
140
0.75
141
12.0
290
     0
  0
SCALE
  5
64
102
{ACAD_REACTORS
330
47
102
}
330
47
100
AcDbScale
 70
     0
300
1" = 1'-0"
140
1.0
141
12.0
290
     0
  0
SCALE
  5
65
102
{ACAD_REACTORS
330
47
102
}
330
47
100
AcDbScale
 70
     0
300
1-1/2" = 1'-0"
140
1.5
141
12.0
290
     0
  0
SCALE
  5
66
102
{ACAD_REACTORS
330
47
102
}
330
47
100
AcDbScale
 70
     0
300
3" = 1'-0"
140
3.0
141
12.0
290
     0
  0
SCALE
  5
67
102
{ACAD_REACTORS
330
47
102
}
330
47
100
AcDbScale
 70
     0
300
6" = 1'-0"
140
6.0
141
12.0
290
     0
  0
SCALE
  5
68
102
{ACAD_REACTORS
330
47
102
}
330
47
100
AcDbScale
 70
     0
300
1'-0" = 1'-0"
140
12.0
141
12.0
290
     0
  0
ENDSEC
  0
EOF
