  0
SECTION
  2
HEADER
  9
$ACADVER
  1
AC1015
  9
$ACADMAINTVER
 70
     6
  9
$DWGCODEPAGE
  3
ANSI_1250
  9
$INSBASE
 10
0.0
 20
0.0
 30
0.0
  9
$EXTMIN
 10
0.0
 20
0.0
 30
0.0
  9
$EXTMAX
 10
1189.0
 20
841.0
 30
0.0
  9
$LIMMIN
 10
0.0
 20
0.0
  9
$LIMMAX
 10
1189.0
 20
841.0
  9
$ORTHOMODE
 70
     0
  9
$REGENMODE
 70
     1
  9
$FILLMODE
 70
     1
  9
$QTEXTMODE
 70
     0
  9
$MIRRTEXT
 70
     1
  9
$LTSCALE
 40
1.0
  9
$ATTMODE
 70
     1
  9
$TEXTSIZE
 40
3.5
  9
$TRACEWID
 40
1.0
  9
$TEXTSTYLE
  7
Standard
  9
$CLAYER
  8
0
  9
$CELTYPE
  6
ByLayer
  9
$CECOLOR
 62
   256
  9
$CELTSCALE
 40
1.0
  9
$DISPSILH
 70
     0
  9
$DIMSCALE
 40
1.0
  9
$DIMASZ
 40
3.302
  9
$DIMEXO
 40
1.0
  9
$DIMDLI
 40
3.75
  9
$DIMRND
 40
0.0
  9
$DIMDLE
 40
0.0
  9
$DIMEXE
 40
1.0
  9
$DIMTP
 40
0.0
  9
$DIMTM
 40
0.0
  9
$DIMTXT
 40
3.5
  9
$DIMCEN
 40
2.5
  9
$DIMTSZ
 40
0.0
  9
$DIMTOL
 70
     0
  9
$DIMLIM
 70
     0
  9
$DIMTIH
 70
     1
  9
$DIMTOH
 70
     1
  9
$DIMSE1
 70
     0
  9
$DIMSE2
 70
     0
  9
$DIMTAD
 70
     1
  9
$DIMZIN
 70
     1
  9
$DIMBLK
  1

  9
$DIMASO
 70
     1
  9
$DIMSHO
 70
     1
  9
$DIMPOST
  1

  9
$DIMAPOST
  1

  9
$DIMALT
 70
     0
  9
$DIMALTD
 70
     3
  9
$DIMALTF
 40
0.0393700787
  9
$DIMLFAC
 40
2.0
  9
$DIMTOFL
 70
     1
  9
$DIMTVP
 40
0.0
  9
$DIMTIX
 70
     0
  9
$DIMSOXD
 70
     0
  9
$DIMSAH
 70
     0
  9
$DIMBLK1
  1

  9
$DIMBLK2
  1

  9
$DIMSTYLE
  2
ISO-25
  9
$DIMCLRD
 70
     0
  9
$DIMCLRE
 70
     0
  9
$DIMCLRT
 70
     0
  9
$DIMTFAC
 40
1.0
  9
$DIMGAP
 40
1.524
  9
$DIMJUST
 70
     0
  9
$DIMSD1
 70
     0
  9
$DIMSD2
 70
     0
  9
$DIMTOLJ
 70
     0
  9
$DIMTZIN
 70
     1
  9
$DIMALTZ
 70
     0
  9
$DIMALTTZ
 70
     0
  9
$DIMUPT
 70
     0
  9
$DIMDEC
 70
     2
  9
$DIMTDEC
 70
     2
  9
$DIMALTU
 70
     2
  9
$DIMALTTD
 70
     3
  9
$DIMTXSTY
  7
Standard
  9
$DIMAUNIT
 70
     0
  9
$DIMADEC
 70
     2
  9
$DIMALTRND
 40
0.0
  9
$DIMAZIN
 70
     0
  9
$DIMDSEP
 70
    44
  9
$DIMATFIT
 70
     3
  9
$DIMFRAC
 70
     0
  9
$DIMLDRBLK
  1

  9
$DIMLUNIT
 70
     2
  9
$DIMLWD
 70
    -2
  9
$DIMLWE
 70
    -2
  9
$DIMTMOVE
 70
     0
  9
$LUNITS
 70
     2
  9
$LUPREC
 70
     2
  9
$SKETCHINC
 40
1.0
  9
$FILLETRAD
 40
10.0
  9
$AUNITS
 70
     0
  9
$AUPREC
 70
     2
  9
$MENU
  1
.
  9
$ELEVATION
 40
0.0
  9
$PELEVATION
 40
0.0
  9
$THICKNESS
 40
0.0
  9
$LIMCHECK
 70
     0
  9
$CHAMFERA
 40
0.0
  9
$CHAMFERB
 40
0.0
  9
$CHAMFERC
 40
0.0
  9
$CHAMFERD
 40
0.0
  9
$SKPOLY
 70
     0
  9
$TDCREATE
 40
2459030.635689433
  9
$TDUCREATE
 40
2459030.5523561
  9
$TDUPDATE
 40
2459030.635689803
  9
$TDUUPDATE
 40
2459030.55235647
  9
$TDINDWG
 40
0.0000000116
  9
$TDUSRTIMER
 40
0.0000000116
  9
$USRTIMER
 70
     1
  9
$ANGBASE
 50
0.0
  9
$ANGDIR
 70
     0
  9
$PDMODE
 70
     0
  9
$PDSIZE
 40
-1.0
  9
$PLINEWID
 40
0.0
  9
$SPLFRAME
 70
     0
  9
$SPLINETYPE
 70
     6
  9
$SPLINESEGS
 70
     8
  9
$HANDSEED
  5
193
  9
$SURFTAB1
 70
     6
  9
$SURFTAB2
 70
     6
  9
$SURFTYPE
 70
     6
  9
$SURFU
 70
     6
  9
$SURFV
 70
     6
  9
$UCSBASE
  2

  9
$UCSNAME
  2

  9
$UCSORG
 10
0.0
 20
0.0
 30
0.0
  9
$UCSXDIR
 10
1.0
 20
0.0
 30
0.0
  9
$UCSYDIR
 10
0.0
 20
1.0
 30
0.0
  9
$UCSORTHOREF
  2

  9
$UCSORTHOVIEW
 70
     0
  9
$UCSORGTOP
 10
0.0
 20
0.0
 30
0.0
  9
$UCSORGBOTTOM
 10
0.0
 20
0.0
 30
0.0
  9
$UCSORGLEFT
 10
0.0
 20
0.0
 30
0.0
  9
$UCSORGRIGHT
 10
0.0
 20
0.0
 30
0.0
  9
$UCSORGFRONT
 10
0.0
 20
0.0
 30
0.0
  9
$UCSORGBACK
 10
0.0
 20
0.0
 30
0.0
  9
$PUCSBASE
  2

  9
$PUCSNAME
  2

  9
$PUCSORG
 10
0.0
 20
0.0
 30
0.0
  9
$PUCSXDIR
 10
1.0
 20
0.0
 30
0.0
  9
$PUCSYDIR
 10
0.0
 20
1.0
 30
0.0
  9
$PUCSORTHOREF
  2

  9
$PUCSORTHOVIEW
 70
     0
  9
$PUCSORGTOP
 10
0.0
 20
0.0
 30
0.0
  9
$PUCSORGBOTTOM
 10
0.0
 20
0.0
 30
0.0
  9
$PUCSORGLEFT
 10
0.0
 20
0.0
 30
0.0
  9
$PUCSORGRIGHT
 10
0.0
 20
0.0
 30
0.0
  9
$PUCSORGFRONT
 10
0.0
 20
0.0
 30
0.0
  9
$PUCSORGBACK
 10
0.0
 20
0.0
 30
0.0
  9
$USERI1
 70
     0
  9
$USERI2
 70
     0
  9
$USERI3
 70
     0
  9
$USERI4
 70
     0
  9
$USERI5
 70
     0
  9
$USERR1
 40
0.0
  9
$USERR2
 40
0.0
  9
$USERR3
 40
0.0
  9
$USERR4
 40
0.0
  9
$USERR5
 40
0.0
  9
$WORLDVIEW
 70
     1
  9
$SHADEDGE
 70
     3
  9
$SHADEDIF
 70
    70
  9
$TILEMODE
 70
     1
  9
$MAXACTVP
 70
    64
  9
$PINSBASE
 10
0.0
 20
0.0
 30
0.0
  9
$PLIMCHECK
 70
     0
  9
$PEXTMIN
 10
1.0000000000E+20
 20
1.0000000000E+20
 30
1.0000000000E+20
  9
$PEXTMAX
 10
-1.0000000000E+20
 20
-1.0000000000E+20
 30
-1.0000000000E+20
  9
$PLIMMIN
 10
0.0
 20
0.0
  9
$PLIMMAX
 10
420.0
 20
297.0
  9
$UNITMODE
 70
     0
  9
$VISRETAIN
 70
     1
  9
$PLINEGEN
 70
     0
  9
$PSLTSCALE
 70
     1
  9
$TREEDEPTH
 70
  3020
  9
$CMLSTYLE
  2
Standard
  9
$CMLJUST
 70
     0
  9
$CMLSCALE
 40
20.0
  9
$PROXYGRAPHICS
 70
     1
  9
$MEASUREMENT
 70
     1
  9
$CELWEIGHT
370
    -1
  9
$ENDCAPS
280
     0
  9
$JOINSTYLE
280
     0
  9
$LWDISPLAY
290
     1
  9
$INSUNITS
 70
     4
  9
$HYPERLINKBASE
  1

  9
$STYLESHEET
  1

  9
$XEDIT
290
     1
  9
$CEPSNTYPE
380
     0
  9
$PSTYLEMODE
290
     1
  9
$FINGERPRINTGUID
  2
{60af3498-4bbf-4d25-bc67-88c81ebe516f}
  9
$VERSIONGUID
  2
{FAEB1C32-E019-11D5-929B-00C0DF256EC4}
  9
$EXTNAMES
290
     1
  9
$PSVPSCALE
 40
0.0
  9
$OLESTARTUP
290
     0
  0
ENDSEC
  0
SECTION
  2
CLASSES
  0
CLASS
  1
ACDBDICTIONARYWDFLT
  2
AcDbDictionaryWithDefault
  3
ObjectDBX Classes
 90
        0
280
     0
281
     0
  0
CLASS
  1
VISUALSTYLE
  2
AcDbVisualStyle
  3
ObjectDBX Classes
 90
     4095
280
     0
281
     0
  0
CLASS
  1
MATERIAL
  2
AcDbMaterial
  3
ObjectDBX Classes
 90
     1153
280
     0
281
     0
  0
CLASS
  1
SCALE
  2
AcDbScale
  3
ObjectDBX Classes
 90
     1153
280
     0
281
     0
  0
CLASS
  1
TABLESTYLE
  2
AcDbTableStyle
  3
ObjectDBX Classes
 90
     4095
280
     0
281
     0
  0
CLASS
  1
MLEADERSTYLE
  2
AcDbMLeaderStyle
  3
ACDB_MLEADERSTYLE_CLASS
 90
     4095
280
     0
281
     0
  0
CLASS
  1
SUN
  2
AcDbSun
  3
SCENEOE
 90
     1153
280
     0
281
     0
  0
CLASS
  1
ACDBPLACEHOLDER
  2
AcDbPlaceHolder
  3
ObjectDBX Classes
 90
        0
280
     0
281
     0
  0
CLASS
  1
LAYOUT
  2
AcDbLayout
  3
ObjectDBX Classes
 90
        0
280
     0
281
     0
  0
ENDSEC
  0
SECTION
  2
TABLES
  0
TABLE
  2
VPORT
  5
8
330
0
100
AcDbSymbolTable
 70
     1
  0
VPORT
  5
29
330
8
100
AcDbSymbolTableRecord
100
AcDbViewportTableRecord
  2
*Active
 70
     0
 10
0.0
 20
0.0
 11
1.0
 21
1.0
 12
594.5
 22
420.5
 13
0.0
 23
0.0
 14
10.0
 24
10.0
 15
10.0
 25
10.0
 16
0.0
 26
0.0
 36
1.0
 17
0.0
 27
0.0
 37
0.0
 40
841.0
 41
1.4137931034
 42
50.0
 43
0.0
 44
0.0
 50
0.0
 51
0.0
 71
     0
 72
  2000
 73
     1
 74
     3
 75
     0
 76
     0
 77
     0
 78
     0
281
     0
 65
     1
110
0.0
120
0.0
130
0.0
111
1.0
121
0.0
131
0.0
112
0.0
122
1.0
132
0.0
 79
     0
146
0.0
  0
ENDTAB
  0
TABLE
  2
LTYPE
  5
5
330
0
100
AcDbSymbolTable
 70
     6
  0
LTYPE
  5
14
330
5
100
AcDbSymbolTableRecord
100
AcDbLinetypeTableRecord
  2
ByBlock
 70
     0
  3

 72
    65
 73
     0
 40
0.0
  0
LTYPE
  5
15
330
5
100
AcDbSymbolTableRecord
100
AcDbLinetypeTableRecord
  2
ByLayer
 70
     0
  3

 72
    65
 73
     0
 40
0.0
  0
LTYPE
  5
16
330
5
100
AcDbSymbolTableRecord
100
AcDbLinetypeTableRecord
  2
Continuous
 70
     0
  3
Solid line
 72
    65
 73
     0
 40
0.0
  0
LTYPE
  5
6E
330
5
100
AcDbSymbolTableRecord
100
AcDbLinetypeTableRecord
  2
HIDDEN
 70
     0
  3
Hidden __ __ __ __ __ __ __ __ __ __ __ __ __ __
 72
    65
 73
     2
 40
1.905
 49
1.27
 74
     0
 49
-0.635
 74
     0
  0
LTYPE
  5
6F
330
5
100
AcDbSymbolTableRecord
100
AcDbLinetypeTableRecord
  2
PHANTOM
 70
     0
  3
Phantom ______  __  __  ______  __  __  ______
 72
    65
 73
     6
 40
12.7
 49
6.35
 74
     0
 49
-1.27
 74
     0
 49
1.27
 74
     0
 49
-1.27
 74
     0
 49
1.27
 74
     0
 49
-1.27
 74
     0
  0
LTYPE
  5
70
330
5
100
AcDbSymbolTableRecord
100
AcDbLinetypeTableRecord
  2
CENTER
 70
     0
  3
Center ____ _ ____ _ ____ _ ____ _ ____ _ ____
 72
    65
 73
     4
 40
10.16
 49
6.35
 74
     0
 49
-1.27
 74
     0
 49
1.27
 74
     0
 49
-1.27
 74
     0
  0
LTYPE
  5
71
330
5
100
AcDbSymbolTableRecord
100
AcDbLinetypeTableRecord
  2
CENTERX2
 70
     0
  3
Center (2x) ________  __  ________  __  _____
 72
    65
 73
     4
 40
20.32
 49
12.7
 74
     0
 49
-2.54
 74
     0
 49
2.54
 74
     0
 49
-2.54
 74
     0
  0
LTYPE
  5
72
330
5
100
AcDbSymbolTableRecord
100
AcDbLinetypeTableRecord
  2
DOT2
 70
     0
  3
Dot (.5x) ........................................
 72
    65
 73
     2
 40
0.635
 49
0.0
 74
     0
 49
-0.635
 74
     0
  0
ENDTAB
  0
TABLE
  2
LAYER
  5
2
330
0
100
AcDbSymbolTable
 70
     1
  0
LAYER
  5
10
330
2
100
AcDbSymbolTableRecord
100
AcDbLayerTableRecord
  2
0
 70
     0
 62
     7
  6
Continuous
370
    -3
390
F
  0
ENDTAB
  0
TABLE
  2
STYLE
  5
3
330
0
100
AcDbSymbolTable
 70
     1
  0
STYLE
  5
11
330
3
100
AcDbSymbolTableRecord
100
AcDbTextStyleTableRecord
  2
Standard
 70
     0
 40
0.0
 41
1.0
 50
0.0
 71
     0
 42
3.5
  3
txt
  4

  0
ENDTAB
  0
TABLE
  2
VIEW
  5
6
330
0
100
AcDbSymbolTable
 70
     0
  0
ENDTAB
  0
TABLE
  2
UCS
  5
7
330
0
100
AcDbSymbolTable
 70
     0
  0
ENDTAB
  0
TABLE
  2
APPID
  5
9
330
0
100
AcDbSymbolTable
 70
     1
  0
APPID
  5
12
330
9
100
AcDbSymbolTableRecord
100
AcDbRegAppTableRecord
  2
ACAD
 70
     0
  0
ENDTAB
  0
TABLE
  2
DIMSTYLE
  5
A
330
0
100
AcDbSymbolTable
 70
     1
100
AcDbDimStyleTable
  0
DIMSTYLE
105
27
330
A
100
AcDbSymbolTableRecord
100
AcDbDimStyleTableRecord
  2
ISO-25
 70
     0
 41
2.5
 42
0.625
 43
3.75
 44
1.25
 73
     0
 74
     0
 77
     1
 78
     8
140
2.5
141
2.5
143
0.0393700787
147
0.625
171
     3
172
     1
178
     0
271
     2
272
     2
274
     3
278
    44
283
     0
284
     8
340
11
  0
ENDTAB
  0
TABLE
  2
BLOCK_RECORD
  5
1
330
0
100
AcDbSymbolTable
 70
     1
  0
BLOCK_RECORD
  5
1F
330
1
100
AcDbSymbolTableRecord
100
AcDbBlockTableRecord
  2
*Model_Space
340
22
  0
BLOCK_RECORD
  5
1B
330
1
100
AcDbSymbolTableRecord
100
AcDbBlockTableRecord
  2
*Paper_Space
340
1E
  0
BLOCK_RECORD
  5
23
330
1
100
AcDbSymbolTableRecord
100
AcDbBlockTableRecord
  2
*Paper_Space0
340
26
  0
ENDTAB
  0
ENDSEC
  0
SECTION
  2
BLOCKS
  0
BLOCK
  5
20
330
1F
100
AcDbEntity
  8
0
100
AcDbBlockBegin
  2
*Model_Space
 70
     0
 10
0.0
 20
0.0
 30
0.0
  3
*Model_Space
  1

  0
ENDBLK
  5
21
330
1F
100
AcDbEntity
  8
0
100
AcDbBlockEnd
  0
BLOCK
  5
1C
330
1B
100
AcDbEntity
 67
     1
  8
0
100
AcDbBlockBegin
  2
*Paper_Space
 70
     0
 10
0.0
 20
0.0
 30
0.0
  3
*Paper_Space
  1

  0
ENDBLK
  5
1D
330
1B
100
AcDbEntity
 67
     1
  8
0
100
AcDbBlockEnd
  0
BLOCK
  5
24
330
23
100
AcDbEntity
  8
0
100
AcDbBlockBegin
  2
*Paper_Space0
 70
     0
 10
0.0
 20
0.0
 30
0.0
  3
*Paper_Space0
  1

  0
ENDBLK
  5
25
330
23
100
AcDbEntity
  8
0
100
AcDbBlockEnd
  0
ENDSEC
  0
SECTION
  2
ENTITIES
  0
LINE
  5
73
330
1F
100
AcDbEntity
  8
0
  6
Continuous
 62
     7
370
    25
100
AcDbLine
 10
450.8982079027
 20
569.1540516059
 30
0.0
 11
450.8982079027
 21
569.6540516059
 31
0.0
  0
LINE
  5
74
330
1F
100
AcDbEntity
  8
0
  6
Continuous
 62
     7
370
    25
100
AcDbLine
 10
425.8982079027
 20
569.6540516059
 30
0.0
 11
425.8982079027
 21
569.1540516059
 31
0.0
  0
LINE
  5
75
330
1F
100
AcDbEntity
  8
0
  6
Continuous
 62
     7
370
    25
100
AcDbLine
 10
445.8982079027
 20
595.807805842
 30
0.0
 11
445.8982079027
 21
598.307805842
 31
0.0
  0
LINE
  5
76
330
1F
100
AcDbEntity
  8
0
  6
Continuous
 62
     7
370
    25
100
AcDbLine
 10
430.8982079027
 20
598.307805842
 30
0.0
 11
430.8982079027
 21
595.807805842
 31
0.0
  0
LINE
  5
77
330
1F
100
AcDbEntity
  8
0
  6
Continuous
 62
     7
370
    25
100
AcDbLine
 10
445.8982079027
 20
598.307805842
 30
0.0
 11
445.6482079027
 21
598.557805842
 31
0.0
  0
LINE
  5
78
330
1F
100
AcDbEntity
  8
0
  6
Continuous
 62
     7
370
    25
100
AcDbLine
 10
431.1482079027
 20
598.557805842
 30
0.0
 11
430.8982079027
 21
598.307805842
 31
0.0
  0
LINE
  5
79
330
1F
100
AcDbEntity
  8
0
  6
Continuous
 62
     7
370
    25
100
AcDbLine
 10
430.8982079027
 20
595.807805842
 30
0.0
 11
431.1482079027
 21
595.557805842
 31
0.0
  0
LINE
  5
7A
330
1F
100
AcDbEntity
  8
0
  6
Continuous
 62
     7
370
    25
100
AcDbLine
 10
445.6482079027
 20
595.557805842
 30
0.0
 11
445.8982079027
 21
595.807805842
 31
0.0
  0
ARC
  5
7B
330
1F
100
AcDbEntity
  8
0
  6
Continuous
 62
     7
370
    25
100
AcDbCircle
 10
449.2482079027
 20
568.7540516059
 30
0.0
 40
0.4000000000000341
100
AcDbArc
 50
0.0
 51
90.0
  0
ARC
  5
7C
330
1F
100
AcDbEntity
  8
0
  6
Continuous
 62
     7
370
    25
100
AcDbCircle
 10
427.5482079027
 20
568.7540516059
 30
0.0
 40
0.3999999999999773
100
AcDbArc
 50
90.0
 51
180.0
  0
LINE
  5
7D
330
1F
100
AcDbEntity
  8
0
  6
Continuous
 62
     7
370
    25
100
AcDbLine
 10
427.1482079027
 20
568.7540516059
 30
0.0
 11
427.1482079027
 21
567.0540516059
 31
0.0
  0
LINE
  5
7E
330
1F
100
AcDbEntity
  8
0
  6
Continuous
 62
     7
370
    25
100
AcDbLine
 10
449.6482079027
 20
567.0540516059
 30
0.0
 11
449.6482079027
 21
568.7540516059
 31
0.0
  0
ARC
  5
7F
330
1F
100
AcDbEntity
  8
0
  6
Continuous
 62
     7
370
    25
100
AcDbCircle
 10
427.5482079027
 20
567.0540516059
 30
0.0
 40
0.3999999999999773
100
AcDbArc
 50
180.0
 51
270.0
  0
ARC
  5
80
330
1F
100
AcDbEntity
  8
0
  6
Continuous
 62
     7
370
    25
100
AcDbCircle
 10
430.5482079027
 20
566.0540516059
 30
0.0
 40
0.3999999999999773
100
AcDbArc
 50
180.0
 51
270.0
  0
LINE
  5
81
330
1F
100
AcDbEntity
  8
0
  6
Continuous
 62
     7
370
    25
100
AcDbLine
 10
430.1482079027
 20
566.6540516059
 30
0.0
 11
430.1482079027
 21
566.0540516059
 31
0.0
  0
ARC
  5
82
330
1F
100
AcDbEntity
  8
0
  6
Continuous
 62
     7
370
    25
100
AcDbCircle
 10
449.2482079027
 20
567.0540516059
 30
0.0
 40
0.4000000000000341
100
AcDbArc
 50
270.0
 51
0.0
  0
ARC
  5
83
330
1F
100
AcDbEntity
  8
0
  6
Continuous
 62
     7
370
    25
100
AcDbCircle
 10
432.0482079027
 20
562.0540516059
 30
0.0
 40
0.3999999999999773
100
AcDbArc
 50
180.0
 51
270.0
  0
LINE
  5
84
330
1F
100
AcDbEntity
  8
0
  6
Continuous
 62
     7
370
    25
100
AcDbLine
 10
431.6482079027
 20
565.6540516059
 30
0.0
 11
431.6482079027
 21
562.0540516059
 31
0.0
  0
LINE
  5
85
330
1F
100
AcDbEntity
  8
0
  6
Continuous
 62
     7
370
    25
100
AcDbLine
 10
450.8982079027
 20
595.057805842
 30
0.0
 11
450.8982079027
 21
595.557805842
 31
0.0
  0
LINE
  5
86
330
1F
100
AcDbEntity
  8
0
  6
Continuous
 62
     7
370
    25
100
AcDbLine
 10
425.8982079027
 20
595.557805842
 30
0.0
 11
425.8982079027
 21
595.057805842
 31
0.0
  0
LINE
  5
87
330
1F
100
AcDbEntity
  8
0
  6
Continuous
 62
     7
370
    25
100
AcDbLine
 10
450.8982079027
 20
599.557805842
 30
0.0
 11
445.4642242521
 21
616.8477538211
 31
0.0
  0
LINE
  5
88
330
1F
100
AcDbEntity
  8
0
  6
Continuous
 62
     7
370
    25
100
AcDbLine
 10
431.3321915532
 20
616.8477538211
 30
0.0
 11
425.8982079027
 21
599.557805842
 31
0.0
  0
ARC
  5
89
330
1F
100
AcDbEntity
  8
0
  6
Continuous
 62
     7
370
    25
100
AcDbCircle
 10
445.178026137
 20
616.757805842
 30
0.0
 40
0.2999999999999545
100
AcDbArc
 50
17.4471884233
 51
90.0
  0
ARC
  5
8A
330
1F
100
AcDbEntity
  8
0
  6
Continuous
 62
     7
370
    25
100
AcDbCircle
 10
431.6183896683
 20
616.757805842
 30
0.0
 40
0.2999999999999811
100
AcDbArc
 50
90.0
 51
162.5528115767
  0
LINE
  5
8B
330
1F
100
AcDbEntity
  8
0
  6
Continuous
 62
     7
370
    25
100
AcDbLine
 10
442.8982079027
 20
632.307805842
 30
0.0
 11
442.6482079027
 21
632.557805842
 31
0.0
  0
LINE
  5
8C
330
1F
100
AcDbEntity
  8
0
  6
Continuous
 62
     7
370
    25
100
AcDbLine
 10
434.1482079027
 20
632.557805842
 30
0.0
 11
433.8982079027
 21
632.307805842
 31
0.0
  0
LINE
  5
8D
330
1F
100
AcDbEntity
  8
0
  6
Continuous
 62
     7
370
    25
100
AcDbLine
 10
442.8982079027
 20
630.0775689954
 30
0.0
 11
442.8982079027
 21
632.307805842
 31
0.0
  0
LINE
  5
8E
330
1F
100
AcDbEntity
  8
0
  6
Continuous
 62
     7
370
    25
100
AcDbLine
 10
442.8982079027
 20
617.057805842
 30
0.0
 11
442.8982079027
 21
625.0467838188
 31
0.0
  0
LINE
  5
8F
330
1F
100
AcDbEntity
  8
0
  6
Continuous
 62
     7
370
    25
100
AcDbLine
 10
433.8982079027
 20
632.307805842
 30
0.0
 11
433.8982079027
 21
617.057805842
 31
0.0
  0
LINE
  5
90
330
1F
100
AcDbEntity
  8
0
  6
Continuous
 62
     7
370
    25
100
AcDbLine
 10
509.7668665674
 20
625.6911248292
 30
0.0
 11
510.7522987578
 21
625.5210560251
 31
0.0
  0
LINE
  5
91
330
1F
100
AcDbEntity
  8
0
  6
Continuous
 62
     7
370
    25
100
AcDbLine
 10
513.3122987578
 20
628.594555659
 30
0.0
 11
512.9668665674
 21
629.5329993717
 31
0.0
  0
LINE
  5
92
330
1F
100
AcDbEntity
  8
0
  6
Continuous
 62
     7
370
    25
100
AcDbLine
 10
512.9668665674
 20
629.5329993717
 30
0.0
 11
507.3664152283
 21
634.1977649925
 31
0.0
  0
LINE
  5
93
330
1F
100
AcDbEntity
  8
0
  6
Continuous
 62
     7
370
    25
100
AcDbLine
 10
504.1664152283
 20
630.35589045
 30
0.0
 11
509.7668665674
 21
625.6911248292
 31
0.0
  0
ARC
  5
94
330
1F
100
AcDbEntity
  8
0
  6
Continuous
 62
     7
370
    25
100
AcDbCircle
 10
499.3664152283
 20
624.5930786363
 30
0.0
 40
7.499999999999992
100
AcDbArc
 50
50.2081805004
 51
97.1807557815
  0
ARC
  5
95
330
1F
100
AcDbEntity
  8
0
  6
Continuous
 62
     7
370
    25
100
AcDbCircle
 10
499.3664152283
 20
624.5930786363
 30
0.0
 40
12.50000000000003
100
AcDbArc
 50
50.2081805004
 51
97.1807557815
  0
LINE
  5
96
330
1F
100
AcDbEntity
  8
0
  6
Continuous
 62
     7
370
    25
100
AcDbLine
 10
497.8039152283
 20
636.995037907
 30
0.0
 11
442.8982079027
 21
630.0775689954
 31
0.0
  0
LINE
  5
97
330
1F
100
AcDbEntity
  8
0
  6
Continuous
 62
     7
370
    25
100
AcDbLine
 10
442.8943168414
 20
625.037552461
 30
0.0
 11
498.4289152283
 21
632.0342541987
 31
0.0
  0
LINE
  5
98
330
1F
100
AcDbEntity
  8
0
  6
Continuous
 62
     7
370
    25
100
AcDbLine
 10
446.8982079027
 20
598.557805842
 30
0.0
 11
446.8982079027
 21
599.557805842
 31
0.0
  0
LINE
  5
99
330
1F
100
AcDbEntity
  8
0
  6
Continuous
 62
     7
370
    25
100
AcDbLine
 10
429.8982079027
 20
599.557805842
 30
0.0
 11
429.8982079027
 21
598.557805842
 31
0.0
  0
LINE
  5
9A
330
1F
100
AcDbEntity
  8
0
  6
Continuous
 62
     7
370
    25
100
AcDbLine
 10
433.3982079027
 20
595.057805842
 30
0.0
 11
433.3982079027
 21
569.6540516059
 31
0.0
  0
LINE
  5
9B
330
1F
100
AcDbEntity
  8
0
  6
Continuous
 62
     7
370
    25
100
AcDbLine
 10
433.3982079027
 20
561.6540516059
 30
0.0
 11
433.3982079027
 21
549.8229843558
 31
0.0
  0
LINE
  5
9C
330
1F
100
AcDbEntity
  8
0
  6
Continuous
 62
     7
370
    25
100
AcDbLine
 10
443.3982079027
 20
549.8229843558
 30
0.0
 11
443.3982079027
 21
561.6540516059
 31
0.0
  0
LINE
  5
9D
330
1F
100
AcDbEntity
  8
0
  6
Continuous
 62
     7
370
    25
100
AcDbLine
 10
443.3982079027
 20
569.6540516059
 30
0.0
 11
443.3982079027
 21
595.057805842
 31
0.0
  0
LINE
  5
9E
330
1F
100
AcDbEntity
  8
0
  6
Continuous
 62
     7
370
    25
100
AcDbLine
 10
454.6482079027
 20
457.5729843558
 30
0.0
 11
454.6482079027
 21
537.5729843558
 31
0.0
  0
LINE
  5
9F
330
1F
100
AcDbEntity
  8
0
  6
Continuous
 62
     7
370
    25
100
AcDbLine
 10
422.1482079027
 20
537.5729843558
 30
0.0
 11
422.1482079027
 21
457.5729843558
 31
0.0
  0
ARC
  5
A0
330
1F
100
AcDbEntity
  8
0
  6
Continuous
 62
     7
370
    25
100
AcDbCircle
 10
425.8982079027
 20
457.5729843558
 30
0.0
 40
3.750000000000057
100
AcDbArc
 50
180.0
 51
270.0
  0
ARC
  5
A1
330
1F
100
AcDbEntity
  8
0
  6
Continuous
 62
     7
370
    25
100
AcDbCircle
 10
450.8982079027
 20
457.5729843558
 30
0.0
 40
3.750000000000057
100
AcDbArc
 50
270.0
 51
0.0
  0
ARC
  5
A2
330
1F
100
AcDbEntity
  8
0
  6
Continuous
 62
     7
370
    25
100
AcDbCircle
 10
425.8982079027
 20
537.5729843558
 30
0.0
 40
3.75
100
AcDbArc
 50
90.0
 51
180.0
  0
ARC
  5
A3
330
1F
100
AcDbEntity
  8
0
  6
Continuous
 62
     7
370
    25
100
AcDbCircle
 10
450.8982079027
 20
537.5729843558
 30
0.0
 40
3.75
100
AcDbArc
 50
0.0
 51
90.0
  0
ARC
  5
A4
330
1F
100
AcDbEntity
  8
0
  6
Continuous
 62
     7
370
    25
100
AcDbCircle
 10
432.3982079027
 20
545.5729843558
 30
0.0
 40
0.5
100
AcDbArc
 50
90.0
 51
270.0
  0
ARC
  5
A5
330
1F
100
AcDbEntity
  8
0
  6
Continuous
 62
     7
370
    25
100
AcDbCircle
 10
444.3982079027
 20
545.5729843558
 30
0.0
 40
0.5
100
AcDbArc
 50
270.0
 51
90.0
  0
LINE
  5
A6
330
1F
100
AcDbEntity
  8
0
  6
Continuous
 62
     7
370
    25
100
AcDbLine
 10
444.3982079027
 20
546.0729843558
 30
0.0
 11
444.3982079027
 21
549.8229843558
 31
0.0
  0
LINE
  5
A7
330
1F
100
AcDbEntity
  8
0
  6
Continuous
 62
     7
370
    25
100
AcDbLine
 10
432.3982079027
 20
549.8229843558
 30
0.0
 11
432.3982079027
 21
546.0729843558
 31
0.0
  0
LINE
  5
A8
330
1F
100
AcDbEntity
  8
0
  6
Continuous
 62
     7
370
    25
100
AcDbLine
 10
444.3982079027
 20
541.3229843558
 30
0.0
 11
444.3982079027
 21
545.0729843558
 31
0.0
  0
LINE
  5
A9
330
1F
100
AcDbEntity
  8
0
  6
Continuous
 62
     7
370
    25
100
AcDbLine
 10
432.3982079027
 20
545.0729843558
 30
0.0
 11
432.3982079027
 21
541.3229843558
 31
0.0
  0
LINE
  5
AA
330
1F
100
AcDbEntity
  8
0
  6
Continuous
 62
     7
370
    25
100
AcDbLine
 10
425.8982079027
 20
569.6540516059
 30
0.0
 11
450.8982079027
 21
569.6540516059
 31
0.0
  0
LINE
  5
AB
330
1F
100
AcDbEntity
  8
0
  6
Continuous
 62
     7
370
    25
100
AcDbLine
 10
425.8982079027
 20
569.1540516059
 30
0.0
 11
450.8982079027
 21
569.1540516059
 31
0.0
  0
LINE
  5
AC
330
1F
100
AcDbEntity
  8
0
  6
Continuous
 62
     7
370
    25
100
AcDbLine
 10
445.8982079027
 20
598.307805842
 30
0.0
 11
430.8982079027
 21
598.307805842
 31
0.0
  0
LINE
  5
AD
330
1F
100
AcDbEntity
  8
0
  6
Continuous
 62
     7
370
    25
100
AcDbLine
 10
430.8982079027
 20
595.807805842
 30
0.0
 11
445.8982079027
 21
595.807805842
 31
0.0
  0
LINE
  5
AE
330
1F
100
AcDbEntity
  8
0
  6
Continuous
 62
     7
370
    25
100
AcDbLine
 10
447.198370684
 20
566.6540516059
 30
0.0
 11
432.8887530996
 21
566.6540516059
 31
0.0
  0
SPLINE
  5
AF
330
1F
100
AcDbEntity
  8
0
  6
Continuous
 62
     7
370
    25
100
AcDbSpline
210
0.0
220
0.0
230
1.0
 70
     8
 71
     3
 72
    13
 73
     9
 74
     0
 42
0.00000001
 43
0.00000001
 40
0.0
 40
0.0
 40
0.0
 40
0.0
 40
0.1019802603127013
 40
0.2357971215122774
 40
0.45022301196829
 40
0.6646428887963157
 40
0.8792142724955215
 40
1.0
 40
1.0
 40
1.0
 40
1.0
 10
432.6697510566565
 20
567.0540516058849
 30
0.0
 10
432.6703030272146
 20
567.0327362633813
 30
0.0
 10
432.671579284682
 20
566.9834512704718
 30
0.0
 10
432.6856187369006
 20
566.8921129766361
 30
0.0
 10
432.719025960204
 20
566.7890820677598
 30
0.0
 10
432.7765968577143
 20
566.7019997510416
 30
0.0
 10
432.8366121568071
 20
566.6594498357152
 30
0.0
 10
432.8749462804246
 20
566.6554810465381
 30
0.0
 10
432.8887530996472
 20
566.6540516058849
 30
0.0
  0
LINE
  5
B0
330
1F
100
AcDbEntity
  8
0
  6
Continuous
 62
     7
370
    25
100
AcDbLine
 10
432.6697510567
 20
567.0540516059
 30
0.0
 11
447.5335817801
 21
567.0540516059
 31
0.0
  0
SPLINE
  5
B1
330
1F
100
AcDbEntity
  8
0
  6
Continuous
 62
     7
370
    25
100
AcDbSpline
210
0.0
220
0.0
230
1.0
 70
     8
 71
     3
 72
    13
 73
     9
 74
     0
 42
0.00000001
 43
0.00000001
 40
0.0
 40
0.0
 40
0.0
 40
0.0
 40
0.1019802603126905
 40
0.2357971215122778
 40
0.4502230119682938
 40
0.6646428887963142
 40
0.8792142724955215
 40
1.0
 40
1.0
 40
1.0
 40
1.0
 10
447.5335817800816
 20
567.0540516058849
 30
0.0
 10
447.5327369173889
 20
567.0327362633813
 30
0.0
 10
447.5307834394275
 20
566.9834512704718
 30
0.0
 10
447.5092942327435
 20
566.8921129766361
 30
0.0
 10
447.4581601346936
 20
566.7890820677598
 30
0.0
 10
447.3700403921047
 20
566.7019997510416
 30
0.0
 10
447.278179175133
 20
566.6594498357152
 30
0.0
 10
447.2195038156784
 20
566.6554810465381
 30
0.0
 10
447.198370684036
 20
566.6540516058849
 30
0.0
  0
LINE
  5
B2
330
1F
100
AcDbEntity
  8
0
  6
Continuous
 62
     7
370
    25
100
AcDbLine
 10
444.6831690361
 20
565.6540516059
 30
0.0
 11
434.5319991196
 21
565.6540516059
 31
0.0
  0
SPLINE
  5
B3
330
1F
100
AcDbEntity
  8
0
  6
Continuous
 62
     7
370
    25
100
AcDbSpline
210
0.0
220
0.0
230
1.0
 70
     8
 71
     3
 72
    13
 73
     9
 74
     0
 42
0.00000001
 43
0.00000001
 40
0.0
 40
0.0
 40
0.0
 40
0.0
 40
0.0739769589482546
 40
0.2074551008415561
 40
0.4217601019827101
 40
0.6360542946627754
 40
0.8506246518159685
 40
1.0
 40
1.0
 40
1.0
 40
1.0
 10
434.3127979675114
 20
566.0540516058842
 30
0.0
 10
434.313094394275
 20
566.0385926488512
 30
0.0
 10
434.313925669918
 20
565.9952407790829
 30
0.0
 10
434.3249293463465
 20
565.9086930171277
 30
0.0
 10
434.3558406812238
 20
565.8031155275039
 30
0.0
 10
434.4112383655485
 20
565.71154949155
 30
0.0
 10
434.4732491025094
 20
565.6614830820167
 30
0.0
 10
434.5149029880755
 20
565.6562141498272
 30
0.0
 10
434.5319991196369
 20
565.6540516058848
 30
0.0
  0
LINE
  5
B4
330
1F
100
AcDbEntity
  8
0
  6
Continuous
 62
     7
370
    25
100
AcDbLine
 10
434.3127979675
 20
566.0540516059
 30
0.0
 11
445.0186848946
 21
566.0540516059
 31
0.0
  0
SPLINE
  5
B5
330
1F
100
AcDbEntity
  8
0
  6
Continuous
 62
     7
370
    25
100
AcDbSpline
210
0.0
220
0.0
230
1.0
 70
     8
 71
     3
 72
    13
 73
     9
 74
     0
 42
0.00000001
 43
0.00000001
 40
0.0
 40
0.0
 40
0.0
 40
0.0
 40
0.0739769589482436
 40
0.2074551008415566
 40
0.4217601019827001
 40
0.6360542946627699
 40
0.8506246518159557
 40
1.0
 40
1.0
 40
1.0
 40
1.0
 10
445.0186848945506
 20
566.0540516058842
 30
0.0
 10
445.018231174855
 20
566.0385926488512
 30
0.0
 10
445.0169587994213
 20
565.9952407790829
 30
0.0
 10
445.0001162422207
 20
565.9086930171277
 30
0.0
 10
444.9528024258611
 20
565.8031155275039
 30
0.0
 10
444.8680090685604
 20
565.71154949155
 30
0.0
 10
444.7730935745338
 20
565.6614830820167
 30
0.0
 10
444.7093368878633
 20
565.6562141498272
 30
0.0
 10
444.6831690360909
 20
565.6540516058848
 30
0.0
  0
LINE
  5
B6
330
1F
100
AcDbEntity
  8
0
  6
Continuous
 62
     7
370
    25
100
AcDbLine
 10
434.3127979675
 20
566.0540516059
 30
0.0
 11
434.3127979675
 21
566.6540516059
 31
0.0
  0
LINE
  5
B7
330
1F
100
AcDbEntity
  8
0
  6
Continuous
 62
     7
370
    25
100
AcDbLine
 10
445.0186848946
 20
566.0540516059
 30
0.0
 11
445.0186848945
 21
566.6540516059
 31
0.0
  0
LINE
  5
B8
330
1F
100
AcDbEntity
  8
0
  6
Continuous
 62
     7
370
    25
100
AcDbLine
 10
435.1350620465
 20
562.0540516059
 30
0.0
 11
435.1350620465
 21
565.6540516059
 31
0.0
  0
SPLINE
  5
B9
330
1F
100
AcDbEntity
  8
0
  6
Continuous
 62
     7
370
    25
100
AcDbSpline
210
0.0
220
0.0
230
1.0
 70
     8
 71
     3
 72
    13
 73
     9
 74
     0
 42
0.00000001
 43
0.00000001
 40
0.0
 40
0.0
 40
0.0
 40
0.0
 40
0.0888172689332625
 40
0.3097855720770376
 40
0.5307411073359661
 40
0.7520427601059013
 40
0.9739644184849746
 40
1.0
 40
1.0
 40
1.0
 40
1.0
 10
435.1350620464745
 20
562.0540516058849
 30
0.0
 10
435.1354677189266
 20
562.0360794977049
 30
0.0
 10
435.1368826630489
 20
561.9733946180546
 30
0.0
 10
435.1554618403155
 20
561.8687778260529
 30
0.0
 10
435.2000047380018
 20
561.7592461864303
 30
0.0
 10
435.2621256647879
 20
561.6828858563429
 30
0.0
 10
435.3134401014556
 20
561.6579462704964
 30
0.0
 10
435.3408220610533
 20
561.6548589476812
 30
0.0
 10
435.3436971746876
 20
561.6545347778975
 30
0.0
  0
LINE
  5
BA
330
1F
100
AcDbEntity
  8
0
  6
Continuous
 62
     7
370
    25
100
AcDbLine
 10
435.3436971747
 20
561.6545347779
 30
0.0
 11
435.3436971747
 21
561.6540516059
 31
0.0
  0
LINE
  5
BB
330
1F
100
AcDbEntity
  8
0
  6
Continuous
 62
     7
370
    25
100
AcDbLine
 10
435.3436971747
 20
561.6540516059
 30
0.0
 11
434.031031242
 21
561.6540516059
 31
0.0
  0
LWPOLYLINE
  5
BC
330
1F
100
AcDbEntity
  8
0
  6
Continuous
 62
     7
370
    25
100
AcDbPolyline
 90
        9
 70
   128
 43
0.0
 10
434.031031242
 20
561.6540516059
 10
433.7642724717
 20
561.7020884049
 10
433.5077650914
 20
561.8443527746
 10
433.2713665357
 20
562.0753775751
 10
433.0641614687
 20
562.3862846529
 10
432.8941126648
 20
562.7651260233
 10
432.7677550043
 20
563.197343025
 10
432.6899443412
 20
563.6663258008
 10
432.6636708955
 20
564.1540516059
  0
LINE
  5
BD
330
1F
100
AcDbEntity
  8
0
  6
Continuous
 62
     7
370
    25
100
AcDbLine
 10
432.6636708955
 20
564.1540516059
 30
0.0
 11
432.6636708955
 21
567.0540516059
 31
0.0
  0
LINE
  5
BE
330
1F
100
AcDbEntity
  8
0
  6
Continuous
 62
     7
370
    25
100
AcDbLine
 10
432.6636708955
 20
567.0540516059
 30
0.0
 11
432.6697510567
 21
567.0540516059
 31
0.0
  0
LINE
  5
BF
330
1F
100
AcDbEntity
  8
0
  6
Continuous
 62
     7
370
    25
100
AcDbLine
 10
433.1938621377
 20
561.6540516059
 30
0.0
 11
434.031031242
 21
561.6540516059
 31
0.0
  0
LWPOLYLINE
  5
C0
330
1F
100
AcDbEntity
  8
0
  6
Continuous
 62
     7
370
    25
100
AcDbPolyline
 90
        9
 70
   128
 43
0.0
 10
433.1938621377
 20
561.6540516059
 10
432.9271033674
 20
561.7020884049
 10
432.670595987
 20
561.8443527746
 10
432.4341974314
 20
562.0753775751
 10
432.2269923644
 20
562.3862846529
 10
432.0569435605
 20
562.7651260233
 10
431.9305859
 20
563.197343025
 10
431.8527752368
 20
563.6663258008
 10
431.8265017912
 20
564.1540516059
  0
LINE
  5
C1
330
1F
100
AcDbEntity
  8
0
  6
Continuous
 62
     7
370
    25
100
AcDbLine
 10
431.8265017912
 20
564.1540516059
 30
0.0
 11
432.6636708955
 21
564.1540516059
 31
0.0
  0
LINE
  5
C2
330
1F
100
AcDbEntity
  8
0
  6
Continuous
 62
     7
370
    25
100
AcDbLine
 10
431.8265017912
 20
564.1540516059
 30
0.0
 11
431.8265017912
 21
567.0540516059
 31
0.0
  0
LINE
  5
C3
330
1F
100
AcDbEntity
  8
0
  6
Continuous
 62
     7
370
    25
100
AcDbLine
 10
431.8265017912
 20
567.0540516059
 30
0.0
 11
432.2450863434
 21
567.0540516059
 31
0.0
  0
LINE
  5
C4
330
1F
100
AcDbEntity
  8
0
  6
Continuous
 62
     7
370
    25
100
AcDbLine
 10
432.2450863434
 20
567.0540516059
 30
0.0
 11
432.6636708955
 21
567.0540516059
 31
0.0
  0
LINE
  5
C5
330
1F
100
AcDbEntity
  8
0
  6
Continuous
 62
     7
370
    25
100
AcDbLine
 10
443.4407596459
 20
561.6540516059
 30
0.0
 11
435.3779684529
 21
561.6540516059
 31
0.0
  0
LINE
  5
C6
330
1F
100
AcDbEntity
  8
0
  6
Continuous
 62
     7
370
    25
100
AcDbLine
 10
435.1350620465
 20
562.0540516059
 30
0.0
 11
443.7601028312
 21
562.0540516059
 31
0.0
  0
SPLINE
  5
C7
330
1F
100
AcDbEntity
  8
0
  6
Continuous
 62
     7
370
    25
100
AcDbSpline
210
0.0
220
0.0
230
1.0
 70
     8
 71
     3
 72
    13
 73
     9
 74
     0
 42
0.00000001
 43
0.00000001
 40
0.0
 40
0.0
 40
0.0
 40
0.0
 40
0.0888172689332525
 40
0.3097855720770409
 40
0.5307411073359639
 40
0.7520427601059071
 40
0.9739644184849813
 40
1.0
 40
1.0
 40
1.0
 40
1.0
 10
443.7601028311863
 20
562.0540516058849
 30
0.0
 10
443.7594818967629
 20
562.0360794977049
 30
0.0
 10
443.7573161408474
 20
561.9733946180546
 30
0.0
 10
443.7288782948343
 20
561.8687778260529
 30
0.0
 10
443.6606995995555
 20
561.7592461864305
 30
0.0
 10
443.5656154456774
 20
561.6828858563429
 30
0.0
 10
443.4870720297191
 20
561.6579462704964
 30
0.0
 10
443.4451603810273
 20
561.6548589476812
 30
0.0
 10
443.4407596458585
 20
561.6545347778975
 30
0.0
  0
LINE
  5
C8
330
1F
100
AcDbEntity
  8
0
  6
Continuous
 62
     7
370
    25
100
AcDbLine
 10
443.7601028312
 20
562.0540516059
 30
0.0
 11
443.7601028312
 21
565.6540516059
 31
0.0
  0
LINE
  5
C9
330
1F
100
AcDbEntity
  8
0
  6
Continuous
 62
     7
370
    25
100
AcDbLine
 10
431.8265017912
 20
566.6540516059
 30
0.0
 11
427.5482079027
 21
566.6540516059
 31
0.0
  0
LINE
  5
CA
330
1F
100
AcDbEntity
  8
0
  6
Continuous
 62
     7
370
    25
100
AcDbLine
 10
431.8265017912
 20
565.6540516059
 30
0.0
 11
430.5482079027
 21
565.6540516059
 31
0.0
  0
LINE
  5
CB
330
1F
100
AcDbEntity
  8
0
  6
Continuous
 62
     7
370
    25
100
AcDbLine
 10
447.5428882571
 20
564.1540516059
 30
0.0
 11
447.5428882571
 21
567.0540516059
 31
0.0
  0
ARC
  5
CC
330
1F
100
AcDbEntity
  8
0
  6
Continuous
 62
     7
370
    25
100
AcDbCircle
 10
445.226632563
 20
563.9670841742
 30
0.0
 40
2.323789418387033
100
AcDbArc
 50
275.5150502741
 51
4.614891639
  0
LINE
  5
CD
330
1F
100
AcDbEntity
  8
0
  6
Continuous
 62
     7
370
    25
100
AcDbLine
 10
443.4407596459
 20
561.6540516059
 30
0.0
 11
445.4499654963
 21
561.6540516059
 31
0.0
  0
LINE
  5
CE
330
1F
100
AcDbEntity
  8
0
  6
Continuous
 62
     7
370
    25
100
AcDbLine
 10
443.4407596459
 20
561.6545347779
 30
0.0
 11
443.4407596459
 21
561.6540516059
 31
0.0
  0
LINE
  5
CF
330
1F
100
AcDbEntity
  8
0
  6
Continuous
 62
     7
370
    25
100
AcDbLine
 10
447.5428882571
 20
567.0540516059
 30
0.0
 11
447.5335817801
 21
567.0540516059
 31
0.0
  0
LINE
  5
D0
330
1F
100
AcDbEntity
  8
0
  6
Continuous
 62
     7
370
    25
100
AcDbLine
 10
445.4499654963
 20
561.6540516059
 30
0.0
 11
445.9969096349
 21
561.6540516059
 31
0.0
  0
LINE
  5
D1
330
1F
100
AcDbEntity
  8
0
  6
Continuous
 62
     7
370
    25
100
AcDbLine
 10
447.5428882571
 20
564.1540516059
 30
0.0
 11
448.0898323957
 21
564.1540516059
 31
0.0
  0
ARC
  5
D2
330
1F
100
AcDbEntity
  8
0
  6
Continuous
 62
     7
370
    25
100
AcDbCircle
 10
445.7735767016
 20
563.9670841742
 30
0.0
 40
2.323789418387146
100
AcDbArc
 50
275.5150502741
 51
4.614891639
  0
LINE
  5
D3
330
1F
100
AcDbEntity
  8
0
  6
Continuous
 62
     7
370
    25
100
AcDbLine
 10
447.5428882571
 20
567.0540516059
 30
0.0
 11
447.8163603264
 21
567.0540516059
 31
0.0
  0
LINE
  5
D4
330
1F
100
AcDbEntity
  8
0
  6
Continuous
 62
     7
370
    25
100
AcDbLine
 10
447.8163603264
 20
567.0540516059
 30
0.0
 11
448.0898323957
 21
567.0540516059
 31
0.0
  0
LINE
  5
D5
330
1F
100
AcDbEntity
  8
0
  6
Continuous
 62
     7
370
    25
100
AcDbLine
 10
448.0898323957
 20
564.1540516059
 30
0.0
 11
448.0898323957
 21
567.0540516059
 31
0.0
  0
LINE
  5
D6
330
1F
100
AcDbEntity
  8
0
  6
Continuous
 62
     7
370
    25
100
AcDbLine
 10
449.2482079027
 20
566.6540516059
 30
0.0
 11
448.0898323957
 21
566.6540516059
 31
0.0
  0
LINE
  5
D7
330
1F
100
AcDbEntity
  8
0
  6
Continuous
 62
     7
370
    25
100
AcDbLine
 10
433.1938621377
 20
561.6540516059
 30
0.0
 11
432.0482079027
 21
561.6540516059
 31
0.0
  0
LINE
  5
D8
330
1F
100
AcDbEntity
  8
0
  6
Continuous
 62
     7
370
    25
100
AcDbLine
 10
432.0482079027
 20
561.6540516059
 30
0.0
 11
430.7995061705
 21
561.6540516059
 31
0.0
  0
ARC
  5
D9
330
1F
100
AcDbEntity
  8
0
  6
Continuous
 62
     7
370
    25
100
AcDbCircle
 10
431.0228391037
 20
563.9670841742
 30
0.0
 40
2.323789418387022
100
AcDbArc
 50
175.385108361
 51
264.4849497259
  0
LINE
  5
DA
330
1F
100
AcDbEntity
  8
0
  6
Continuous
 62
     7
370
    25
100
AcDbLine
 10
428.7065834096
 20
564.1540516059
 30
0.0
 11
428.7065834096
 21
566.6540516059
 31
0.0
  0
LINE
  5
DB
330
1F
100
AcDbEntity
  8
0
  6
Continuous
 62
     7
370
    25
100
AcDbLine
 10
425.8982079027
 20
595.057805842
 30
0.0
 11
450.8982079027
 21
595.057805842
 31
0.0
  0
LINE
  5
DC
330
1F
100
AcDbEntity
  8
0
  6
Continuous
 62
     7
370
    25
100
AcDbLine
 10
425.8982079027
 20
595.557805842
 30
0.0
 11
450.8982079027
 21
595.557805842
 31
0.0
  0
LINE
  5
DD
330
1F
100
AcDbEntity
  8
0
  6
Continuous
 62
     7
370
    25
100
AcDbLine
 10
450.7592614717
 20
599.557805842
 30
0.0
 11
425.8982079027
 21
599.557805842
 31
0.0
  0
LINE
  5
DE
330
1F
100
AcDbEntity
  8
0
  6
Continuous
 62
     7
370
    25
100
AcDbLine
 10
450.8982079027
 20
599.557805842
 30
0.0
 11
450.7592614717
 21
599.557805842
 31
0.0
  0
LINE
  5
DF
330
1F
100
AcDbEntity
  8
0
  6
Continuous
 62
     7
370
    25
100
AcDbLine
 10
445.1026636133
 20
617.057805842
 30
0.0
 11
445.178026137
 21
617.057805842
 31
0.0
  0
LINE
  5
E0
330
1F
100
AcDbEntity
  8
0
  6
Continuous
 62
     7
370
    25
100
AcDbLine
 10
431.6183896683
 20
617.057805842
 30
0.0
 11
445.1026636133
 21
617.057805842
 31
0.0
  0
LINE
  5
E1
330
1F
100
AcDbEntity
  8
0
  6
Continuous
 62
     7
370
    25
100
AcDbLine
 10
434.1482079027
 20
632.557805842
 30
0.0
 11
442.6482079027
 21
632.557805842
 31
0.0
  0
LINE
  5
E2
330
1F
100
AcDbEntity
  8
0
  6
Continuous
 62
     7
370
    25
100
AcDbLine
 10
442.8982079027
 20
632.307805842
 30
0.0
 11
433.8982079027
 21
632.307805842
 31
0.0
  0
SPLINE
  5
E3
330
1F
100
AcDbEntity
  8
0
  6
Continuous
 62
     7
370
    25
100
AcDbSpline
210
0.0
220
0.0
230
1.0
 70
     8
 71
     3
 72
    18
 73
    14
 74
     0
 42
0.00000001
 43
0.00000001
 40
0.0
 40
0.0
 40
0.0
 40
0.0
 40
0.0929014866295456
 40
0.1854742853525505
 40
0.286226501206547
 40
0.4034094419862589
 40
0.4980190680934327
 40
0.5929785951684197
 40
0.6810353319316957
 40
0.7776705326411695
 40
0.8855947576933164
 40
0.9919728219095792
 40
1.0
 40
1.0
 40
1.0
 40
1.0
 10
442.8982079026572
 20
630.0775689954414
 30
0.0
 10
442.8857277728149
 20
630.0536966838339
 30
0.0
 10
442.8608116681582
 20
630.0060365214861
 30
0.0
 10
442.6822056011044
 20
629.6437121424098
 30
0.0
 10
442.4435311427023
 20
629.0856322991702
 30
0.0
 10
442.216526028723
 20
628.3588660443816
 30
0.0
 10
442.1140056869208
 20
627.5433232237258
 30
0.0
 10
442.177450541498
 20
626.790393450088
 30
0.0
 10
442.3640009820098
 20
626.1216420337087
 30
0.0
 10
442.6102428375683
 20
625.5539441252524
 30
0.0
 10
442.8183940755952
 20
625.1711634956272
 30
0.0
 10
442.9186111107787
 20
625.0030805732829
 30
0.0
 10
442.8947774053601
 20
625.0439184524996
 30
0.0
 10
442.8931051271139
 20
625.0467838188298
 30
0.0
  0
LINE
  5
E4
330
1F
100
AcDbEntity
  8
0
  6
Continuous
 62
     7
370
    25
100
AcDbLine
 10
509.7668665674
 20
625.6911248292
 30
0.0
 11
512.9668665674
 21
629.5329993717
 31
0.0
  0
LINE
  5
E5
330
1F
100
AcDbEntity
  8
0
  6
Continuous
 62
     7
370
    25
100
AcDbLine
 10
513.3122987578
 20
628.594555659
 30
0.0
 11
510.7522987578
 21
625.5210560251
 31
0.0
  0
LINE
  5
E6
330
1F
100
AcDbEntity
  8
0
  6
Continuous
 62
     7
370
    25
100
AcDbLine
 10
429.8982079027
 20
598.557805842
 30
0.0
 11
446.8982079027
 21
598.557805842
 31
0.0
  0
LINE
  5
E7
330
1F
100
AcDbEntity
  8
0
  6
Continuous
 62
     7
370
    25
100
AcDbLine
 10
425.9352033827
 20
453.8229843558
 30
0.0
 11
425.8982079027
 21
453.8229843558
 31
0.0
  0
LINE
  5
E8
330
1F
100
AcDbEntity
  8
0
  6
Continuous
 62
     7
370
    25
100
AcDbLine
 10
450.8982079027
 20
453.8229843558
 30
0.0
 11
425.9352033827
 21
453.8229843558
 31
0.0
  0
LINE
  5
E9
330
1F
100
AcDbEntity
  8
0
  6
Continuous
 62
     7
370
    25
100
AcDbLine
 10
425.8982079027
 20
541.3229843558
 30
0.0
 11
450.8982079027
 21
541.3229843558
 31
0.0
  0
LINE
  5
EA
330
1F
100
AcDbEntity
  8
0
  6
Continuous
 62
     7
370
    25
100
AcDbLine
 10
432.4159657331
 20
545.0729843558
 30
0.0
 11
432.3982079027
 21
545.0729843558
 31
0.0
  0
LINE
  5
EB
330
1F
100
AcDbEntity
  8
0
  6
Continuous
 62
     7
370
    25
100
AcDbLine
 10
444.3982079027
 20
545.0729843558
 30
0.0
 11
432.4159657331
 21
545.0729843558
 31
0.0
  0
ARC
  5
EC
330
1F
100
AcDbEntity
  8
0
  6
Continuous
 62
     7
370
    25
100
AcDbCircle
 10
432.4171583671
 20
545.5729843558
 30
0.0
 40
0.5000014223738971
100
AcDbArc
 50
90.1366655332
 51
269.8633344668
  0
LINE
  5
ED
330
1F
100
AcDbEntity
  8
0
  6
Continuous
 62
     7
370
    25
100
AcDbLine
 10
432.3982079027
 20
546.0729843558
 30
0.0
 11
444.3982079027
 21
546.0729843558
 31
0.0
  0
LINE
  5
EE
330
1F
100
AcDbEntity
  8
0
  6
Continuous
 62
     7
370
    25
100
AcDbLine
 10
432.3982079027
 20
549.8229843558
 30
0.0
 11
444.3982079027
 21
549.8229843558
 31
0.0
  0
LINE
  5
EF
330
1F
100
AcDbEntity
  8
0
  6
Continuous
 62
     8
370
    25
100
AcDbLine
 10
449.6482079027
 20
568.7540516059
 30
0.0
 11
427.1482079027
 21
568.7540516059
 31
0.0
  0
LINE
  5
F0
330
1F
100
AcDbEntity
  8
0
  6
Continuous
 62
     8
370
    25
100
AcDbLine
 10
427.1482079027
 20
567.0540516059
 30
0.0
 11
431.8325819523
 21
567.0540516059
 31
0.0
  0
LINE
  5
F1
330
1F
100
AcDbEntity
  8
0
  6
Continuous
 62
     8
370
    25
100
AcDbLine
 10
448.0805259187
 20
567.0540516059
 30
0.0
 11
449.6482079027
 21
567.0540516059
 31
0.0
  0
LINE
  5
F2
330
1F
100
AcDbEntity
  8
0
  6
Continuous
 62
     8
370
    25
100
AcDbLine
 10
430.1482079027
 20
566.0540516059
 30
0.0
 11
431.8265017912
 21
566.0540516059
 31
0.0
  0
LINE
  5
F3
330
1F
100
AcDbEntity
  8
0
  6
Continuous
 62
     8
370
    25
100
AcDbLine
 10
431.6482079027
 20
562.0540516059
 30
0.0
 11
432.4519510116
 21
562.0540516059
 31
0.0
  0
LINE
  5
F4
330
1F
100
AcDbEntity
  8
0
  6
Continuous
 62
     8
370
    25
100
AcDbLine
 10
445.4642242521
 20
616.8477538211
 30
0.0
 11
431.3321915532
 21
616.8477538211
 31
0.0
  0
LINE
  5
F5
330
1F
100
AcDbEntity
  8
0
  6
Continuous
 62
     8
370
    25
100
AcDbLine
 10
504.1664152283
 20
630.35589045
 30
0.0
 11
507.3664152283
 21
634.1977649925
 31
0.0
  0
LINE
  5
F6
330
1F
100
AcDbEntity
  8
0
  6
Continuous
 62
     8
370
    25
100
AcDbLine
 10
498.4289152283
 20
632.0342541987
 30
0.0
 11
497.8039152283
 21
636.995037907
 31
0.0
  0
LINE
  5
F7
330
1F
100
AcDbEntity
  8
0
  6
Continuous
 62
     8
370
    25
100
AcDbLine
 10
422.1963020267
 20
537.5729843558
 30
0.0
 11
422.1482079027
 21
537.5729843558
 31
0.0
  0
LINE
  5
F8
330
1F
100
AcDbEntity
  8
0
  6
Continuous
 62
     8
370
    25
100
AcDbLine
 10
454.6482079027
 20
537.5729843558
 30
0.0
 11
422.1963020267
 21
537.5729843558
 31
0.0
  0
LINE
  5
F9
330
1F
100
AcDbEntity
  8
0
  6
Continuous
 62
     8
370
    25
100
AcDbLine
 10
422.1482079027
 20
457.5729843558
 30
0.0
 11
454.6482079027
 21
457.5729843558
 31
0.0
  0
LINE
  5
FA
330
1F
100
AcDbEntity
  8
0
  6
Continuous
 62
     7
370
    25
100
AcDbLine
 10
348.3995950506
 20
569.1540516059
 30
0.0
 11
348.3995950506
 21
569.6540516059
 31
0.0
  0
LINE
  5
FB
330
1F
100
AcDbEntity
  8
0
  6
Continuous
 62
     7
370
    25
100
AcDbLine
 10
323.3995950506
 20
569.6540516059
 30
0.0
 11
323.3995950506
 21
569.1540516059
 31
0.0
  0
LINE
  5
FC
330
1F
100
AcDbEntity
  8
0
  6
Continuous
 62
     7
370
    25
100
AcDbLine
 10
328.3995950506
 20
595.807805842
 30
0.0
 11
328.6495950506
 21
595.557805842
 31
0.0
  0
LINE
  5
FD
330
1F
100
AcDbEntity
  8
0
  6
Continuous
 62
     7
370
    25
100
AcDbLine
 10
343.1495950506
 20
595.557805842
 30
0.0
 11
343.3995950506
 21
595.807805842
 31
0.0
  0
LINE
  5
FE
330
1F
100
AcDbEntity
  8
0
  6
Continuous
 62
     7
370
    25
100
AcDbLine
 10
343.3995950506
 20
598.307805842
 30
0.0
 11
343.1495950506
 21
598.557805842
 31
0.0
  0
LINE
  5
FF
330
1F
100
AcDbEntity
  8
0
  6
Continuous
 62
     7
370
    25
100
AcDbLine
 10
328.6495950506
 20
598.557805842
 30
0.0
 11
328.3995950506
 21
598.307805842
 31
0.0
  0
LINE
  5
100
330
1F
100
AcDbEntity
  8
0
  6
Continuous
 62
     7
370
    25
100
AcDbLine
 10
343.3995950506
 20
595.807805842
 30
0.0
 11
343.3995950506
 21
598.307805842
 31
0.0
  0
LINE
  5
101
330
1F
100
AcDbEntity
  8
0
  6
Continuous
 62
     7
370
    25
100
AcDbLine
 10
328.3995950506
 20
598.307805842
 30
0.0
 11
328.3995950506
 21
595.807805842
 31
0.0
  0
LINE
  5
102
330
1F
100
AcDbEntity
  8
0
  6
Continuous
 62
     7
370
    25
100
AcDbLine
 10
324.6495950506
 20
568.7540516059
 30
0.0
 11
324.6495950506
 21
567.0540516059
 31
0.0
  0
LINE
  5
103
330
1F
100
AcDbEntity
  8
0
  6
Continuous
 62
     7
370
    25
100
AcDbLine
 10
347.1495950506
 20
567.0540516059
 30
0.0
 11
347.1495950506
 21
568.7540516059
 31
0.0
  0
ARC
  5
104
330
1F
100
AcDbEntity
  8
0
  6
Continuous
 62
     7
370
    25
100
AcDbCircle
 10
346.7495950506
 20
568.7540516059
 30
0.0
 40
0.3999999999999773
100
AcDbArc
 50
0.0
 51
90.0
  0
ARC
  5
105
330
1F
100
AcDbEntity
  8
0
  6
Continuous
 62
     7
370
    25
100
AcDbCircle
 10
325.0495950506
 20
568.7540516059
 30
0.0
 40
0.3999999999999773
100
AcDbArc
 50
90.0
 51
180.0
  0
ARC
  5
106
330
1F
100
AcDbEntity
  8
0
  6
Continuous
 62
     7
370
    25
100
AcDbCircle
 10
325.0495950506
 20
567.0540516059
 30
0.0
 40
0.3999999999999773
100
AcDbArc
 50
180.0
 51
270.0
  0
ARC
  5
107
330
1F
100
AcDbEntity
  8
0
  6
Continuous
 62
     7
370
    25
100
AcDbCircle
 10
328.0495950506
 20
566.0540516059
 30
0.0
 40
0.4000000000000341
100
AcDbArc
 50
180.0
 51
270.0
  0
LINE
  5
108
330
1F
100
AcDbEntity
  8
0
  6
Continuous
 62
     7
370
    25
100
AcDbLine
 10
327.6495950506
 20
566.6540516059
 30
0.0
 11
327.6495950506
 21
566.0540516059
 31
0.0
  0
ARC
  5
109
330
1F
100
AcDbEntity
  8
0
  6
Continuous
 62
     7
370
    25
100
AcDbCircle
 10
346.7495950506
 20
567.0540516059
 30
0.0
 40
0.3999999999999773
100
AcDbArc
 50
270.0
 51
0.0
  0
ARC
  5
10A
330
1F
100
AcDbEntity
  8
0
  6
Continuous
 62
     7
370
    25
100
AcDbCircle
 10
329.5495950506
 20
562.0540516059
 30
0.0
 40
0.4000000000000341
100
AcDbArc
 50
180.0
 51
270.0
  0
LINE
  5
10B
330
1F
100
AcDbEntity
  8
0
  6
Continuous
 62
     7
370
    25
100
AcDbLine
 10
329.1495950506
 20
565.6540516059
 30
0.0
 11
329.1495950506
 21
562.0540516059
 31
0.0
  0
LINE
  5
10C
330
1F
100
AcDbEntity
  8
0
  6
Continuous
 62
     7
370
    25
100
AcDbLine
 10
348.3995950506
 20
595.057805842
 30
0.0
 11
348.3995950506
 21
595.557805842
 31
0.0
  0
LINE
  5
10D
330
1F
100
AcDbEntity
  8
0
  6
Continuous
 62
     7
370
    25
100
AcDbLine
 10
323.3995950506
 20
595.557805842
 30
0.0
 11
323.3995950506
 21
595.057805842
 31
0.0
  0
LINE
  5
10E
330
1F
100
AcDbEntity
  8
0
  6
Continuous
 62
     7
370
    25
100
AcDbLine
 10
348.3995950506
 20
599.557805842
 30
0.0
 11
342.9656114001
 21
616.8477538211
 31
0.0
  0
LINE
  5
10F
330
1F
100
AcDbEntity
  8
0
  6
Continuous
 62
     7
370
    25
100
AcDbLine
 10
328.8335787012
 20
616.8477538211
 30
0.0
 11
323.3995950506
 21
599.557805842
 31
0.0
  0
ARC
  5
110
330
1F
100
AcDbEntity
  8
0
  6
Continuous
 62
     7
370
    25
100
AcDbCircle
 10
342.679413285
 20
616.757805842
 30
0.0
 40
0.2999999999999811
100
AcDbArc
 50
17.4471884233
 51
90.0
  0
ARC
  5
111
330
1F
100
AcDbEntity
  8
0
  6
Continuous
 62
     7
370
    25
100
AcDbCircle
 10
329.1197768162
 20
616.757805842
 30
0.0
 40
0.2999999999999811
100
AcDbArc
 50
90.0
 51
162.5528115767
  0
LINE
  5
112
330
1F
100
AcDbEntity
  8
0
  6
Continuous
 62
     7
370
    25
100
AcDbLine
 10
334.0976321452
 20
626.2805480422
 30
0.0
 11
334.4580247263
 21
625.9925945954
 31
0.0
  0
LINE
  5
113
330
1F
100
AcDbEntity
  8
0
  6
Continuous
 62
     7
370
    25
100
AcDbLine
 10
337.341165375
 20
625.9925945954
 30
0.0
 11
337.701557956
 21
626.2805480422
 31
0.0
  0
LINE
  5
114
330
1F
100
AcDbEntity
  8
0
  6
Continuous
 62
     7
370
    25
100
AcDbLine
 10
338.3995950506
 20
627.6120621005
 30
0.0
 11
338.3995950506
 21
632.2768277213
 31
0.0
  0
LINE
  5
115
330
1F
100
AcDbEntity
  8
0
  6
Continuous
 62
     7
370
    25
100
AcDbLine
 10
333.3995950506
 20
632.2768277213
 30
0.0
 11
333.3995950506
 21
627.6120621005
 31
0.0
  0
ARC
  5
116
330
1F
100
AcDbEntity
  8
0
  6
Continuous
 62
     7
370
    25
100
AcDbCircle
 10
335.8995950506
 20
634.5930786363
 30
0.0
 40
2.5
100
AcDbArc
 50
0.0
 51
180.0
  0
LINE
  5
117
330
1F
100
AcDbEntity
  8
0
  6
Continuous
 62
     7
370
    25
100
AcDbLine
 10
333.3995950506
 20
634.5930786363
 30
0.0
 11
333.3995950506
 21
632.2768277213
 31
0.0
  0
LINE
  5
118
330
1F
100
AcDbEntity
  8
0
  6
Continuous
 62
     7
370
    25
100
AcDbLine
 10
338.3995950506
 20
632.2768277213
 30
0.0
 11
338.3995950506
 21
634.5930786363
 31
0.0
  0
LINE
  5
119
330
1F
100
AcDbEntity
  8
0
  6
Continuous
 62
     7
370
    25
100
AcDbLine
 10
340.3995950506
 20
617.057805842
 30
0.0
 11
340.3995950506
 21
632.307805842
 31
0.0
  0
LINE
  5
11A
330
1F
100
AcDbEntity
  8
0
  6
Continuous
 62
     7
370
    25
100
AcDbLine
 10
331.3995950506
 20
632.307805842
 30
0.0
 11
331.3995950506
 21
617.057805842
 31
0.0
  0
LINE
  5
11B
330
1F
100
AcDbEntity
  8
0
  6
Continuous
 62
     7
370
    25
100
AcDbLine
 10
340.3995950506
 20
632.307805842
 30
0.0
 11
340.1495950506
 21
632.557805842
 31
0.0
  0
LINE
  5
11C
330
1F
100
AcDbEntity
  8
0
  6
Continuous
 62
     7
370
    25
100
AcDbLine
 10
331.6495950506
 20
632.557805842
 30
0.0
 11
331.3995950506
 21
632.307805842
 31
0.0
  0
LINE
  5
11D
330
1F
100
AcDbEntity
  8
0
  6
Continuous
 62
     7
370
    25
100
AcDbLine
 10
344.3995950506
 20
598.557805842
 30
0.0
 11
344.3995950506
 21
599.557805842
 31
0.0
  0
LINE
  5
11E
330
1F
100
AcDbEntity
  8
0
  6
Continuous
 62
     7
370
    25
100
AcDbLine
 10
327.3995950506
 20
599.557805842
 30
0.0
 11
327.3995950506
 21
598.557805842
 31
0.0
  0
LINE
  5
11F
330
1F
100
AcDbEntity
  8
0
  6
Continuous
 62
     7
370
    25
100
AcDbLine
 10
330.8995950506
 20
595.057805842
 30
0.0
 11
330.8995950506
 21
569.6540516059
 31
0.0
  0
LINE
  5
120
330
1F
100
AcDbEntity
  8
0
  6
Continuous
 62
     7
370
    25
100
AcDbLine
 10
330.8995950506
 20
561.6540516059
 30
0.0
 11
330.8995950506
 21
549.8229843558
 31
0.0
  0
LINE
  5
121
330
1F
100
AcDbEntity
  8
0
  6
Continuous
 62
     7
370
    25
100
AcDbLine
 10
340.8995950506
 20
549.8229843558
 30
0.0
 11
340.8995950506
 21
561.6540516059
 31
0.0
  0
LINE
  5
122
330
1F
100
AcDbEntity
  8
0
  6
Continuous
 62
     7
370
    25
100
AcDbLine
 10
340.8995950506
 20
569.6540516059
 30
0.0
 11
340.8995950506
 21
595.057805842
 31
0.0
  0
ARC
  5
123
330
1F
100
AcDbEntity
  8
0
  6
Continuous
 62
     7
370
    25
100
AcDbCircle
 10
323.3995950506
 20
537.5729843558
 30
0.0
 40
3.75
100
AcDbArc
 50
90.0
 51
180.0
  0
ARC
  5
124
330
1F
100
AcDbEntity
  8
0
  6
Continuous
 62
     7
370
    25
100
AcDbCircle
 10
348.3995950506
 20
537.5729843558
 30
0.0
 40
3.75
100
AcDbArc
 50
0.0
 51
90.0
  0
ARC
  5
125
330
1F
100
AcDbEntity
  8
0
  6
Continuous
 62
     7
370
    25
100
AcDbCircle
 10
323.3995950506
 20
457.5729843558
 30
0.0
 40
3.750000000000057
100
AcDbArc
 50
180.0
 51
270.0
  0
ARC
  5
126
330
1F
100
AcDbEntity
  8
0
  6
Continuous
 62
     7
370
    25
100
AcDbCircle
 10
348.3995950506
 20
457.5729843558
 30
0.0
 40
3.750000000000057
100
AcDbArc
 50
270.0
 51
0.0
  0
LINE
  5
127
330
1F
100
AcDbEntity
  8
0
  6
Continuous
 62
     7
370
    25
100
AcDbLine
 10
352.1495950506
 20
457.5729843558
 30
0.0
 11
352.1495950506
 21
537.5729843558
 31
0.0
  0
LINE
  5
128
330
1F
100
AcDbEntity
  8
0
  6
Continuous
 62
     7
370
    25
100
AcDbLine
 10
319.6495950506
 20
537.5729843558
 30
0.0
 11
319.6495950506
 21
457.5729843558
 31
0.0
  0
ARC
  5
129
330
1F
100
AcDbEntity
  8
0
  6
Continuous
 62
     7
370
    25
100
AcDbCircle
 10
329.8995950506
 20
545.5729843558
 30
0.0
 40
0.5
100
AcDbArc
 50
90.0
 51
270.0
  0
ARC
  5
12A
330
1F
100
AcDbEntity
  8
0
  6
Continuous
 62
     7
370
    25
100
AcDbCircle
 10
341.8995950506
 20
545.5729843558
 30
0.0
 40
0.5
100
AcDbArc
 50
270.0
 51
90.0
  0
LINE
  5
12B
330
1F
100
AcDbEntity
  8
0
  6
Continuous
 62
     7
370
    25
100
AcDbLine
 10
341.8995950506
 20
541.3229843558
 30
0.0
 11
341.8995950506
 21
545.0729843558
 31
0.0
  0
LINE
  5
12C
330
1F
100
AcDbEntity
  8
0
  6
Continuous
 62
     7
370
    25
100
AcDbLine
 10
329.8995950506
 20
545.0729843558
 30
0.0
 11
329.8995950506
 21
541.3229843558
 31
0.0
  0
LINE
  5
12D
330
1F
100
AcDbEntity
  8
0
  6
Continuous
 62
     7
370
    25
100
AcDbLine
 10
341.8995950506
 20
546.0729843558
 30
0.0
 11
341.8995950506
 21
549.8229843558
 31
0.0
  0
LINE
  5
12E
330
1F
100
AcDbEntity
  8
0
  6
Continuous
 62
     7
370
    25
100
AcDbLine
 10
329.8995950506
 20
549.8229843558
 30
0.0
 11
329.8995950506
 21
546.0729843558
 31
0.0
  0
LINE
  5
12F
330
1F
100
AcDbEntity
  8
0
  6
Continuous
 62
     7
370
    25
100
AcDbLine
 10
323.3995950506
 20
569.1540516059
 30
0.0
 11
348.3995950506
 21
569.1540516059
 31
0.0
  0
LINE
  5
130
330
1F
100
AcDbEntity
  8
0
  6
Continuous
 62
     7
370
    25
100
AcDbLine
 10
323.3995950506
 20
569.6540516059
 30
0.0
 11
348.3995950506
 21
569.6540516059
 31
0.0
  0
LINE
  5
131
330
1F
100
AcDbEntity
  8
0
  6
Continuous
 62
     7
370
    25
100
AcDbLine
 10
328.3995950506
 20
595.807805842
 30
0.0
 11
343.3995950506
 21
595.807805842
 31
0.0
  0
LINE
  5
132
330
1F
100
AcDbEntity
  8
0
  6
Continuous
 62
     7
370
    25
100
AcDbLine
 10
343.3995950506
 20
598.307805842
 30
0.0
 11
328.3995950506
 21
598.307805842
 31
0.0
  0
SPLINE
  5
133
330
1F
100
AcDbEntity
  8
0
  6
Continuous
 62
     7
370
    25
100
AcDbSpline
210
0.0
220
0.0
230
1.0
 70
     8
 71
     3
 72
    12
 73
     8
 74
     0
 42
0.00000001
 43
0.00000001
 40
0.0
 40
0.0
 40
0.0
 40
0.0
 40
0.1867273801863468
 40
0.4010800548570544
 40
0.6155414370559382
 40
0.8301994797654754
 40
0.9999999999999999
 40
0.9999999999999999
 40
0.9999999999999999
 40
0.9999999999999999
 10
345.0349689280429
 20
567.0540516058849
 30
0.0
 10
345.0321532982375
 20
567.0149675529883
 30
0.0
 10
345.0261054815986
 20
566.9310171753622
 30
0.0
 10
344.9752971354973
 20
566.8136394366478
 30
0.0
 10
344.8937372329967
 20
566.7188692024595
 30
0.0
 10
344.7968067390219
 20
566.6631286968149
 30
0.0
 10
344.7294893337464
 20
566.6568324259181
 30
0.0
 10
344.6997578319973
 20
566.6540516058849
 30
0.0
  0
LINE
  5
134
330
1F
100
AcDbEntity
  8
0
  6
Continuous
 62
     7
370
    25
100
AcDbLine
 10
344.699757832
 20
566.6540516059
 30
0.0
 11
330.3901402476
 21
566.6540516059
 31
0.0
  0
SPLINE
  5
135
330
1F
100
AcDbEntity
  8
0
  6
Continuous
 62
     7
370
    25
100
AcDbSpline
210
0.0
220
0.0
230
1.0
 70
     8
 71
     3
 72
    13
 73
     9
 74
     0
 42
0.00000001
 43
0.00000001
 40
0.0
 40
0.0
 40
0.0
 40
0.0
 40
0.1019802603126907
 40
0.2357971215122803
 40
0.4502230119682944
 40
0.6646428887963206
 40
0.8792142724955172
 40
1.0
 40
1.0
 40
1.0
 40
1.0
 10
330.1711382046177
 20
567.0540516058849
 30
0.0
 10
330.1716901751757
 20
567.0327362633813
 30
0.0
 10
330.1729664326431
 20
566.9834512704718
 30
0.0
 10
330.1870058848617
 20
566.8921129766361
 30
0.0
 10
330.2204131081651
 20
566.7890820677598
 30
0.0
 10
330.2779840056755
 20
566.7019997510416
 30
0.0
 10
330.3379993047682
 20
566.6594498357152
 30
0.0
 10
330.3763334283857
 20
566.655481046538
 30
0.0
 10
330.3901402476083
 20
566.6540516058849
 30
0.0
  0
LINE
  5
136
330
1F
100
AcDbEntity
  8
0
  6
Continuous
 62
     7
370
    25
100
AcDbLine
 10
330.1711382046
 20
567.0540516059
 30
0.0
 11
345.034968928
 21
567.0540516059
 31
0.0
  0
SPLINE
  5
137
330
1F
100
AcDbEntity
  8
0
  6
Continuous
 62
     7
370
    25
100
AcDbSpline
210
0.0
220
0.0
230
1.0
 70
     8
 71
     3
 72
    12
 73
     8
 74
     0
 42
0.00000001
 43
0.00000001
 40
0.0
 40
0.0
 40
0.0
 40
0.0
 40
0.2108209321845816
 40
0.4249379088237938
 40
0.6392791486855439
 40
0.8539968896049185
 40
1.0
 40
1.0
 40
1.0
 40
1.0
 10
342.5200720425074
 20
566.0540516058849
 30
0.0
 10
342.5164874223867
 20
566.0098564125065
 30
0.0
 10
342.5092621390039
 20
565.920775063422
 30
0.0
 10
342.4524494166476
 20
565.8013258434532
 30
0.0
 10
342.3679515461022
 20
565.7103295399587
 30
0.0
 10
342.2732337326202
 20
565.6612211772743
 30
0.0
 10
342.2101069748012
 20
565.656117384893
 30
0.0
 10
342.1845561840522
 20
565.6540516058848
 30
0.0
  0
LINE
  5
138
330
1F
100
AcDbEntity
  8
0
  6
Continuous
 62
     7
370
    25
100
AcDbLine
 10
342.1845561841
 20
565.6540516059
 30
0.0
 11
332.0333862676
 21
565.6540516059
 31
0.0
  0
SPLINE
  5
139
330
1F
100
AcDbEntity
  8
0
  6
Continuous
 62
     7
370
    25
100
AcDbSpline
210
0.0
220
0.0
230
1.0
 70
     8
 71
     3
 72
    13
 73
     9
 74
     0
 42
0.00000001
 43
0.00000001
 40
0.0
 40
0.0
 40
0.0
 40
0.0
 40
0.0739769589482662
 40
0.2074551008415577
 40
0.4217601019827133
 40
0.6360542946627795
 40
0.8506246518159705
 40
1.0
 40
1.0
 40
1.0
 40
1.0
 10
331.8141851154726
 20
566.0540516058842
 30
0.0
 10
331.8144815422361
 20
566.0385926488512
 30
0.0
 10
331.8153128178793
 20
565.9952407790829
 30
0.0
 10
331.8263164943077
 20
565.9086930171277
 30
0.0
 10
331.8572278291849
 20
565.8031155275039
 30
0.0
 10
331.9126255135097
 20
565.71154949155
 30
0.0
 10
331.9746362504706
 20
565.6614830820167
 30
0.0
 10
332.0162901360367
 20
565.6562141498272
 30
0.0
 10
332.033386267598
 20
565.6540516058848
 30
0.0
  0
LINE
  5
13A
330
1F
100
AcDbEntity
  8
0
  6
Continuous
 62
     7
370
    25
100
AcDbLine
 10
331.8141851155
 20
566.0540516059
 30
0.0
 11
342.5200720425
 21
566.0540516059
 31
0.0
  0
LINE
  5
13B
330
1F
100
AcDbEntity
  8
0
  6
Continuous
 62
     7
370
    25
100
AcDbLine
 10
342.5200720425
 20
566.0540516059
 30
0.0
 11
342.5200720425
 21
566.6540516059
 31
0.0
  0
LINE
  5
13C
330
1F
100
AcDbEntity
  8
0
  6
Continuous
 62
     7
370
    25
100
AcDbLine
 10
331.8141851155
 20
566.0540516059
 30
0.0
 11
331.8141851155
 21
566.6540516059
 31
0.0
  0
LINE
  5
13D
330
1F
100
AcDbEntity
  8
0
  6
Continuous
 62
     7
370
    25
100
AcDbLine
 10
332.6364491944
 20
562.0540516059
 30
0.0
 11
332.6364491944
 21
565.6540516059
 31
0.0
  0
SPLINE
  5
13E
330
1F
100
AcDbEntity
  8
0
  6
Continuous
 62
     7
370
    25
100
AcDbSpline
210
0.0
220
0.0
230
1.0
 70
     8
 71
     3
 72
    13
 73
     9
 74
     0
 42
0.00000001
 43
0.00000001
 40
0.0
 40
0.0
 40
0.0
 40
0.0
 40
0.088817268933262
 40
0.3097855720770392
 40
0.5307411073359655
 40
0.7520427601058983
 40
0.9739644184849735
 40
1.0
 40
1.0
 40
1.0
 40
1.0
 10
332.6364491944357
 20
562.0540516058849
 30
0.0
 10
332.6368548668877
 20
562.0360794977049
 30
0.0
 10
332.6382698110102
 20
561.9733946180546
 30
0.0
 10
332.6568489882766
 20
561.8687778260529
 30
0.0
 10
332.701391885963
 20
561.7592461864303
 30
0.0
 10
332.7635128127491
 20
561.6828858563429
 30
0.0
 10
332.8148272494167
 20
561.6579462704964
 30
0.0
 10
332.8422092090144
 20
561.6548589476812
 30
0.0
 10
332.8450843226487
 20
561.6545347778975
 30
0.0
  0
LINE
  5
13F
330
1F
100
AcDbEntity
  8
0
  6
Continuous
 62
     7
370
    25
100
AcDbLine
 10
332.8450843226
 20
561.6545347779
 30
0.0
 11
332.8450843226
 21
561.6540516059
 31
0.0
  0
LINE
  5
140
330
1F
100
AcDbEntity
  8
0
  6
Continuous
 62
     7
370
    25
100
AcDbLine
 10
332.8450843226
 20
561.6540516059
 30
0.0
 11
331.53241839
 21
561.6540516059
 31
0.0
  0
LWPOLYLINE
  5
141
330
1F
100
AcDbEntity
  8
0
  6
Continuous
 62
     7
370
    25
100
AcDbPolyline
 90
        9
 70
   128
 43
0.0
 10
331.53241839
 20
561.6540516059
 10
331.2656596197
 20
561.7020884049
 10
331.0091522393
 20
561.8443527746
 10
330.7727536837
 20
562.0753775751
 10
330.5655486167
 20
562.3862846529
 10
330.3954998128
 20
562.7651260233
 10
330.2691421523
 20
563.197343025
 10
330.1913314891
 20
563.6663258008
 10
330.1650580435
 20
564.1540516059
  0
LINE
  5
142
330
1F
100
AcDbEntity
  8
0
  6
Continuous
 62
     7
370
    25
100
AcDbLine
 10
330.1650580435
 20
564.1540516059
 30
0.0
 11
330.1650580435
 21
567.0540516059
 31
0.0
  0
LINE
  5
143
330
1F
100
AcDbEntity
  8
0
  6
Continuous
 62
     7
370
    25
100
AcDbLine
 10
330.1650580435
 20
567.0540516059
 30
0.0
 11
330.1711382046
 21
567.0540516059
 31
0.0
  0
LINE
  5
144
330
1F
100
AcDbEntity
  8
0
  6
Continuous
 62
     7
370
    25
100
AcDbLine
 10
330.6952492857
 20
561.6540516059
 30
0.0
 11
331.53241839
 21
561.6540516059
 31
0.0
  0
LWPOLYLINE
  5
145
330
1F
100
AcDbEntity
  8
0
  6
Continuous
 62
     7
370
    25
100
AcDbPolyline
 90
        9
 70
   128
 43
0.0
 10
330.6952492857
 20
561.6540516059
 10
330.4284905154
 20
561.7020884049
 10
330.171983135
 20
561.8443527746
 10
329.9355845793
 20
562.0753775751
 10
329.7283795123
 20
562.3862846529
 10
329.5583307085
 20
562.7651260233
 10
329.431973048
 20
563.197343025
 10
329.3541623848
 20
563.6663258008
 10
329.3278889392
 20
564.1540516059
  0
LINE
  5
146
330
1F
100
AcDbEntity
  8
0
  6
Continuous
 62
     7
370
    25
100
AcDbLine
 10
329.3278889392
 20
564.1540516059
 30
0.0
 11
330.1650580435
 21
564.1540516059
 31
0.0
  0
LINE
  5
147
330
1F
100
AcDbEntity
  8
0
  6
Continuous
 62
     7
370
    25
100
AcDbLine
 10
329.3278889392
 20
564.1540516059
 30
0.0
 11
329.3278889392
 21
567.0540516059
 31
0.0
  0
LINE
  5
148
330
1F
100
AcDbEntity
  8
0
  6
Continuous
 62
     7
370
    25
100
AcDbLine
 10
329.3278889392
 20
567.0540516059
 30
0.0
 11
329.7464734913
 21
567.0540516059
 31
0.0
  0
LINE
  5
149
330
1F
100
AcDbEntity
  8
0
  6
Continuous
 62
     7
370
    25
100
AcDbLine
 10
329.7464734913
 20
567.0540516059
 30
0.0
 11
330.1650580435
 21
567.0540516059
 31
0.0
  0
LINE
  5
14A
330
1F
100
AcDbEntity
  8
0
  6
Continuous
 62
     7
370
    25
100
AcDbLine
 10
332.6364491944
 20
562.0540516059
 30
0.0
 11
341.2614899791
 21
562.0540516059
 31
0.0
  0
SPLINE
  5
14B
330
1F
100
AcDbEntity
  8
0
  6
Continuous
 62
     7
370
    25
100
AcDbSpline
210
0.0
220
0.0
230
1.0
 70
     8
 71
     3
 72
    13
 73
     9
 74
     0
 42
0.00000001
 43
0.00000001
 40
0.0
 40
0.0
 40
0.0
 40
0.0
 40
0.1022847272578393
 40
0.3228296666973953
 40
0.5435368140756293
 40
0.7647224073204653
 40
0.903148511354342
 40
1.0
 40
1.0
 40
1.0
 40
1.0
 10
341.2614899791476
 20
562.0540516058849
 30
0.0
 10
341.2606714987355
 20
562.0333348867584
 30
0.0
 10
341.2580882219774
 20
561.9679490592753
 30
0.0
 10
341.2270036206882
 20
561.8614899645086
 30
0.0
 10
341.1571310046244
 20
561.7536064118377
 30
0.0
 10
341.072676296443
 20
561.6890616866029
 30
0.0
 10
340.9982965136035
 20
561.6607557133667
 30
0.0
 10
340.9585204998692
 20
561.6563488522886
 30
0.0
 10
340.9421467938198
 20
561.6545347778975
 30
0.0
  0
LINE
  5
14C
330
1F
100
AcDbEntity
  8
0
  6
Continuous
 62
     7
370
    25
100
AcDbLine
 10
340.9421467938
 20
561.6540516059
 30
0.0
 11
332.8793556008
 21
561.6540516059
 31
0.0
  0
LINE
  5
14D
330
1F
100
AcDbEntity
  8
0
  6
Continuous
 62
     7
370
    25
100
AcDbLine
 10
341.2614899791
 20
562.0540516059
 30
0.0
 11
341.2614899791
 21
565.6540516059
 31
0.0
  0
LINE
  5
14E
330
1F
100
AcDbEntity
  8
0
  6
Continuous
 62
     7
370
    25
100
AcDbLine
 10
329.3278889392
 20
566.6540516059
 30
0.0
 11
325.0495950506
 21
566.6540516059
 31
0.0
  0
LINE
  5
14F
330
1F
100
AcDbEntity
  8
0
  6
Continuous
 62
     7
370
    25
100
AcDbLine
 10
329.3278889392
 20
565.6540516059
 30
0.0
 11
328.0495950506
 21
565.6540516059
 31
0.0
  0
LINE
  5
150
330
1F
100
AcDbEntity
  8
0
  6
Continuous
 62
     7
370
    25
100
AcDbLine
 10
345.044275405
 20
564.1540516059
 30
0.0
 11
345.044275405
 21
567.0540516059
 31
0.0
  0
ARC
  5
151
330
1F
100
AcDbEntity
  8
0
  6
Continuous
 62
     7
370
    25
100
AcDbCircle
 10
342.7280197109
 20
563.9670841742
 30
0.0
 40
2.323789418387146
100
AcDbArc
 50
275.5150502741
 51
4.614891639
  0
LINE
  5
152
330
1F
100
AcDbEntity
  8
0
  6
Continuous
 62
     7
370
    25
100
AcDbLine
 10
340.9421467938
 20
561.6540516059
 30
0.0
 11
342.9513526442
 21
561.6540516059
 31
0.0
  0
LINE
  5
153
330
1F
100
AcDbEntity
  8
0
  6
Continuous
 62
     7
370
    25
100
AcDbLine
 10
340.9421467938
 20
561.6545347779
 30
0.0
 11
340.9421467938
 21
561.6540516059
 31
0.0
  0
LINE
  5
154
330
1F
100
AcDbEntity
  8
0
  6
Continuous
 62
     7
370
    25
100
AcDbLine
 10
345.044275405
 20
567.0540516059
 30
0.0
 11
345.034968928
 21
567.0540516059
 31
0.0
  0
LINE
  5
155
330
1F
100
AcDbEntity
  8
0
  6
Continuous
 62
     7
370
    25
100
AcDbLine
 10
345.044275405
 20
564.1540516059
 30
0.0
 11
345.5912195436
 21
564.1540516059
 31
0.0
  0
LINE
  5
156
330
1F
100
AcDbEntity
  8
0
  6
Continuous
 62
     7
370
    25
100
AcDbLine
 10
345.044275405
 20
567.0540516059
 30
0.0
 11
345.3177474743
 21
567.0540516059
 31
0.0
  0
LINE
  5
157
330
1F
100
AcDbEntity
  8
0
  6
Continuous
 62
     7
370
    25
100
AcDbLine
 10
345.3177474743
 20
567.0540516059
 30
0.0
 11
345.5912195436
 21
567.0540516059
 31
0.0
  0
LINE
  5
158
330
1F
100
AcDbEntity
  8
0
  6
Continuous
 62
     7
370
    25
100
AcDbLine
 10
345.5912195436
 20
564.1540516059
 30
0.0
 11
345.5912195436
 21
567.0540516059
 31
0.0
  0
LINE
  5
159
330
1F
100
AcDbEntity
  8
0
  6
Continuous
 62
     7
370
    25
100
AcDbLine
 10
342.9513526442
 20
561.6540516059
 30
0.0
 11
343.4982967828
 21
561.6540516059
 31
0.0
  0
ARC
  5
15A
330
1F
100
AcDbEntity
  8
0
  6
Continuous
 62
     7
370
    25
100
AcDbCircle
 10
343.2749638495
 20
563.9670841742
 30
0.0
 40
2.323789418387141
100
AcDbArc
 50
275.5150502741
 51
4.614891639
  0
LINE
  5
15B
330
1F
100
AcDbEntity
  8
0
  6
Continuous
 62
     7
370
    25
100
AcDbLine
 10
346.7495950506
 20
566.6540516059
 30
0.0
 11
345.5912195436
 21
566.6540516059
 31
0.0
  0
LINE
  5
15C
330
1F
100
AcDbEntity
  8
0
  6
Continuous
 62
     7
370
    25
100
AcDbLine
 10
330.6952492857
 20
561.6540516059
 30
0.0
 11
329.5495950506
 21
561.6540516059
 31
0.0
  0
LINE
  5
15D
330
1F
100
AcDbEntity
  8
0
  6
Continuous
 62
     7
370
    25
100
AcDbLine
 10
329.5495950506
 20
561.6540516059
 30
0.0
 11
328.3008933184
 21
561.6540516059
 31
0.0
  0
ARC
  5
15E
330
1F
100
AcDbEntity
  8
0
  6
Continuous
 62
     7
370
    25
100
AcDbCircle
 10
328.5242262517
 20
563.9670841742
 30
0.0
 40
2.323789418387022
100
AcDbArc
 50
175.385108361
 51
264.4849497259
  0
LINE
  5
15F
330
1F
100
AcDbEntity
  8
0
  6
Continuous
 62
     7
370
    25
100
AcDbLine
 10
326.2079705576
 20
564.1540516059
 30
0.0
 11
326.2079705576
 21
566.6540516059
 31
0.0
  0
LINE
  5
160
330
1F
100
AcDbEntity
  8
0
  6
Continuous
 62
     7
370
    25
100
AcDbLine
 10
323.3995950506
 20
595.057805842
 30
0.0
 11
348.3995950506
 21
595.057805842
 31
0.0
  0
LINE
  5
161
330
1F
100
AcDbEntity
  8
0
  6
Continuous
 62
     7
370
    25
100
AcDbLine
 10
323.3995950506
 20
595.557805842
 30
0.0
 11
348.3995950506
 21
595.557805842
 31
0.0
  0
LINE
  5
162
330
1F
100
AcDbEntity
  8
0
  6
Continuous
 62
     7
370
    25
100
AcDbLine
 10
334.0410056223
 20
599.557805842
 30
0.0
 11
323.3995950506
 21
599.557805842
 31
0.0
  0
LINE
  5
163
330
1F
100
AcDbEntity
  8
0
  6
Continuous
 62
     7
370
    25
100
AcDbLine
 10
348.3995950506
 20
599.557805842
 30
0.0
 11
334.0410056223
 21
599.557805842
 31
0.0
  0
LINE
  5
164
330
1F
100
AcDbEntity
  8
0
  6
Continuous
 62
     7
370
    25
100
AcDbLine
 10
334.8915231709
 20
617.057805842
 30
0.0
 11
342.679413285
 21
617.057805842
 31
0.0
  0
LINE
  5
165
330
1F
100
AcDbEntity
  8
0
  6
Continuous
 62
     7
370
    25
100
AcDbLine
 10
329.1197768162
 20
617.057805842
 30
0.0
 11
334.8915231709
 21
617.057805842
 31
0.0
  0
LWPOLYLINE
  5
166
330
1F
100
AcDbEntity
  8
0
  6
Continuous
 62
     7
370
    25
100
AcDbPolyline
 90
       24
 70
   128
 43
0.0
 10
335.8995950506
 20
628.594555659
 10
335.3600015083
 20
628.5375688071
 10
334.8604271505
 20
628.3708347056
 10
334.4379231221
 20
628.10671926
 10
334.1238246138
 20
627.7648107046
 10
333.9414268753
 20
627.3704668329
 10
333.9042575122
 20
626.9529343258
 10
334.0150732064
 20
626.5431796593
 10
334.2656552646
 20
626.1715924626
 10
334.637419162
 20
625.865731658
 10
335.1027928709
 20
625.6482815423
 10
335.6272617524
 20
625.5353693958
 10
336.1719283488
 20
625.5353693958
 10
336.6963972303
 20
625.6482815423
 10
337.1617709393
 20
625.865731658
 10
337.5335348366
 20
626.1715924626
 10
337.7841168949
 20
626.5431796593
 10
337.894932589
 20
626.9529343258
 10
337.857763226
 20
627.3704668329
 10
337.6753654874
 20
627.7648107046
 10
337.3612669792
 20
628.10671926
 10
336.9387629507
 20
628.3708347056
 10
336.4391885929
 20
628.5375688071
 10
335.8995950506
 20
628.594555659
  0
LWPOLYLINE
  5
167
330
1F
100
AcDbEntity
  8
0
  6
Continuous
 62
     7
370
    25
100
AcDbPolyline
 90
       12
 70
   128
 43
0.0
 10
333.9434359912
 20
627.377805842
 10
334.0150732064
 20
627.1831796593
 10
334.2656552646
 20
626.8115924626
 10
334.637419162
 20
626.505731658
 10
335.1027928709
 20
626.2882815423
 10
335.6272617524
 20
626.1753693958
 10
336.1719283488
 20
626.1753693958
 10
336.6963972303
 20
626.2882815423
 10
337.1617709393
 20
626.505731658
 10
337.5335348366
 20
626.8115924626
 10
337.7841168949
 20
627.1831796593
 10
337.85575411
 20
627.377805842
  0
LWPOLYLINE
  5
168
330
1F
100
AcDbEntity
  8
0
  6
Continuous
 62
     7
370
    25
100
AcDbPolyline
 90
       21
 70
   128
 43
0.0
 10
334.0976321452
 20
626.2805480422
 10
333.8421353859
 20
626.520845356
 10
333.5620544439
 20
626.9308883564
 10
333.4178228654
 20
627.3805186988
 10
333.4178228654
 20
627.8436055021
 10
333.5620544439
 20
628.2932358445
 10
333.8421353859
 20
628.7032788449
 10
334.241788405
 20
629.0499042945
 10
334.7377871205
 20
629.3129675822
 10
335.3013058899
 20
629.4771804258
 10
335.8995950506
 20
629.5329993717
 10
336.4978842113
 20
629.4771804258
 10
337.0614029807
 20
629.3129675822
 10
337.5574016962
 20
629.0499042945
 10
337.9570547154
 20
628.7032788449
 10
338.2371356573
 20
628.2932358445
 10
338.3813672359
 20
627.8436055021
 10
338.3813672359
 20
627.3805186988
 10
338.2371356573
 20
626.9308883564
 10
337.9570547154
 20
626.520845356
 10
337.701557956
 20
626.2805480422
  0
SPLINE
  5
169
330
1F
100
AcDbEntity
  8
0
  6
Continuous
 62
     7
370
    25
100
AcDbSpline
210
0.0
220
0.0
230
1.0
 70
     8
 71
     3
 72
    18
 73
    14
 74
     0
 42
0.00000001
 43
0.00000001
 40
0.0
 40
0.0
 40
0.0
 40
0.0
 40
0.0865562509359738
 40
0.1759826324445381
 40
0.2741209083272085
 40
0.3837237993527421
 40
0.4917564803765689
 40
0.591432576078857
 40
0.6898778563434224
 40
0.7950541841870993
 40
0.8497860123943775
 40
0.9063793333469599
 40
1.0
 40
1.0
 40
1.0
 40
1.0
 10
333.4102813958366
 20
627.4644555906812
 30
0.0
 10
333.4240717779752
 20
627.2345692728919
 30
0.0
 10
333.4521098194213
 20
626.7671738054348
 30
0.0
 10
333.7622295011618
 20
626.1207455143424
 30
0.0
 10
334.2628825399373
 20
625.558065706205
 30
0.0
 10
334.9768254545174
 20
625.1538631911471
 30
0.0
 10
335.8119066551582
 20
624.9961880036888
 30
0.0
 10
336.6260925969177
 20
625.098937149087
 30
0.0
 10
337.3468774272119
 20
625.4239357310066
 30
0.0
 10
337.8369488785719
 20
625.8678558320394
 30
0.0
 10
338.1344794018233
 20
626.3286299099375
 30
0.0
 10
338.3468832826264
 20
626.8160957666054
 30
0.0
 10
338.3736453290336
 20
627.2154200923054
 30
0.0
 10
338.3903247386251
 20
627.4642984436408
 30
0.0
  0
LINE
  5
16A
330
1F
100
AcDbEntity
  8
0
  6
Continuous
 62
     7
370
    25
100
AcDbLine
 10
340.3995950506
 20
632.307805842
 30
0.0
 11
338.3995950506
 21
632.307805842
 31
0.0
  0
LINE
  5
16B
330
1F
100
AcDbEntity
  8
0
  6
Continuous
 62
     7
370
    25
100
AcDbLine
 10
333.3995950506
 20
632.307805842
 30
0.0
 11
331.3995950506
 21
632.307805842
 31
0.0
  0
LINE
  5
16C
330
1F
100
AcDbEntity
  8
0
  6
Continuous
 62
     7
370
    25
100
AcDbLine
 10
331.6495950506
 20
632.557805842
 30
0.0
 11
333.3995950506
 21
632.557805842
 31
0.0
  0
LINE
  5
16D
330
1F
100
AcDbEntity
  8
0
  6
Continuous
 62
     7
370
    25
100
AcDbLine
 10
338.3995950506
 20
632.557805842
 30
0.0
 11
340.1495950506
 21
632.557805842
 31
0.0
  0
LINE
  5
16E
330
1F
100
AcDbEntity
  8
0
  6
Continuous
 62
     7
370
    25
100
AcDbLine
 10
327.3995950506
 20
598.557805842
 30
0.0
 11
344.3995950506
 21
598.557805842
 31
0.0
  0
LINE
  5
16F
330
1F
100
AcDbEntity
  8
0
  6
Continuous
 62
     7
370
    25
100
AcDbLine
 10
323.3995950506
 20
541.3229843558
 30
0.0
 11
348.3995950506
 21
541.3229843558
 31
0.0
  0
LINE
  5
170
330
1F
100
AcDbEntity
  8
0
  6
Continuous
 62
     7
370
    25
100
AcDbLine
 10
348.3995950506
 20
453.8229843558
 30
0.0
 11
323.3995950506
 21
453.8229843558
 31
0.0
  0
LINE
  5
171
330
1F
100
AcDbEntity
  8
0
  6
Continuous
 62
     7
370
    25
100
AcDbLine
 10
341.8995950506
 20
545.0729843558
 30
0.0
 11
329.8995950506
 21
545.0729843558
 31
0.0
  0
LINE
  5
172
330
1F
100
AcDbEntity
  8
0
  6
Continuous
 62
     7
370
    25
100
AcDbLine
 10
329.8995950506
 20
546.0729843558
 30
0.0
 11
341.8995950506
 21
546.0729843558
 31
0.0
  0
LINE
  5
173
330
1F
100
AcDbEntity
  8
0
  6
Continuous
 62
     7
370
    25
100
AcDbLine
 10
329.8995950506
 20
549.8229843558
 30
0.0
 11
341.8995950506
 21
549.8229843558
 31
0.0
  0
LINE
  5
174
330
1F
100
AcDbEntity
  8
0
  6
Continuous
 62
     8
370
    25
100
AcDbLine
 10
345.5819130666
 20
567.0540516059
 30
0.0
 11
347.1495950506
 21
567.0540516059
 31
0.0
  0
LINE
  5
175
330
1F
100
AcDbEntity
  8
0
  6
Continuous
 62
     8
370
    25
100
AcDbLine
 10
324.6495950506
 20
567.0540516059
 30
0.0
 11
329.3339691003
 21
567.0540516059
 31
0.0
  0
LINE
  5
176
330
1F
100
AcDbEntity
  8
0
  6
Continuous
 62
     8
370
    25
100
AcDbLine
 10
347.1495950506
 20
568.7540516059
 30
0.0
 11
324.6495950506
 21
568.7540516059
 31
0.0
  0
LINE
  5
177
330
1F
100
AcDbEntity
  8
0
  6
Continuous
 62
     8
370
    25
100
AcDbLine
 10
327.6495950506
 20
566.0540516059
 30
0.0
 11
329.3278889392
 21
566.0540516059
 31
0.0
  0
LINE
  5
178
330
1F
100
AcDbEntity
  8
0
  6
Continuous
 62
     8
370
    25
100
AcDbLine
 10
329.1495950506
 20
562.0540516059
 30
0.0
 11
329.9533381596
 21
562.0540516059
 31
0.0
  0
LINE
  5
179
330
1F
100
AcDbEntity
  8
0
  6
Continuous
 62
     8
370
    25
100
AcDbLine
 10
342.9656114001
 20
616.8477538211
 30
0.0
 11
328.8335787012
 21
616.8477538211
 31
0.0
  0
LWPOLYLINE
  5
17A
330
1F
100
AcDbEntity
  8
0
  6
Continuous
 62
     8
370
    25
100
AcDbPolyline
 90
       15
 70
   128
 43
0.0
 10
333.3995950506
 20
632.2768277213
 10
333.4178228654
 20
632.5083711229
 10
333.5620544439
 20
632.9580014653
 10
333.8421353859
 20
633.3680444657
 10
334.241788405
 20
633.7146699153
 10
334.7377871205
 20
633.977733203
 10
335.3013058899
 20
634.1419460465
 10
335.8995950506
 20
634.1977649925
 10
336.4978842113
 20
634.1419460465
 10
337.0614029807
 20
633.977733203
 10
337.5574016962
 20
633.7146699153
 10
337.9570547154
 20
633.3680444657
 10
338.2371356573
 20
632.9580014653
 10
338.3813672359
 20
632.5083711229
 10
338.3995950506
 20
632.2768277213
  0
LINE
  5
17B
330
1F
100
AcDbEntity
  8
0
  6
Continuous
 62
     8
370
    25
100
AcDbLine
 10
352.1495950506
 20
537.5729843558
 30
0.0
 11
319.6495950506
 21
537.5729843558
 31
0.0
  0
LINE
  5
17C
330
1F
100
AcDbEntity
  8
0
  6
Continuous
 62
     8
370
    25
100
AcDbLine
 10
319.6495950506
 20
457.5729843558
 30
0.0
 11
352.1495950506
 21
457.5729843558
 31
0.0
  0
LINE
  5
17D
330
1F
100
AcDbEntity
  8
0
  6
Continuous
 62
     7
370
    25
100
AcDbLine
 10
333.3995950506
 20
325.34559827
 30
0.0
 11
333.3995950506
 21
317.69559827
 31
0.0
  0
LINE
  5
17E
330
1F
100
AcDbEntity
  8
0
  6
Continuous
 62
     7
370
    25
100
AcDbLine
 10
338.3995950506
 20
317.69559827
 30
0.0
 11
338.3995950506
 21
325.34559827
 31
0.0
  0
LINE
  5
17F
330
1F
100
AcDbEntity
  8
0
  6
Continuous
 62
     7
370
    25
100
AcDbLine
 10
338.3995950506
 20
325.34559827
 30
0.0
 11
338.3995950506
 21
381.3159729907
 31
0.0
  0
LINE
  5
180
330
1F
100
AcDbEntity
  8
0
  6
Continuous
 62
     7
370
    25
100
AcDbLine
 10
333.3995950506
 20
381.3150155126
 30
0.0
 11
333.3995950506
 21
325.34559827
 31
0.0
  0
LINE
  5
181
330
1F
100
AcDbEntity
  8
0
  6
Continuous
 62
     7
370
    25
100
AcDbLine
 10
338.3995950506
 20
312.0951469309
 30
0.0
 11
338.3995950506
 21
317.69559827
 31
0.0
  0
LINE
  5
182
330
1F
100
AcDbEntity
  8
0
  6
Continuous
 62
     7
370
    25
100
AcDbLine
 10
333.3995950506
 20
317.69559827
 30
0.0
 11
333.3995950506
 21
312.0951469309
 31
0.0
  0
LINE
  5
183
330
1F
100
AcDbEntity
  8
0
  6
Continuous
 62
     7
370
    25
100
AcDbLine
 10
333.7076433602
 20
311.325722176
 30
0.0
 11
334.1460336983
 21
310.8141749366
 31
0.0
  0
LINE
  5
184
330
1F
100
AcDbEntity
  8
0
  6
Continuous
 62
     7
370
    25
100
AcDbLine
 10
337.653156403
 20
310.8141749366
 30
0.0
 11
338.0915467411
 21
311.325722176
 31
0.0
  0
ARC
  5
185
330
1F
100
AcDbEntity
  8
0
  6
Continuous
 62
     7
370
    25
100
AcDbCircle
 10
335.8995950506
 20
385.0638055957
 30
0.0
 40
12.49999999999995
100
AcDbArc
 50
281.5369590328
 51
258.4630409672
  0
LWPOLYLINE
  5
186
330
1F
100
AcDbEntity
  8
0
  6
Continuous
 62
     7
370
    25
100
AcDbPolyline
 90
       15
 70
   128
 43
0.0
 10
333.3995950506
 20
312.0951469309
 10
333.4178228654
 20
311.9022882425
 10
333.5620544439
 20
311.5277791117
 10
333.8421353859
 20
311.1862433362
 10
334.241788405
 20
310.8975297339
 10
334.7377871205
 20
310.6784172899
 10
335.3013058899
 20
310.5416400231
 10
335.8995950506
 20
310.4951469309
 10
336.4978842113
 20
310.5416400231
 10
337.0614029807
 20
310.6784172899
 10
337.5574016962
 20
310.8975297339
 10
337.9570547154
 20
311.1862433362
 10
338.2371356573
 20
311.5277791117
 10
338.3813672359
 20
311.9022882425
 10
338.3995950506
 20
312.0951469309
  0
CIRCLE
  5
187
330
1F
100
AcDbEntity
  8
0
  6
Continuous
 62
     7
370
    25
100
AcDbCircle
 10
335.8995950506
 20
385.0638055957
 30
0.0
 40
4.250000000000057
  0
CIRCLE
  5
188
330
1F
100
AcDbEntity
  8
0
  6
Continuous
 62
     7
370
    25
100
AcDbCircle
 10
335.8995950506
 20
385.0638055957
 30
0.0
 40
4.5
  0
ARC
  5
189
330
1F
100
AcDbEntity
  8
0
  6
Continuous
 62
     7
370
    25
100
AcDbCircle
 10
335.7787946946
 20
312.4770348084
 30
0.0
 40
2.330453051252963
100
AcDbArc
 50
225.5232672855
 51
272.9712908577
  0
ARC
  5
18A
330
1F
100
AcDbEntity
  8
0
  6
Continuous
 62
     7
370
    25
100
AcDbCircle
 10
336.0203954067
 20
312.4770348084
 30
0.0
 40
2.330453051253349
100
AcDbArc
 50
267.0287091423
 51
314.4767327145
  0
ARC
  5
18B
330
1F
100
AcDbEntity
  8
0
  6
Continuous
 62
     7
370
    25
100
AcDbCircle
 10
335.8995950506
 20
385.0638055957
 30
0.0
 40
16.25000000000005
100
AcDbArc
 50
278.8498830984
 51
94.4092439541
  0
ARC
  5
18C
330
1F
100
AcDbEntity
  8
0
  6
Continuous
 62
     7
370
    25
100
AcDbCircle
 10
335.8995950506
 20
385.0638055957
 30
0.0
 40
16.25000000000005
100
AcDbArc
 50
94.4092439541
 51
261.1501169016
  0
ARC
  5
18D
330
1F
100
AcDbEntity
  8
0
  6
Continuous
 62
     8
370
    25
100
AcDbCircle
 10
335.8995950506
 20
385.0638055957
 30
0.0
 40
7.066016349450202
100
AcDbArc
 50
290.7202934547
 51
81.4491471052
  0
ARC
  5
18E
330
1F
100
AcDbEntity
  8
0
  6
Continuous
 62
     8
370
    25
100
AcDbCircle
 10
335.8995950506
 20
385.0638055957
 30
0.0
 40
7.066016349450202
100
AcDbArc
 50
81.4491471052
 51
249.2797065453
  0
ARC
  5
18F
330
1F
100
AcDbEntity
  8
0
  6
Continuous
 62
     8
370
    25
100
AcDbCircle
 10
335.8995950506
 20
385.0638055957
 30
0.0
 40
6.779818234379781
100
AcDbArc
 50
291.6380201099
 51
248.3619798902
  0
LWPOLYLINE
  5
190
330
1F
100
AcDbEntity
  8
0
  6
Continuous
 62
     8
370
    25
100
AcDbPolyline
 90
       15
 70
   128
 43
0.0
 10
333.3995950506
 20
325.34559827
 10
333.4178228654
 20
325.3832659826
 10
333.5620544439
 20
325.4564122972
 10
333.8421353859
 20
325.5231185034
 10
334.241788405
 20
325.5795078788
 10
334.7377871205
 20
325.622303278
 10
335.3013058899
 20
325.649017588
 10
335.8995950506
 20
325.65809827
 10
336.4978842113
 20
325.649017588
 10
337.0614029807
 20
325.622303278
 10
337.5574016962
 20
325.5795078788
 10
337.9570547154
 20
325.5231185034
 10
338.2371356573
 20
325.4564122972
 10
338.3813672359
 20
325.3832659826
 10
338.3995950506
 20
325.34559827
  0
LWPOLYLINE
  5
191
330
1F
100
AcDbEntity
  8
0
  6
Continuous
 62
     8
370
    25
100
AcDbPolyline
 90
       15
 70
   128
 43
0.0
 10
333.3995950506
 20
317.69559827
 10
333.4178228654
 20
317.5027395816
 10
333.5620544439
 20
317.1282304507
 10
333.8421353859
 20
316.7866946752
 10
334.241788405
 20
316.4979810729
 10
334.7377871205
 20
316.278868629
 10
335.3013058899
 20
316.1420913621
 10
335.8995950506
 20
316.09559827
 10
336.4978842113
 20
316.1420913621
 10
337.0614029807
 20
316.278868629
 10
337.5574016962
 20
316.4979810729
 10
337.9570547154
 20
316.7866946752
 10
338.2371356573
 20
317.1282304507
 10
338.3813672359
 20
317.5027395816
 10
338.3995950506
 20
317.69559827
  0
ENDSEC
  0
SECTION
  2
OBJECTS
  0
DICTIONARY
  5
C
330
0
100
AcDbDictionary
281
     1
  3
ACAD_GROUP
350
D
  3
ACAD_LAYOUT
350
1A
  3
ACAD_MLINESTYLE
350
17
  3
ACAD_PLOTSETTINGS
350
19
  3
ACAD_PLOTSTYLENAME
350
E
  3
ACAD_SCALELIST
350
47
  3
DWGPROPS
350
192
  0
DICTIONARY
  5
D
102
{ACAD_REACTORS
330
C
102
}
330
C
100
AcDbDictionary
281
     1
  0
DICTIONARY
  5
1A
102
{ACAD_REACTORS
330
C
102
}
330
C
100
AcDbDictionary
281
     1
  3
Layout1
350
1E
  3
Layout2
350
26
  3
Model
350
22
  0
DICTIONARY
  5
17
102
{ACAD_REACTORS
330
C
102
}
330
C
100
AcDbDictionary
281
     1
  3
Standard
350
18
  0
DICTIONARY
  5
19
102
{ACAD_REACTORS
330
C
102
}
330
C
100
AcDbDictionary
281
     1
  0
ACDBDICTIONARYWDFLT
  5
E
102
{ACAD_REACTORS
330
C
102
}
330
C
100
AcDbDictionary
281
     1
  3
Normal
350
F
100
AcDbDictionaryWithDefault
340
F
  0
DICTIONARY
  5
47
102
{ACAD_REACTORS
330
C
102
}
330
C
100
AcDbDictionary
281
     1
  3
A0
350
48
  3
A1
350
49
  3
A2
350
4A
  3
A3
350
4B
  3
A4
350
4C
  3
A5
350
4D
  3
A6
350
4E
  3
A7
350
4F
  3
A8
350
50
  3
A9
350
51
  3
B0
350
52
  3
B1
350
53
  3
B2
350
54
  3
B3
350
55
  3
B4
350
56
  3
B5
350
57
  3
B6
350
58
  3
B7
350
59
  3
B8
350
5A
  3
B9
350
5B
  3
C0
350
5C
  3
C1
350
5D
  3
C2
350
5E
  3
C3
350
5F
  3
C4
350
60
  3
C5
350
61
  3
C6
350
62
  3
C7
350
63
  3
C8
350
64
  3
C9
350
65
  3
D0
350
66
  3
D1
350
67
  3
D2
350
68
  0
XRECORD
  5
192
102
{ACAD_REACTORS
330
C
102
}
330
C
100
AcDbXrecord
280
     1
  1
DWGPROPS COOKIE
  2

  3

  4

  6

  7

  8
vyvoj-ws1
  9

300
=
301
=
302
=
303
=
304
=
305
=
306
=
307
=
308
=
309
=
 40
0.0
 41
2459030.5523561
 42
2459030.55235647
  1

 90
        0
  0
LAYOUT
  5
1E
102
{ACAD_REACTORS
330
1A
102
}
330
1A
100
AcDbPlotSettings
  1

  2
none_device
  4

  6

 40
0.0
 41
0.0
 42
0.0
 43
0.0
 44
0.0
 45
0.0
 46
0.0
 47
0.0
 48
0.0
 49
0.0
140
0.0
141
0.0
142
1.0
143
1.0
 70
   688
 72
     1
 73
     0
 74
     5
  7

 75
    16
147
1.0
148
0.0
149
0.0
100
AcDbLayout
  1
Layout1
 70
     1
 71
     1
 10
0.0
 20
0.0
 11
420.0
 21
297.0
 12
0.0
 22
0.0
 32
0.0
 14
1.0000000000E+20
 24
1.0000000000E+20
 34
1.0000000000E+20
 15
-1.0000000000E+20
 25
-1.0000000000E+20
 35
-1.0000000000E+20
146
0.0
 13
0.0
 23
0.0
 33
0.0
 16
1.0
 26
0.0
 36
0.0
 17
0.0
 27
1.0
 37
0.0
 76
     0
330
1B
  0
LAYOUT
  5
26
102
{ACAD_REACTORS
330
1A
102
}
330
1A
100
AcDbPlotSettings
  1

  2
none_device
  4

  6

 40
0.0
 41
0.0
 42
0.0
 43
0.0
 44
0.0
 45
0.0
 46
0.0
 47
0.0
 48
0.0
 49
0.0
140
0.0
141
0.0
142
1.0
143
1.0
 70
   688
 72
     1
 73
     0
 74
     5
  7

 75
    16
147
1.0
148
0.0
149
0.0
100
AcDbLayout
  1
Layout2
 70
     1
 71
     2
 10
0.0
 20
0.0
 11
0.0
 21
0.0
 12
0.0
 22
0.0
 32
0.0
 14
0.0
 24
0.0
 34
0.0
 15
0.0
 25
0.0
 35
0.0
146
0.0
 13
0.0
 23
0.0
 33
0.0
 16
1.0
 26
0.0
 36
0.0
 17
0.0
 27
1.0
 37
0.0
 76
     0
330
23
  0
LAYOUT
  5
22
102
{ACAD_REACTORS
330
1A
102
}
330
1A
100
AcDbPlotSettings
  1

  2
none_device
  4
Letter_(8.50_x_11.00_Inches)
  6

 40
6.35
 41
6.35
 42
6.35000508
 43
6.35000508
 44
215.9
 45
279.4
 46
0.0
 47
0.0
 48
0.0
 49
0.0
140
0.0
141
0.0
142
1.0
143
1.0
 70
  1712
 72
     1
 73
     0
 74
     0
  7

 75
     0
147
1.0
148
0.0
149
0.0
100
AcDbLayout
  1
Model
 70
     1
 71
     0
 10
0.0
 20
0.0
 11
1189.0
 21
841.0
 12
0.0
 22
0.0
 32
0.0
 14
0.0
 24
0.0
 34
0.0
 15
1189.0
 25
841.0
 35
0.0
146
0.0
 13
0.0
 23
0.0
 33
0.0
 16
1.0
 26
0.0
 36
0.0
 17
0.0
 27
1.0
 37
0.0
 76
     0
330
1F
331
29
  0
MLINESTYLE
  5
18
102
{ACAD_REACTORS
330
17
102
}
330
17
100
AcDbMlineStyle
  2
Standard
 70
     0
  3

 62
   256
 51
90.0
 52
90.0
 71
     2
 49
0.5
 62
   256
  6
BYLAYER
 49
-0.5
 62
   256
  6
BYLAYER
  0
ACDBPLACEHOLDER
  5
F
102
{ACAD_REACTORS
330
E
102
}
330
E
  0
SCALE
  5
48
102
{ACAD_REACTORS
330
47
102
}
330
47
100
AcDbScale
 70
     0
300
1:1
140
1.0
141
1.0
290
     1
  0
SCALE
  5
49
102
{ACAD_REACTORS
330
47
102
}
330
47
100
AcDbScale
 70
     0
300
1:2
140
1.0
141
2.0
290
     0
  0
SCALE
  5
4A
102
{ACAD_REACTORS
330
47
102
}
330
47
100
AcDbScale
 70
     0
300
1:4
140
1.0
141
4.0
290
     0
  0
SCALE
  5
4B
102
{ACAD_REACTORS
330
47
102
}
330
47
100
AcDbScale
 70
     0
300
1:5
140
1.0
141
5.0
290
     0
  0
SCALE
  5
4C
102
{ACAD_REACTORS
330
47
102
}
330
47
100
AcDbScale
 70
     0
300
1:8
140
1.0
141
8.0
290
     0
  0
SCALE
  5
4D
102
{ACAD_REACTORS
330
47
102
}
330
47
100
AcDbScale
 70
     0
300
1:10
140
1.0
141
10.0
290
     0
  0
SCALE
  5
4E
102
{ACAD_REACTORS
330
47
102
}
330
47
100
AcDbScale
 70
     0
300
1:16
140
1.0
141
16.0
290
     0
  0
SCALE
  5
4F
102
{ACAD_REACTORS
330
47
102
}
330
47
100
AcDbScale
 70
     0
300
1:20
140
1.0
141
20.0
290
     0
  0
SCALE
  5
50
102
{ACAD_REACTORS
330
47
102
}
330
47
100
AcDbScale
 70
     0
300
1:30
140
1.0
141
30.0
290
     0
  0
SCALE
  5
51
102
{ACAD_REACTORS
330
47
102
}
330
47
100
AcDbScale
 70
     0
300
1:40
140
1.0
141
40.0
290
     0
  0
SCALE
  5
52
102
{ACAD_REACTORS
330
47
102
}
330
47
100
AcDbScale
 70
     0
300
1:50
140
1.0
141
50.0
290
     0
  0
SCALE
  5
53
102
{ACAD_REACTORS
330
47
102
}
330
47
100
AcDbScale
 70
     0
300
1:100
140
1.0
141
100.0
290
     0
  0
SCALE
  5
54
102
{ACAD_REACTORS
330
47
102
}
330
47
100
AcDbScale
 70
     0
300
2:1
140
2.0
141
1.0
290
     0
  0
SCALE
  5
55
102
{ACAD_REACTORS
330
47
102
}
330
47
100
AcDbScale
 70
     0
300
4:1
140
4.0
141
1.0
290
     0
  0
SCALE
  5
56
102
{ACAD_REACTORS
330
47
102
}
330
47
100
AcDbScale
 70
     0
300
8:1
140
8.0
141
1.0
290
     0
  0
SCALE
  5
57
102
{ACAD_REACTORS
330
47
102
}
330
47
100
AcDbScale
 70
     0
300
10:1
140
10.0
141
1.0
290
     0
  0
SCALE
  5
58
102
{ACAD_REACTORS
330
47
102
}
330
47
100
AcDbScale
 70
     0
300
100:1
140
100.0
141
1.0
290
     0
  0
SCALE
  5
59
102
{ACAD_REACTORS
330
47
102
}
330
47
100
AcDbScale
 70
     0
300
1/128" = 1'-0"
140
0.0078125
141
12.0
290
     0
  0
SCALE
  5
5A
102
{ACAD_REACTORS
330
47
102
}
330
47
100
AcDbScale
 70
     0
300
1/64" = 1'-0"
140
0.015625
141
12.0
290
     0
  0
SCALE
  5
5B
102
{ACAD_REACTORS
330
47
102
}
330
47
100
AcDbScale
 70
     0
300
1/32" = 1'-0"
140
0.03125
141
12.0
290
     0
  0
SCALE
  5
5C
102
{ACAD_REACTORS
330
47
102
}
330
47
100
AcDbScale
 70
     0
300
1/16" = 1'-0"
140
0.0625
141
12.0
290
     0
  0
SCALE
  5
5D
102
{ACAD_REACTORS
330
47
102
}
330
47
100
AcDbScale
 70
     0
300
3/32" = 1'-0"
140
0.09375
141
12.0
290
     0
  0
SCALE
  5
5E
102
{ACAD_REACTORS
330
47
102
}
330
47
100
AcDbScale
 70
     0
300
1/8" = 1'-0"
140
0.125
141
12.0
290
     0
  0
SCALE
  5
5F
102
{ACAD_REACTORS
330
47
102
}
330
47
100
AcDbScale
 70
     0
300
3/16" = 1'-0"
140
0.1875
141
12.0
290
     0
  0
SCALE
  5
60
102
{ACAD_REACTORS
330
47
102
}
330
47
100
AcDbScale
 70
     0
300
1/4" = 1'-0"
140
0.25
141
12.0
290
     0
  0
SCALE
  5
61
102
{ACAD_REACTORS
330
47
102
}
330
47
100
AcDbScale
 70
     0
300
3/8" = 1'-0"
140
0.375
141
12.0
290
     0
  0
SCALE
  5
62
102
{ACAD_REACTORS
330
47
102
}
330
47
100
AcDbScale
 70
     0
300
1/2" = 1'-0"
140
0.5
141
12.0
290
     0
  0
SCALE
  5
63
102
{ACAD_REACTORS
330
47
102
}
330
47
100
AcDbScale
 70
     0
300
3/4" = 1'-0"
140
0.75
141
12.0
290
     0
  0
SCALE
  5
64
102
{ACAD_REACTORS
330
47
102
}
330
47
100
AcDbScale
 70
     0
300
1" = 1'-0"
140
1.0
141
12.0
290
     0
  0
SCALE
  5
65
102
{ACAD_REACTORS
330
47
102
}
330
47
100
AcDbScale
 70
     0
300
1-1/2" = 1'-0"
140
1.5
141
12.0
290
     0
  0
SCALE
  5
66
102
{ACAD_REACTORS
330
47
102
}
330
47
100
AcDbScale
 70
     0
300
3" = 1'-0"
140
3.0
141
12.0
290
     0
  0
SCALE
  5
67
102
{ACAD_REACTORS
330
47
102
}
330
47
100
AcDbScale
 70
     0
300
6" = 1'-0"
140
6.0
141
12.0
290
     0
  0
SCALE
  5
68
102
{ACAD_REACTORS
330
47
102
}
330
47
100
AcDbScale
 70
     0
300
1'-0" = 1'-0"
140
12.0
141
12.0
290
     0
  0
ENDSEC
  0
EOF
