  0
SECTION
  2
HEADER
  9
$ACADVER
  1
AC1015
  9
$ACADMAINTVER
 70
     6
  9
$DWGCODEPAGE
  3
ANSI_1250
  9
$INSBASE
 10
0.0
 20
0.0
 30
0.0
  9
$EXTMIN
 10
-24507.751255246
 20
-33770.8591249755
 30
0.0
  9
$EXTMAX
 10
26853.6527942605
 20
30732.2307920418
 30
0.0
  9
$LIMMIN
 10
0.0
 20
0.0
  9
$LIMMAX
 10
420.0
 20
297.0
  9
$ORTHOMODE
 70
     0
  9
$REGENMODE
 70
     1
  9
$FILLMODE
 70
     1
  9
$QTEXTMODE
 70
     0
  9
$MIRRTEXT
 70
     1
  9
$LTSCALE
 40
1.0
  9
$ATTMODE
 70
     1
  9
$TEXTSIZE
 40
3.5
  9
$TRACEWID
 40
1.0
  9
$TEXTSTYLE
  7
Standard
  9
$CLAYER
  8
0
  9
$CELTYPE
  6
ByLayer
  9
$CECOLOR
 62
   256
  9
$CELTSCALE
 40
1.0
  9
$DISPSILH
 70
     0
  9
$DIMSCALE
 40
1.0
  9
$DIMASZ
 40
3.302
  9
$DIMEXO
 40
0.0
  9
$DIMDLI
 40
3.75
  9
$DIMRND
 40
0.0
  9
$DIMDLE
 40
0.0
  9
$DIMEXE
 40
1.0
  9
$DIMTP
 40
0.0
  9
$DIMTM
 40
0.0
  9
$DIMTXT
 40
3.5
  9
$DIMCEN
 40
2.5
  9
$DIMTSZ
 40
0.0
  9
$DIMTOL
 70
     0
  9
$DIMLIM
 70
     0
  9
$DIMTIH
 70
     1
  9
$DIMTOH
 70
     1
  9
$DIMSE1
 70
     0
  9
$DIMSE2
 70
     0
  9
$DIMTAD
 70
     1
  9
$DIMZIN
 70
     0
  9
$DIMBLK
  1

  9
$DIMASO
 70
     1
  9
$DIMSHO
 70
     1
  9
$DIMPOST
  1

  9
$DIMAPOST
  1

  9
$DIMALT
 70
     0
  9
$DIMALTD
 70
     3
  9
$DIMALTF
 40
0.0393700787
  9
$DIMLFAC
 40
1.0
  9
$DIMTOFL
 70
     1
  9
$DIMTVP
 40
0.0
  9
$DIMTIX
 70
     0
  9
$DIMSOXD
 70
     0
  9
$DIMSAH
 70
     0
  9
$DIMBLK1
  1

  9
$DIMBLK2
  1

  9
$DIMSTYLE
  2
ISO-25
  9
$DIMCLRD
 70
     0
  9
$DIMCLRE
 70
     0
  9
$DIMCLRT
 70
     0
  9
$DIMTFAC
 40
1.0
  9
$DIMGAP
 40
1.524
  9
$DIMJUST
 70
     0
  9
$DIMSD1
 70
     0
  9
$DIMSD2
 70
     0
  9
$DIMTOLJ
 70
     0
  9
$DIMTZIN
 70
     0
  9
$DIMALTZ
 70
     0
  9
$DIMALTTZ
 70
     0
  9
$DIMUPT
 70
     0
  9
$DIMDEC
 70
     2
  9
$DIMTDEC
 70
     2
  9
$DIMALTU
 70
     2
  9
$DIMALTTD
 70
     3
  9
$DIMTXSTY
  7
Standard
  9
$DIMAUNIT
 70
     0
  9
$DIMADEC
 70
     2
  9
$DIMALTRND
 40
0.0
  9
$DIMAZIN
 70
     0
  9
$DIMDSEP
 70
    44
  9
$DIMATFIT
 70
     3
  9
$DIMFRAC
 70
     0
  9
$DIMLDRBLK
  1

  9
$DIMLUNIT
 70
     2
  9
$DIMLWD
 70
    -2
  9
$DIMLWE
 70
    -2
  9
$DIMTMOVE
 70
     0
  9
$LUNITS
 70
     2
  9
$LUPREC
 70
     2
  9
$SKETCHINC
 40
1.0
  9
$FILLETRAD
 40
10.0
  9
$AUNITS
 70
     0
  9
$AUPREC
 70
     2
  9
$MENU
  1
.
  9
$ELEVATION
 40
0.0
  9
$PELEVATION
 40
0.0
  9
$THICKNESS
 40
0.0
  9
$LIMCHECK
 70
     0
  9
$CHAMFERA
 40
0.0
  9
$CHAMFERB
 40
0.0
  9
$CHAMFERC
 40
0.0
  9
$CHAMFERD
 40
0.0
  9
$SKPOLY
 70
     0
  9
$TDCREATE
 40
2459103.30179544
  9
$TDUCREATE
 40
2459103.218462106
  9
$TDUPDATE
 40
2459103.301930278
  9
$TDUUPDATE
 40
2459103.218596945
  9
$TDINDWG
 40
0.0000000116
  9
$TDUSRTIMER
 40
0.0000000116
  9
$USRTIMER
 70
     1
  9
$ANGBASE
 50
0.0
  9
$ANGDIR
 70
     0
  9
$PDMODE
 70
     0
  9
$PDSIZE
 40
-1.0
  9
$PLINEWID
 40
0.0
  9
$SPLFRAME
 70
     0
  9
$SPLINETYPE
 70
     6
  9
$SPLINESEGS
 70
     8
  9
$HANDSEED
  5
2BF
  9
$SURFTAB1
 70
     6
  9
$SURFTAB2
 70
     6
  9
$SURFTYPE
 70
     6
  9
$SURFU
 70
     6
  9
$SURFV
 70
     6
  9
$UCSBASE
  2

  9
$UCSNAME
  2

  9
$UCSORG
 10
0.0
 20
0.0
 30
0.0
  9
$UCSXDIR
 10
1.0
 20
0.0
 30
0.0
  9
$UCSYDIR
 10
0.0
 20
1.0
 30
0.0
  9
$UCSORTHOREF
  2

  9
$UCSORTHOVIEW
 70
     0
  9
$UCSORGTOP
 10
0.0
 20
0.0
 30
0.0
  9
$UCSORGBOTTOM
 10
0.0
 20
0.0
 30
0.0
  9
$UCSORGLEFT
 10
0.0
 20
0.0
 30
0.0
  9
$UCSORGRIGHT
 10
0.0
 20
0.0
 30
0.0
  9
$UCSORGFRONT
 10
0.0
 20
0.0
 30
0.0
  9
$UCSORGBACK
 10
0.0
 20
0.0
 30
0.0
  9
$PUCSBASE
  2

  9
$PUCSNAME
  2

  9
$PUCSORG
 10
0.0
 20
0.0
 30
0.0
  9
$PUCSXDIR
 10
1.0
 20
0.0
 30
0.0
  9
$PUCSYDIR
 10
0.0
 20
1.0
 30
0.0
  9
$PUCSORTHOREF
  2

  9
$PUCSORTHOVIEW
 70
     0
  9
$PUCSORGTOP
 10
0.0
 20
0.0
 30
0.0
  9
$PUCSORGBOTTOM
 10
0.0
 20
0.0
 30
0.0
  9
$PUCSORGLEFT
 10
0.0
 20
0.0
 30
0.0
  9
$PUCSORGRIGHT
 10
0.0
 20
0.0
 30
0.0
  9
$PUCSORGFRONT
 10
0.0
 20
0.0
 30
0.0
  9
$PUCSORGBACK
 10
0.0
 20
0.0
 30
0.0
  9
$USERI1
 70
     0
  9
$USERI2
 70
     0
  9
$USERI3
 70
     0
  9
$USERI4
 70
     0
  9
$USERI5
 70
     0
  9
$USERR1
 40
0.0
  9
$USERR2
 40
0.0
  9
$USERR3
 40
0.0
  9
$USERR4
 40
0.0
  9
$USERR5
 40
0.0
  9
$WORLDVIEW
 70
     1
  9
$SHADEDGE
 70
     3
  9
$SHADEDIF
 70
    70
  9
$TILEMODE
 70
     1
  9
$MAXACTVP
 70
    64
  9
$PINSBASE
 10
0.0
 20
0.0
 30
0.0
  9
$PLIMCHECK
 70
     0
  9
$PEXTMIN
 10
1.0000000000E+20
 20
1.0000000000E+20
 30
1.0000000000E+20
  9
$PEXTMAX
 10
-1.0000000000E+20
 20
-1.0000000000E+20
 30
-1.0000000000E+20
  9
$PLIMMIN
 10
0.0
 20
0.0
  9
$PLIMMAX
 10
420.0
 20
297.0
  9
$UNITMODE
 70
     0
  9
$VISRETAIN
 70
     1
  9
$PLINEGEN
 70
     0
  9
$PSLTSCALE
 70
     1
  9
$TREEDEPTH
 70
  3020
  9
$CMLSTYLE
  2
Standard
  9
$CMLJUST
 70
     0
  9
$CMLSCALE
 40
20.0
  9
$PROXYGRAPHICS
 70
     1
  9
$MEASUREMENT
 70
     1
  9
$CELWEIGHT
370
    -1
  9
$ENDCAPS
280
     0
  9
$JOINSTYLE
280
     0
  9
$LWDISPLAY
290
     1
  9
$INSUNITS
 70
     4
  9
$HYPERLINKBASE
  1

  9
$STYLESHEET
  1

  9
$XEDIT
290
     1
  9
$CEPSNTYPE
380
     0
  9
$PSTYLEMODE
290
     1
  9
$FINGERPRINTGUID
  2
{1b1bedff-951d-4191-a5df-a3db0ff22080}
  9
$VERSIONGUID
  2
{FAEB1C32-E019-11D5-929B-00C0DF256EC4}
  9
$EXTNAMES
290
     1
  9
$PSVPSCALE
 40
0.0
  9
$OLESTARTUP
290
     0
  0
ENDSEC
  0
SECTION
  2
CLASSES
  0
CLASS
  1
ACDBDICTIONARYWDFLT
  2
AcDbDictionaryWithDefault
  3
ObjectDBX Classes
 90
        0
280
     0
281
     0
  0
CLASS
  1
VISUALSTYLE
  2
AcDbVisualStyle
  3
ObjectDBX Classes
 90
     4095
280
     0
281
     0
  0
CLASS
  1
MATERIAL
  2
AcDbMaterial
  3
ObjectDBX Classes
 90
     1153
280
     0
281
     0
  0
CLASS
  1
SCALE
  2
AcDbScale
  3
ObjectDBX Classes
 90
     1153
280
     0
281
     0
  0
CLASS
  1
TABLESTYLE
  2
AcDbTableStyle
  3
ObjectDBX Classes
 90
     4095
280
     0
281
     0
  0
CLASS
  1
MLEADERSTYLE
  2
AcDbMLeaderStyle
  3
ACDB_MLEADERSTYLE_CLASS
 90
     4095
280
     0
281
     0
  0
CLASS
  1
SUN
  2
AcDbSun
  3
SCENEOE
 90
     1153
280
     0
281
     0
  0
CLASS
  1
ACDBPLACEHOLDER
  2
AcDbPlaceHolder
  3
ObjectDBX Classes
 90
        0
280
     0
281
     0
  0
CLASS
  1
LAYOUT
  2
AcDbLayout
  3
ObjectDBX Classes
 90
        0
280
     0
281
     0
  0
ENDSEC
  0
SECTION
  2
TABLES
  0
TABLE
  2
VPORT
  5
8
330
0
100
AcDbSymbolTable
 70
     1
  0
VPORT
  5
29
330
8
100
AcDbSymbolTableRecord
100
AcDbViewportTableRecord
  2
*Active
 70
     0
 10
0.0
 20
0.0
 11
1.0
 21
1.0
 12
1172.9507695072
 22
-1519.3141664668
 13
0.0
 23
0.0
 14
10.0
 24
10.0
 15
10.0
 25
10.0
 16
0.0
 26
0.0
 36
1.0
 17
0.0
 27
0.0
 37
0.0
 40
65793.1517153576
 41
0.7962626925
 42
50.0
 43
0.0
 44
0.0
 50
0.0
 51
0.0
 71
     0
 72
   100
 73
     1
 74
     3
 75
     0
 76
     0
 77
     0
 78
     0
281
     0
 65
     1
110
0.0
120
0.0
130
0.0
111
1.0
121
0.0
131
0.0
112
0.0
122
1.0
132
0.0
 79
     0
146
0.0
  0
ENDTAB
  0
TABLE
  2
LTYPE
  5
5
330
0
100
AcDbSymbolTable
 70
     6
  0
LTYPE
  5
14
330
5
100
AcDbSymbolTableRecord
100
AcDbLinetypeTableRecord
  2
ByBlock
 70
     0
  3

 72
    65
 73
     0
 40
0.0
  0
LTYPE
  5
15
330
5
100
AcDbSymbolTableRecord
100
AcDbLinetypeTableRecord
  2
ByLayer
 70
     0
  3

 72
    65
 73
     0
 40
0.0
  0
LTYPE
  5
16
330
5
100
AcDbSymbolTableRecord
100
AcDbLinetypeTableRecord
  2
Continuous
 70
     0
  3
Solid line
 72
    65
 73
     0
 40
0.0
  0
LTYPE
  5
6E
330
5
100
AcDbSymbolTableRecord
100
AcDbLinetypeTableRecord
  2
HIDDEN
 70
     0
  3
Hidden __ __ __ __ __ __ __ __ __ __ __ __ __ __
 72
    65
 73
     2
 40
1.905
 49
1.27
 74
     0
 49
-0.635
 74
     0
  0
LTYPE
  5
6F
330
5
100
AcDbSymbolTableRecord
100
AcDbLinetypeTableRecord
  2
PHANTOM
 70
     0
  3
Phantom ______  __  __  ______  __  __  ______
 72
    65
 73
     6
 40
12.7
 49
6.35
 74
     0
 49
-1.27
 74
     0
 49
1.27
 74
     0
 49
-1.27
 74
     0
 49
1.27
 74
     0
 49
-1.27
 74
     0
  0
LTYPE
  5
70
330
5
100
AcDbSymbolTableRecord
100
AcDbLinetypeTableRecord
  2
CENTER
 70
     0
  3
Center ____ _ ____ _ ____ _ ____ _ ____ _ ____
 72
    65
 73
     4
 40
10.16
 49
6.35
 74
     0
 49
-1.27
 74
     0
 49
1.27
 74
     0
 49
-1.27
 74
     0
  0
LTYPE
  5
71
330
5
100
AcDbSymbolTableRecord
100
AcDbLinetypeTableRecord
  2
CENTERX2
 70
     0
  3
Center (2x) ________  __  ________  __  _____
 72
    65
 73
     4
 40
20.32
 49
12.7
 74
     0
 49
-2.54
 74
     0
 49
2.54
 74
     0
 49
-2.54
 74
     0
  0
LTYPE
  5
72
330
5
100
AcDbSymbolTableRecord
100
AcDbLinetypeTableRecord
  2
DOT2
 70
     0
  3
Dot (.5x) ........................................
 72
    65
 73
     2
 40
0.635
 49
0.0
 74
     0
 49
-0.635
 74
     0
  0
ENDTAB
  0
TABLE
  2
LAYER
  5
2
330
0
100
AcDbSymbolTable
 70
     1
  0
LAYER
  5
10
330
2
100
AcDbSymbolTableRecord
100
AcDbLayerTableRecord
  2
0
 70
     0
 62
     7
  6
Continuous
370
    -3
390
F
  0
ENDTAB
  0
TABLE
  2
STYLE
  5
3
330
0
100
AcDbSymbolTable
 70
     1
  0
STYLE
  5
11
330
3
100
AcDbSymbolTableRecord
100
AcDbTextStyleTableRecord
  2
Standard
 70
     0
 40
0.0
 41
1.0
 50
0.0
 71
     0
 42
3.5
  3
txt
  4

  0
ENDTAB
  0
TABLE
  2
VIEW
  5
6
330
0
100
AcDbSymbolTable
 70
     0
  0
ENDTAB
  0
TABLE
  2
UCS
  5
7
330
0
100
AcDbSymbolTable
 70
     0
  0
ENDTAB
  0
TABLE
  2
APPID
  5
9
330
0
100
AcDbSymbolTable
 70
     1
  0
APPID
  5
12
330
9
100
AcDbSymbolTableRecord
100
AcDbRegAppTableRecord
  2
ACAD
 70
     0
  0
ENDTAB
  0
TABLE
  2
DIMSTYLE
  5
A
330
0
100
AcDbSymbolTable
 70
     1
100
AcDbDimStyleTable
  0
DIMSTYLE
105
27
330
A
100
AcDbSymbolTableRecord
100
AcDbDimStyleTableRecord
  2
ISO-25
 70
     0
 41
2.5
 42
0.625
 43
3.75
 44
1.25
 73
     0
 74
     0
 77
     1
 78
     8
140
2.5
141
2.5
143
0.0393700787
147
0.625
171
     3
172
     1
178
     0
271
     2
272
     2
274
     3
278
    44
283
     0
284
     8
340
11
  0
ENDTAB
  0
TABLE
  2
BLOCK_RECORD
  5
1
330
0
100
AcDbSymbolTable
 70
     1
  0
BLOCK_RECORD
  5
1F
330
1
100
AcDbSymbolTableRecord
100
AcDbBlockTableRecord
  2
*Model_Space
340
22
  0
BLOCK_RECORD
  5
1B
330
1
100
AcDbSymbolTableRecord
100
AcDbBlockTableRecord
  2
*Paper_Space
340
1E
  0
BLOCK_RECORD
  5
23
330
1
100
AcDbSymbolTableRecord
100
AcDbBlockTableRecord
  2
*Paper_Space0
340
26
  0
ENDTAB
  0
ENDSEC
  0
SECTION
  2
BLOCKS
  0
BLOCK
  5
20
330
1F
100
AcDbEntity
  8
0
100
AcDbBlockBegin
  2
*Model_Space
 70
     0
 10
0.0
 20
0.0
 30
0.0
  3
*Model_Space
  1

  0
ENDBLK
  5
21
330
1F
100
AcDbEntity
  8
0
100
AcDbBlockEnd
  0
BLOCK
  5
1C
330
1B
100
AcDbEntity
 67
     1
  8
0
100
AcDbBlockBegin
  2
*Paper_Space
 70
     0
 10
0.0
 20
0.0
 30
0.0
  3
*Paper_Space
  1

  0
ENDBLK
  5
1D
330
1B
100
AcDbEntity
 67
     1
  8
0
100
AcDbBlockEnd
  0
BLOCK
  5
24
330
23
100
AcDbEntity
  8
0
100
AcDbBlockBegin
  2
*Paper_Space0
 70
     0
 10
0.0
 20
0.0
 30
0.0
  3
*Paper_Space0
  1

  0
ENDBLK
  5
25
330
23
100
AcDbEntity
  8
0
100
AcDbBlockEnd
  0
ENDSEC
  0
SECTION
  2
ENTITIES
  0
ARC
  5
73
330
1F
100
AcDbEntity
  8
0
  6
Continuous
 62
     7
100
AcDbCircle
 10
-24142.751255246
 20
-33223.3591249755
 30
0.0
 40
182.5000000000146
100
AcDbArc
 50
180.0
 51
270.0
  0
ARC
  5
74
330
1F
100
AcDbEntity
  8
0
  6
Continuous
 62
     7
100
AcDbCircle
 10
-3976.501255246
 20
-33223.3591249754
 30
0.0
 40
182.5000000000218
100
AcDbArc
 50
270.0
 51
360.0
  0
ARC
  5
75
330
1F
100
AcDbEntity
  8
0
  6
Continuous
 62
     7
100
AcDbCircle
 10
-10893.3111403945
 20
-33451.4841249755
 30
0.0
 40
45.6250000000291
100
AcDbArc
 50
0.0
 51
90.0
  0
ARC
  5
76
330
1F
100
AcDbEntity
  8
0
  6
Continuous
 62
     7
100
AcDbCircle
 10
-9889.5611403945
 20
-33451.4841249755
 30
0.0
 40
45.6250000000291
100
AcDbArc
 50
90.0
 51
180.0
  0
ARC
  5
77
330
1F
100
AcDbEntity
  8
0
  6
Continuous
 62
     7
100
AcDbCircle
 10
-10254.5611403945
 20
-33451.4841249755
 30
0.0
 40
319.3749999999964
100
AcDbArc
 50
270.0
 51
0.0
  0
ARC
  5
78
330
1F
100
AcDbEntity
  8
0
  6
Continuous
 62
     7
100
AcDbCircle
 10
-10528.3111403945
 20
-33451.4841249755
 30
0.0
 40
319.3750000000036
100
AcDbArc
 50
180.0
 51
270.0
  0
ARC
  5
79
330
1F
100
AcDbEntity
  8
0
  6
Continuous
 62
     7
100
AcDbCircle
 10
-21861.501255246
 20
-33451.4841249755
 30
0.0
 40
45.6250000000291
100
AcDbArc
 50
0.0
 51
90.0
  0
ARC
  5
7A
330
1F
100
AcDbEntity
  8
0
  6
Continuous
 62
     7
100
AcDbCircle
 10
-20857.751255246
 20
-33451.4841249755
 30
0.0
 40
45.6250000000291
100
AcDbArc
 50
90.0
 51
180.0
  0
ARC
  5
7B
330
1F
100
AcDbEntity
  8
0
  6
Continuous
 62
     7
100
AcDbCircle
 10
-21222.751255246
 20
-33451.4841249755
 30
0.0
 40
319.3750000000182
100
AcDbArc
 50
270.0
 51
0.0
  0
ARC
  5
7C
330
1F
100
AcDbEntity
  8
0
  6
Continuous
 62
     7
100
AcDbCircle
 10
-21496.501255246
 20
-33451.4841249755
 30
0.0
 40
319.3749999999927
100
AcDbArc
 50
180.0
 51
270.0
  0
ARC
  5
7D
330
1F
100
AcDbEntity
  8
0
  6
Continuous
 62
     7
100
AcDbCircle
 10
-24279.626255246
 20
-3065.2341249754
 30
0.0
 40
228.1250000000036
100
AcDbArc
 50
90.0
 51
180.0
  0
ARC
  5
7E
330
1F
100
AcDbEntity
  8
0
  6
Continuous
 62
     7
100
AcDbCircle
 10
-3839.626255246
 20
-3065.2341249754
 30
0.0
 40
228.1249999999773
100
AcDbArc
 50
0.0
 51
90.0
  0
CIRCLE
  5
7F
330
1F
100
AcDbEntity
  8
0
  6
Continuous
 62
     7
100
AcDbCircle
 10
-21359.626255246
 20
14626.5581134978
 30
0.0
 40
456.25
  0
CIRCLE
  5
80
330
1F
100
AcDbEntity
  8
0
  6
Continuous
 62
     7
100
AcDbCircle
 10
-21359.626255246
 20
14626.5581134978
 30
0.0
 40
365.0000000000073
  0
CIRCLE
  5
81
330
1F
100
AcDbEntity
  8
0
  6
Continuous
 62
     7
100
AcDbCircle
 10
-21359.626255246
 20
14626.5581134978
 30
0.0
 40
410.6249999999745
  0
CIRCLE
  5
82
330
1F
100
AcDbEntity
  8
0
  6
Continuous
 62
     7
100
AcDbCircle
 10
-10391.4361403945
 20
8294.0705981743
 30
0.0
 40
410.6250000000055
  0
CIRCLE
  5
83
330
1F
100
AcDbEntity
  8
0
  6
Continuous
 62
     7
100
AcDbCircle
 10
-10391.4361403945
 20
20959.0456288213
 30
0.0
 40
410.6250000000055
  0
CIRCLE
  5
84
330
1F
100
AcDbEntity
  8
0
  6
Continuous
 62
     7
100
AcDbCircle
 10
-10391.4361403945
 20
20959.0456288213
 30
0.0
 40
365.0000000000146
  0
CIRCLE
  5
85
330
1F
100
AcDbEntity
  8
0
  6
Continuous
 62
     7
100
AcDbCircle
 10
-21359.626255246
 20
14626.5581134978
 30
0.0
 40
365.0000000000073
  0
CIRCLE
  5
86
330
1F
100
AcDbEntity
  8
0
  6
Continuous
 62
     7
100
AcDbCircle
 10
-10391.4361403945
 20
8294.0705981743
 30
0.0
 40
365.0000000000146
  0
CIRCLE
  5
87
330
1F
100
AcDbEntity
  8
0
  6
Continuous
 62
     7
100
AcDbCircle
 10
-10391.4361403945
 20
20959.0456288213
 30
0.0
 40
45.62500000000364
  0
CIRCLE
  5
88
330
1F
100
AcDbEntity
  8
0
  6
Continuous
 62
     7
100
AcDbCircle
 10
-21359.626255246
 20
14626.5581134978
 30
0.0
 40
45.62499999998909
  0
CIRCLE
  5
89
330
1F
100
AcDbEntity
  8
0
  6
Continuous
 62
     7
100
AcDbCircle
 10
-10391.4361403945
 20
8294.0705981743
 30
0.0
 40
45.62500000000364
  0
CIRCLE
  5
8A
330
1F
100
AcDbEntity
  8
0
  6
Continuous
 62
     7
100
AcDbCircle
 10
-14059.626255246
 20
14626.5581134978
 30
0.0
 40
9991.874999999989
  0
CIRCLE
  5
8B
330
1F
100
AcDbEntity
  8
0
  6
Continuous
 62
     7
100
AcDbCircle
 10
-14059.626255246
 20
14626.5581134978
 30
0.0
 40
10220.0
  0
CIRCLE
  5
8C
330
1F
100
AcDbEntity
  8
0
  6
Continuous
 62
     7
100
AcDbCircle
 10
-14059.626255246
 20
14626.5581134978
 30
0.0
 40
10448.12499999996
  0
ARC
  5
8D
330
1F
100
AcDbEntity
  8
0
  6
Continuous
 62
     7
100
AcDbCircle
 10
23203.07769106
 20
-18.6595643482
 30
0.0
 40
3468.075967948758
100
AcDbArc
 50
348.7788401934
 51
359.9595388537
  0
ARC
  5
8E
330
1F
100
AcDbEntity
  8
0
  6
Continuous
 62
     7
100
AcDbCircle
 10
9599.2623997197
 20
-19.3847490623
 30
0.0
 40
3459.360034994957
100
AcDbArc
 50
180.028552188
 51
190.6069860957
  0
ARC
  5
8F
330
1F
100
AcDbEntity
  8
0
  6
Continuous
 62
     7
100
AcDbCircle
 10
9456.3765923145
 20
24604.2511663255
 30
0.0
 40
3498.931955182998
100
AcDbArc
 50
171.2071381476
 51
188.5572845194
  0
ARC
  5
90
330
1F
100
AcDbEntity
  8
0
  6
Continuous
 62
     7
100
AcDbCircle
 10
23354.2928136191
 20
24604.1876727348
 30
0.0
 40
3499.316508273988
100
AcDbArc
 50
350.9778179369
 51
8.5195513241
  0
ARC
  5
91
330
1F
100
AcDbEntity
  8
0
  6
Continuous
 62
     7
100
AcDbCircle
 10
23047.309946827
 20
24604.194587226
 30
0.0
 40
3350.008023358025
100
AcDbArc
 50
350.9996122555
 51
8.1366167563
  0
ARC
  5
92
330
1F
100
AcDbEntity
  8
0
  6
Continuous
 62
     7
100
AcDbCircle
 10
9761.0310249964
 20
24604.2978710526
 30
0.0
 40
3347.32350054251
100
AcDbArc
 50
170.9428111251
 51
188.0257753726
  0
LINE
  5
93
330
1F
100
AcDbEntity
  8
0
  6
Continuous
 62
     7
100
AcDbLine
 10
-3794.001255246
 20
-33223.3591249755
 30
0.0
 11
-3794.001255246
 21
-32493.3591249755
 31
0.0
  0
LINE
  5
94
330
1F
100
AcDbEntity
  8
0
  6
Continuous
 62
     7
100
AcDbLine
 10
-24325.251255246
 20
-32493.3591249755
 30
0.0
 11
-24325.251255246
 21
-33223.3591249755
 31
0.0
  0
LINE
  5
95
330
1F
100
AcDbEntity
  8
0
  6
Continuous
 62
     7
100
AcDbLine
 10
-3885.251255246
 20
-32493.3591249755
 30
0.0
 11
-3885.251255246
 21
-3475.8591249754
 31
0.0
  0
LINE
  5
96
330
1F
100
AcDbEntity
  8
0
  6
Continuous
 62
     7
100
AcDbLine
 10
-24234.001255246
 20
-3475.8591249754
 30
0.0
 11
-24234.001255246
 21
-32493.3591249755
 31
0.0
  0
LINE
  5
97
330
1F
100
AcDbEntity
  8
0
  6
Continuous
 62
     7
100
AcDbLine
 10
-24507.751255246
 20
-3065.2341249754
 30
0.0
 11
-24507.751255246
 21
-3475.8591249754
 31
0.0
  0
LINE
  5
98
330
1F
100
AcDbEntity
  8
0
  6
Continuous
 62
     7
100
AcDbLine
 10
-3611.501255246
 20
-3475.8591249754
 30
0.0
 11
-3611.501255246
 21
-3065.2341249754
 31
0.0
  0
LINE
  5
99
330
1F
100
AcDbEntity
  8
0
  6
Continuous
 62
     7
100
AcDbLine
 10
-3794.001255246
 20
-32493.3591249755
 30
0.0
 11
-24325.251255246
 21
-32493.3591249755
 31
0.0
  0
LINE
  5
9A
330
1F
100
AcDbEntity
  8
0
  6
Continuous
 62
     7
100
AcDbLine
 10
-14059.626255246
 20
-33405.8591249755
 30
0.0
 11
-24142.751255246
 21
-33405.8591249755
 31
0.0
  0
LINE
  5
9B
330
1F
100
AcDbEntity
  8
0
  6
Continuous
 62
     7
100
AcDbLine
 10
-3976.501255246
 20
-33405.8591249755
 30
0.0
 11
-14059.626255246
 21
-33405.8591249755
 31
0.0
  0
LINE
  5
9C
330
1F
100
AcDbEntity
  8
0
  6
Continuous
 62
     7
100
AcDbLine
 10
-10254.5611403945
 20
-33770.8591249754
 30
0.0
 11
-10528.3111403945
 21
-33770.8591249754
 31
0.0
  0
LINE
  5
9D
330
1F
100
AcDbEntity
  8
0
  6
Continuous
 62
     7
100
AcDbLine
 10
-21222.751255246
 20
-33770.8591249754
 30
0.0
 11
-21496.501255246
 21
-33770.8591249754
 31
0.0
  0
LINE
  5
9E
330
1F
100
AcDbEntity
  8
0
  6
Continuous
 62
     7
100
AcDbLine
 10
-14059.626255246
 20
-3475.8591249754
 30
0.0
 11
-3611.501255246
 21
-3475.8591249754
 31
0.0
  0
LINE
  5
9F
330
1F
100
AcDbEntity
  8
0
  6
Continuous
 62
     7
100
AcDbLine
 10
-24507.751255246
 20
-3475.8591249754
 30
0.0
 11
-14059.626255246
 21
-3475.8591249754
 31
0.0
  0
LINE
  5
A0
330
1F
100
AcDbEntity
  8
0
  6
Continuous
 62
     7
100
AcDbLine
 10
-14059.626255246
 20
-2837.1091249754
 30
0.0
 11
-3839.626255246
 21
-2837.1091249754
 31
0.0
  0
LINE
  5
A1
330
1F
100
AcDbEntity
  8
0
  6
Continuous
 62
     7
100
AcDbLine
 10
-24279.626255246
 20
-2837.1091249754
 30
0.0
 11
-14059.626255246
 21
-2837.1091249754
 31
0.0
  0
LINE
  5
A2
330
1F
100
AcDbEntity
  8
0
  6
Continuous
 62
     7
100
AcDbLine
 10
-14059.626255246
 20
-33223.3591249755
 30
0.0
 11
-3794.001255246
 21
-33223.3591249755
 31
0.0
  0
LINE
  5
A3
330
1F
100
AcDbEntity
  8
0
  6
Continuous
 62
     7
100
AcDbLine
 10
-24325.251255246
 20
-33223.3591249755
 30
0.0
 11
-14059.626255246
 21
-33223.3591249755
 31
0.0
  0
LINE
  5
A4
330
1F
100
AcDbEntity
  8
0
  6
Continuous
 62
     7
100
AcDbLine
 10
-10847.6861403945
 20
-33451.4841249755
 30
0.0
 11
-9935.1861403945
 21
-33451.4841249755
 31
0.0
  0
LINE
  5
A5
330
1F
100
AcDbEntity
  8
0
  6
Continuous
 62
     7
100
AcDbLine
 10
-21815.876255246
 20
-33451.4841249755
 30
0.0
 11
-20903.376255246
 21
-33451.4841249755
 31
0.0
  0
LINE
  5
A6
330
1F
100
AcDbEntity
  8
0
  6
Continuous
 62
     7
100
AcDbLine
 10
-14059.626255246
 20
-3065.2341249754
 30
0.0
 11
-24507.751255246
 21
-3065.2341249754
 31
0.0
  0
LINE
  5
A7
330
1F
100
AcDbEntity
  8
0
  6
Continuous
 62
     7
100
AcDbLine
 10
-3611.501255246
 20
-3065.2341249754
 30
0.0
 11
-14059.626255246
 21
-3065.2341249754
 31
0.0
  0
LINE
  5
A8
330
1F
100
AcDbEntity
  8
0
  6
Continuous
 62
     7
100
AcDbLine
 10
26579.9027942605
 20
574.9661418646
 30
0.0
 11
26579.9027942605
 21
22897.2994923636
 31
0.0
  0
LINE
  5
A9
330
1F
100
AcDbEntity
  8
0
  6
Continuous
 62
     7
100
AcDbLine
 10
6231.1527942605
 20
22897.2994923636
 30
0.0
 11
6231.1527942605
 21
574.9661418646
 31
0.0
  0
LINE
  5
AA
330
1F
100
AcDbEntity
  8
0
  6
Continuous
 62
     7
100
AcDbLine
 10
26671.1527942605
 20
-21.1086508042
 30
0.0
 11
26671.1527942605
 21
574.9661418646
 31
0.0
  0
LINE
  5
AB
330
1F
100
AcDbEntity
  8
0
  6
Continuous
 62
     7
100
AcDbLine
 10
6139.9027942605
 20
574.9661418646
 30
0.0
 11
6139.9027942605
 21
-21.1086508042
 31
0.0
  0
LINE
  5
AC
330
1F
100
AcDbEntity
  8
0
  6
Continuous
 62
     7
100
AcDbLine
 10
5957.4027942605
 20
24604.231221644
 30
0.0
 11
5957.4027942605
 21
24268.9391507713
 31
0.0
  0
LINE
  5
AD
330
1F
100
AcDbEntity
  8
0
  6
Continuous
 62
     7
100
AcDbLine
 10
26853.6527942605
 20
24268.9391507713
 30
0.0
 11
26853.6527942605
 21
24604.231221644
 31
0.0
  0
LINE
  5
AE
330
1F
100
AcDbEntity
  8
0
  6
Continuous
 62
     7
100
AcDbLine
 10
6231.1527942605
 20
574.9661418646
 30
0.0
 11
6231.3820309593
 21
535.5384992026
 31
0.0
  0
LINE
  5
AF
330
1F
100
AcDbEntity
  8
0
  6
Continuous
 62
     7
100
AcDbLine
 10
6231.3820309593
 20
535.5384992026
 30
0.0
 11
6249.7153897505
 21
220.3305215566
 31
0.0
  0
LINE
  5
B0
330
1F
100
AcDbEntity
  8
0
  6
Continuous
 62
     7
100
AcDbLine
 10
6249.7153897505
 20
220.3305215566
 30
0.0
 11
6297.330584772
 21
-93.8549498162
 31
0.0
  0
LINE
  5
B1
330
1F
100
AcDbEntity
  8
0
  6
Continuous
 62
     7
100
AcDbLine
 10
6297.330584772
 20
-93.8549498162
 30
0.0
 11
6374.0903290665
 21
-406.1120368187
 31
0.0
  0
LINE
  5
B2
330
1F
100
AcDbEntity
  8
0
  6
Continuous
 62
     7
100
AcDbLine
 10
6374.0903290665
 20
-406.1120368187
 30
0.0
 11
6479.7733044095
 21
-715.5404214719
 31
0.0
  0
LINE
  5
B3
330
1F
100
AcDbEntity
  8
0
  6
Continuous
 62
     7
100
AcDbLine
 10
6479.7733044095
 20
-715.5404214719
 30
0.0
 11
6614.0747994753
 21
-1021.2479416307
 31
0.0
  0
LINE
  5
B4
330
1F
100
AcDbEntity
  8
0
  6
Continuous
 62
     7
100
AcDbLine
 10
6614.0747994753
 20
-1021.2479416307
 30
0.0
 11
6776.6075882275
 21
-1322.3531633574
 31
0.0
  0
LINE
  5
B5
330
1F
100
AcDbEntity
  8
0
  6
Continuous
 62
     7
100
AcDbLine
 10
6776.6075882275
 20
-1322.3531633574
 30
0.0
 11
6966.9030466005
 21
-1617.9879223809
 31
0.0
  0
LINE
  5
B6
330
1F
100
AcDbEntity
  8
0
  6
Continuous
 62
     7
100
AcDbLine
 10
6966.9030466005
 20
-1617.9879223809
 30
0.0
 11
7184.4125035282
 21
-1907.2998271202
 31
0.0
  0
LINE
  5
B7
330
1F
100
AcDbEntity
  8
0
  6
Continuous
 62
     7
100
AcDbLine
 10
7184.4125035282
 20
-1907.2998271202
 30
0.0
 11
7428.5088229092
 21
-2189.4547165032
 31
0.0
  0
LINE
  5
B8
330
1F
100
AcDbEntity
  8
0
  6
Continuous
 62
     7
100
AcDbLine
 10
7428.5088229092
 20
-2189.4547165032
 30
0.0
 11
7698.4882118895
 21
-2463.6390649154
 31
0.0
  0
LINE
  5
B9
330
1F
100
AcDbEntity
  8
0
  6
Continuous
 62
     7
100
AcDbLine
 10
7698.4882118895
 20
-2463.6390649154
 30
0.0
 11
7993.5722499888
 21
-2729.0623279089
 31
0.0
  0
LINE
  5
BA
330
1F
100
AcDbEntity
  8
0
  6
Continuous
 62
     7
100
AcDbLine
 10
7993.5722499888
 20
-2729.0623279089
 30
0.0
 11
8312.910133522
 21
-2984.9592214994
 31
0.0
  0
LINE
  5
BB
330
1F
100
AcDbEntity
  8
0
  6
Continuous
 62
     7
100
AcDbLine
 10
8312.910133522
 20
-2984.9592214994
 30
0.0
 11
8655.5811287462
 21
-3230.5919287192
 31
0.0
  0
LINE
  5
BC
330
1F
100
AcDbEntity
  8
0
  6
Continuous
 62
     7
100
AcDbLine
 10
8655.5811287462
 20
-3230.5919287192
 30
0.0
 11
9020.5972264325
 21
-3465.2522268552
 31
0.0
  0
LINE
  5
BD
330
1F
100
AcDbEntity
  8
0
  6
Continuous
 62
     7
100
AcDbLine
 10
9020.5972264325
 20
-3465.2522268552
 30
0.0
 11
9406.905990709
 21
-3688.2635295329
 31
0.0
  0
LINE
  5
BE
330
1F
100
AcDbEntity
  8
0
  6
Continuous
 62
     7
100
AcDbLine
 10
9406.905990709
 20
-3688.2635295329
 30
0.0
 11
9813.3935933792
 21
-3898.9828374407
 31
0.0
  0
LINE
  5
BF
330
1F
100
AcDbEntity
  8
0
  6
Continuous
 62
     7
100
AcDbLine
 10
9813.3935933792
 20
-3898.9828374407
 30
0.0
 11
10238.8880254657
 21
-4096.8025922739
 31
0.0
  0
LINE
  5
C0
330
1F
100
AcDbEntity
  8
0
  6
Continuous
 62
     7
100
AcDbLine
 10
10238.8880254657
 20
-4096.8025922739
 30
0.0
 11
10682.16247638
 21
-4281.1524284434
 31
0.0
  0
LINE
  5
C1
330
1F
100
AcDbEntity
  8
0
  6
Continuous
 62
     7
100
AcDbLine
 10
10682.16247638
 20
-4281.1524284434
 30
0.0
 11
11141.9388711375
 21
-4451.5008176739
 31
0.0
  0
LINE
  5
C2
330
1F
100
AcDbEntity
  8
0
  6
Continuous
 62
     7
100
AcDbLine
 10
11141.9388711375
 20
-4451.5008176739
 30
0.0
 11
11616.891555343
 21
-4607.3566014384
 31
0.0
  0
LINE
  5
C3
330
1F
100
AcDbEntity
  8
0
  6
Continuous
 62
     7
100
AcDbLine
 10
11616.891555343
 20
-4607.3566014384
 30
0.0
 11
12105.6511174522
 21
-4748.2704071947
 31
0.0
  0
LINE
  5
C4
330
1F
100
AcDbEntity
  8
0
  6
Continuous
 62
     7
100
AcDbLine
 10
12105.6511174522
 20
-4748.2704071947
 30
0.0
 11
12606.8083371595
 21
-4873.8359439344
 31
0.0
  0
LINE
  5
C5
330
1F
100
AcDbEntity
  8
0
  6
Continuous
 62
     7
100
AcDbLine
 10
12606.8083371595
 20
-4873.8359439344
 30
0.0
 11
13118.9182484315
 21
-4983.6911737239
 31
0.0
  0
LINE
  5
C6
330
1F
100
AcDbEntity
  8
0
  6
Continuous
 62
     7
100
AcDbLine
 10
13118.9182484315
 20
-4983.6911737239
 30
0.0
 11
13640.5043058365
 21
-5077.5193554762
 31
0.0
  0
LINE
  5
C7
330
1F
100
AcDbEntity
  8
0
  6
Continuous
 62
     7
100
AcDbLine
 10
13640.5043058365
 20
-5077.5193554762
 30
0.0
 11
14170.06264174
 21
-5155.0499582904
 31
0.0
  0
LINE
  5
C8
330
1F
100
AcDbEntity
  8
0
  6
Continuous
 62
     7
100
AcDbLine
 10
14170.06264174
 20
-5155.0499582904
 30
0.0
 11
14706.066402377
 21
-5216.0594413477
 31
0.0
  0
LINE
  5
C9
330
1F
100
AcDbEntity
  8
0
  6
Continuous
 62
     7
100
AcDbLine
 10
14706.066402377
 20
-5216.0594413477
 30
0.0
 11
15246.9701501535
 21
-5260.3718985007
 31
0.0
  0
LINE
  5
CA
330
1F
100
AcDbEntity
  8
0
  6
Continuous
 62
     7
100
AcDbLine
 10
15246.9701501535
 20
-5260.3718985007
 30
0.0
 11
15791.2143195483
 21
-5287.8595654962
 31
0.0
  0
LINE
  5
CB
330
1F
100
AcDbEntity
  8
0
  6
Continuous
 62
     7
100
AcDbLine
 10
15791.2143195483
 20
-5287.8595654962
 30
0.0
 11
16337.2297136937
 21
-5298.4431882417
 31
0.0
  0
LINE
  5
CC
330
1F
100
AcDbEntity
  8
0
  6
Continuous
 62
     7
100
AcDbLine
 10
16337.2297136937
 20
-5298.4431882417
 30
0.0
 11
16883.4420289163
 21
-5292.0922514414
 31
0.0
  0
LINE
  5
CD
330
1F
100
AcDbEntity
  8
0
  6
Continuous
 62
     7
100
AcDbLine
 10
16883.4420289163
 20
-5292.0922514414
 30
0.0
 11
17428.2763936568
 21
-5268.8250664702
 31
0.0
  0
LINE
  5
CE
330
1F
100
AcDbEntity
  8
0
  6
Continuous
 62
     7
100
AcDbLine
 10
17428.2763936568
 20
-5268.8250664702
 30
0.0
 11
17970.161909436
 21
-5228.7087186672
 31
0.0
  0
LINE
  5
CF
330
1F
100
AcDbEntity
  8
0
  6
Continuous
 62
     7
100
AcDbLine
 10
17970.161909436
 20
-5228.7087186672
 30
0.0
 11
18507.5361800117
 21
-5171.8588738132
 31
0.0
  0
LINE
  5
D0
330
1F
100
AcDbEntity
  8
0
  6
Continuous
 62
     7
100
AcDbLine
 10
18507.5361800117
 20
-5171.8588738132
 30
0.0
 11
19038.8498162635
 21
-5098.4394447577
 31
0.0
  0
LINE
  5
D1
330
1F
100
AcDbEntity
  8
0
  6
Continuous
 62
     7
100
AcDbLine
 10
19038.8498162635
 20
-5098.4394447577
 30
0.0
 11
19562.5709034458
 21
-5008.6621187257
 31
0.0
  0
LINE
  5
D2
330
1F
100
AcDbEntity
  8
0
  6
Continuous
 62
     7
100
AcDbLine
 10
19562.5709034458
 20
-5008.6621187257
 30
0.0
 11
20077.1894180713
 21
-4902.7857469647
 31
0.0
  0
LINE
  5
D3
330
1F
100
AcDbEntity
  8
0
  6
Continuous
 62
     7
100
AcDbLine
 10
20077.1894180713
 20
-4902.7857469647
 30
0.0
 11
20581.2215817405
 21
-4781.1155984657
 31
0.0
  0
LINE
  5
D4
330
1F
100
AcDbEntity
  8
0
  6
Continuous
 62
     7
100
AcDbLine
 10
20581.2215817405
 20
-4781.1155984657
 30
0.0
 11
21073.214139252
 21
-4644.0024797657
 31
0.0
  0
LINE
  5
D5
330
1F
100
AcDbEntity
  8
0
  6
Continuous
 62
     7
100
AcDbLine
 10
21073.214139252
 20
-4644.0024797657
 30
0.0
 11
21551.7485486927
 21
-4491.8417235144
 31
0.0
  0
LINE
  5
D6
330
1F
100
AcDbEntity
  8
0
  6
Continuous
 62
     7
100
AcDbLine
 10
21551.7485486927
 20
-4491.8417235144
 30
0.0
 11
22015.4450715005
 21
-4325.0720485064
 31
0.0
  0
LINE
  5
D7
330
1F
100
AcDbEntity
  8
0
  6
Continuous
 62
     7
100
AcDbLine
 10
22015.4450715005
 20
-4325.0720485064
 30
0.0
 11
22462.9667505258
 21
-4144.1742949194
 31
0.0
  0
LINE
  5
D8
330
1F
100
AcDbEntity
  8
0
  6
Continuous
 62
     7
100
AcDbLine
 10
22462.9667505258
 20
-4144.1742949194
 30
0.0
 11
22893.023264961
 21
-3949.6700378072
 31
0.0
  0
LINE
  5
D9
330
1F
100
AcDbEntity
  8
0
  6
Continuous
 62
     7
100
AcDbLine
 10
22893.023264961
 20
-3949.6700378072
 30
0.0
 11
23304.3746505302
 21
-3742.1200832994
 31
0.0
  0
LINE
  5
DA
330
1F
100
AcDbEntity
  8
0
  6
Continuous
 62
     7
100
AcDbLine
 10
23304.3746505302
 20
-3742.1200832994
 30
0.0
 11
23695.8348746822
 21
-3522.1228516154
 31
0.0
  0
LINE
  5
DB
330
1F
100
AcDbEntity
  8
0
  6
Continuous
 62
     7
100
AcDbLine
 10
23695.8348746822
 20
-3522.1228516154
 30
0.0
 11
24066.2752562755
 21
-3290.3126517454
 31
0.0
  0
LINE
  5
DC
330
1F
100
AcDbEntity
  8
0
  6
Continuous
 62
     7
100
AcDbLine
 10
24066.2752562755
 20
-3290.3126517454
 30
0.0
 11
24414.6277197723
 21
-3047.3578525087
 31
0.0
  0
LINE
  5
DD
330
1F
100
AcDbEntity
  8
0
  6
Continuous
 62
     7
100
AcDbLine
 10
24414.6277197723
 20
-3047.3578525087
 30
0.0
 11
24739.8878748713
 21
-2793.9589554812
 31
0.0
  0
LINE
  5
DE
330
1F
100
AcDbEntity
  8
0
  6
Continuous
 62
     7
100
AcDbLine
 10
24739.8878748713
 20
-2793.9589554812
 30
0.0
 11
25041.1179123082
 21
-2530.8465752682
 31
0.0
  0
LINE
  5
DF
330
1F
100
AcDbEntity
  8
0
  6
Continuous
 62
     7
100
AcDbLine
 10
25041.1179123082
 20
-2530.8465752682
 30
0.0
 11
25317.4493079402
 21
-2258.7793329797
 31
0.0
  0
LINE
  5
E0
330
1F
100
AcDbEntity
  8
0
  6
Continuous
 62
     7
100
AcDbLine
 10
25317.4493079402
 20
-2258.7793329797
 30
0.0
 11
25568.0853268098
 21
-1978.5416689314
 31
0.0
  0
LINE
  5
E1
330
1F
100
AcDbEntity
  8
0
  6
Continuous
 62
     7
100
AcDbLine
 10
25568.0853268098
 20
-1978.5416689314
 30
0.0
 11
25792.3033203635
 21
-1690.941580813
 31
0.0
  0
LINE
  5
E2
330
1F
100
AcDbEntity
  8
0
  6
Continuous
 62
     7
100
AcDbLine
 10
25792.3033203635
 20
-1690.941580813
 30
0.0
 11
25989.456810128
 21
-1396.8082941662
 31
0.0
  0
LINE
  5
E3
330
1F
100
AcDbEntity
  8
0
  6
Continuous
 62
     7
100
AcDbLine
 10
25989.456810128
 20
-1396.8082941662
 30
0.0
 11
26158.977351509
 21
-1096.9898713802
 31
0.0
  0
LINE
  5
E4
330
1F
100
AcDbEntity
  8
0
  6
Continuous
 62
     7
100
AcDbLine
 10
26158.977351509
 20
-1096.9898713802
 30
0.0
 11
26300.3761729518
 21
-792.3507665742
 31
0.0
  0
LINE
  5
E5
330
1F
100
AcDbEntity
  8
0
  6
Continuous
 62
     7
100
AcDbLine
 10
26300.3761729518
 20
-792.3507665742
 30
0.0
 11
26413.2455850052
 21
-483.7693331769
 31
0.0
  0
LINE
  5
E6
330
1F
100
AcDbEntity
  8
0
  6
Continuous
 62
     7
100
AcDbLine
 10
26413.2455850052
 20
-483.7693331769
 30
0.0
 11
26497.2601559507
 21
-172.1352913195
 31
0.0
  0
LINE
  5
E7
330
1F
100
AcDbEntity
  8
0
  6
Continuous
 62
     7
100
AcDbLine
 10
26497.2601559507
 20
-172.1352913195
 30
0.0
 11
26552.1776500342
 21
141.6528373668
 31
0.0
  0
LINE
  5
E8
330
1F
100
AcDbEntity
  8
0
  6
Continuous
 62
     7
100
AcDbLine
 10
26552.1776500342
 20
141.6528373668
 30
0.0
 11
26577.8397259122
 21
456.6903205016
 31
0.0
  0
LINE
  5
E9
330
1F
100
AcDbEntity
  8
0
  6
Continuous
 62
     7
100
AcDbLine
 10
26577.8397259122
 20
456.6903205016
 30
0.0
 11
26579.9027942605
 21
574.9661418646
 31
0.0
  0
LINE
  5
EA
330
1F
100
AcDbEntity
  8
0
  6
Continuous
 62
     7
100
AcDbLine
 10
26579.9027942605
 20
1363.3708256358
 30
0.0
 11
26632.0889918475
 21
1091.4701752603
 31
0.0
  0
LINE
  5
EB
330
1F
100
AcDbEntity
  8
0
  6
Continuous
 62
     7
100
AcDbLine
 10
26632.0889918475
 20
1091.4701752603
 30
0.0
 11
26665.3709994234
 21
773.8365604763
 31
0.0
  0
LINE
  5
EC
330
1F
100
AcDbEntity
  8
0
  6
Continuous
 62
     7
100
AcDbLine
 10
26665.3709994234
 20
773.8365604763
 30
0.0
 11
26669.0712230585
 21
455.6295507855
 31
0.0
  0
LINE
  5
ED
330
1F
100
AcDbEntity
  8
0
  6
Continuous
 62
     7
100
AcDbLine
 10
26669.0712230585
 20
455.6295507855
 30
0.0
 11
26643.1789940398
 21
137.766619386
 31
0.0
  0
LINE
  5
EE
330
1F
100
AcDbEntity
  8
0
  6
Continuous
 62
     7
100
AcDbLine
 10
26643.1789940398
 20
137.766619386
 30
0.0
 11
26587.7689663647
 21
-178.8357525942
 31
0.0
  0
LINE
  5
EF
330
1F
100
AcDbEntity
  8
0
  6
Continuous
 62
     7
100
AcDbLine
 10
26587.7689663647
 20
-178.8357525942
 30
0.0
 11
26503.0009015007
 21
-493.2647186059
 31
0.0
  0
LINE
  5
F0
330
1F
100
AcDbEntity
  8
0
  6
Continuous
 62
     7
100
AcDbLine
 10
26503.0009015007
 20
-493.2647186059
 30
0.0
 11
26389.1192077364
 21
-804.6136984929
 31
0.0
  0
LINE
  5
F1
330
1F
100
AcDbEntity
  8
0
  6
Continuous
 62
     7
100
AcDbLine
 10
26389.1192077364
 20
-804.6136984929
 30
0.0
 11
26246.4522354403
 21
-1111.9849925672
 31
0.0
  0
LINE
  5
F2
330
1F
100
AcDbEntity
  8
0
  6
Continuous
 62
     7
100
AcDbLine
 10
26246.4522354403
 20
-1111.9849925672
 30
0.0
 11
26075.4113304505
 21
-1414.4923698239
 31
0.0
  0
LINE
  5
F3
330
1F
100
AcDbEntity
  8
0
  6
Continuous
 62
     7
100
AcDbLine
 10
26075.4113304505
 20
-1414.4923698239
 30
0.0
 11
25876.4896479537
 21
-1711.2636231789
 31
0.0
  0
LINE
  5
F4
330
1F
100
AcDbEntity
  8
0
  6
Continuous
 62
     7
100
AcDbLine
 10
25876.4896479537
 20
-1711.2636231789
 30
0.0
 11
25650.2607306817
 21
-2001.4430842637
 31
0.0
  0
LINE
  5
F5
330
1F
100
AcDbEntity
  8
0
  6
Continuous
 62
     7
100
AcDbLine
 10
25650.2607306817
 20
-2001.4430842637
 30
0.0
 11
25397.3768551512
 21
-2284.1940906064
 31
0.0
  0
LINE
  5
F6
330
1F
100
AcDbEntity
  8
0
  6
Continuous
 62
     7
100
AcDbLine
 10
25397.3768551512
 20
-2284.1940906064
 30
0.0
 11
25118.5671510379
 21
-2558.7013978442
 31
0.0
  0
LINE
  5
F7
330
1F
100
AcDbEntity
  8
0
  6
Continuous
 62
     7
100
AcDbLine
 10
25118.5671510379
 20
-2558.7013978442
 30
0.0
 11
24814.6354989045
 21
-2824.1735303409
 31
0.0
  0
LINE
  5
F8
330
1F
100
AcDbEntity
  8
0
  6
Continuous
 62
     7
100
AcDbLine
 10
24814.6354989045
 20
-2824.1735303409
 30
0.0
 11
24486.458212377
 21
-3079.8450632224
 31
0.0
  0
LINE
  5
F9
330
1F
100
AcDbEntity
  8
0
  6
Continuous
 62
     7
100
AcDbLine
 10
24486.458212377
 20
-3079.8450632224
 30
0.0
 11
24134.9815115425
 21
-3324.9788292757
 31
0.0
  0
LINE
  5
FA
330
1F
100
AcDbEntity
  8
0
  6
Continuous
 62
     7
100
AcDbLine
 10
24134.9815115425
 20
-3324.9788292757
 30
0.0
 11
23761.2187946832
 21
-3558.8680443804
 31
0.0
  0
LINE
  5
FB
330
1F
100
AcDbEntity
  8
0
  6
Continuous
 62
     7
100
AcDbLine
 10
23761.2187946832
 20
-3558.8680443804
 30
0.0
 11
23366.2477165065
 21
-3780.8383453954
 31
0.0
  0
LINE
  5
FC
330
1F
100
AcDbEntity
  8
0
  6
Continuous
 62
     7
100
AcDbLine
 10
23366.2477165065
 20
-3780.8383453954
 30
0.0
 11
22951.2070808447
 21
-3990.2497344952
 31
0.0
  0
LINE
  5
FD
330
1F
100
AcDbEntity
  8
0
  6
Continuous
 62
     7
100
AcDbLine
 10
22951.2070808447
 20
-3990.2497344952
 30
0.0
 11
22517.2935573165
 21
-4186.4984244092
 31
0.0
  0
LINE
  5
FE
330
1F
100
AcDbEntity
  8
0
  6
Continuous
 62
     7
100
AcDbLine
 10
22517.2935573165
 20
-4186.4984244092
 30
0.0
 11
22065.7582309265
 21
-4369.0185793624
 31
0.0
  0
LINE
  5
FF
330
1F
100
AcDbEntity
  8
0
  6
Continuous
 62
     7
100
AcDbLine
 10
22065.7582309265
 20
-4369.0185793624
 30
0.0
 11
21597.9029949167
 21
-4537.2839465159
 31
0.0
  0
LINE
  5
100
330
1F
100
AcDbEntity
  8
0
  6
Continuous
 62
     7
100
AcDbLine
 10
21597.9029949167
 20
-4537.2839465159
 30
0.0
 11
21115.0767970517
 21
-4690.8093732352
 31
0.0
  0
LINE
  5
101
330
1F
100
AcDbEntity
  8
0
  6
Continuous
 62
     7
100
AcDbLine
 10
21115.0767970517
 20
-4690.8093732352
 30
0.0
 11
20618.6717502332
 21
-4829.1522060074
 31
0.0
  0
LINE
  5
102
330
1F
100
AcDbEntity
  8
0
  6
Continuous
 62
     7
100
AcDbLine
 10
20618.6717502332
 20
-4829.1522060074
 30
0.0
 11
20110.119118723
 21
-4951.9135665912
 31
0.0
  0
LINE
  5
103
330
1F
100
AcDbEntity
  8
0
  6
Continuous
 62
     7
100
AcDbLine
 10
20110.119118723
 20
-4951.9135665912
 30
0.0
 11
19590.8851914163
 21
-5058.7395022224
 31
0.0
  0
LINE
  5
104
330
1F
100
AcDbEntity
  8
0
  6
Continuous
 62
     7
100
AcDbLine
 10
19590.8851914163
 20
-5058.7395022224
 30
0.0
 11
19062.467054138
 21
-5149.3220060817
 31
0.0
  0
LINE
  5
105
330
1F
100
AcDbEntity
  8
0
  6
Continuous
 62
     7
100
AcDbLine
 10
19062.467054138
 20
-5149.3220060817
 30
0.0
 11
18526.388273153
 21
-5223.3999053572
 31
0.0
  0
LINE
  5
106
330
1F
100
AcDbEntity
  8
0
  6
Continuous
 62
     7
100
AcDbLine
 10
18526.388273153
 20
-5223.3999053572
 30
0.0
 11
17984.1945023907
 21
-5280.7596142764
 31
0.0
  0
LINE
  5
107
330
1F
100
AcDbEntity
  8
0
  6
Continuous
 62
     7
100
AcDbLine
 10
17984.1945023907
 20
-5280.7596142764
 30
0.0
 11
17437.449026832
 21
-5321.2357499524
 31
0.0
  0
LINE
  5
108
330
1F
100
AcDbEntity
  8
0
  6
Continuous
 62
     7
100
AcDbLine
 10
17437.449026832
 20
-5321.2357499524
 30
0.0
 11
16887.7282552332
 21
-5344.7116092379
 31
0.0
  0
LINE
  5
109
330
1F
100
AcDbEntity
  8
0
  6
Continuous
 62
     7
100
AcDbLine
 10
16887.7282552332
 20
-5344.7116092379
 30
0.0
 11
16336.6171748548
 21
-5351.1195051094
 31
0.0
  0
LINE
  5
10A
330
1F
100
AcDbEntity
  8
0
  6
Continuous
 62
     7
100
AcDbLine
 10
16336.6171748548
 20
-5351.1195051094
 30
0.0
 11
15785.7047816605
 21
-5340.4409619787
 31
0.0
  0
LINE
  5
10B
330
1F
100
AcDbEntity
  8
0
  6
Continuous
 62
     7
100
AcDbLine
 10
15785.7047816605
 20
-5340.4409619787
 30
0.0
 11
15236.5794986375
 21
-5312.7067688184
 31
0.0
  0
LINE
  5
10C
330
1F
100
AcDbEntity
  8
0
  6
Continuous
 62
     7
100
AcDbLine
 10
15236.5794986375
 20
-5312.7067688184
 30
0.0
 11
14690.8245961772
 21
-5267.9968905222
 31
0.0
  0
LINE
  5
10D
330
1F
100
AcDbEntity
  8
0
  6
Continuous
 62
     7
100
AcDbLine
 10
14690.8245961772
 20
-5267.9968905222
 30
0.0
 11
14150.0136269295
 21
-5206.4402372242
 31
0.0
  0
LINE
  5
10E
330
1F
100
AcDbEntity
  8
0
  6
Continuous
 62
     7
100
AcDbLine
 10
14150.0136269295
 20
-5206.4402372242
 30
0.0
 11
13615.7058888887
 21
-5128.2142926747
 31
0.0
  0
LINE
  5
10F
330
1F
100
AcDbEntity
  8
0
  6
Continuous
 62
     7
100
AcDbLine
 10
13615.7058888887
 20
-5128.2142926747
 30
0.0
 11
13089.4419296345
 21
-5033.5446025647
 31
0.0
  0
LINE
  5
110
330
1F
100
AcDbEntity
  8
0
  6
Continuous
 62
     7
100
AcDbLine
 10
13089.4419296345
 20
-5033.5446025647
 30
0.0
 11
12572.7391043542
 21
-4922.7041240777
 31
0.0
  0
LINE
  5
111
330
1F
100
AcDbEntity
  8
0
  6
Continuous
 62
     7
100
AcDbLine
 10
12572.7391043542
 20
-4922.7041240777
 30
0.0
 11
12067.0872010812
 21
-4796.0124390227
 31
0.0
  0
LINE
  5
112
330
1F
100
AcDbEntity
  8
0
  6
Continuous
 62
     7
100
AcDbLine
 10
12067.0872010812
 20
-4796.0124390227
 30
0.0
 11
11573.944145119
 21
-4653.8348323369
 31
0.0
  0
LINE
  5
113
330
1F
100
AcDbEntity
  8
0
  6
Continuous
 62
     7
100
AcDbLine
 10
11573.944145119
 20
-4653.8348323369
 30
0.0
 11
11094.7317955917
 21
-4496.5812388419
 31
0.0
  0
LINE
  5
114
330
1F
100
AcDbEntity
  8
0
  6
Continuous
 62
     7
100
AcDbLine
 10
11094.7317955917
 20
-4496.5812388419
 30
0.0
 11
10630.831845728
 21
-4324.7050613734
 31
0.0
  0
LINE
  5
115
330
1F
100
AcDbEntity
  8
0
  6
Continuous
 62
     7
100
AcDbLine
 10
10630.831845728
 20
-4324.7050613734
 30
0.0
 11
10183.581839214
 21
-4138.7018634244
 31
0.0
  0
LINE
  5
116
330
1F
100
AcDbEntity
  8
0
  6
Continuous
 62
     7
100
AcDbLine
 10
10183.581839214
 20
-4138.7018634244
 30
0.0
 11
9754.271313549
 21
-3939.1079404074
 31
0.0
  0
LINE
  5
117
330
1F
100
AcDbEntity
  8
0
  6
Continuous
 62
     7
100
AcDbLine
 10
9754.271313549
 20
-3939.1079404074
 30
0.0
 11
9344.1380821552
 21
-3726.4987732224
 31
0.0
  0
LINE
  5
118
330
1F
100
AcDbEntity
  8
0
  6
Continuous
 62
     7
100
AcDbLine
 10
9344.1380821552
 20
-3726.4987732224
 30
0.0
 11
8954.3646652802
 21
-3501.4873691677
 31
0.0
  0
LINE
  5
119
330
1F
100
AcDbEntity
  8
0
  6
Continuous
 62
     7
100
AcDbLine
 10
8954.3646652802
 20
-3501.4873691677
 30
0.0
 11
8586.074880623
 21
-3264.7224943724
 31
0.0
  0
LINE
  5
11A
330
1F
100
AcDbEntity
  8
0
  6
Continuous
 62
     7
100
AcDbLine
 10
8586.074880623
 20
-3264.7224943724
 30
0.0
 11
8240.330602937
 21
-3016.8868032449
 31
0.0
  0
LINE
  5
11B
330
1F
100
AcDbEntity
  8
0
  6
Continuous
 62
     7
100
AcDbLine
 10
8240.330602937
 20
-3016.8868032449
 30
0.0
 11
7918.1287025015
 21
-2758.6948702464
 31
0.0
  0
LINE
  5
11C
330
1F
100
AcDbEntity
  8
0
  6
Continuous
 62
     7
100
AcDbLine
 10
7918.1287025015
 20
-2758.6948702464
 30
0.0
 11
7620.398170783
 21
-2490.8911295574
 31
0.0
  0
LINE
  5
11D
330
1F
100
AcDbEntity
  8
0
  6
Continuous
 62
     7
100
AcDbLine
 10
7620.398170783
 20
-2490.8911295574
 30
0.0
 11
7347.9974419922
 21
-2214.2477286952
 31
0.0
  0
LINE
  5
11E
330
1F
100
AcDbEntity
  8
0
  6
Continuous
 62
     7
100
AcDbLine
 10
7347.9974419922
 20
-2214.2477286952
 30
0.0
 11
7101.7119179645
 21
-1929.5623021779
 31
0.0
  0
LINE
  5
11F
330
1F
100
AcDbEntity
  8
0
  6
Continuous
 62
     7
100
AcDbLine
 10
7101.7119179645
 20
-1929.5623021779
 30
0.0
 11
6882.2517035717
 21
-1637.6556718242
 31
0.0
  0
LINE
  5
120
330
1F
100
AcDbEntity
  8
0
  6
Continuous
 62
     7
100
AcDbLine
 10
6882.2517035717
 20
-1637.6556718242
 30
0.0
 11
6690.2495594742
 21
-1339.3694800014
 31
0.0
  0
LINE
  5
121
330
1F
100
AcDbEntity
  8
0
  6
Continuous
 62
     7
100
AcDbLine
 10
6690.2495594742
 20
-1339.3694800014
 30
0.0
 11
6526.2590775402
 21
-1035.5637629967
 31
0.0
  0
LINE
  5
122
330
1F
100
AcDbEntity
  8
0
  6
Continuous
 62
     7
100
AcDbLine
 10
6526.2590775402
 20
-1035.5637629967
 30
0.0
 11
6390.753084774
 21
-727.1144713707
 31
0.0
  0
LINE
  5
123
330
1F
100
AcDbEntity
  8
0
  6
Continuous
 62
     7
100
AcDbLine
 10
6390.753084774
 20
-727.1144713707
 30
0.0
 11
6284.1222800408
 21
-414.9109442492
 31
0.0
  0
LINE
  5
124
330
1F
100
AcDbEntity
  8
0
  6
Continuous
 62
     7
100
AcDbLine
 10
6284.1222800408
 20
-414.9109442492
 30
0.0
 11
6206.674107549
 21
-99.8533452527
 31
0.0
  0
LINE
  5
125
330
1F
100
AcDbEntity
  8
0
  6
Continuous
 62
     7
100
AcDbLine
 10
6206.674107549
 20
-99.8533452527
 30
0.0
 11
6158.6318704298
 21
217.1499330368
 31
0.0
  0
LINE
  5
126
330
1F
100
AcDbEntity
  8
0
  6
Continuous
 62
     7
100
AcDbLine
 10
6158.6318704298
 20
217.1499330368
 30
0.0
 11
6140.1340868947
 21
535.1848880603
 31
0.0
  0
LINE
  5
127
330
1F
100
AcDbEntity
  8
0
  6
Continuous
 62
     7
100
AcDbLine
 10
6140.1340868947
 20
535.1848880603
 30
0.0
 11
6151.2340908352
 21
853.3345427461
 31
0.0
  0
LINE
  5
128
330
1F
100
AcDbEntity
  8
0
  6
Continuous
 62
     7
100
AcDbLine
 10
6151.2340908352
 20
853.3345427461
 30
0.0
 11
6191.8998780657
 21
1170.6815892775
 31
0.0
  0
LINE
  5
129
330
1F
100
AcDbEntity
  8
0
  6
Continuous
 62
     7
100
AcDbLine
 10
6191.8998780657
 20
1170.6815892775
 30
0.0
 11
6231.1527942605
 21
1363.3708256358
 31
0.0
  0
LINE
  5
12A
330
1F
100
AcDbEntity
  8
0
  6
Continuous
 62
     7
100
AcDbLine
 10
9178.8964905243
 20
20618.6591429376
 30
0.0
 11
9577.215827435
 21
20400.7427946678
 31
0.0
  0
LINE
  5
12B
330
1F
100
AcDbEntity
  8
0
  6
Continuous
 62
     7
100
AcDbLine
 10
9577.215827435
 20
20400.7427946678
 30
0.0
 11
9995.2229553915
 21
20195.4832660593
 31
0.0
  0
LINE
  5
12C
330
1F
100
AcDbEntity
  8
0
  6
Continuous
 62
     7
100
AcDbLine
 10
9995.2229553915
 20
20195.4832660593
 30
0.0
 11
10431.712651639
 21
20003.4723734593
 31
0.0
  0
LINE
  5
12D
330
1F
100
AcDbEntity
  8
0
  6
Continuous
 62
     7
100
AcDbLine
 10
10431.712651639
 20
20003.4723734593
 30
0.0
 11
10885.4264034045
 21
19825.2637339758
 31
0.0
  0
LINE
  5
12E
330
1F
100
AcDbEntity
  8
0
  6
Continuous
 62
     7
100
AcDbLine
 10
10885.4264034045
 20
19825.2637339758
 30
0.0
 11
11355.0560364712
 21
19661.3711692413
 31
0.0
  0
LINE
  5
12F
330
1F
100
AcDbEntity
  8
0
  6
Continuous
 62
     7
100
AcDbLine
 10
11355.0560364712
 20
19661.3711692413
 30
0.0
 11
11839.2474870522
 21
19512.2672239691
 31
0.0
  0
LINE
  5
130
330
1F
100
AcDbEntity
  8
0
  6
Continuous
 62
     7
100
AcDbLine
 10
11839.2474870522
 20
19512.2672239691
 30
0.0
 11
12336.6047058303
 21
19378.3818034263
 31
0.0
  0
LINE
  5
131
330
1F
100
AcDbEntity
  8
0
  6
Continuous
 62
     7
100
AcDbLine
 10
12336.6047058303
 20
19378.3818034263
 30
0.0
 11
12845.693683196
 21
19260.1009339308
 31
0.0
  0
LINE
  5
132
330
1F
100
AcDbEntity
  8
0
  6
Continuous
 62
     7
100
AcDbLine
 10
12845.693683196
 20
19260.1009339308
 30
0.0
 11
13365.0465838587
 21
19157.7656498563
 31
0.0
  0
LINE
  5
133
330
1F
100
AcDbEntity
  8
0
  6
Continuous
 62
     7
100
AcDbLine
 10
13365.0465838587
 20
19157.7656498563
 30
0.0
 11
13893.16597893
 21
19071.6710103043
 31
0.0
  0
LINE
  5
134
330
1F
100
AcDbEntity
  8
0
  6
Continuous
 62
     7
100
AcDbLine
 10
13893.16597893
 20
19071.6710103043
 30
0.0
 11
14428.5291635085
 21
19002.065248435
 31
0.0
  0
LINE
  5
135
330
1F
100
AcDbEntity
  8
0
  6
Continuous
 62
     7
100
AcDbLine
 10
14428.5291635085
 20
19002.065248435
 30
0.0
 11
14969.5925469185
 21
18949.1490556479
 31
0.0
  0
LINE
  5
136
330
1F
100
AcDbEntity
  8
0
  6
Continuous
 62
     7
100
AcDbLine
 10
14969.5925469185
 20
18949.1490556479
 30
0.0
 11
15514.7961033737
 21
18913.0750030558
 31
0.0
  0
LINE
  5
137
330
1F
100
AcDbEntity
  8
0
  6
Continuous
 62
     7
100
AcDbLine
 10
15514.7961033737
 20
18913.0750030558
 30
0.0
 11
16062.5678698725
 21
18893.9471014606
 31
0.0
  0
LINE
  5
138
330
1F
100
AcDbEntity
  8
0
  6
Continuous
 62
     7
100
AcDbLine
 10
16062.5678698725
 20
18893.9471014606
 30
0.0
 11
16611.3284786215
 21
18891.8205015773
 31
0.0
  0
LINE
  5
139
330
1F
100
AcDbEntity
  8
0
  6
Continuous
 62
     7
100
AcDbLine
 10
16611.3284786215
 20
18891.8205015773
 30
0.0
 11
17159.4957107212
 21
18906.7013349498
 31
0.0
  0
LINE
  5
13A
330
1F
100
AcDbEntity
  8
0
  6
Continuous
 62
     7
100
AcDbLine
 10
17159.4957107212
 20
18906.7013349498
 30
0.0
 11
17705.4890581367
 21
18938.5466962478
 31
0.0
  0
LINE
  5
13B
330
1F
100
AcDbEntity
  8
0
  6
Continuous
 62
     7
100
AcDbLine
 10
17705.4890581367
 20
18938.5466962478
 30
0.0
 11
18247.7342807043
 21
18987.2647670751
 31
0.0
  0
LINE
  5
13C
330
1F
100
AcDbEntity
  8
0
  6
Continuous
 62
     7
100
AcDbLine
 10
18247.7342807043
 20
18987.2647670751
 30
0.0
 11
18784.6679450888
 21
19052.7150806308
 31
0.0
  0
LINE
  5
13D
330
1F
100
AcDbEntity
  8
0
  6
Continuous
 62
     7
100
AcDbLine
 10
18784.6679450888
 20
19052.7150806308
 30
0.0
 11
19314.7419325158
 21
19134.7089266956
 31
0.0
  0
LINE
  5
13E
330
1F
100
AcDbEntity
  8
0
  6
Continuous
 62
     7
100
AcDbLine
 10
19314.7419325158
 20
19134.7089266956
 30
0.0
 11
19836.4279024657
 21
19233.0098958096
 31
0.0
  0
LINE
  5
13F
330
1F
100
AcDbEntity
  8
0
  6
Continuous
 62
     7
100
AcDbLine
 10
19836.4279024657
 20
19233.0098958096
 30
0.0
 11
20348.2216992462
 21
19347.3345608008
 31
0.0
  0
LINE
  5
140
330
1F
100
AcDbEntity
  8
0
  6
Continuous
 62
     7
100
AcDbLine
 10
20348.2216992462
 20
19347.3345608008
 30
0.0
 11
20848.6476888487
 21
19477.3532940931
 31
0.0
  0
LINE
  5
141
330
1F
100
AcDbEntity
  8
0
  6
Continuous
 62
     7
100
AcDbLine
 10
20848.6476888487
 20
19477.3532940931
 30
0.0
 11
21336.2630135895
 21
19622.6912180015
 31
0.0
  0
LINE
  5
142
330
1F
100
AcDbEntity
  8
0
  6
Continuous
 62
     7
100
AcDbLine
 10
21336.2630135895
 20
19622.6912180015
 30
0.0
 11
21809.66175227
 21
19782.9292856806
 31
0.0
  0
LINE
  5
143
330
1F
100
AcDbEntity
  8
0
  6
Continuous
 62
     7
100
AcDbLine
 10
21809.66175227
 20
19782.9292856806
 30
0.0
 11
22267.4789737575
 21
19957.6054892915
 31
0.0
  0
LINE
  5
144
330
1F
100
AcDbEntity
  8
0
  6
Continuous
 62
     7
100
AcDbLine
 10
22267.4789737575
 20
19957.6054892915
 30
0.0
 11
22708.3946725245
 21
20146.2161921256
 31
0.0
  0
LINE
  5
145
330
1F
100
AcDbEntity
  8
0
  6
Continuous
 62
     7
100
AcDbLine
 10
22708.3946725245
 20
20146.2161921256
 30
0.0
 11
23131.1375744307
 21
20348.2175806825
 31
0.0
  0
LINE
  5
146
330
1F
100
AcDbEntity
  8
0
  6
Continuous
 62
     7
100
AcDbLine
 10
23131.1375744307
 20
20348.2175806825
 30
0.0
 11
23534.4888022723
 21
20563.0272327116
 31
0.0
  0
LINE
  5
147
330
1F
100
AcDbEntity
  8
0
  6
Continuous
 62
     7
100
AcDbLine
 10
23534.4888022723
 20
20563.0272327116
 30
0.0
 11
23917.285390056
 21
20790.02579632
 31
0.0
  0
LINE
  5
148
330
1F
100
AcDbEntity
  8
0
  6
Continuous
 62
     7
100
AcDbLine
 10
23917.285390056
 20
20790.02579632
 30
0.0
 11
24278.4236360907
 21
21028.5587759373
 31
0.0
  0
LINE
  5
149
330
1F
100
AcDbEntity
  8
0
  6
Continuous
 62
     7
100
AcDbLine
 10
24278.4236360907
 20
21028.5587759373
 30
0.0
 11
24616.862285349
 21
21277.9384192001
 31
0.0
  0
LINE
  5
14A
330
1F
100
AcDbEntity
  8
0
  6
Continuous
 62
     7
100
AcDbLine
 10
24616.862285349
 20
21277.9384192001
 30
0.0
 11
24931.625531592
 21
21537.4457000341
 31
0.0
  0
LINE
  5
14B
330
1F
100
AcDbEntity
  8
0
  6
Continuous
 62
     7
100
AcDbLine
 10
24931.625531592
 20
21537.4457000341
 30
0.0
 11
25221.8058308993
 21
21806.3323918176
 31
0.0
  0
LINE
  5
14C
330
1F
100
AcDbEntity
  8
0
  6
Continuous
 62
     7
100
AcDbLine
 10
25221.8058308993
 20
21806.3323918176
 30
0.0
 11
25486.566518317
 21
22083.8232245496
 31
0.0
  0
LINE
  5
14D
330
1F
100
AcDbEntity
  8
0
  6
Continuous
 62
     7
100
AcDbLine
 10
25486.566518317
 20
22083.8232245496
 30
0.0
 11
25725.1442202893
 21
22369.1181203653
 31
0.0
  0
LINE
  5
14E
330
1F
100
AcDbEntity
  8
0
  6
Continuous
 62
     7
100
AcDbLine
 10
25725.1442202893
 20
22369.1181203653
 30
0.0
 11
25936.8510555165
 21
22661.3945002269
 31
0.0
  0
LINE
  5
14F
330
1F
100
AcDbEntity
  8
0
  6
Continuous
 62
     7
100
AcDbLine
 10
25936.8510555165
 20
22661.3945002269
 30
0.0
 11
26121.0766184022
 21
22959.8096556381
 31
0.0
  0
LINE
  5
150
330
1F
100
AcDbEntity
  8
0
  6
Continuous
 62
     7
100
AcDbLine
 10
26121.0766184022
 20
22959.8096556381
 30
0.0
 11
26277.289738937
 21
23263.5031784683
 31
0.0
  0
LINE
  5
151
330
1F
100
AcDbEntity
  8
0
  6
Continuous
 62
     7
100
AcDbLine
 10
26277.289738937
 20
23263.5031784683
 30
0.0
 11
26405.0400142565
 21
23571.5994416928
 31
0.0
  0
LINE
  5
152
330
1F
100
AcDbEntity
  8
0
  6
Continuous
 62
     7
100
AcDbLine
 10
26405.0400142565
 20
23571.5994416928
 30
0.0
 11
26503.959107257
 21
23883.2101240066
 31
0.0
  0
LINE
  5
153
330
1F
100
AcDbEntity
  8
0
  6
Continuous
 62
     7
100
AcDbLine
 10
26503.959107257
 20
23883.2101240066
 30
0.0
 11
26573.7618085992
 21
24197.4367711571
 31
0.0
  0
LINE
  5
154
330
1F
100
AcDbEntity
  8
0
  6
Continuous
 62
     7
100
AcDbLine
 10
26573.7618085992
 20
24197.4367711571
 30
0.0
 11
26614.2468589987
 21
24513.3733863676
 31
0.0
  0
LINE
  5
155
330
1F
100
AcDbEntity
  8
0
  6
Continuous
 62
     7
100
AcDbLine
 10
26614.2468589987
 20
24513.3733863676
 30
0.0
 11
26625.2975295757
 21
24830.1090425873
 31
0.0
  0
LINE
  5
156
330
1F
100
AcDbEntity
  8
0
  6
Continuous
 62
     7
100
AcDbLine
 10
26625.2975295757
 20
24830.1090425873
 30
0.0
 11
26606.8819584217
 21
25146.7305089403
 31
0.0
  0
LINE
  5
157
330
1F
100
AcDbEntity
  8
0
  6
Continuous
 62
     7
100
AcDbLine
 10
26606.8819584217
 20
25146.7305089403
 30
0.0
 11
26559.0532423605
 21
25462.3248837623
 31
0.0
  0
LINE
  5
158
330
1F
100
AcDbEntity
  8
0
  6
Continuous
 62
     7
100
AcDbLine
 10
26559.0532423605
 20
25462.3248837623
 30
0.0
 11
26481.9492839582
 21
25775.9822267618
 31
0.0
  0
LINE
  5
159
330
1F
100
AcDbEntity
  8
0
  6
Continuous
 62
     7
100
AcDbLine
 10
26481.9492839582
 20
25775.9822267618
 30
0.0
 11
26375.792393911
 21
26086.7981826401
 31
0.0
  0
LINE
  5
15A
330
1F
100
AcDbEntity
  8
0
  6
Continuous
 62
     7
100
AcDbLine
 10
26375.792393911
 20
26086.7981826401
 30
0.0
 11
26240.888649995
 21
26393.8765885416
 31
0.0
  0
LINE
  5
15B
330
1F
100
AcDbEntity
  8
0
  6
Continuous
 62
     7
100
AcDbLine
 10
26240.888649995
 20
26393.8765885416
 30
0.0
 11
26077.627014661
 21
26696.3320579073
 31
0.0
  0
LINE
  5
15C
330
1F
100
AcDbEntity
  8
0
  6
Continuous
 62
     7
100
AcDbLine
 10
26077.627014661
 20
26696.3320579073
 30
0.0
 11
25886.4782134075
 21
26993.2925333213
 31
0.0
  0
LINE
  5
15D
330
1F
100
AcDbEntity
  8
0
  6
Continuous
 62
     7
100
AcDbLine
 10
25886.4782134075
 20
26993.2925333213
 30
0.0
 11
25667.9933777654
 21
27283.9018008861
 31
0.0
  0
LINE
  5
15E
330
1F
100
AcDbEntity
  8
0
  6
Continuous
 62
     7
100
AcDbLine
 10
25667.9933777654
 20
27283.9018008861
 30
0.0
 11
25422.802456052
 21
27567.3219588271
 31
0.0
  0
LINE
  5
15F
330
1F
100
AcDbEntity
  8
0
  6
Continuous
 62
     7
100
AcDbLine
 10
25422.802456052
 20
27567.3219588271
 30
0.0
 11
25151.6123971665
 21
27842.7358334643
 31
0.0
  0
LINE
  5
160
330
1F
100
AcDbEntity
  8
0
  6
Continuous
 62
     7
100
AcDbLine
 10
25151.6123971665
 20
27842.7358334643
 30
0.0
 11
24855.2051122667
 21
28109.3493353056
 31
0.0
  0
LINE
  5
161
330
1F
100
AcDbEntity
  8
0
  6
Continuous
 62
     7
100
AcDbLine
 10
24855.2051122667
 20
28109.3493353056
 30
0.0
 11
24534.4352202733
 21
28366.3937486001
 31
0.0
  0
LINE
  5
162
330
1F
100
AcDbEntity
  8
0
  6
Continuous
 62
     7
100
AcDbLine
 10
24534.4352202733
 20
28366.3937486001
 30
0.0
 11
24190.2275838273
 21
28613.1279477646
 31
0.0
  0
LINE
  5
163
330
1F
100
AcDbEntity
  8
0
  6
Continuous
 62
     7
100
AcDbLine
 10
24190.2275838273
 20
28613.1279477646
 30
0.0
 11
23823.5746426555
 21
28848.8405342393
 31
0.0
  0
LINE
  5
164
330
1F
100
AcDbEntity
  8
0
  6
Continuous
 62
     7
100
AcDbLine
 10
23823.5746426555
 20
28848.8405342393
 30
0.0
 11
23435.5335520797
 21
29072.8518876056
 31
0.0
  0
LINE
  5
165
330
1F
100
AcDbEntity
  8
0
  6
Continuous
 62
     7
100
AcDbLine
 10
23435.5335520797
 20
29072.8518876056
 30
0.0
 11
23027.2231350478
 21
29284.516125161
 31
0.0
  0
LINE
  5
166
330
1F
100
AcDbEntity
  8
0
  6
Continuous
 62
     7
100
AcDbLine
 10
23027.2231350478
 20
29284.516125161
 30
0.0
 11
22599.820656172
 21
29483.2229640771
 31
0.0
  0
LINE
  5
167
330
1F
100
AcDbEntity
  8
0
  6
Continuous
 62
     7
100
AcDbLine
 10
22599.820656172
 20
29483.2229640771
 30
0.0
 11
22154.5584274488
 21
29668.3994811363
 31
0.0
  0
LINE
  5
168
330
1F
100
AcDbEntity
  8
0
  6
Continuous
 62
     7
100
AcDbLine
 10
22154.5584274488
 20
29668.3994811363
 30
0.0
 11
21692.7202551472
 21
29839.5117644858
 31
0.0
  0
LINE
  5
169
330
1F
100
AcDbEntity
  8
0
  6
Continuous
 62
     7
100
AcDbLine
 10
21692.7202551472
 20
29839.5117644858
 30
0.0
 11
21215.63773829
 21
29996.0664531156
 31
0.0
  0
LINE
  5
16A
330
1F
100
AcDbEntity
  8
0
  6
Continuous
 62
     7
100
AcDbLine
 10
21215.63773829
 20
29996.0664531156
 30
0.0
 11
20724.686429236
 21
30137.6121593366
 31
0.0
  0
LINE
  5
16B
330
1F
100
AcDbEntity
  8
0
  6
Continuous
 62
     7
100
AcDbLine
 10
20724.686429236
 20
30137.6121593366
 30
0.0
 11
20221.281867755
 21
30263.7407702248
 31
0.0
  0
LINE
  5
16C
330
1F
100
AcDbEntity
  8
0
  6
Continuous
 62
     7
100
AcDbLine
 10
20221.281867755
 20
30263.7407702248
 30
0.0
 11
19706.8754994698
 21
30374.0886243631
 31
0.0
  0
LINE
  5
16D
330
1F
100
AcDbEntity
  8
0
  6
Continuous
 62
     7
100
AcDbLine
 10
19706.8754994698
 20
30374.0886243631
 30
0.0
 11
19182.9504911493
 21
30468.3375603033
 31
0.0
  0
LINE
  5
16E
330
1F
100
AcDbEntity
  8
0
  6
Continuous
 62
     7
100
AcDbLine
 10
19182.9504911493
 20
30468.3375603033
 30
0.0
 11
18651.0174541862
 21
30546.2158339761
 31
0.0
  0
LINE
  5
16F
330
1F
100
AcDbEntity
  8
0
  6
Continuous
 62
     7
100
AcDbLine
 10
18651.0174541862
 20
30546.2158339761
 30
0.0
 11
18112.6100892347
 21
30607.4989021628
 31
0.0
  0
LINE
  5
170
330
1F
100
AcDbEntity
  8
0
  6
Continuous
 62
     7
100
AcDbLine
 10
18112.6100892347
 20
30607.4989021628
 30
0.0
 11
17569.2807641072
 21
30652.0100698965
 31
0.0
  0
LINE
  5
171
330
1F
100
AcDbEntity
  8
0
  6
Continuous
 62
     7
100
AcDbLine
 10
17569.2807641072
 20
30652.0100698965
 30
0.0
 11
17022.5960379075
 21
30679.6209999653
 31
0.0
  0
LINE
  5
172
330
1F
100
AcDbEntity
  8
0
  6
Continuous
 62
     7
100
AcDbLine
 10
17022.5960379075
 20
30679.6209999653
 30
0.0
 11
16474.1321442285
 21
30690.2520829126
 31
0.0
  0
LINE
  5
173
330
1F
100
AcDbEntity
  8
0
  6
Continuous
 62
     7
100
AcDbLine
 10
16474.1321442285
 20
30690.2520829126
 30
0.0
 11
15925.4704464463
 21
30683.8726665675
 31
0.0
  0
LINE
  5
174
330
1F
100
AcDbEntity
  8
0
  6
Continuous
 62
     7
100
AcDbLine
 10
15925.4704464463
 20
30683.8726665675
 30
0.0
 11
15378.1928782675
 21
30660.5011444483
 31
0.0
  0
LINE
  5
175
330
1F
100
AcDbEntity
  8
0
  6
Continuous
 62
     7
100
AcDbLine
 10
15378.1928782675
 20
30660.5011444483
 30
0.0
 11
14833.8773825985
 21
30620.2049026906
 31
0.0
  0
LINE
  5
176
330
1F
100
AcDbEntity
  8
0
  6
Continuous
 62
     7
100
AcDbLine
 10
14833.8773825985
 20
30620.2049026906
 30
0.0
 11
14294.0933619295
 21
30563.1001258131
 31
0.0
  0
LINE
  5
177
330
1F
100
AcDbEntity
  8
0
  6
Continuous
 62
     7
100
AcDbLine
 10
14294.0933619295
 20
30563.1001258131
 30
0.0
 11
13760.397153302
 21
30489.3514616476
 31
0.0
  0
LINE
  5
178
330
1F
100
AcDbEntity
  8
0
  6
Continuous
 62
     7
100
AcDbLine
 10
13760.397153302
 20
30489.3514616476
 30
0.0
 11
13234.3275410717
 21
30399.1715466928
 31
0.0
  0
LINE
  5
179
330
1F
100
AcDbEntity
  8
0
  6
Continuous
 62
     7
100
AcDbLine
 10
13234.3275410717
 20
30399.1715466928
 30
0.0
 11
12717.4013201147
 21
30292.8203930058
 31
0.0
  0
LINE
  5
17A
330
1F
100
AcDbEntity
  8
0
  6
Continuous
 62
     7
100
AcDbLine
 10
12717.4013201147
 20
30292.8203930058
 30
0.0
 11
12211.108922525
 21
30170.6046384553
 31
0.0
  0
LINE
  5
17B
330
1F
100
AcDbEntity
  8
0
  6
Continuous
 62
     7
100
AcDbLine
 10
12211.108922525
 20
30170.6046384553
 30
0.0
 11
11716.91012036
 21
30032.8766627283
 31
0.0
  0
LINE
  5
17C
330
1F
100
AcDbEntity
  8
0
  6
Continuous
 62
     7
100
AcDbLine
 10
11716.91012036
 20
30032.8766627283
 30
0.0
 11
11236.229816698
 21
29880.0335712431
 31
0.0
  0
LINE
  5
17D
330
1F
100
AcDbEntity
  8
0
  6
Continuous
 62
     7
100
AcDbLine
 10
11236.229816698
 20
29880.0335712431
 30
0.0
 11
10770.4539373075
 21
29712.5160501623
 31
0.0
  0
LINE
  5
17E
330
1F
100
AcDbEntity
  8
0
  6
Continuous
 62
     7
100
AcDbLine
 10
10770.4539373075
 20
29712.5160501623
 30
0.0
 11
10320.9254345908
 21
29530.8070959013
 31
0.0
  0
LINE
  5
17F
330
1F
100
AcDbEntity
  8
0
  6
Continuous
 62
     7
100
AcDbLine
 10
10320.9254345908
 20
29530.8070959013
 30
0.0
 11
9888.940415609
 21
29335.430622379
 31
0.0
  0
LINE
  5
180
330
1F
100
AcDbEntity
  8
0
  6
Continuous
 62
     7
100
AcDbLine
 10
9888.940415609
 20
29335.430622379
 30
0.0
 11
9475.7444049935
 21
29126.9499505753
 31
0.0
  0
LINE
  5
181
330
1F
100
AcDbEntity
  8
0
  6
Continuous
 62
     7
100
AcDbLine
 10
9475.7444049935
 20
29126.9499505753
 30
0.0
 11
9082.52875382
 21
28905.9661842258
 31
0.0
  0
LINE
  5
182
330
1F
100
AcDbEntity
  8
0
  6
Continuous
 62
     7
100
AcDbLine
 10
9082.52875382
 20
28905.9661842258
 30
0.0
 11
8710.427204612
 21
28673.1164767293
 31
0.0
  0
LINE
  5
183
330
1F
100
AcDbEntity
  8
0
  6
Continuous
 62
     7
100
AcDbLine
 10
8710.427204612
 20
28673.1164767293
 30
0.0
 11
8360.5126224372
 21
28429.0721940843
 31
0.0
  0
LINE
  5
184
330
1F
100
AcDbEntity
  8
0
  6
Continuous
 62
     7
100
AcDbLine
 10
8360.5126224372
 20
28429.0721940843
 30
0.0
 11
8033.793901624
 21
28174.5369791298
 31
0.0
  0
LINE
  5
185
330
1F
100
AcDbEntity
  8
0
  6
Continuous
 62
     7
100
AcDbLine
 10
8033.793901624
 20
28174.5369791298
 30
0.0
 11
7731.2130568387
 21
27910.244722784
 31
0.0
  0
LINE
  5
186
330
1F
100
AcDbEntity
  8
0
  6
Continuous
 62
     7
100
AcDbLine
 10
7731.2130568387
 20
27910.244722784
 30
0.0
 11
7453.642506957
 21
27636.9574480301
 31
0.0
  0
LINE
  5
187
330
1F
100
AcDbEntity
  8
0
  6
Continuous
 62
     7
100
AcDbLine
 10
7453.642506957
 20
27636.9574480301
 30
0.0
 11
7201.882559757
 21
27355.4631128163
 31
0.0
  0
LINE
  5
188
330
1F
100
AcDbEntity
  8
0
  6
Continuous
 62
     7
100
AcDbLine
 10
7201.882559757
 20
27355.4631128163
 30
0.0
 11
6976.6591043532
 21
27066.5733382238
 31
0.0
  0
LINE
  5
189
330
1F
100
AcDbEntity
  8
0
  6
Continuous
 62
     7
100
AcDbLine
 10
6976.6591043532
 20
27066.5733382238
 30
0.0
 11
6778.6215182318
 21
26771.1210682138
 31
0.0
  0
LINE
  5
18A
330
1F
100
AcDbEntity
  8
0
  6
Continuous
 62
     7
100
AcDbLine
 10
6778.6215182318
 20
26771.1210682138
 30
0.0
 11
6608.3407950373
 21
26469.9581682015
 31
0.0
  0
LINE
  5
18B
330
1F
100
AcDbEntity
  8
0
  6
Continuous
 62
     7
100
AcDbLine
 10
6608.3407950373
 20
26469.9581682015
 30
0.0
 11
6466.3078981678
 21
26163.9529687706
 31
0.0
  0
LINE
  5
18C
330
1F
100
AcDbEntity
  8
0
  6
Continuous
 62
     7
100
AcDbLine
 10
6466.3078981678
 20
26163.9529687706
 30
0.0
 11
6352.9323452497
 21
25853.9877621193
 31
0.0
  0
LINE
  5
18D
330
1F
100
AcDbEntity
  8
0
  6
Continuous
 62
     7
100
AcDbLine
 10
6352.9323452497
 20
25853.9877621193
 30
0.0
 11
6268.541027345
 21
25540.9562581938
 31
0.0
  0
LINE
  5
18E
330
1F
100
AcDbEntity
  8
0
  6
Continuous
 62
     7
100
AcDbLine
 10
6268.541027345
 20
25540.9562581938
 30
0.0
 11
6213.3772664657
 21
25225.7610078423
 31
0.0
  0
LINE
  5
18F
330
1F
100
AcDbEntity
  8
0
  6
Continuous
 62
     7
100
AcDbLine
 10
6213.3772664657
 20
25225.7610078423
 30
0.0
 11
6187.6001140265
 21
24909.3108005843
 31
0.0
  0
LINE
  5
190
330
1F
100
AcDbEntity
  8
0
  6
Continuous
 62
     7
100
AcDbLine
 10
6187.6001140265
 20
24909.3108005843
 30
0.0
 11
6191.2838922214
 21
24592.5180442756
 31
0.0
  0
LINE
  5
191
330
1F
100
AcDbEntity
  8
0
  6
Continuous
 62
     7
100
AcDbLine
 10
6191.2838922214
 20
24592.5180442756
 30
0.0
 11
6224.4179797515
 21
24276.2961344436
 31
0.0
  0
LINE
  5
192
330
1F
100
AcDbEntity
  8
0
  6
Continuous
 62
     7
100
AcDbLine
 10
6224.4179797515
 20
24276.2961344436
 30
0.0
 11
6286.9068424838
 21
23961.5568207213
 31
0.0
  0
LINE
  5
193
330
1F
100
AcDbEntity
  8
0
  6
Continuous
 62
     7
100
AcDbLine
 10
6286.9068424838
 20
23961.5568207213
 30
0.0
 11
6378.5703088627
 21
23649.2075780078
 31
0.0
  0
LINE
  5
194
330
1F
100
AcDbEntity
  8
0
  6
Continuous
 62
     7
100
AcDbLine
 10
6378.5703088627
 20
23649.2075780078
 30
0.0
 11
6499.1440893418
 21
23340.1489900568
 31
0.0
  0
LINE
  5
195
330
1F
100
AcDbEntity
  8
0
  6
Continuous
 62
     7
100
AcDbLine
 10
6499.1440893418
 20
23340.1489900568
 30
0.0
 11
6648.2805385392
 21
23035.2721527573
 31
0.0
  0
LINE
  5
196
330
1F
100
AcDbEntity
  8
0
  6
Continuous
 62
     7
100
AcDbLine
 10
6648.2805385392
 20
23035.2721527573
 30
0.0
 11
6825.5496574377
 21
22735.4561049898
 31
0.0
  0
LINE
  5
197
330
1F
100
AcDbEntity
  8
0
  6
Continuous
 62
     7
100
AcDbLine
 10
6825.5496574377
 20
22735.4561049898
 30
0.0
 11
7030.440333307
 21
22441.5652939933
 31
0.0
  0
LINE
  5
198
330
1F
100
AcDbEntity
  8
0
  6
Continuous
 62
     7
100
AcDbLine
 10
7030.440333307
 20
22441.5652939933
 30
0.0
 11
7262.3618132637
 21
22154.4470830723
 31
0.0
  0
LINE
  5
199
330
1F
100
AcDbEntity
  8
0
  6
Continuous
 62
     7
100
AcDbLine
 10
7262.3618132637
 20
22154.4470830723
 30
0.0
 11
7520.6454076537
 21
21874.9293083598
 31
0.0
  0
LINE
  5
19A
330
1F
100
AcDbEntity
  8
0
  6
Continuous
 62
     7
100
AcDbLine
 10
7520.6454076537
 20
21874.9293083598
 30
0.0
 11
7804.546418
 21
21603.8178919546
 31
0.0
  0
LINE
  5
19B
330
1F
100
AcDbEntity
  8
0
  6
Continuous
 62
     7
100
AcDbLine
 10
7804.546418
 20
21603.8178919546
 30
0.0
 11
8113.2462842065
 21
21341.894518258
 31
0.0
  0
LINE
  5
19C
330
1F
100
AcDbEntity
  8
0
  6
Continuous
 62
     7
100
AcDbLine
 10
8113.2462842065
 20
21341.894518258
 30
0.0
 11
8445.8549446482
 21
21089.9143801543
 31
0.0
  0
LINE
  5
19D
330
1F
100
AcDbEntity
  8
0
  6
Continuous
 62
     7
100
AcDbLine
 10
8445.8549446482
 20
21089.9143801543
 30
0.0
 11
8801.4134024498
 21
20848.6040016206
 31
0.0
  0
LINE
  5
19E
330
1F
100
AcDbEntity
  8
0
  6
Continuous
 62
     7
100
AcDbLine
 10
8801.4134024498
 20
20848.6040016206
 30
0.0
 11
9178.8964905243
 21
20618.6591429376
 31
0.0
  0
LINE
  5
19F
330
1F
100
AcDbEntity
  8
0
  6
Continuous
 62
     7
100
AcDbLine
 10
9017.587756063
 20
20003.9721490888
 30
0.0
 11
9421.2609518645
 21
19783.0260858158
 31
0.0
  0
LINE
  5
1A0
330
1F
100
AcDbEntity
  8
0
  6
Continuous
 62
     7
100
AcDbLine
 10
9421.2609518645
 20
19783.0260858158
 30
0.0
 11
9844.7318108292
 21
19574.7958304746
 31
0.0
  0
LINE
  5
1A1
330
1F
100
AcDbEntity
  8
0
  6
Continuous
 62
     7
100
AcDbLine
 10
9844.7318108292
 20
19574.7958304746
 30
0.0
 11
10286.799958826
 21
19379.8716344018
 31
0.0
  0
LINE
  5
1A2
330
1F
100
AcDbEntity
  8
0
  6
Continuous
 62
     7
100
AcDbLine
 10
10286.799958826
 20
19379.8716344018
 30
0.0
 11
10746.2123056495
 21
19198.8060313673
 31
0.0
  0
LINE
  5
1A3
330
1F
100
AcDbEntity
  8
0
  6
Continuous
 62
     7
100
AcDbLine
 10
10746.2123056495
 20
19198.8060313673
 30
0.0
 11
11221.666597091
 21
19032.112271523
 31
0.0
  0
LINE
  5
1A4
330
1F
100
AcDbEntity
  8
0
  6
Continuous
 62
     7
100
AcDbLine
 10
11221.666597091
 20
19032.112271523
 30
0.0
 11
11711.815106311
 21
18880.2628664221
 31
0.0
  0
LINE
  5
1A5
330
1F
100
AcDbEntity
  8
0
  6
Continuous
 62
     7
100
AcDbLine
 10
11711.815106311
 20
18880.2628664221
 30
0.0
 11
12215.2684540752
 21
18743.6882497056
 31
0.0
  0
LINE
  5
1A6
330
1F
100
AcDbEntity
  8
0
  6
Continuous
 62
     7
100
AcDbLine
 10
12215.2684540752
 20
18743.6882497056
 30
0.0
 11
12730.5995472142
 21
18622.7755569811
 31
0.0
  0
LINE
  5
1A7
330
1F
100
AcDbEntity
  8
0
  6
Continuous
 62
     7
100
AcDbLine
 10
12730.5995472142
 20
18622.7755569811
 30
0.0
 11
13256.3476237357
 21
18517.8675283951
 31
0.0
  0
LINE
  5
1A8
330
1F
100
AcDbEntity
  8
0
  6
Continuous
 62
     7
100
AcDbLine
 10
13256.3476237357
 20
18517.8675283951
 30
0.0
 11
13791.0223936038
 21
18429.261537149
 31
0.0
  0
LINE
  5
1A9
330
1F
100
AcDbEntity
  8
0
  6
Continuous
 62
     7
100
AcDbLine
 10
13791.0223936038
 20
18429.261537149
 30
0.0
 11
14333.1082630843
 21
18357.2087465686
 31
0.0
  0
LINE
  5
1AA
330
1F
100
AcDbEntity
  8
0
  6
Continuous
 62
     7
100
AcDbLine
 10
14333.1082630843
 20
18357.2087465686
 30
0.0
 11
14881.0686308865
 21
18301.9133980976
 31
0.0
  0
LINE
  5
1AB
330
1F
100
AcDbEntity
  8
0
  6
Continuous
 62
     7
100
AcDbLine
 10
14881.0686308865
 20
18301.9133980976
 30
0.0
 11
15433.3502437992
 21
18263.5322324268
 31
0.0
  0
LINE
  5
1AC
330
1F
100
AcDbEntity
  8
0
  6
Continuous
 62
     7
100
AcDbLine
 10
15433.3502437992
 20
18263.5322324268
 30
0.0
 11
15988.3875996127
 21
18242.1740451246
 31
0.0
  0
LINE
  5
1AD
330
1F
100
AcDbEntity
  8
0
  6
Continuous
 62
     7
100
AcDbLine
 10
15988.3875996127
 20
18242.1740451246
 30
0.0
 11
16544.6073846428
 21
18237.8993783028
 31
0.0
  0
LINE
  5
1AE
330
1F
100
AcDbEntity
  8
0
  6
Continuous
 62
     7
100
AcDbLine
 10
16544.6073846428
 20
18237.8993783028
 30
0.0
 11
17100.4329334465
 21
18250.7203489761
 31
0.0
  0
LINE
  5
1AF
330
1F
100
AcDbEntity
  8
0
  6
Continuous
 62
     7
100
AcDbLine
 10
17100.4329334465
 20
18250.7203489761
 30
0.0
 11
17654.2886981383
 21
18280.6006146965
 31
0.0
  0
LINE
  5
1B0
330
1F
100
AcDbEntity
  8
0
  6
Continuous
 62
     7
100
AcDbLine
 10
17654.2886981383
 20
18280.6006146965
 30
0.0
 11
18204.6047143833
 21
18327.455476612
 31
0.0
  0
LINE
  5
1B1
330
1F
100
AcDbEntity
  8
0
  6
Continuous
 62
     7
100
AcDbLine
 10
18204.6047143833
 20
18327.455476612
 30
0.0
 11
18749.8210516238
 21
18391.1521195081
 31
0.0
  0
LINE
  5
1B2
330
1F
100
AcDbEntity
  8
0
  6
Continuous
 62
     7
100
AcDbLine
 10
18749.8210516238
 20
18391.1521195081
 30
0.0
 11
19288.3922349262
 21
18471.5099883601
 31
0.0
  0
LINE
  5
1B3
330
1F
100
AcDbEntity
  8
0
  6
Continuous
 62
     7
100
AcDbLine
 10
19288.3922349262
 20
18471.5099883601
 30
0.0
 11
19818.7916257663
 21
18568.3013000453
 31
0.0
  0
LINE
  5
1B4
330
1F
100
AcDbEntity
  8
0
  6
Continuous
 62
     7
100
AcDbLine
 10
19818.7916257663
 20
18568.3013000453
 30
0.0
 11
20339.5157494318
 21
18681.2516890643
 31
0.0
  0
LINE
  5
1B5
330
1F
100
AcDbEntity
  8
0
  6
Continuous
 62
     7
100
AcDbLine
 10
20339.5157494318
 20
18681.2516890643
 30
0.0
 11
20849.088556818
 21
18810.0409852828
 31
0.0
  0
LINE
  5
1B6
330
1F
100
AcDbEntity
  8
0
  6
Continuous
 62
     7
100
AcDbLine
 10
20849.088556818
 20
18810.0409852828
 30
0.0
 11
21346.065608459
 21
18954.3041214313
 31
0.0
  0
LINE
  5
1B7
330
1F
100
AcDbEntity
  8
0
  6
Continuous
 62
     7
100
AcDbLine
 10
21346.065608459
 20
18954.3041214313
 30
0.0
 11
21829.0381688785
 21
19113.6321679895
 31
0.0
  0
LINE
  5
1B8
330
1F
100
AcDbEntity
  8
0
  6
Continuous
 62
     7
100
AcDbLine
 10
21829.0381688785
 20
19113.6321679895
 30
0.0
 11
22296.637199909
 21
19287.5734922988
 31
0.0
  0
LINE
  5
1B9
330
1F
100
AcDbEntity
  8
0
  6
Continuous
 62
     7
100
AcDbLine
 10
22296.637199909
 20
19287.5734922988
 30
0.0
 11
22747.5372412805
 21
19475.635038781
 31
0.0
  0
LINE
  5
1BA
330
1F
100
AcDbEntity
  8
0
  6
Continuous
 62
     7
100
AcDbLine
 10
22747.5372412805
 20
19475.635038781
 30
0.0
 11
23180.4601678393
 21
19677.2837265423
 31
0.0
  0
LINE
  5
1BB
330
1F
100
AcDbEntity
  8
0
  6
Continuous
 62
     7
100
AcDbLine
 10
23180.4601678393
 20
19677.2837265423
 30
0.0
 11
23594.1788125013
 21
19891.9479604543
 31
0.0
  0
LINE
  5
1BC
330
1F
100
AcDbEntity
  8
0
  6
Continuous
 62
     7
100
AcDbLine
 10
23594.1788125013
 20
19891.9479604543
 30
0.0
 11
23987.52044483
 21
20119.0192514626
 31
0.0
  0
LINE
  5
1BD
330
1F
100
AcDbEntity
  8
0
  6
Continuous
 62
     7
100
AcDbLine
 10
23987.52044483
 20
20119.0192514626
 30
0.0
 11
24359.3700952558
 21
20357.8539412843
 31
0.0
  0
LINE
  5
1BE
330
1F
100
AcDbEntity
  8
0
  6
Continuous
 62
     7
100
AcDbLine
 10
24359.3700952558
 20
20357.8539412843
 30
0.0
 11
24708.673715501
 21
20607.7750270618
 31
0.0
  0
LINE
  5
1BF
330
1F
100
AcDbEntity
  8
0
  6
Continuous
 62
     7
100
AcDbLine
 10
24708.673715501
 20
20607.7750270618
 30
0.0
 11
25034.4411665252
 21
20868.0740803316
 31
0.0
  0
LINE
  5
1C0
330
1F
100
AcDbEntity
  8
0
  6
Continuous
 62
     7
100
AcDbLine
 10
25034.4411665252
 20
20868.0740803316
 30
0.0
 11
25335.7490251012
 21
21138.0132551266
 31
0.0
  0
LINE
  5
1C1
330
1F
100
AcDbEntity
  8
0
  6
Continuous
 62
     7
100
AcDbLine
 10
25335.7490251012
 20
21138.0132551266
 30
0.0
 11
25611.7432013577
 21
21416.8273795358
 31
0.0
  0
LINE
  5
1C2
330
1F
100
AcDbEntity
  8
0
  6
Continuous
 62
     7
100
AcDbLine
 10
25611.7432013577
 20
21416.8273795358
 30
0.0
 11
25861.6413598245
 21
21703.7261246255
 31
0.0
  0
LINE
  5
1C3
330
1F
100
AcDbEntity
  8
0
  6
Continuous
 62
     7
100
AcDbLine
 10
25861.6413598245
 20
21703.7261246255
 30
0.0
 11
26084.735137008
 21
21997.8962447546
 31
0.0
  0
LINE
  5
1C4
330
1F
100
AcDbEntity
  8
0
  6
Continuous
 62
     7
100
AcDbLine
 10
26084.735137008
 20
21997.8962447546
 30
0.0
 11
26280.3921493842
 21
22298.5038827316
 31
0.0
  0
LINE
  5
1C5
330
1F
100
AcDbEntity
  8
0
  6
Continuous
 62
     7
100
AcDbLine
 10
26280.3921493842
 20
22298.5038827316
 30
0.0
 11
26448.057785859
 21
22604.6969335553
 31
0.0
  0
LINE
  5
1C6
330
1F
100
AcDbEntity
  8
0
  6
Continuous
 62
     7
100
AcDbLine
 10
26448.057785859
 20
22604.6969335553
 30
0.0
 11
26587.2567800052
 21
22915.6074597656
 31
0.0
  0
LINE
  5
1C7
330
1F
100
AcDbEntity
  8
0
  6
Continuous
 62
     7
100
AcDbLine
 10
26587.2567800052
 20
22915.6074597656
 30
0.0
 11
26697.594557114
 21
23230.354151689
 31
0.0
  0
LINE
  5
1C8
330
1F
100
AcDbEntity
  8
0
  6
Continuous
 62
     7
100
AcDbLine
 10
26697.594557114
 20
23230.354151689
 30
0.0
 11
26778.7583527915
 21
23548.0448256273
 31
0.0
  0
LINE
  5
1C9
330
1F
100
AcDbEntity
  8
0
  6
Continuous
 62
     7
100
AcDbLine
 10
26778.7583527915
 20
23548.0448256273
 30
0.0
 11
26830.5180994348
 21
23867.7789528503
 31
0.0
  0
LINE
  5
1CA
330
1F
100
AcDbEntity
  8
0
  6
Continuous
 62
     7
100
AcDbLine
 10
26830.5180994348
 20
23867.7789528503
 30
0.0
 11
26852.7270784317
 21
24188.6502122423
 31
0.0
  0
LINE
  5
1CB
330
1F
100
AcDbEntity
  8
0
  6
Continuous
 62
     7
100
AcDbLine
 10
26852.7270784317
 20
24188.6502122423
 30
0.0
 11
26853.6527942605
 21
24268.9391507713
 31
0.0
  0
LINE
  5
1CC
330
1F
100
AcDbEntity
  8
0
  6
Continuous
 62
     7
100
AcDbLine
 10
5957.4027942605
 20
24268.9391507713
 30
0.0
 11
5965.733252515
 21
24028.1292421883
 31
0.0
  0
LINE
  5
1CD
330
1F
100
AcDbEntity
  8
0
  6
Continuous
 62
     7
100
AcDbLine
 10
5965.733252515
 20
24028.1292421883
 30
0.0
 11
6002.7307268378
 21
23707.7129969246
 31
0.0
  0
LINE
  5
1CE
330
1F
100
AcDbEntity
  8
0
  6
Continuous
 62
     7
100
AcDbLine
 10
6002.7307268378
 20
23707.7129969246
 30
0.0
 11
6069.2160596515
 21
23388.8876081758
 31
0.0
  0
LINE
  5
1CF
330
1F
100
AcDbEntity
  8
0
  6
Continuous
 62
     7
100
AcDbLine
 10
6069.2160596515
 20
23388.8876081758
 30
0.0
 11
6165.0007910903
 21
23072.5568211251
 31
0.0
  0
LINE
  5
1D0
330
1F
100
AcDbEntity
  8
0
  6
Continuous
 62
     7
100
AcDbLine
 10
6165.0007910903
 20
23072.5568211251
 30
0.0
 11
6289.8134089325
 21
22759.6173097921
 31
0.0
  0
LINE
  5
1D1
330
1F
100
AcDbEntity
  8
0
  6
Continuous
 62
     7
100
AcDbLine
 10
6289.8134089325
 20
22759.6173097921
 30
0.0
 11
6443.300118222
 21
22450.9561351916
 31
0.0
  0
LINE
  5
1D2
330
1F
100
AcDbEntity
  8
0
  6
Continuous
 62
     7
100
AcDbLine
 10
6443.300118222
 20
22450.9561351916
 30
0.0
 11
6625.0258442147
 21
22147.4482309578
 31
0.0
  0
LINE
  5
1D3
330
1F
100
AcDbEntity
  8
0
  6
Continuous
 62
     7
100
AcDbLine
 10
6625.0258442147
 20
22147.4482309578
 30
0.0
 11
6834.4754656045
 21
21849.9539232243
 31
0.0
  0
LINE
  5
1D4
330
1F
100
AcDbEntity
  8
0
  6
Continuous
 62
     7
100
AcDbLine
 10
6834.4754656045
 20
21849.9539232243
 30
0.0
 11
7071.055274687
 21
21559.3164919493
 31
0.0
  0
LINE
  5
1D5
330
1F
100
AcDbEntity
  8
0
  6
Continuous
 62
     7
100
AcDbLine
 10
7071.055274687
 20
21559.3164919493
 30
0.0
 11
7334.0946602838
 21
21276.3597804943
 31
0.0
  0
LINE
  5
1D6
330
1F
100
AcDbEntity
  8
0
  6
Continuous
 62
     7
100
AcDbLine
 10
7334.0946602838
 20
21276.3597804943
 30
0.0
 11
7622.8480086802
 21
21001.8858603724
 31
0.0
  0
LINE
  5
1D7
330
1F
100
AcDbEntity
  8
0
  6
Continuous
 62
     7
100
AcDbLine
 10
7622.8480086802
 20
21001.8858603724
 30
0.0
 11
7936.496817122
 21
20736.6727577723
 31
0.0
  0
LINE
  5
1D8
330
1F
100
AcDbEntity
  8
0
  6
Continuous
 62
     7
100
AcDbLine
 10
7936.496817122
 20
20736.6727577723
 30
0.0
 11
8274.15201401
 21
20481.4722480286
 31
0.0
  0
LINE
  5
1D9
330
1F
100
AcDbEntity
  8
0
  6
Continuous
 62
     7
100
AcDbLine
 10
8274.15201401
 20
20481.4722480286
 30
0.0
 11
8634.8564789885
 21
20237.0077247323
 31
0.0
  0
LINE
  5
1DA
330
1F
100
AcDbEntity
  8
0
  6
Continuous
 62
     7
100
AcDbLine
 10
8634.8564789885
 20
20237.0077247323
 30
0.0
 11
9017.587756063
 21
20003.9721490888
 31
0.0
  0
LINE
  5
1DB
330
1F
100
AcDbEntity
  8
0
  6
Continuous
 62
     7
100
AcDbLine
 10
26334.2860836585
 20
23947.6331960346
 30
0.0
 11
26305.9331395783
 21
24079.0228914275
 31
0.0
  0
LINE
  5
1DC
330
1F
100
AcDbEntity
  8
0
  6
Continuous
 62
     7
100
AcDbLine
 10
26305.9331395783
 20
24079.0228914275
 30
0.0
 11
26218.3851917537
 21
24387.3054156669
 31
0.0
  0
LINE
  5
1DD
330
1F
100
AcDbEntity
  8
0
  6
Continuous
 62
     7
100
AcDbLine
 10
26218.3851917537
 20
24387.3054156669
 30
0.0
 11
26102.0544424515
 21
24692.399617383
 31
0.0
  0
LINE
  5
1DE
330
1F
100
AcDbEntity
  8
0
  6
Continuous
 62
     7
100
AcDbLine
 10
26102.0544424515
 20
24692.399617383
 30
0.0
 11
25957.2821098045
 21
24993.4106027163
 31
0.0
  0
LINE
  5
1DF
330
1F
100
AcDbEntity
  8
0
  6
Continuous
 62
     7
100
AcDbLine
 10
25957.2821098045
 20
24993.4106027163
 30
0.0
 11
25784.4928360173
 21
25289.4554546063
 31
0.0
  0
LINE
  5
1E0
330
1F
100
AcDbEntity
  8
0
  6
Continuous
 62
     7
100
AcDbLine
 10
25784.4928360173
 20
25289.4554546063
 30
0.0
 11
25584.1934417667
 21
25579.6658224858
 31
0.0
  0
LINE
  5
1E1
330
1F
100
AcDbEntity
  8
0
  6
Continuous
 62
     7
100
AcDbLine
 10
25584.1934417667
 20
25579.6658224858
 30
0.0
 11
25356.9714397217
 21
25863.1904693418
 31
0.0
  0
LINE
  5
1E2
330
1F
100
AcDbEntity
  8
0
  6
Continuous
 62
     7
100
AcDbLine
 10
25356.9714397217
 20
25863.1904693418
 30
0.0
 11
25103.4933111404
 21
26139.1977685163
 31
0.0
  0
LINE
  5
1E3
330
1F
100
AcDbEntity
  8
0
  6
Continuous
 62
     7
100
AcDbLine
 10
25103.4933111404
 20
26139.1977685163
 30
0.0
 11
24824.5025510767
 21
26406.8781430743
 31
0.0
  0
LINE
  5
1E4
330
1F
100
AcDbEntity
  8
0
  6
Continuous
 62
     7
100
AcDbLine
 10
24824.5025510767
 20
26406.8781430743
 30
0.0
 11
24520.8174874682
 21
26665.4464403296
 31
0.0
  0
LINE
  5
1E5
330
1F
100
AcDbEntity
  8
0
  6
Continuous
 62
     7
100
AcDbLine
 10
24520.8174874682
 20
26665.4464403296
 30
0.0
 11
24193.3288809333
 21
26914.1442349398
 31
0.0
  0
LINE
  5
1E6
330
1F
100
AcDbEntity
  8
0
  6
Continuous
 62
     7
100
AcDbLine
 10
24193.3288809333
 20
26914.1442349398
 30
0.0
 11
23842.9973120093
 21
27152.2420534176
 31
0.0
  0
LINE
  5
1E7
330
1F
100
AcDbEntity
  8
0
  6
Continuous
 62
     7
100
AcDbLine
 10
23842.9973120093
 20
27152.2420534176
 30
0.0
 11
23470.8503635172
 21
27379.041513833
 31
0.0
  0
LINE
  5
1E8
330
1F
100
AcDbEntity
  8
0
  6
Continuous
 62
     7
100
AcDbLine
 10
23470.8503635172
 20
27379.041513833
 30
0.0
 11
23077.9796065925
 21
27593.8773742856
 31
0.0
  0
LINE
  5
1E9
330
1F
100
AcDbEntity
  8
0
  6
Continuous
 62
     7
100
AcDbLine
 10
23077.9796065925
 20
27593.8773742856
 30
0.0
 11
22665.537398868
 21
27796.1194841751
 31
0.0
  0
LINE
  5
1EA
330
1F
100
AcDbEntity
  8
0
  6
Continuous
 62
     7
100
AcDbLine
 10
22665.537398868
 20
27796.1194841751
 30
0.0
 11
22234.7335043737
 21
27985.1746325623
 31
0.0
  0
LINE
  5
1EB
330
1F
100
AcDbEntity
  8
0
  6
Continuous
 62
     7
100
AcDbLine
 10
22234.7335043737
 20
27985.1746325623
 30
0.0
 11
21786.831545171
 21
28160.488288142
 31
0.0
  0
LINE
  5
1EC
330
1F
100
AcDbEntity
  8
0
  6
Continuous
 62
     7
100
AcDbLine
 10
21786.831545171
 20
28160.488288142
 30
0.0
 11
21323.1452948867
 21
28321.5462257196
 31
0.0
  0
LINE
  5
1ED
330
1F
100
AcDbEntity
  8
0
  6
Continuous
 62
     7
100
AcDbLine
 10
21323.1452948867
 20
28321.5462257196
 30
0.0
 11
20845.0348251715
 21
28467.8760346278
 31
0.0
  0
LINE
  5
1EE
330
1F
100
AcDbEntity
  8
0
  6
Continuous
 62
     7
100
AcDbLine
 10
20845.0348251715
 20
28467.8760346278
 30
0.0
 11
20353.9025164318
 21
28599.0485043223
 31
0.0
  0
LINE
  5
1EF
330
1F
100
AcDbEntity
  8
0
  6
Continuous
 62
     7
100
AcDbLine
 10
20353.9025164318
 20
28599.0485043223
 30
0.0
 11
19851.1889443165
 21
28714.6788833573
 31
0.0
  0
LINE
  5
1F0
330
1F
100
AcDbEntity
  8
0
  6
Continuous
 62
     7
100
AcDbLine
 10
19851.1889443165
 20
28714.6788833573
 30
0.0
 11
19338.368654386
 21
28814.4280078928
 31
0.0
  0
LINE
  5
1F1
330
1F
100
AcDbEntity
  8
0
  6
Continuous
 62
     7
100
AcDbLine
 10
19338.368654386
 20
28814.4280078928
 30
0.0
 11
18816.94583688
 21
28898.0032965751
 31
0.0
  0
LINE
  5
1F2
330
1F
100
AcDbEntity
  8
0
  6
Continuous
 62
     7
100
AcDbLine
 10
18816.94583688
 20
28898.0032965751
 30
0.0
 11
18288.4499147803
 21
28965.159608688
 31
0.0
  0
LINE
  5
1F3
330
1F
100
AcDbEntity
  8
0
  6
Continuous
 62
     7
100
AcDbLine
 10
18288.4499147803
 20
28965.159608688
 30
0.0
 11
17754.4310576685
 21
29015.6999631853
 31
0.0
  0
LINE
  5
1F4
330
1F
100
AcDbEntity
  8
0
  6
Continuous
 62
     7
100
AcDbLine
 10
17754.4310576685
 20
29015.6999631853
 30
0.0
 11
17216.455634885
 21
29049.4761164848
 31
0.0
  0
LINE
  5
1F5
330
1F
100
AcDbEntity
  8
0
  6
Continuous
 62
     7
100
AcDbLine
 10
17216.455634885
 20
29049.4761164848
 30
0.0
 11
16676.101621018
 21
29066.3889973483
 31
0.0
  0
LINE
  5
1F6
330
1F
100
AcDbEntity
  8
0
  6
Continuous
 62
     7
100
AcDbLine
 10
16676.101621018
 20
29066.3889973483
 30
0.0
 11
16134.9539674848
 21
29066.3889973483
 31
0.0
  0
LINE
  5
1F7
330
1F
100
AcDbEntity
  8
0
  6
Continuous
 62
     7
100
AcDbLine
 10
16134.9539674848
 20
29066.3889973483
 30
0.0
 11
15594.5999536177
 21
29049.4761164848
 31
0.0
  0
LINE
  5
1F8
330
1F
100
AcDbEntity
  8
0
  6
Continuous
 62
     7
100
AcDbLine
 10
15594.5999536177
 20
29049.4761164848
 30
0.0
 11
15056.6245308343
 21
29015.6999631853
 31
0.0
  0
LINE
  5
1F9
330
1F
100
AcDbEntity
  8
0
  6
Continuous
 62
     7
100
AcDbLine
 10
15056.6245308343
 20
29015.6999631853
 30
0.0
 11
14522.6056737225
 21
28965.159608688
 31
0.0
  0
LINE
  5
1FA
330
1F
100
AcDbEntity
  8
0
  6
Continuous
 62
     7
100
AcDbLine
 10
14522.6056737225
 20
28965.159608688
 30
0.0
 11
13994.1097516227
 21
28898.0032965751
 31
0.0
  0
LINE
  5
1FB
330
1F
100
AcDbEntity
  8
0
  6
Continuous
 62
     7
100
AcDbLine
 10
13994.1097516227
 20
28898.0032965751
 30
0.0
 11
13472.6869341167
 21
28814.4280078928
 31
0.0
  0
LINE
  5
1FC
330
1F
100
AcDbEntity
  8
0
  6
Continuous
 62
     7
100
AcDbLine
 10
13472.6869341167
 20
28814.4280078928
 30
0.0
 11
12959.8666441862
 21
28714.6788833573
 31
0.0
  0
LINE
  5
1FD
330
1F
100
AcDbEntity
  8
0
  6
Continuous
 62
     7
100
AcDbLine
 10
12959.8666441862
 20
28714.6788833573
 30
0.0
 11
12457.153072071
 21
28599.0485043223
 31
0.0
  0
LINE
  5
1FE
330
1F
100
AcDbEntity
  8
0
  6
Continuous
 62
     7
100
AcDbLine
 10
12457.153072071
 20
28599.0485043223
 30
0.0
 11
11966.0207633313
 21
28467.8760346278
 31
0.0
  0
LINE
  5
1FF
330
1F
100
AcDbEntity
  8
0
  6
Continuous
 62
     7
100
AcDbLine
 10
11966.0207633313
 20
28467.8760346278
 30
0.0
 11
11487.910293616
 21
28321.5462257196
 31
0.0
  0
LINE
  5
200
330
1F
100
AcDbEntity
  8
0
  6
Continuous
 62
     7
100
AcDbLine
 10
11487.910293616
 20
28321.5462257196
 30
0.0
 11
11024.2240433317
 21
28160.488288142
 31
0.0
  0
LINE
  5
201
330
1F
100
AcDbEntity
  8
0
  6
Continuous
 62
     7
100
AcDbLine
 10
11024.2240433317
 20
28160.488288142
 30
0.0
 11
10576.322084129
 21
27985.1746325623
 31
0.0
  0
LINE
  5
202
330
1F
100
AcDbEntity
  8
0
  6
Continuous
 62
     7
100
AcDbLine
 10
10576.322084129
 20
27985.1746325623
 30
0.0
 11
10145.5181896347
 21
27796.1194841751
 31
0.0
  0
LINE
  5
203
330
1F
100
AcDbEntity
  8
0
  6
Continuous
 62
     7
100
AcDbLine
 10
10145.5181896347
 20
27796.1194841751
 30
0.0
 11
9733.0759819102
 21
27593.8773742856
 31
0.0
  0
LINE
  5
204
330
1F
100
AcDbEntity
  8
0
  6
Continuous
 62
     7
100
AcDbLine
 10
9733.0759819102
 20
27593.8773742856
 30
0.0
 11
9340.2052249855
 21
27379.041513833
 31
0.0
  0
LINE
  5
205
330
1F
100
AcDbEntity
  8
0
  6
Continuous
 62
     7
100
AcDbLine
 10
9340.2052249855
 20
27379.041513833
 30
0.0
 11
8968.0582764935
 21
27152.2420534176
 31
0.0
  0
LINE
  5
206
330
1F
100
AcDbEntity
  8
0
  6
Continuous
 62
     7
100
AcDbLine
 10
8968.0582764935
 20
27152.2420534176
 30
0.0
 11
8617.7267075695
 21
26914.1442349398
 31
0.0
  0
LINE
  5
207
330
1F
100
AcDbEntity
  8
0
  6
Continuous
 62
     7
100
AcDbLine
 10
8617.7267075695
 20
26914.1442349398
 30
0.0
 11
8290.2381010528
 21
26665.4464403296
 31
0.0
  0
LINE
  5
208
330
1F
100
AcDbEntity
  8
0
  6
Continuous
 62
     7
100
AcDbLine
 10
8290.2381010528
 20
26665.4464403296
 30
0.0
 11
7986.5530374442
 21
26406.8781430743
 31
0.0
  0
LINE
  5
209
330
1F
100
AcDbEntity
  8
0
  6
Continuous
 62
     7
100
AcDbLine
 10
7986.5530374442
 20
26406.8781430743
 30
0.0
 11
7707.5622773623
 21
26139.1977685163
 31
0.0
  0
LINE
  5
20A
330
1F
100
AcDbEntity
  8
0
  6
Continuous
 62
     7
100
AcDbLine
 10
7707.5622773623
 20
26139.1977685163
 30
0.0
 11
7454.084148781
 21
25863.1904693418
 31
0.0
  0
LINE
  5
20B
330
1F
100
AcDbEntity
  8
0
  6
Continuous
 62
     7
100
AcDbLine
 10
7454.084148781
 20
25863.1904693418
 30
0.0
 11
7226.862146736
 21
25579.6658224858
 31
0.0
  0
LINE
  5
20C
330
1F
100
AcDbEntity
  8
0
  6
Continuous
 62
     7
100
AcDbLine
 10
7226.862146736
 20
25579.6658224858
 30
0.0
 11
7026.5627525037
 21
25289.4554546063
 31
0.0
  0
LINE
  5
20D
330
1F
100
AcDbEntity
  8
0
  6
Continuous
 62
     7
100
AcDbLine
 10
7026.5627525037
 20
25289.4554546063
 30
0.0
 11
6853.7734786983
 21
24993.4106027163
 31
0.0
  0
LINE
  5
20E
330
1F
100
AcDbEntity
  8
0
  6
Continuous
 62
     7
100
AcDbLine
 10
6853.7734786983
 20
24993.4106027163
 30
0.0
 11
6709.0011460512
 21
24692.399617383
 31
0.0
  0
LINE
  5
20F
330
1F
100
AcDbEntity
  8
0
  6
Continuous
 62
     7
100
AcDbLine
 10
6709.0011460512
 20
24692.399617383
 30
0.0
 11
6592.670396749
 21
24387.3054156669
 31
0.0
  0
LINE
  5
210
330
1F
100
AcDbEntity
  8
0
  6
Continuous
 62
     7
100
AcDbLine
 10
6592.670396749
 20
24387.3054156669
 30
0.0
 11
6505.1224489428
 21
24079.0228914275
 31
0.0
  0
LINE
  5
211
330
1F
100
AcDbEntity
  8
0
  6
Continuous
 62
     7
100
AcDbLine
 10
6505.1224489428
 20
24079.0228914275
 30
0.0
 11
6476.4551335745
 21
23946.0242061006
 31
0.0
  0
LINE
  5
212
330
1F
100
AcDbEntity
  8
0
  6
Continuous
 62
     7
100
AcDbLine
 10
9146.634743632
 20
-4211.5784122667
 30
0.0
 11
9546.732291868
 21
-4430.4676013874
 31
0.0
  0
LINE
  5
213
330
1F
100
AcDbEntity
  8
0
  6
Continuous
 62
     7
100
AcDbLine
 10
9546.732291868
 20
-4430.4676013874
 30
0.0
 11
9966.6055230768
 21
-4636.6434671862
 31
0.0
  0
LINE
  5
214
330
1F
100
AcDbEntity
  8
0
  6
Continuous
 62
     7
100
AcDbLine
 10
9966.6055230768
 20
-4636.6434671862
 30
0.0
 11
10405.0438340385
 21
-4829.5115512632
 31
0.0
  0
LINE
  5
215
330
1F
100
AcDbEntity
  8
0
  6
Continuous
 62
     7
100
AcDbLine
 10
10405.0438340385
 20
-4829.5115512632
 30
0.0
 11
10860.7830936265
 21
-5008.5157650407
 31
0.0
  0
LINE
  5
216
330
1F
100
AcDbEntity
  8
0
  6
Continuous
 62
     7
100
AcDbLine
 10
10860.7830936265
 20
-5008.5157650407
 30
0.0
 11
11332.509287551
 21
-5173.1399929889
 31
0.0
  0
LINE
  5
217
330
1F
100
AcDbEntity
  8
0
  6
Continuous
 62
     7
100
AcDbLine
 10
11332.509287551
 20
-5173.1399929889
 30
0.0
 11
11818.862307114
 21
-5322.9095808772
 31
0.0
  0
LINE
  5
218
330
1F
100
AcDbEntity
  8
0
  6
Continuous
 62
     7
100
AcDbLine
 10
11818.862307114
 20
-5322.9095808772
 30
0.0
 11
12318.439870605
 21
-5457.3927041952
 31
0.0
  0
LINE
  5
219
330
1F
100
AcDbEntity
  8
0
  6
Continuous
 62
     7
100
AcDbLine
 10
12318.439870605
 20
-5457.3927041952
 30
0.0
 11
12829.801566625
 21
-5576.201613296
 31
0.0
  0
LINE
  5
21A
330
1F
100
AcDbEntity
  8
0
  6
Continuous
 62
     7
100
AcDbLine
 10
12829.801566625
 20
-5576.201613296
 30
0.0
 11
13351.47300702
 21
-5678.9937513177
 31
0.0
  0
LINE
  5
21B
330
1F
100
AcDbEntity
  8
0
  6
Continuous
 62
     7
100
AcDbLine
 10
13351.47300702
 20
-5678.9937513177
 30
0.0
 11
13881.9500779812
 21
-5765.4727419287
 31
0.0
  0
LINE
  5
21C
330
1F
100
AcDbEntity
  8
0
  6
Continuous
 62
     7
100
AcDbLine
 10
13881.9500779812
 20
-5765.4727419287
 30
0.0
 11
14419.7032767563
 21
-5835.3892438104
 31
0.0
  0
LINE
  5
21D
330
1F
100
AcDbEntity
  8
0
  6
Continuous
 62
     7
100
AcDbLine
 10
14419.7032767563
 20
-5835.3892438104
 30
0.0
 11
14963.1821217065
 21
-5888.5416695982
 31
0.0
  0
LINE
  5
21E
330
1F
100
AcDbEntity
  8
0
  6
Continuous
 62
     7
100
AcDbLine
 10
14963.1821217065
 20
-5888.5416695982
 30
0.0
 11
15510.8196226085
 21
-5924.7767670704
 31
0.0
  0
LINE
  5
21F
330
1F
100
AcDbEntity
  8
0
  6
Continuous
 62
     7
100
AcDbLine
 10
15510.8196226085
 20
-5924.7767670704
 30
0.0
 11
16061.036798788
 21
-5943.9900610727
 31
0.0
  0
LINE
  5
220
330
1F
100
AcDbEntity
  8
0
  6
Continuous
 62
     7
100
AcDbLine
 10
16061.036798788
 20
-5943.9900610727
 30
0.0
 11
16612.2472316737
 21
-5946.1261547154
 31
0.0
  0
LINE
  5
221
330
1F
100
AcDbEntity
  8
0
  6
Continuous
 62
     7
100
AcDbLine
 10
16612.2472316737
 20
-5946.1261547154
 30
0.0
 11
17162.8616389227
 21
-5931.1788890617
 31
0.0
  0
LINE
  5
222
330
1F
100
AcDbEntity
  8
0
  6
Continuous
 62
     7
100
AcDbLine
 10
17162.8616389227
 20
-5931.1788890617
 30
0.0
 11
17711.2924566485
 21
-5899.1913609572
 31
0.0
  0
LINE
  5
223
330
1F
100
AcDbEntity
  8
0
  6
Continuous
 62
     7
100
AcDbLine
 10
17711.2924566485
 20
-5899.1913609572
 30
0.0
 11
18255.958416813
 21
-5850.2557987297
 31
0.0
  0
LINE
  5
224
330
1F
100
AcDbEntity
  8
0
  6
Continuous
 62
     7
100
AcDbLine
 10
18255.958416813
 20
-5850.2557987297
 30
0.0
 11
18795.2891064782
 21
-5784.5132962864
 31
0.0
  0
LINE
  5
225
330
1F
100
AcDbEntity
  8
0
  6
Continuous
 62
     7
100
AcDbLine
 10
18795.2891064782
 20
-5784.5132962864
 30
0.0
 11
19327.7294956312
 21
-5702.153406267
 31
0.0
  0
LINE
  5
226
330
1F
100
AcDbEntity
  8
0
  6
Continuous
 62
     7
100
AcDbLine
 10
19327.7294956312
 20
-5702.153406267
 30
0.0
 11
19851.7444208075
 21
-5603.4135935467
 31
0.0
  0
LINE
  5
227
330
1F
100
AcDbEntity
  8
0
  6
Continuous
 62
     7
100
AcDbLine
 10
19851.7444208075
 20
-5603.4135935467
 30
0.0
 11
20365.8230113182
 21
-5488.5785505884
 31
0.0
  0
LINE
  5
228
330
1F
100
AcDbEntity
  8
0
  6
Continuous
 62
     7
100
AcDbLine
 10
20365.8230113182
 20
-5488.5785505884
 30
0.0
 11
20868.4830455072
 21
-5357.9793765207
 31
0.0
  0
LINE
  5
229
330
1F
100
AcDbEntity
  8
0
  6
Continuous
 62
     7
100
AcDbLine
 10
20868.4830455072
 20
-5357.9793765207
 30
0.0
 11
21358.2752243898
 21
-5211.9926225897
 31
0.0
  0
LINE
  5
22A
330
1F
100
AcDbEntity
  8
0
  6
Continuous
 62
     7
100
AcDbLine
 10
21358.2752243898
 20
-5211.9926225897
 30
0.0
 11
21833.787350282
 21
-5051.0392063939
 31
0.0
  0
LINE
  5
22B
330
1F
100
AcDbEntity
  8
0
  6
Continuous
 62
     7
100
AcDbLine
 10
21833.787350282
 20
-5051.0392063939
 30
0.0
 11
22293.6483986682
 21
-4875.583198314
 31
0.0
  0
LINE
  5
22C
330
1F
100
AcDbEntity
  8
0
  6
Continuous
 62
     7
100
AcDbLine
 10
22293.6483986682
 20
-4875.583198314
 30
0.0
 11
22736.5324710778
 21
-4686.1304834039
 31
0.0
  0
LINE
  5
22D
330
1F
100
AcDbEntity
  8
0
  6
Continuous
 62
     7
100
AcDbLine
 10
22736.5324710778
 20
-4686.1304834039
 30
0.0
 11
23161.1626180947
 21
-4483.2273029249
 31
0.0
  0
LINE
  5
22E
330
1F
100
AcDbEntity
  8
0
  6
Continuous
 62
     7
100
AcDbLine
 10
23161.1626180947
 20
-4483.2273029249
 30
0.0
 11
23566.3145210588
 21
-4267.4586792602
 31
0.0
  0
LINE
  5
22F
330
1F
100
AcDbEntity
  8
0
  6
Continuous
 62
     7
100
AcDbLine
 10
23566.3145210588
 20
-4267.4586792602
 30
0.0
 11
23950.8200221803
 21
-4039.4467291954
 31
0.0
  0
LINE
  5
230
330
1F
100
AcDbEntity
  8
0
  6
Continuous
 62
     7
100
AcDbLine
 10
23950.8200221803
 20
-4039.4467291954
 30
0.0
 11
24313.5704925235
 21
-3799.8488701995
 31
0.0
  0
LINE
  5
231
330
1F
100
AcDbEntity
  8
0
  6
Continuous
 62
     7
100
AcDbLine
 10
24313.5704925235
 20
-3799.8488701995
 30
0.0
 11
24653.5200286217
 21
-3549.3559249607
 31
0.0
  0
LINE
  5
232
330
1F
100
AcDbEntity
  8
0
  6
Continuous
 62
     7
100
AcDbLine
 10
24653.5200286217
 20
-3549.3559249607
 30
0.0
 11
24969.6884679247
 21
-3288.6901294729
 31
0.0
  0
LINE
  5
233
330
1F
100
AcDbEntity
  8
0
  6
Continuous
 62
     7
100
AcDbLine
 10
24969.6884679247
 20
-3288.6901294729
 30
0.0
 11
25261.1642149755
 21
-3018.6030506919
 31
0.0
  0
LINE
  5
234
330
1F
100
AcDbEntity
  8
0
  6
Continuous
 62
     7
100
AcDbLine
 10
25261.1642149755
 20
-3018.6030506919
 30
0.0
 11
25527.1068697752
 21
-2739.8734195852
 31
0.0
  0
LINE
  5
235
330
1F
100
AcDbEntity
  8
0
  6
Continuous
 62
     7
100
AcDbLine
 10
25527.1068697752
 20
-2739.8734195852
 30
0.0
 11
25766.749650763
 21
-2453.3048858344
 31
0.0
  0
LINE
  5
236
330
1F
100
AcDbEntity
  8
0
  6
Continuous
 62
     7
100
AcDbLine
 10
25766.749650763
 20
-2453.3048858344
 30
0.0
 11
25979.401605803
 21
-2159.7237007244
 31
0.0
  0
LINE
  5
237
330
1F
100
AcDbEntity
  8
0
  6
Continuous
 62
     7
100
AcDbLine
 10
25979.401605803
 20
-2159.7237007244
 30
0.0
 11
26164.4496042087
 21
-1859.9763347879
 31
0.0
  0
LINE
  5
238
330
1F
100
AcDbEntity
  8
0
  6
Continuous
 62
     7
100
AcDbLine
 10
26164.4496042087
 20
-1859.9763347879
 30
0.0
 11
26321.3601047482
 21
-1554.9270372879
 31
0.0
  0
LINE
  5
239
330
1F
100
AcDbEntity
  8
0
  6
Continuous
 62
     7
100
AcDbLine
 10
26321.3601047482
 20
-1554.9270372879
 30
0.0
 11
26449.6806938087
 21
-1245.4553443262
 31
0.0
  0
LINE
  5
23A
330
1F
100
AcDbEntity
  8
0
  6
Continuous
 62
     7
100
AcDbLine
 10
26449.6806938087
 20
-1245.4553443262
 30
0.0
 11
26549.0413899067
 21
-932.4535428962
 31
0.0
  0
LINE
  5
23B
330
1F
100
AcDbEntity
  8
0
  6
Continuous
 62
     7
100
AcDbLine
 10
26549.0413899067
 20
-932.4535428962
 30
0.0
 11
26604.8556857053
 21
-693.5354007884
 31
0.0
  0
LINE
  5
23C
330
1F
100
AcDbEntity
  8
0
  6
Continuous
 62
     7
100
AcDbLine
 10
6199.0127520375
 20
-656.1532981892
 30
0.0
 11
6241.734427537
 21
-853.7570841467
 31
0.0
  0
LINE
  5
23D
330
1F
100
AcDbEntity
  8
0
  6
Continuous
 62
     7
100
AcDbLine
 10
6241.734427537
 20
-853.7570841467
 30
0.0
 11
6333.8071058003
 21
-1167.5007431127
 31
0.0
  0
LINE
  5
23E
330
1F
100
AcDbEntity
  8
0
  6
Continuous
 62
     7
100
AcDbLine
 10
6333.8071058003
 20
-1167.5007431127
 30
0.0
 11
6454.9191620905
 21
-1477.9390569057
 31
0.0
  0
LINE
  5
23F
330
1F
100
AcDbEntity
  8
0
  6
Continuous
 62
     7
100
AcDbLine
 10
6454.9191620905
 20
-1477.9390569057
 30
0.0
 11
6604.7213990097
 21
-1784.1769515199
 31
0.0
  0
LINE
  5
240
330
1F
100
AcDbEntity
  8
0
  6
Continuous
 62
     7
100
AcDbLine
 10
6604.7213990097
 20
-1784.1769515199
 30
0.0
 11
6782.781897896
 21
-2085.3314637957
 31
0.0
  0
LINE
  5
241
330
1F
100
AcDbEntity
  8
0
  6
Continuous
 62
     7
100
AcDbLine
 10
6782.781897896
 20
-2085.3314637957
 30
0.0
 11
6988.5872642763
 21
-2380.5342873307
 31
0.0
  0
LINE
  5
242
330
1F
100
AcDbEntity
  8
0
  6
Continuous
 62
     7
100
AcDbLine
 10
6988.5872642763
 20
-2380.5342873307
 30
0.0
 11
7221.5441079963
 21
-2668.9342759787
 31
0.0
  0
LINE
  5
243
330
1F
100
AcDbEntity
  8
0
  6
Continuous
 62
     7
100
AcDbLine
 10
7221.5441079963
 20
-2668.9342759787
 30
0.0
 11
7480.9807541397
 21
-2949.6998979087
 31
0.0
  0
LINE
  5
244
330
1F
100
AcDbEntity
  8
0
  6
Continuous
 62
     7
100
AcDbLine
 10
7480.9807541397
 20
-2949.6998979087
 30
0.0
 11
7766.1491797185
 21
-3222.0216331257
 31
0.0
  0
LINE
  5
245
330
1F
100
AcDbEntity
  8
0
  6
Continuous
 62
     7
100
AcDbLine
 10
7766.1491797185
 20
-3222.0216331257
 30
0.0
 11
8076.2271703295
 21
-3485.1143076092
 31
0.0
  0
LINE
  5
246
330
1F
100
AcDbEntity
  8
0
  6
Continuous
 62
     7
100
AcDbLine
 10
8076.2271703295
 20
-3485.1143076092
 30
0.0
 11
8410.3206908483
 21
-3738.2193570432
 31
0.0
  0
LINE
  5
247
330
1F
100
AcDbEntity
  8
0
  6
Continuous
 62
     7
100
AcDbLine
 10
8410.3206908483
 20
-3738.2193570432
 30
0.0
 11
8767.4664632048
 21
-3980.6070140422
 31
0.0
  0
LINE
  5
248
330
1F
100
AcDbEntity
  8
0
  6
Continuous
 62
     7
100
AcDbLine
 10
8767.4664632048
 20
-3980.6070140422
 30
0.0
 11
9146.634743632
 21
-4211.5784122667
 31
0.0
  0
LINE
  5
249
330
1F
100
AcDbEntity
  8
0
  6
Continuous
 62
     7
100
AcDbLine
 10
9017.587756063
 20
20339.2642199798
 30
0.0
 11
8634.8564789885
 21
20572.2997956051
 31
0.0
  0
LINE
  5
24A
330
1F
100
AcDbEntity
  8
0
  6
Continuous
 62
     7
100
AcDbLine
 10
8634.8564789885
 20
20572.2997956051
 30
0.0
 11
8274.15201401
 21
20816.7643189196
 31
0.0
  0
LINE
  5
24B
330
1F
100
AcDbEntity
  8
0
  6
Continuous
 62
     7
100
AcDbLine
 10
8274.15201401
 20
20816.7643189196
 30
0.0
 11
7936.496817122
 21
21071.9648286633
 31
0.0
  0
LINE
  5
24C
330
1F
100
AcDbEntity
  8
0
  6
Continuous
 62
     7
100
AcDbLine
 10
7936.496817122
 20
21071.9648286633
 30
0.0
 11
7622.8480086802
 21
21337.1779312633
 31
0.0
  0
LINE
  5
24D
330
1F
100
AcDbEntity
  8
0
  6
Continuous
 62
     7
100
AcDbLine
 10
7622.8480086802
 20
21337.1779312633
 30
0.0
 11
7334.0946602838
 21
21611.6518513671
 31
0.0
  0
LINE
  5
24E
330
1F
100
AcDbEntity
  8
0
  6
Continuous
 62
     7
100
AcDbLine
 10
7334.0946602838
 20
21611.6518513671
 30
0.0
 11
7071.055274687
 21
21894.6085628403
 31
0.0
  0
LINE
  5
24F
330
1F
100
AcDbEntity
  8
0
  6
Continuous
 62
     7
100
AcDbLine
 10
7071.055274687
 20
21894.6085628403
 30
0.0
 11
6834.4754656045
 21
22185.2459941153
 31
0.0
  0
LINE
  5
250
330
1F
100
AcDbEntity
  8
0
  6
Continuous
 62
     7
100
AcDbLine
 10
6834.4754656045
 20
22185.2459941153
 30
0.0
 11
6625.0258442147
 21
22482.7403018306
 31
0.0
  0
LINE
  5
251
330
1F
100
AcDbEntity
  8
0
  6
Continuous
 62
     7
100
AcDbLine
 10
6625.0258442147
 20
22482.7403018306
 30
0.0
 11
6443.300118222
 21
22786.2482060643
 31
0.0
  0
LINE
  5
252
330
1F
100
AcDbEntity
  8
0
  6
Continuous
 62
     7
100
AcDbLine
 10
6443.300118222
 20
22786.2482060643
 30
0.0
 11
6289.8134089325
 21
23094.9093806648
 31
0.0
  0
LINE
  5
253
330
1F
100
AcDbEntity
  8
0
  6
Continuous
 62
     7
100
AcDbLine
 10
6289.8134089325
 20
23094.9093806648
 30
0.0
 11
6165.0007910903
 21
23407.8488920161
 31
0.0
  0
LINE
  5
254
330
1F
100
AcDbEntity
  8
0
  6
Continuous
 62
     7
100
AcDbLine
 10
6165.0007910903
 20
23407.8488920161
 30
0.0
 11
6069.2160596515
 21
23724.1796790486
 31
0.0
  0
LINE
  5
255
330
1F
100
AcDbEntity
  8
0
  6
Continuous
 62
     7
100
AcDbLine
 10
6069.2160596515
 20
23724.1796790486
 30
0.0
 11
6002.7307268378
 21
24043.0050677973
 31
0.0
  0
LINE
  5
256
330
1F
100
AcDbEntity
  8
0
  6
Continuous
 62
     7
100
AcDbLine
 10
6002.7307268378
 20
24043.0050677973
 30
0.0
 11
5996.3961867317
 21
24083.6165343773
 31
0.0
  0
LINE
  5
257
330
1F
100
AcDbEntity
  8
0
  6
Continuous
 62
     7
100
AcDbLine
 10
26810.3147386438
 20
24055.4359266531
 30
0.0
 11
26778.7583527915
 21
23883.3368965
 31
0.0
  0
LINE
  5
258
330
1F
100
AcDbEntity
  8
0
  6
Continuous
 62
     7
100
AcDbLine
 10
26778.7583527915
 20
23883.3368965
 30
0.0
 11
26697.594557114
 21
23565.6462225618
 31
0.0
  0
LINE
  5
259
330
1F
100
AcDbEntity
  8
0
  6
Continuous
 62
     7
100
AcDbLine
 10
26697.594557114
 20
23565.6462225618
 30
0.0
 11
26587.2567800052
 21
23250.8995306383
 31
0.0
  0
LINE
  5
25A
330
1F
100
AcDbEntity
  8
0
  6
Continuous
 62
     7
100
AcDbLine
 10
26587.2567800052
 20
23250.8995306383
 30
0.0
 11
26448.057785859
 21
22939.9890044463
 31
0.0
  0
LINE
  5
25B
330
1F
100
AcDbEntity
  8
0
  6
Continuous
 62
     7
100
AcDbLine
 10
26448.057785859
 20
22939.9890044463
 30
0.0
 11
26280.3921493842
 21
22633.7959536043
 31
0.0
  0
LINE
  5
25C
330
1F
100
AcDbEntity
  8
0
  6
Continuous
 62
     7
100
AcDbLine
 10
26280.3921493842
 20
22633.7959536043
 30
0.0
 11
26084.735137008
 21
22333.1883156273
 31
0.0
  0
LINE
  5
25D
330
1F
100
AcDbEntity
  8
0
  6
Continuous
 62
     7
100
AcDbLine
 10
26084.735137008
 20
22333.1883156273
 30
0.0
 11
25861.6413598245
 21
22039.0181955166
 31
0.0
  0
LINE
  5
25E
330
1F
100
AcDbEntity
  8
0
  6
Continuous
 62
     7
100
AcDbLine
 10
25861.6413598245
 20
22039.0181955166
 30
0.0
 11
25611.7432013577
 21
21752.1194504085
 31
0.0
  0
LINE
  5
25F
330
1F
100
AcDbEntity
  8
0
  6
Continuous
 62
     7
100
AcDbLine
 10
25611.7432013577
 20
21752.1194504085
 30
0.0
 11
25335.7490251012
 21
21473.3053259993
 31
0.0
  0
LINE
  5
260
330
1F
100
AcDbEntity
  8
0
  6
Continuous
 62
     7
100
AcDbLine
 10
25335.7490251012
 20
21473.3053259993
 30
0.0
 11
25034.4411665252
 21
21203.3661512043
 31
0.0
  0
LINE
  5
261
330
1F
100
AcDbEntity
  8
0
  6
Continuous
 62
     7
100
AcDbLine
 10
25034.4411665252
 20
21203.3661512043
 30
0.0
 11
24708.673715501
 21
20943.0670979528
 31
0.0
  0
LINE
  5
262
330
1F
100
AcDbEntity
  8
0
  6
Continuous
 62
     7
100
AcDbLine
 10
24708.673715501
 20
20943.0670979528
 30
0.0
 11
24359.3700952558
 21
20693.1460121753
 31
0.0
  0
LINE
  5
263
330
1F
100
AcDbEntity
  8
0
  6
Continuous
 62
     7
100
AcDbLine
 10
24359.3700952558
 20
20693.1460121753
 30
0.0
 11
23987.52044483
 21
20454.3113223353
 31
0.0
  0
LINE
  5
264
330
1F
100
AcDbEntity
  8
0
  6
Continuous
 62
     7
100
AcDbLine
 10
23987.52044483
 20
20454.3113223353
 30
0.0
 11
23594.1788125013
 21
20227.2400313453
 31
0.0
  0
LINE
  5
265
330
1F
100
AcDbEntity
  8
0
  6
Continuous
 62
     7
100
AcDbLine
 10
23594.1788125013
 20
20227.2400313453
 30
0.0
 11
23180.4601678393
 21
20012.5757974151
 31
0.0
  0
LINE
  5
266
330
1F
100
AcDbEntity
  8
0
  6
Continuous
 62
     7
100
AcDbLine
 10
23180.4601678393
 20
20012.5757974151
 30
0.0
 11
22747.5372412805
 21
19810.9271096539
 31
0.0
  0
LINE
  5
267
330
1F
100
AcDbEntity
  8
0
  6
Continuous
 62
     7
100
AcDbLine
 10
22747.5372412805
 20
19810.9271096539
 30
0.0
 11
22296.637199909
 21
19622.8655631898
 31
0.0
  0
LINE
  5
268
330
1F
100
AcDbEntity
  8
0
  6
Continuous
 62
     7
100
AcDbLine
 10
22296.637199909
 20
19622.8655631898
 30
0.0
 11
21829.0381688785
 21
19448.9242388806
 31
0.0
  0
LINE
  5
269
330
1F
100
AcDbEntity
  8
0
  6
Continuous
 62
     7
100
AcDbLine
 10
21829.0381688785
 20
19448.9242388806
 30
0.0
 11
21346.065608459
 21
19289.5961923041
 31
0.0
  0
LINE
  5
26A
330
1F
100
AcDbEntity
  8
0
  6
Continuous
 62
     7
100
AcDbLine
 10
21346.065608459
 20
19289.5961923041
 30
0.0
 11
20849.088556818
 21
19145.3330561555
 31
0.0
  0
LINE
  5
26B
330
1F
100
AcDbEntity
  8
0
  6
Continuous
 62
     7
100
AcDbLine
 10
20849.088556818
 20
19145.3330561555
 30
0.0
 11
20339.5157494318
 21
19016.5437599371
 31
0.0
  0
LINE
  5
26C
330
1F
100
AcDbEntity
  8
0
  6
Continuous
 62
     7
100
AcDbLine
 10
20339.5157494318
 20
19016.5437599371
 30
0.0
 11
19818.7916257663
 21
18903.5933709181
 31
0.0
  0
LINE
  5
26D
330
1F
100
AcDbEntity
  8
0
  6
Continuous
 62
     7
100
AcDbLine
 10
19818.7916257663
 20
18903.5933709181
 30
0.0
 11
19288.3922349262
 21
18806.8020592328
 31
0.0
  0
LINE
  5
26E
330
1F
100
AcDbEntity
  8
0
  6
Continuous
 62
     7
100
AcDbLine
 10
19288.3922349262
 20
18806.8020592328
 30
0.0
 11
18749.8210516238
 21
18726.4441903991
 31
0.0
  0
LINE
  5
26F
330
1F
100
AcDbEntity
  8
0
  6
Continuous
 62
     7
100
AcDbLine
 10
18749.8210516238
 20
18726.4441903991
 30
0.0
 11
18204.6047143833
 21
18662.7475474848
 31
0.0
  0
LINE
  5
270
330
1F
100
AcDbEntity
  8
0
  6
Continuous
 62
     7
100
AcDbLine
 10
18204.6047143833
 20
18662.7475474848
 30
0.0
 11
17654.2886981383
 21
18615.8926855693
 31
0.0
  0
LINE
  5
271
330
1F
100
AcDbEntity
  8
0
  6
Continuous
 62
     7
100
AcDbLine
 10
17654.2886981383
 20
18615.8926855693
 30
0.0
 11
17100.4329334465
 21
18586.0124198488
 31
0.0
  0
LINE
  5
272
330
1F
100
AcDbEntity
  8
0
  6
Continuous
 62
     7
100
AcDbLine
 10
17100.4329334465
 20
18586.0124198488
 30
0.0
 11
16544.6073846428
 21
18573.1914491938
 31
0.0
  0
LINE
  5
273
330
1F
100
AcDbEntity
  8
0
  6
Continuous
 62
     7
100
AcDbLine
 10
16544.6073846428
 20
18573.1914491938
 30
0.0
 11
15988.3875996127
 21
18577.4661159973
 31
0.0
  0
LINE
  5
274
330
1F
100
AcDbEntity
  8
0
  6
Continuous
 62
     7
100
AcDbLine
 10
15988.3875996127
 20
18577.4661159973
 30
0.0
 11
15433.3502437992
 21
18598.8243032996
 31
0.0
  0
LINE
  5
275
330
1F
100
AcDbEntity
  8
0
  6
Continuous
 62
     7
100
AcDbLine
 10
15433.3502437992
 20
18598.8243032996
 30
0.0
 11
14881.0686308865
 21
18637.2054689703
 31
0.0
  0
LINE
  5
276
330
1F
100
AcDbEntity
  8
0
  6
Continuous
 62
     7
100
AcDbLine
 10
14881.0686308865
 20
18637.2054689703
 30
0.0
 11
14333.1082630843
 21
18692.5008174413
 31
0.0
  0
LINE
  5
277
330
1F
100
AcDbEntity
  8
0
  6
Continuous
 62
     7
100
AcDbLine
 10
14333.1082630843
 20
18692.5008174413
 30
0.0
 11
13791.0223936038
 21
18764.5536080219
 31
0.0
  0
LINE
  5
278
330
1F
100
AcDbEntity
  8
0
  6
Continuous
 62
     7
100
AcDbLine
 10
13791.0223936038
 20
18764.5536080219
 30
0.0
 11
13256.3476237357
 21
18853.1595992678
 31
0.0
  0
LINE
  5
279
330
1F
100
AcDbEntity
  8
0
  6
Continuous
 62
     7
100
AcDbLine
 10
13256.3476237357
 20
18853.1595992678
 30
0.0
 11
12730.5995472142
 21
18958.0676278538
 31
0.0
  0
LINE
  5
27A
330
1F
100
AcDbEntity
  8
0
  6
Continuous
 62
     7
100
AcDbLine
 10
12730.5995472142
 20
18958.0676278538
 30
0.0
 11
12215.2684540752
 21
19078.9803205966
 31
0.0
  0
LINE
  5
27B
330
1F
100
AcDbEntity
  8
0
  6
Continuous
 62
     7
100
AcDbLine
 10
12215.2684540752
 20
19078.9803205966
 30
0.0
 11
11711.815106311
 21
19215.5549372948
 31
0.0
  0
LINE
  5
27C
330
1F
100
AcDbEntity
  8
0
  6
Continuous
 62
     7
100
AcDbLine
 10
11711.815106311
 20
19215.5549372948
 30
0.0
 11
11221.666597091
 21
19367.4043423958
 31
0.0
  0
LINE
  5
27D
330
1F
100
AcDbEntity
  8
0
  6
Continuous
 62
     7
100
AcDbLine
 10
11221.666597091
 20
19367.4043423958
 30
0.0
 11
10746.2123056495
 21
19534.09810224
 31
0.0
  0
LINE
  5
27E
330
1F
100
AcDbEntity
  8
0
  6
Continuous
 62
     7
100
AcDbLine
 10
10746.2123056495
 20
19534.09810224
 30
0.0
 11
10286.799958826
 21
19715.1637052746
 31
0.0
  0
LINE
  5
27F
330
1F
100
AcDbEntity
  8
0
  6
Continuous
 62
     7
100
AcDbLine
 10
10286.799958826
 20
19715.1637052746
 30
0.0
 11
9844.7318108292
 21
19910.0879013655
 31
0.0
  0
LINE
  5
280
330
1F
100
AcDbEntity
  8
0
  6
Continuous
 62
     7
100
AcDbLine
 10
9844.7318108292
 20
19910.0879013655
 30
0.0
 11
9421.2609518645
 21
20118.3181566886
 31
0.0
  0
LINE
  5
281
330
1F
100
AcDbEntity
  8
0
  6
Continuous
 62
     7
100
AcDbLine
 10
9421.2609518645
 20
20118.3181566886
 30
0.0
 11
9017.587756063
 21
20339.2642199798
 31
0.0
  0
LINE
  5
282
330
1F
100
AcDbEntity
  8
0
  6
Continuous
 62
     7
100
AcDbLine
 10
26363.5948061172
 20
25078.3343225421
 30
0.0
 11
26305.9331395783
 21
25382.9365004076
 31
0.0
  0
LINE
  5
283
330
1F
100
AcDbEntity
  8
0
  6
Continuous
 62
     7
100
AcDbLine
 10
26305.9331395783
 20
25382.9365004076
 30
0.0
 11
26218.3851917537
 21
25691.2190246468
 31
0.0
  0
LINE
  5
284
330
1F
100
AcDbEntity
  8
0
  6
Continuous
 62
     7
100
AcDbLine
 10
26218.3851917537
 20
25691.2190246468
 30
0.0
 11
26102.0544424515
 21
25996.3132263631
 31
0.0
  0
LINE
  5
285
330
1F
100
AcDbEntity
  8
0
  6
Continuous
 62
     7
100
AcDbLine
 10
26102.0544424515
 20
25996.3132263631
 30
0.0
 11
25957.2821098045
 21
26297.3242116963
 31
0.0
  0
LINE
  5
286
330
1F
100
AcDbEntity
  8
0
  6
Continuous
 62
     7
100
AcDbLine
 10
25957.2821098045
 20
26297.3242116963
 30
0.0
 11
25784.4928360173
 21
26593.3690635863
 31
0.0
  0
LINE
  5
287
330
1F
100
AcDbEntity
  8
0
  6
Continuous
 62
     7
100
AcDbLine
 10
25784.4928360173
 20
26593.3690635863
 30
0.0
 11
25584.1934417667
 21
26883.5794314658
 31
0.0
  0
LINE
  5
288
330
1F
100
AcDbEntity
  8
0
  6
Continuous
 62
     7
100
AcDbLine
 10
25584.1934417667
 20
26883.5794314658
 30
0.0
 11
25356.9714397217
 21
27167.1040783219
 31
0.0
  0
LINE
  5
289
330
1F
100
AcDbEntity
  8
0
  6
Continuous
 62
     7
100
AcDbLine
 10
25356.9714397217
 20
27167.1040783219
 30
0.0
 11
25103.4933111404
 21
27443.1113774963
 31
0.0
  0
LINE
  5
28A
330
1F
100
AcDbEntity
  8
0
  6
Continuous
 62
     7
100
AcDbLine
 10
25103.4933111404
 20
27443.1113774963
 30
0.0
 11
24824.5025510767
 21
27710.7917520543
 31
0.0
  0
LINE
  5
28B
330
1F
100
AcDbEntity
  8
0
  6
Continuous
 62
     7
100
AcDbLine
 10
24824.5025510767
 20
27710.7917520543
 30
0.0
 11
24520.8174874682
 21
27969.3600493096
 31
0.0
  0
LINE
  5
28C
330
1F
100
AcDbEntity
  8
0
  6
Continuous
 62
     7
100
AcDbLine
 10
24520.8174874682
 20
27969.3600493096
 30
0.0
 11
24193.3288809333
 21
28218.0578439198
 31
0.0
  0
LINE
  5
28D
330
1F
100
AcDbEntity
  8
0
  6
Continuous
 62
     7
100
AcDbLine
 10
24193.3288809333
 20
28218.0578439198
 30
0.0
 11
23842.9973120093
 21
28456.1556623976
 31
0.0
  0
LINE
  5
28E
330
1F
100
AcDbEntity
  8
0
  6
Continuous
 62
     7
100
AcDbLine
 10
23842.9973120093
 20
28456.1556623976
 30
0.0
 11
23470.8503635172
 21
28682.9551228131
 31
0.0
  0
LINE
  5
28F
330
1F
100
AcDbEntity
  8
0
  6
Continuous
 62
     7
100
AcDbLine
 10
23470.8503635172
 20
28682.9551228131
 30
0.0
 11
23077.9796065925
 21
28897.7909832656
 31
0.0
  0
LINE
  5
290
330
1F
100
AcDbEntity
  8
0
  6
Continuous
 62
     7
100
AcDbLine
 10
23077.9796065925
 20
28897.7909832656
 30
0.0
 11
22665.537398868
 21
29100.0330931551
 31
0.0
  0
LINE
  5
291
330
1F
100
AcDbEntity
  8
0
  6
Continuous
 62
     7
100
AcDbLine
 10
22665.537398868
 20
29100.0330931551
 30
0.0
 11
22234.7335043737
 21
29289.0882415423
 31
0.0
  0
LINE
  5
292
330
1F
100
AcDbEntity
  8
0
  6
Continuous
 62
     7
100
AcDbLine
 10
22234.7335043737
 20
29289.0882415423
 30
0.0
 11
21786.831545171
 21
29464.4018971221
 31
0.0
  0
LINE
  5
293
330
1F
100
AcDbEntity
  8
0
  6
Continuous
 62
     7
100
AcDbLine
 10
21786.831545171
 20
29464.4018971221
 30
0.0
 11
21323.1452948867
 21
29625.4598346996
 31
0.0
  0
LINE
  5
294
330
1F
100
AcDbEntity
  8
0
  6
Continuous
 62
     7
100
AcDbLine
 10
21323.1452948867
 20
29625.4598346996
 30
0.0
 11
20845.0348251715
 21
29771.7896436078
 31
0.0
  0
LINE
  5
295
330
1F
100
AcDbEntity
  8
0
  6
Continuous
 62
     7
100
AcDbLine
 10
20845.0348251715
 20
29771.7896436078
 30
0.0
 11
20353.9025164318
 21
29902.9621133023
 31
0.0
  0
LINE
  5
296
330
1F
100
AcDbEntity
  8
0
  6
Continuous
 62
     7
100
AcDbLine
 10
20353.9025164318
 20
29902.9621133023
 30
0.0
 11
19851.1889443165
 21
30018.5924923373
 31
0.0
  0
LINE
  5
297
330
1F
100
AcDbEntity
  8
0
  6
Continuous
 62
     7
100
AcDbLine
 10
19851.1889443165
 20
30018.5924923373
 30
0.0
 11
19338.368654386
 21
30118.3416168728
 31
0.0
  0
LINE
  5
298
330
1F
100
AcDbEntity
  8
0
  6
Continuous
 62
     7
100
AcDbLine
 10
19338.368654386
 20
30118.3416168728
 30
0.0
 11
18816.94583688
 21
30201.9169055551
 31
0.0
  0
LINE
  5
299
330
1F
100
AcDbEntity
  8
0
  6
Continuous
 62
     7
100
AcDbLine
 10
18816.94583688
 20
30201.9169055551
 30
0.0
 11
18288.4499147803
 21
30269.0732176681
 31
0.0
  0
LINE
  5
29A
330
1F
100
AcDbEntity
  8
0
  6
Continuous
 62
     7
100
AcDbLine
 10
18288.4499147803
 20
30269.0732176681
 30
0.0
 11
17754.4310576685
 21
30319.6135721652
 31
0.0
  0
LINE
  5
29B
330
1F
100
AcDbEntity
  8
0
  6
Continuous
 62
     7
100
AcDbLine
 10
17754.4310576685
 20
30319.6135721652
 30
0.0
 11
17216.455634885
 21
30353.389725483
 31
0.0
  0
LINE
  5
29C
330
1F
100
AcDbEntity
  8
0
  6
Continuous
 62
     7
100
AcDbLine
 10
17216.455634885
 20
30353.389725483
 30
0.0
 11
16676.101621018
 21
30370.3026063283
 31
0.0
  0
LINE
  5
29D
330
1F
100
AcDbEntity
  8
0
  6
Continuous
 62
     7
100
AcDbLine
 10
16676.101621018
 20
30370.3026063283
 30
0.0
 11
16134.9539674848
 21
30370.3026063283
 31
0.0
  0
LINE
  5
29E
330
1F
100
AcDbEntity
  8
0
  6
Continuous
 62
     7
100
AcDbLine
 10
16134.9539674848
 20
30370.3026063283
 30
0.0
 11
15594.5999536177
 21
30353.389725483
 31
0.0
  0
LINE
  5
29F
330
1F
100
AcDbEntity
  8
0
  6
Continuous
 62
     7
100
AcDbLine
 10
15594.5999536177
 20
30353.389725483
 30
0.0
 11
15056.6245308343
 21
30319.6135721652
 31
0.0
  0
LINE
  5
2A0
330
1F
100
AcDbEntity
  8
0
  6
Continuous
 62
     7
100
AcDbLine
 10
15056.6245308343
 20
30319.6135721652
 30
0.0
 11
14522.6056737225
 21
30269.0732176681
 31
0.0
  0
LINE
  5
2A1
330
1F
100
AcDbEntity
  8
0
  6
Continuous
 62
     7
100
AcDbLine
 10
14522.6056737225
 20
30269.0732176681
 30
0.0
 11
13994.1097516227
 21
30201.9169055551
 31
0.0
  0
LINE
  5
2A2
330
1F
100
AcDbEntity
  8
0
  6
Continuous
 62
     7
100
AcDbLine
 10
13994.1097516227
 20
30201.9169055551
 30
0.0
 11
13472.6869341167
 21
30118.3416168728
 31
0.0
  0
LINE
  5
2A3
330
1F
100
AcDbEntity
  8
0
  6
Continuous
 62
     7
100
AcDbLine
 10
13472.6869341167
 20
30118.3416168728
 30
0.0
 11
12959.8666441862
 21
30018.5924923373
 31
0.0
  0
LINE
  5
2A4
330
1F
100
AcDbEntity
  8
0
  6
Continuous
 62
     7
100
AcDbLine
 10
12959.8666441862
 20
30018.5924923373
 30
0.0
 11
12457.153072071
 21
29902.9621133023
 31
0.0
  0
LINE
  5
2A5
330
1F
100
AcDbEntity
  8
0
  6
Continuous
 62
     7
100
AcDbLine
 10
12457.153072071
 20
29902.9621133023
 30
0.0
 11
11966.0207633313
 21
29771.7896436078
 31
0.0
  0
LINE
  5
2A6
330
1F
100
AcDbEntity
  8
0
  6
Continuous
 62
     7
100
AcDbLine
 10
11966.0207633313
 20
29771.7896436078
 30
0.0
 11
11487.910293616
 21
29625.4598346996
 31
0.0
  0
LINE
  5
2A7
330
1F
100
AcDbEntity
  8
0
  6
Continuous
 62
     7
100
AcDbLine
 10
11487.910293616
 20
29625.4598346996
 30
0.0
 11
11024.2240433317
 21
29464.4018971221
 31
0.0
  0
LINE
  5
2A8
330
1F
100
AcDbEntity
  8
0
  6
Continuous
 62
     7
100
AcDbLine
 10
11024.2240433317
 20
29464.4018971221
 30
0.0
 11
10576.322084129
 21
29289.0882415423
 31
0.0
  0
LINE
  5
2A9
330
1F
100
AcDbEntity
  8
0
  6
Continuous
 62
     7
100
AcDbLine
 10
10576.322084129
 20
29289.0882415423
 30
0.0
 11
10145.5181896347
 21
29100.0330931551
 31
0.0
  0
LINE
  5
2AA
330
1F
100
AcDbEntity
  8
0
  6
Continuous
 62
     7
100
AcDbLine
 10
10145.5181896347
 20
29100.0330931551
 30
0.0
 11
9733.0759819102
 21
28897.7909832656
 31
0.0
  0
LINE
  5
2AB
330
1F
100
AcDbEntity
  8
0
  6
Continuous
 62
     7
100
AcDbLine
 10
9733.0759819102
 20
28897.7909832656
 30
0.0
 11
9340.2052249855
 21
28682.9551228131
 31
0.0
  0
LINE
  5
2AC
330
1F
100
AcDbEntity
  8
0
  6
Continuous
 62
     7
100
AcDbLine
 10
9340.2052249855
 20
28682.9551228131
 30
0.0
 11
8968.0582764935
 21
28456.1556623976
 31
0.0
  0
LINE
  5
2AD
330
1F
100
AcDbEntity
  8
0
  6
Continuous
 62
     7
100
AcDbLine
 10
8968.0582764935
 20
28456.1556623976
 30
0.0
 11
8617.7267075695
 21
28218.0578439198
 31
0.0
  0
LINE
  5
2AE
330
1F
100
AcDbEntity
  8
0
  6
Continuous
 62
     7
100
AcDbLine
 10
8617.7267075695
 20
28218.0578439198
 30
0.0
 11
8290.2381010528
 21
27969.3600493096
 31
0.0
  0
LINE
  5
2AF
330
1F
100
AcDbEntity
  8
0
  6
Continuous
 62
     7
100
AcDbLine
 10
8290.2381010528
 20
27969.3600493096
 30
0.0
 11
7986.5530374442
 21
27710.7917520543
 31
0.0
  0
LINE
  5
2B0
330
1F
100
AcDbEntity
  8
0
  6
Continuous
 62
     7
100
AcDbLine
 10
7986.5530374442
 20
27710.7917520543
 30
0.0
 11
7707.5622773623
 21
27443.1113774963
 31
0.0
  0
LINE
  5
2B1
330
1F
100
AcDbEntity
  8
0
  6
Continuous
 62
     7
100
AcDbLine
 10
7707.5622773623
 20
27443.1113774963
 30
0.0
 11
7454.084148781
 21
27167.1040783219
 31
0.0
  0
LINE
  5
2B2
330
1F
100
AcDbEntity
  8
0
  6
Continuous
 62
     7
100
AcDbLine
 10
7454.084148781
 20
27167.1040783219
 30
0.0
 11
7226.862146736
 21
26883.5794314658
 31
0.0
  0
LINE
  5
2B3
330
1F
100
AcDbEntity
  8
0
  6
Continuous
 62
     7
100
AcDbLine
 10
7226.862146736
 20
26883.5794314658
 30
0.0
 11
7026.5627525037
 21
26593.3690635863
 31
0.0
  0
LINE
  5
2B4
330
1F
100
AcDbEntity
  8
0
  6
Continuous
 62
     7
100
AcDbLine
 10
7026.5627525037
 20
26593.3690635863
 30
0.0
 11
6853.7734786983
 21
26297.3242116963
 31
0.0
  0
LINE
  5
2B5
330
1F
100
AcDbEntity
  8
0
  6
Continuous
 62
     7
100
AcDbLine
 10
6853.7734786983
 20
26297.3242116963
 30
0.0
 11
6709.0011460512
 21
25996.3132263631
 31
0.0
  0
LINE
  5
2B6
330
1F
100
AcDbEntity
  8
0
  6
Continuous
 62
     7
100
AcDbLine
 10
6709.0011460512
 20
25996.3132263631
 30
0.0
 11
6592.670396749
 21
25691.2190246468
 31
0.0
  0
LINE
  5
2B7
330
1F
100
AcDbEntity
  8
0
  6
Continuous
 62
     7
100
AcDbLine
 10
6592.670396749
 20
25691.2190246468
 30
0.0
 11
6505.1224489428
 21
25382.9365004076
 31
0.0
  0
LINE
  5
2B8
330
1F
100
AcDbEntity
  8
0
  6
Continuous
 62
     7
100
AcDbLine
 10
6505.1224489428
 20
25382.9365004076
 30
0.0
 11
6455.442937857
 21
25131.2343145123
 31
0.0
  0
LWPOLYLINE
  5
2B9
330
1F
100
AcDbEntity
  8
0
  6
Continuous
 62
     7
100
AcDbPolyline
 90
        6
 70
   128
 43
0.0
 10
6203.1555175781
 20
-678.1979217867
 10
6427.5413783287
 20
-1438.3625089523
 10
6816.0577478412
 20
-2171.5898875479
 10
7358.1597994315
 20
-2866.3097652112
 10
8180.8789722267
 20
-3621.9187035702
 10
9184.4391468501
 20
-4295.1350894517
  0
LWPOLYLINE
  5
2BA
330
1F
100
AcDbEntity
  8
0
  6
Continuous
 62
     7
100
AcDbPolyline
 90
       14
 70
   128
 43
0.0
 10
9184.4329833984
 20
-4295.1350894517
 10
10657.9300564114
 20
-5000.061964515
 10
12328.7175755084
 20
-5533.2470410819
 10
14139.745060574
 20
-5877.1999712325
 10
16028.833376035
 20
-6020.4513771594
 10
17930.9081689024
 20
-5958.183015988
 10
19780.4108539113
 20
-5692.4920136757
 10
21513.7393186678
 20
-5232.2772559848
 10
23071.5733096
 20
-4592.745515728
 10
24400.884471669
 20
-3794.5398068851
 10
25220.2884369153
 20
-3106.6371544969
 10
25869.2176353783
 20
-2355.3035595645
 10
26333.8470504524
 20
-1553.7155779017
 10
26599.2496552646
 20
-716.8914326035
  0
LWPOLYLINE
  5
2BB
330
1F
100
AcDbEntity
  8
0
  6
Continuous
 62
     7
100
AcDbPolyline
 90
       18
 70
   128
 43
0.0
 10
26811.9964599609
 20
25144.8989423992
 10
26559.0121983811
 20
26056.5748398578
 10
26079.114442096
 20
26929.5778975103
 10
25387.8561119032
 20
27745.0458163683
 10
24502.2379402772
 20
28487.268456444
 10
23441.9916884677
 20
29142.3213913003
 10
21906.1173165471
 20
29819.5295504678
 10
20184.4861340871
 20
30319.9462132597
 10
18334.91472829
 20
30627.5289680092
 10
16419.9121302242
 20
30732.2307920418
 10
14504.4214078493
 20
30630.6022485776
 10
12653.4040375059
 20
30325.9915175972
 10
10929.4223809111
 20
29828.3509249287
 10
9390.3781662334
 20
29153.6394988015
 10
8087.654250417
 20
28322.8334526069
 10
7065.1045602408
 20
27360.7641963158
 10
6359.3644864046
 20
26295.7763008422
 10
6002.9674709801
 20
25162.0151907091
  0
LWPOLYLINE
  5
2BC
330
1F
100
AcDbEntity
  8
0
  6
Continuous
 62
     7
100
AcDbPolyline
 90
       14
 70
   128
 43
0.0
 10
26356.201171875
 20
24103.7977829994
 10
26137.5280463112
 20
23326.3988541294
 10
25724.3311515928
 20
22568.1171310385
 10
25123.5201845868
 20
21844.3107606015
 10
24345.2172885431
 20
21171.5333245571
 10
23058.3435572424
 20
20380.7946573789
 10
21530.3359628996
 20
19740.5190725573
 10
19817.0930247778
 20
19275.6859597718
 10
17980.8571500644
 20
19003.9226341091
 10
16087.918480378
 20
18935.3628482579
 10
14206.4072309749
 20
19072.545182097
 10
12404.0838590948
 20
19410.3832841892
 10
10746.1331248432
 20
19936.2242229659
 10
9292.9497209696
 20
20629.9531669624
  0
LWPOLYLINE
  5
2BD
330
1F
100
AcDbEntity
  8
0
  6
Continuous
 62
     7
100
AcDbPolyline
 90
        6
 70
   128
 43
0.0
 10
9292.9458618164
 20
20629.9531669624
 10
8433.2977626279
 20
21195.88548455
 10
7713.1421662092
 20
21818.5153207491
 10
7144.5861937641
 20
22485.3589161172
 10
6680.3003445197
 20
23310.1986444847
 10
6447.1352857161
 20
24158.1786700163
  0
ENDSEC
  0
SECTION
  2
OBJECTS
  0
DICTIONARY
  5
C
330
0
100
AcDbDictionary
281
     1
  3
ACAD_GROUP
350
D
  3
ACAD_LAYOUT
350
1A
  3
ACAD_MLINESTYLE
350
17
  3
ACAD_PLOTSETTINGS
350
19
  3
ACAD_PLOTSTYLENAME
350
E
  3
ACAD_SCALELIST
350
47
  3
DWGPROPS
350
2BE
  0
DICTIONARY
  5
D
102
{ACAD_REACTORS
330
C
102
}
330
C
100
AcDbDictionary
281
     1
  0
DICTIONARY
  5
1A
102
{ACAD_REACTORS
330
C
102
}
330
C
100
AcDbDictionary
281
     1
  3
Layout1
350
1E
  3
Layout2
350
26
  3
Model
350
22
  0
DICTIONARY
  5
17
102
{ACAD_REACTORS
330
C
102
}
330
C
100
AcDbDictionary
281
     1
  3
Standard
350
18
  0
DICTIONARY
  5
19
102
{ACAD_REACTORS
330
C
102
}
330
C
100
AcDbDictionary
281
     1
  0
ACDBDICTIONARYWDFLT
  5
E
102
{ACAD_REACTORS
330
C
102
}
330
C
100
AcDbDictionary
281
     1
  3
Normal
350
F
100
AcDbDictionaryWithDefault
340
F
  0
DICTIONARY
  5
47
102
{ACAD_REACTORS
330
C
102
}
330
C
100
AcDbDictionary
281
     1
  3
A0
350
48
  3
A1
350
49
  3
A2
350
4A
  3
A3
350
4B
  3
A4
350
4C
  3
A5
350
4D
  3
A6
350
4E
  3
A7
350
4F
  3
A8
350
50
  3
A9
350
51
  3
B0
350
52
  3
B1
350
53
  3
B2
350
54
  3
B3
350
55
  3
B4
350
56
  3
B5
350
57
  3
B6
350
58
  3
B7
350
59
  3
B8
350
5A
  3
B9
350
5B
  3
C0
350
5C
  3
C1
350
5D
  3
C2
350
5E
  3
C3
350
5F
  3
C4
350
60
  3
C5
350
61
  3
C6
350
62
  3
C7
350
63
  3
C8
350
64
  3
C9
350
65
  3
D0
350
66
  3
D1
350
67
  3
D2
350
68
  0
XRECORD
  5
2BE
102
{ACAD_REACTORS
330
C
102
}
330
C
100
AcDbXrecord
280
     1
  1
DWGPROPS COOKIE
  2

  3

  4

  6

  7

  8
radek.stransky
  9

300
=
301
=
302
=
303
=
304
=
305
=
306
=
307
=
308
=
309
=
 40
0.0
 41
2459103.218462106
 42
2459103.218596945
  1

 90
        0
  0
LAYOUT
  5
1E
102
{ACAD_REACTORS
330
1A
102
}
330
1A
100
AcDbPlotSettings
  1

  2
none_device
  4

  6

 40
0.0
 41
0.0
 42
0.0
 43
0.0
 44
0.0
 45
0.0
 46
0.0
 47
0.0
 48
0.0
 49
0.0
140
0.0
141
0.0
142
1.0
143
1.0
 70
   688
 72
     1
 73
     0
 74
     5
  7

 75
    16
147
1.0
148
0.0
149
0.0
100
AcDbLayout
  1
Layout1
 70
     1
 71
     1
 10
0.0
 20
0.0
 11
420.0
 21
297.0
 12
0.0
 22
0.0
 32
0.0
 14
1.0000000000E+20
 24
1.0000000000E+20
 34
1.0000000000E+20
 15
-1.0000000000E+20
 25
-1.0000000000E+20
 35
-1.0000000000E+20
146
0.0
 13
0.0
 23
0.0
 33
0.0
 16
1.0
 26
0.0
 36
0.0
 17
0.0
 27
1.0
 37
0.0
 76
     0
330
1B
  0
LAYOUT
  5
26
102
{ACAD_REACTORS
330
1A
102
}
330
1A
100
AcDbPlotSettings
  1

  2
none_device
  4

  6

 40
0.0
 41
0.0
 42
0.0
 43
0.0
 44
0.0
 45
0.0
 46
0.0
 47
0.0
 48
0.0
 49
0.0
140
0.0
141
0.0
142
1.0
143
1.0
 70
   688
 72
     1
 73
     0
 74
     5
  7

 75
    16
147
1.0
148
0.0
149
0.0
100
AcDbLayout
  1
Layout2
 70
     1
 71
     2
 10
0.0
 20
0.0
 11
0.0
 21
0.0
 12
0.0
 22
0.0
 32
0.0
 14
0.0
 24
0.0
 34
0.0
 15
0.0
 25
0.0
 35
0.0
146
0.0
 13
0.0
 23
0.0
 33
0.0
 16
1.0
 26
0.0
 36
0.0
 17
0.0
 27
1.0
 37
0.0
 76
     0
330
23
  0
LAYOUT
  5
22
102
{ACAD_REACTORS
330
1A
102
}
330
1A
100
AcDbPlotSettings
  1

  2
none_device
  4
ANSI_A_(11.00_x_8.50_Inches)
  6

 40
6.35
 41
19.05
 42
6.35000508
 43
19.05000254
 44
279.4
 45
215.9
 46
129.4632430309
 47
93.9344820342
 48
0.0
 49
0.0
140
0.0
141
0.0
142
0.0001304589
143
1.0
 70
  1696
 72
     0
 73
     0
 74
     0
  7

 75
     0
147
0.0179189148
148
-1300.4909072572
149
0.0
100
AcDbLayout
  1
Model
 70
     1
 71
     0
 10
0.0
 20
0.0
 11
420.0
 21
297.0
 12
0.0
 22
0.0
 32
0.0
 14
-24507.751255246
 24
-33770.8591249755
 34
0.0
 15
26853.6527942605
 25
30732.2307920418
 35
0.0
146
0.0
 13
0.0
 23
0.0
 33
0.0
 16
1.0
 26
0.0
 36
0.0
 17
0.0
 27
1.0
 37
0.0
 76
     0
330
1F
331
29
  0
MLINESTYLE
  5
18
102
{ACAD_REACTORS
330
17
102
}
330
17
100
AcDbMlineStyle
  2
Standard
 70
     0
  3

 62
   256
 51
90.0
 52
90.0
 71
     2
 49
0.5
 62
   256
  6
BYLAYER
 49
-0.5
 62
   256
  6
BYLAYER
  0
ACDBPLACEHOLDER
  5
F
102
{ACAD_REACTORS
330
E
102
}
330
E
  0
SCALE
  5
48
102
{ACAD_REACTORS
330
47
102
}
330
47
100
AcDbScale
 70
     0
300
1:1
140
1.0
141
1.0
290
     1
  0
SCALE
  5
49
102
{ACAD_REACTORS
330
47
102
}
330
47
100
AcDbScale
 70
     0
300
1:2
140
1.0
141
2.0
290
     0
  0
SCALE
  5
4A
102
{ACAD_REACTORS
330
47
102
}
330
47
100
AcDbScale
 70
     0
300
1:4
140
1.0
141
4.0
290
     0
  0
SCALE
  5
4B
102
{ACAD_REACTORS
330
47
102
}
330
47
100
AcDbScale
 70
     0
300
1:5
140
1.0
141
5.0
290
     0
  0
SCALE
  5
4C
102
{ACAD_REACTORS
330
47
102
}
330
47
100
AcDbScale
 70
     0
300
1:8
140
1.0
141
8.0
290
     0
  0
SCALE
  5
4D
102
{ACAD_REACTORS
330
47
102
}
330
47
100
AcDbScale
 70
     0
300
1:10
140
1.0
141
10.0
290
     0
  0
SCALE
  5
4E
102
{ACAD_REACTORS
330
47
102
}
330
47
100
AcDbScale
 70
     0
300
1:16
140
1.0
141
16.0
290
     0
  0
SCALE
  5
4F
102
{ACAD_REACTORS
330
47
102
}
330
47
100
AcDbScale
 70
     0
300
1:20
140
1.0
141
20.0
290
     0
  0
SCALE
  5
50
102
{ACAD_REACTORS
330
47
102
}
330
47
100
AcDbScale
 70
     0
300
1:30
140
1.0
141
30.0
290
     0
  0
SCALE
  5
51
102
{ACAD_REACTORS
330
47
102
}
330
47
100
AcDbScale
 70
     0
300
1:40
140
1.0
141
40.0
290
     0
  0
SCALE
  5
52
102
{ACAD_REACTORS
330
47
102
}
330
47
100
AcDbScale
 70
     0
300
1:50
140
1.0
141
50.0
290
     0
  0
SCALE
  5
53
102
{ACAD_REACTORS
330
47
102
}
330
47
100
AcDbScale
 70
     0
300
1:100
140
1.0
141
100.0
290
     0
  0
SCALE
  5
54
102
{ACAD_REACTORS
330
47
102
}
330
47
100
AcDbScale
 70
     0
300
2:1
140
2.0
141
1.0
290
     0
  0
SCALE
  5
55
102
{ACAD_REACTORS
330
47
102
}
330
47
100
AcDbScale
 70
     0
300
4:1
140
4.0
141
1.0
290
     0
  0
SCALE
  5
56
102
{ACAD_REACTORS
330
47
102
}
330
47
100
AcDbScale
 70
     0
300
8:1
140
8.0
141
1.0
290
     0
  0
SCALE
  5
57
102
{ACAD_REACTORS
330
47
102
}
330
47
100
AcDbScale
 70
     0
300
10:1
140
10.0
141
1.0
290
     0
  0
SCALE
  5
58
102
{ACAD_REACTORS
330
47
102
}
330
47
100
AcDbScale
 70
     0
300
100:1
140
100.0
141
1.0
290
     0
  0
SCALE
  5
59
102
{ACAD_REACTORS
330
47
102
}
330
47
100
AcDbScale
 70
     0
300
1/128" = 1'-0"
140
0.0078125
141
12.0
290
     0
  0
SCALE
  5
5A
102
{ACAD_REACTORS
330
47
102
}
330
47
100
AcDbScale
 70
     0
300
1/64" = 1'-0"
140
0.015625
141
12.0
290
     0
  0
SCALE
  5
5B
102
{ACAD_REACTORS
330
47
102
}
330
47
100
AcDbScale
 70
     0
300
1/32" = 1'-0"
140
0.03125
141
12.0
290
     0
  0
SCALE
  5
5C
102
{ACAD_REACTORS
330
47
102
}
330
47
100
AcDbScale
 70
     0
300
1/16" = 1'-0"
140
0.0625
141
12.0
290
     0
  0
SCALE
  5
5D
102
{ACAD_REACTORS
330
47
102
}
330
47
100
AcDbScale
 70
     0
300
3/32" = 1'-0"
140
0.09375
141
12.0
290
     0
  0
SCALE
  5
5E
102
{ACAD_REACTORS
330
47
102
}
330
47
100
AcDbScale
 70
     0
300
1/8" = 1'-0"
140
0.125
141
12.0
290
     0
  0
SCALE
  5
5F
102
{ACAD_REACTORS
330
47
102
}
330
47
100
AcDbScale
 70
     0
300
3/16" = 1'-0"
140
0.1875
141
12.0
290
     0
  0
SCALE
  5
60
102
{ACAD_REACTORS
330
47
102
}
330
47
100
AcDbScale
 70
     0
300
1/4" = 1'-0"
140
0.25
141
12.0
290
     0
  0
SCALE
  5
61
102
{ACAD_REACTORS
330
47
102
}
330
47
100
AcDbScale
 70
     0
300
3/8" = 1'-0"
140
0.375
141
12.0
290
     0
  0
SCALE
  5
62
102
{ACAD_REACTORS
330
47
102
}
330
47
100
AcDbScale
 70
     0
300
1/2" = 1'-0"
140
0.5
141
12.0
290
     0
  0
SCALE
  5
63
102
{ACAD_REACTORS
330
47
102
}
330
47
100
AcDbScale
 70
     0
300
3/4" = 1'-0"
140
0.75
141
12.0
290
     0
  0
SCALE
  5
64
102
{ACAD_REACTORS
330
47
102
}
330
47
100
AcDbScale
 70
     0
300
1" = 1'-0"
140
1.0
141
12.0
290
     0
  0
SCALE
  5
65
102
{ACAD_REACTORS
330
47
102
}
330
47
100
AcDbScale
 70
     0
300
1-1/2" = 1'-0"
140
1.5
141
12.0
290
     0
  0
SCALE
  5
66
102
{ACAD_REACTORS
330
47
102
}
330
47
100
AcDbScale
 70
     0
300
3" = 1'-0"
140
3.0
141
12.0
290
     0
  0
SCALE
  5
67
102
{ACAD_REACTORS
330
47
102
}
330
47
100
AcDbScale
 70
     0
300
6" = 1'-0"
140
6.0
141
12.0
290
     0
  0
SCALE
  5
68
102
{ACAD_REACTORS
330
47
102
}
330
47
100
AcDbScale
 70
     0
300
1'-0" = 1'-0"
140
12.0
141
12.0
290
     0
  0
ENDSEC
  0
EOF
