  0
SECTION
  2
HEADER
  9
$ACADVER
  1
AC1015
  9
$ACADMAINTVER
 70
     6
  9
$DWGCODEPAGE
  3
ANSI_1250
  9
$INSBASE
 10
0.0
 20
0.0
 30
0.0
  9
$EXTMIN
 10
6160.859493026
 20
4681.9695417835
 30
0.0
  9
$EXTMAX
 10
6741.3871810967
 20
5394.3587194053
 30
0.0
  9
$LIMMIN
 10
0.0
 20
0.0
  9
$LIMMAX
 10
420.0
 20
297.0
  9
$ORTHOMODE
 70
     0
  9
$REGENMODE
 70
     1
  9
$FILLMODE
 70
     1
  9
$QTEXTMODE
 70
     0
  9
$MIRRTEXT
 70
     1
  9
$LTSCALE
 40
1.0
  9
$ATTMODE
 70
     1
  9
$TEXTSIZE
 40
3.5
  9
$TRACEWID
 40
1.0
  9
$TEXTSTYLE
  7
Standard
  9
$CLAYER
  8
0
  9
$CELTYPE
  6
ByLayer
  9
$CECOLOR
 62
   256
  9
$CELTSCALE
 40
1.0
  9
$DISPSILH
 70
     0
  9
$DIMSCALE
 40
1.0
  9
$DIMASZ
 40
3.302
  9
$DIMEXO
 40
0.0
  9
$DIMDLI
 40
3.75
  9
$DIMRND
 40
0.0
  9
$DIMDLE
 40
0.0
  9
$DIMEXE
 40
1.0
  9
$DIMTP
 40
0.0
  9
$DIMTM
 40
0.0
  9
$DIMTXT
 40
3.5
  9
$DIMCEN
 40
2.5
  9
$DIMTSZ
 40
0.0
  9
$DIMTOL
 70
     0
  9
$DIMLIM
 70
     0
  9
$DIMTIH
 70
     1
  9
$DIMTOH
 70
     1
  9
$DIMSE1
 70
     0
  9
$DIMSE2
 70
     0
  9
$DIMTAD
 70
     1
  9
$DIMZIN
 70
     0
  9
$DIMBLK
  1

  9
$DIMASO
 70
     1
  9
$DIMSHO
 70
     1
  9
$DIMPOST
  1

  9
$DIMAPOST
  1

  9
$DIMALT
 70
     0
  9
$DIMALTD
 70
     3
  9
$DIMALTF
 40
0.0393700787
  9
$DIMLFAC
 40
1.0
  9
$DIMTOFL
 70
     1
  9
$DIMTVP
 40
0.0
  9
$DIMTIX
 70
     0
  9
$DIMSOXD
 70
     0
  9
$DIMSAH
 70
     0
  9
$DIMBLK1
  1

  9
$DIMBLK2
  1

  9
$DIMSTYLE
  2
ISO-25
  9
$DIMCLRD
 70
     0
  9
$DIMCLRE
 70
     0
  9
$DIMCLRT
 70
     0
  9
$DIMTFAC
 40
1.0
  9
$DIMGAP
 40
1.524
  9
$DIMJUST
 70
     0
  9
$DIMSD1
 70
     0
  9
$DIMSD2
 70
     0
  9
$DIMTOLJ
 70
     0
  9
$DIMTZIN
 70
     0
  9
$DIMALTZ
 70
     0
  9
$DIMALTTZ
 70
     0
  9
$DIMUPT
 70
     0
  9
$DIMDEC
 70
     2
  9
$DIMTDEC
 70
     2
  9
$DIMALTU
 70
     2
  9
$DIMALTTD
 70
     3
  9
$DIMTXSTY
  7
Standard
  9
$DIMAUNIT
 70
     0
  9
$DIMADEC
 70
     2
  9
$DIMALTRND
 40
0.0
  9
$DIMAZIN
 70
     0
  9
$DIMDSEP
 70
    44
  9
$DIMATFIT
 70
     3
  9
$DIMFRAC
 70
     0
  9
$DIMLDRBLK
  1

  9
$DIMLUNIT
 70
     2
  9
$DIMLWD
 70
    -2
  9
$DIMLWE
 70
    -2
  9
$DIMTMOVE
 70
     0
  9
$LUNITS
 70
     2
  9
$LUPREC
 70
     2
  9
$SKETCHINC
 40
1.0
  9
$FILLETRAD
 40
10.0
  9
$AUNITS
 70
     0
  9
$AUPREC
 70
     2
  9
$MENU
  1
.
  9
$ELEVATION
 40
0.0
  9
$PELEVATION
 40
0.0
  9
$THICKNESS
 40
0.0
  9
$LIMCHECK
 70
     0
  9
$CHAMFERA
 40
0.0
  9
$CHAMFERB
 40
0.0
  9
$CHAMFERC
 40
0.0
  9
$CHAMFERD
 40
0.0
  9
$SKPOLY
 70
     0
  9
$TDCREATE
 40
2459103.447817581
  9
$TDUCREATE
 40
2459103.364484248
  9
$TDUPDATE
 40
2459103.447846539
  9
$TDUUPDATE
 40
2459103.364513206
  9
$TDINDWG
 40
0.0000000116
  9
$TDUSRTIMER
 40
0.0000000116
  9
$USRTIMER
 70
     1
  9
$ANGBASE
 50
0.0
  9
$ANGDIR
 70
     0
  9
$PDMODE
 70
     0
  9
$PDSIZE
 40
-1.0
  9
$PLINEWID
 40
0.0
  9
$SPLFRAME
 70
     0
  9
$SPLINETYPE
 70
     6
  9
$SPLINESEGS
 70
     8
  9
$HANDSEED
  5
4F2
  9
$SURFTAB1
 70
     6
  9
$SURFTAB2
 70
     6
  9
$SURFTYPE
 70
     6
  9
$SURFU
 70
     6
  9
$SURFV
 70
     6
  9
$UCSBASE
  2

  9
$UCSNAME
  2

  9
$UCSORG
 10
0.0
 20
0.0
 30
0.0
  9
$UCSXDIR
 10
1.0
 20
0.0
 30
0.0
  9
$UCSYDIR
 10
0.0
 20
1.0
 30
0.0
  9
$UCSORTHOREF
  2

  9
$UCSORTHOVIEW
 70
     0
  9
$UCSORGTOP
 10
0.0
 20
0.0
 30
0.0
  9
$UCSORGBOTTOM
 10
0.0
 20
0.0
 30
0.0
  9
$UCSORGLEFT
 10
0.0
 20
0.0
 30
0.0
  9
$UCSORGRIGHT
 10
0.0
 20
0.0
 30
0.0
  9
$UCSORGFRONT
 10
0.0
 20
0.0
 30
0.0
  9
$UCSORGBACK
 10
0.0
 20
0.0
 30
0.0
  9
$PUCSBASE
  2

  9
$PUCSNAME
  2

  9
$PUCSORG
 10
0.0
 20
0.0
 30
0.0
  9
$PUCSXDIR
 10
1.0
 20
0.0
 30
0.0
  9
$PUCSYDIR
 10
0.0
 20
1.0
 30
0.0
  9
$PUCSORTHOREF
  2

  9
$PUCSORTHOVIEW
 70
     0
  9
$PUCSORGTOP
 10
0.0
 20
0.0
 30
0.0
  9
$PUCSORGBOTTOM
 10
0.0
 20
0.0
 30
0.0
  9
$PUCSORGLEFT
 10
0.0
 20
0.0
 30
0.0
  9
$PUCSORGRIGHT
 10
0.0
 20
0.0
 30
0.0
  9
$PUCSORGFRONT
 10
0.0
 20
0.0
 30
0.0
  9
$PUCSORGBACK
 10
0.0
 20
0.0
 30
0.0
  9
$USERI1
 70
     0
  9
$USERI2
 70
     0
  9
$USERI3
 70
     0
  9
$USERI4
 70
     0
  9
$USERI5
 70
     0
  9
$USERR1
 40
0.0
  9
$USERR2
 40
0.0
  9
$USERR3
 40
0.0
  9
$USERR4
 40
0.0
  9
$USERR5
 40
0.0
  9
$WORLDVIEW
 70
     1
  9
$SHADEDGE
 70
     3
  9
$SHADEDIF
 70
    70
  9
$TILEMODE
 70
     1
  9
$MAXACTVP
 70
    64
  9
$PINSBASE
 10
0.0
 20
0.0
 30
0.0
  9
$PLIMCHECK
 70
     0
  9
$PEXTMIN
 10
1.0000000000E+20
 20
1.0000000000E+20
 30
1.0000000000E+20
  9
$PEXTMAX
 10
-1.0000000000E+20
 20
-1.0000000000E+20
 30
-1.0000000000E+20
  9
$PLIMMIN
 10
0.0
 20
0.0
  9
$PLIMMAX
 10
420.0
 20
297.0
  9
$UNITMODE
 70
     0
  9
$VISRETAIN
 70
     1
  9
$PLINEGEN
 70
     0
  9
$PSLTSCALE
 70
     1
  9
$TREEDEPTH
 70
  3020
  9
$CMLSTYLE
  2
Standard
  9
$CMLJUST
 70
     0
  9
$CMLSCALE
 40
20.0
  9
$PROXYGRAPHICS
 70
     1
  9
$MEASUREMENT
 70
     1
  9
$CELWEIGHT
370
    -1
  9
$ENDCAPS
280
     0
  9
$JOINSTYLE
280
     0
  9
$LWDISPLAY
290
     1
  9
$INSUNITS
 70
     4
  9
$HYPERLINKBASE
  1

  9
$STYLESHEET
  1

  9
$XEDIT
290
     1
  9
$CEPSNTYPE
380
     0
  9
$PSTYLEMODE
290
     1
  9
$FINGERPRINTGUID
  2
{4b8ca5f4-fc93-4ab6-95f1-a97400193403}
  9
$VERSIONGUID
  2
{FAEB1C32-E019-11D5-929B-00C0DF256EC4}
  9
$EXTNAMES
290
     1
  9
$PSVPSCALE
 40
0.0
  9
$OLESTARTUP
290
     0
  0
ENDSEC
  0
SECTION
  2
CLASSES
  0
CLASS
  1
ACDBDICTIONARYWDFLT
  2
AcDbDictionaryWithDefault
  3
ObjectDBX Classes
 90
        0
280
     0
281
     0
  0
CLASS
  1
VISUALSTYLE
  2
AcDbVisualStyle
  3
ObjectDBX Classes
 90
     4095
280
     0
281
     0
  0
CLASS
  1
MATERIAL
  2
AcDbMaterial
  3
ObjectDBX Classes
 90
     1153
280
     0
281
     0
  0
CLASS
  1
SCALE
  2
AcDbScale
  3
ObjectDBX Classes
 90
     1153
280
     0
281
     0
  0
CLASS
  1
TABLESTYLE
  2
AcDbTableStyle
  3
ObjectDBX Classes
 90
     4095
280
     0
281
     0
  0
CLASS
  1
MLEADERSTYLE
  2
AcDbMLeaderStyle
  3
ACDB_MLEADERSTYLE_CLASS
 90
     4095
280
     0
281
     0
  0
CLASS
  1
SUN
  2
AcDbSun
  3
SCENEOE
 90
     1153
280
     0
281
     0
  0
CLASS
  1
ACDBPLACEHOLDER
  2
AcDbPlaceHolder
  3
ObjectDBX Classes
 90
        0
280
     0
281
     0
  0
CLASS
  1
LAYOUT
  2
AcDbLayout
  3
ObjectDBX Classes
 90
        0
280
     0
281
     0
  0
ENDSEC
  0
SECTION
  2
TABLES
  0
TABLE
  2
VPORT
  5
8
330
0
100
AcDbSymbolTable
 70
     1
  0
VPORT
  5
29
330
8
100
AcDbSymbolTableRecord
100
AcDbViewportTableRecord
  2
*Active
 70
     0
 10
0.0
 20
0.0
 11
1.0
 21
1.0
 12
6451.1233370614
 22
5038.1641305944
 13
0.0
 23
0.0
 14
10.0
 24
10.0
 15
10.0
 25
10.0
 16
0.0
 26
0.0
 36
1.0
 17
0.0
 27
0.0
 37
0.0
 40
726.6369611742
 41
0.8149024526
 42
50.0
 43
0.0
 44
0.0
 50
0.0
 51
0.0
 71
     0
 72
   100
 73
     1
 74
     3
 75
     0
 76
     0
 77
     0
 78
     0
281
     0
 65
     1
110
0.0
120
0.0
130
0.0
111
1.0
121
0.0
131
0.0
112
0.0
122
1.0
132
0.0
 79
     0
146
0.0
  0
ENDTAB
  0
TABLE
  2
LTYPE
  5
5
330
0
100
AcDbSymbolTable
 70
     6
  0
LTYPE
  5
14
330
5
100
AcDbSymbolTableRecord
100
AcDbLinetypeTableRecord
  2
ByBlock
 70
     0
  3

 72
    65
 73
     0
 40
0.0
  0
LTYPE
  5
15
330
5
100
AcDbSymbolTableRecord
100
AcDbLinetypeTableRecord
  2
ByLayer
 70
     0
  3

 72
    65
 73
     0
 40
0.0
  0
LTYPE
  5
16
330
5
100
AcDbSymbolTableRecord
100
AcDbLinetypeTableRecord
  2
Continuous
 70
     0
  3
Solid line
 72
    65
 73
     0
 40
0.0
  0
LTYPE
  5
6E
330
5
100
AcDbSymbolTableRecord
100
AcDbLinetypeTableRecord
  2
HIDDEN
 70
     0
  3
Hidden __ __ __ __ __ __ __ __ __ __ __ __ __ __
 72
    65
 73
     2
 40
1.905
 49
1.27
 74
     0
 49
-0.635
 74
     0
  0
LTYPE
  5
6F
330
5
100
AcDbSymbolTableRecord
100
AcDbLinetypeTableRecord
  2
PHANTOM
 70
     0
  3
Phantom ______  __  __  ______  __  __  ______
 72
    65
 73
     6
 40
12.7
 49
6.35
 74
     0
 49
-1.27
 74
     0
 49
1.27
 74
     0
 49
-1.27
 74
     0
 49
1.27
 74
     0
 49
-1.27
 74
     0
  0
LTYPE
  5
70
330
5
100
AcDbSymbolTableRecord
100
AcDbLinetypeTableRecord
  2
CENTER
 70
     0
  3
Center ____ _ ____ _ ____ _ ____ _ ____ _ ____
 72
    65
 73
     4
 40
10.16
 49
6.35
 74
     0
 49
-1.27
 74
     0
 49
1.27
 74
     0
 49
-1.27
 74
     0
  0
LTYPE
  5
71
330
5
100
AcDbSymbolTableRecord
100
AcDbLinetypeTableRecord
  2
CENTERX2
 70
     0
  3
Center (2x) ________  __  ________  __  _____
 72
    65
 73
     4
 40
20.32
 49
12.7
 74
     0
 49
-2.54
 74
     0
 49
2.54
 74
     0
 49
-2.54
 74
     0
  0
LTYPE
  5
72
330
5
100
AcDbSymbolTableRecord
100
AcDbLinetypeTableRecord
  2
DOT2
 70
     0
  3
Dot (.5x) ........................................
 72
    65
 73
     2
 40
0.635
 49
0.0
 74
     0
 49
-0.635
 74
     0
  0
ENDTAB
  0
TABLE
  2
LAYER
  5
2
330
0
100
AcDbSymbolTable
 70
     1
  0
LAYER
  5
10
330
2
100
AcDbSymbolTableRecord
100
AcDbLayerTableRecord
  2
0
 70
     0
 62
     7
  6
Continuous
370
    -3
390
F
  0
ENDTAB
  0
TABLE
  2
STYLE
  5
3
330
0
100
AcDbSymbolTable
 70
     1
  0
STYLE
  5
11
330
3
100
AcDbSymbolTableRecord
100
AcDbTextStyleTableRecord
  2
Standard
 70
     0
 40
0.0
 41
1.0
 50
0.0
 71
     0
 42
3.5
  3
txt
  4

  0
ENDTAB
  0
TABLE
  2
VIEW
  5
6
330
0
100
AcDbSymbolTable
 70
     0
  0
ENDTAB
  0
TABLE
  2
UCS
  5
7
330
0
100
AcDbSymbolTable
 70
     0
  0
ENDTAB
  0
TABLE
  2
APPID
  5
9
330
0
100
AcDbSymbolTable
 70
     1
  0
APPID
  5
12
330
9
100
AcDbSymbolTableRecord
100
AcDbRegAppTableRecord
  2
ACAD
 70
     0
  0
ENDTAB
  0
TABLE
  2
DIMSTYLE
  5
A
330
0
100
AcDbSymbolTable
 70
     1
100
AcDbDimStyleTable
  0
DIMSTYLE
105
27
330
A
100
AcDbSymbolTableRecord
100
AcDbDimStyleTableRecord
  2
ISO-25
 70
     0
 41
2.5
 42
0.625
 43
3.75
 44
1.25
 73
     0
 74
     0
 77
     1
 78
     8
140
2.5
141
2.5
143
0.0393700787
147
0.625
171
     3
172
     1
178
     0
271
     2
272
     2
274
     3
278
    44
283
     0
284
     8
340
11
  0
ENDTAB
  0
TABLE
  2
BLOCK_RECORD
  5
1
330
0
100
AcDbSymbolTable
 70
     1
  0
BLOCK_RECORD
  5
1F
330
1
100
AcDbSymbolTableRecord
100
AcDbBlockTableRecord
  2
*Model_Space
340
22
  0
BLOCK_RECORD
  5
1B
330
1
100
AcDbSymbolTableRecord
100
AcDbBlockTableRecord
  2
*Paper_Space
340
1E
  0
BLOCK_RECORD
  5
23
330
1
100
AcDbSymbolTableRecord
100
AcDbBlockTableRecord
  2
*Paper_Space0
340
26
  0
ENDTAB
  0
ENDSEC
  0
SECTION
  2
BLOCKS
  0
BLOCK
  5
20
330
1F
100
AcDbEntity
  8
0
100
AcDbBlockBegin
  2
*Model_Space
 70
     0
 10
0.0
 20
0.0
 30
0.0
  3
*Model_Space
  1

  0
ENDBLK
  5
21
330
1F
100
AcDbEntity
  8
0
100
AcDbBlockEnd
  0
BLOCK
  5
1C
330
1B
100
AcDbEntity
 67
     1
  8
0
100
AcDbBlockBegin
  2
*Paper_Space
 70
     0
 10
0.0
 20
0.0
 30
0.0
  3
*Paper_Space
  1

  0
ENDBLK
  5
1D
330
1B
100
AcDbEntity
 67
     1
  8
0
100
AcDbBlockEnd
  0
BLOCK
  5
24
330
23
100
AcDbEntity
  8
0
100
AcDbBlockBegin
  2
*Paper_Space0
 70
     0
 10
0.0
 20
0.0
 30
0.0
  3
*Paper_Space0
  1

  0
ENDBLK
  5
25
330
23
100
AcDbEntity
  8
0
100
AcDbBlockEnd
  0
ENDSEC
  0
SECTION
  2
ENTITIES
  0
ARC
  5
73
330
1F
100
AcDbEntity
  8
0
  6
Continuous
 62
     7
100
AcDbCircle
 10
6257.535400015
 20
5367.4328099136
 30
0.0
 40
0.2166446789415204
100
AcDbArc
 50
37.0509748309
 51
179.9999999692
  0
ARC
  5
74
330
1F
100
AcDbEntity
  8
0
  6
Continuous
 62
     7
100
AcDbCircle
 10
6253.318755336
 20
5364.2494545926
 30
0.0
 40
5.500000000000526
100
AcDbArc
 50
354.2608295228
 51
37.0509748058
  0
ARC
  5
75
330
1F
100
AcDbEntity
  8
0
  6
Continuous
 62
     7
100
AcDbCircle
 10
6340.9354000151
 20
5367.4328099137
 30
0.0
 40
0.2166446789407813
100
AcDbArc
 50
37.0509747872
 51
180.0000000041
  0
ARC
  5
76
330
1F
100
AcDbEntity
  8
0
  6
Continuous
 62
     7
100
AcDbCircle
 10
6336.7187553362
 20
5364.2494545926
 30
0.0
 40
5.499999999999621
100
AcDbArc
 50
354.2608295228
 51
37.0509748058
  0
ARC
  5
77
330
1F
100
AcDbEntity
  8
0
  6
Continuous
 62
     7
100
AcDbCircle
 10
6290.5021106572
 20
5367.4328099137
 30
0.0
 40
0.2166446789424299
100
AcDbArc
 50
359.9999999964
 51
142.9490252121
  0
ARC
  5
78
330
1F
100
AcDbEntity
  8
0
  6
Continuous
 62
     7
100
AcDbCircle
 10
6294.7187553361
 20
5364.2494545926
 30
0.0
 40
5.500000000000625
100
AcDbArc
 50
142.9490251942
 51
185.7391704774
  0
ARC
  5
79
330
1F
100
AcDbEntity
  8
0
  6
Continuous
 62
     7
100
AcDbCircle
 10
6207.1021106571
 20
5367.4328099137
 30
0.0
 40
0.2166446789415204
100
AcDbArc
 50
359.9999999966
 51
142.949025212
  0
ARC
  5
7A
330
1F
100
AcDbEntity
  8
0
  6
Continuous
 62
     7
100
AcDbCircle
 10
6211.318755336
 20
5364.2494545926
 30
0.0
 40
5.49999999999972
100
AcDbArc
 50
142.9490251942
 51
185.7391704774
  0
CIRCLE
  5
7B
330
1F
100
AcDbEntity
  8
0
  6
Continuous
 62
     7
100
AcDbCircle
 10
6233.518755336
 20
5188.6994545927
 30
0.0
 40
8.399999999999636
  0
CIRCLE
  5
7C
330
1F
100
AcDbEntity
  8
0
  6
Continuous
 62
     7
100
AcDbCircle
 10
6233.518755336
 20
5207.6994545927
 30
0.0
 40
8.399999999999636
  0
CIRCLE
  5
7D
330
1F
100
AcDbEntity
  8
0
  6
Continuous
 62
     7
100
AcDbCircle
 10
6233.518755336
 20
5264.6994545927
 30
0.0
 40
8.399999999999636
  0
CIRCLE
  5
7E
330
1F
100
AcDbEntity
  8
0
  6
Continuous
 62
     7
100
AcDbCircle
 10
6233.518755336
 20
5226.6994545927
 30
0.0
 40
8.399999999999636
  0
CIRCLE
  5
7F
330
1F
100
AcDbEntity
  8
0
  6
Continuous
 62
     7
100
AcDbCircle
 10
6233.518755336
 20
5245.6994545927
 30
0.0
 40
8.399999999999636
  0
CIRCLE
  5
80
330
1F
100
AcDbEntity
  8
0
  6
Continuous
 62
     7
100
AcDbCircle
 10
6233.518755336
 20
5283.6994545927
 30
0.0
 40
8.399999999999636
  0
CIRCLE
  5
81
330
1F
100
AcDbEntity
  8
0
  6
Continuous
 62
     7
100
AcDbCircle
 10
6233.518755336
 20
5169.6994545927
 30
0.0
 40
8.399999999999636
  0
CIRCLE
  5
82
330
1F
100
AcDbEntity
  8
0
  6
Continuous
 62
     7
100
AcDbCircle
 10
6233.518755336
 20
5150.6994545927
 30
0.0
 40
8.399999999999636
  0
ARC
  5
83
330
1F
100
AcDbEntity
  8
0
  6
Continuous
 62
     7
100
AcDbCircle
 10
6192.5187574818
 20
5064.6994615069
 30
0.0
 40
1.999999999999407
100
AcDbArc
 50
180.0003107751
 51
269.9999026725
  0
ARC
  5
84
330
1F
100
AcDbEntity
  8
0
  6
Continuous
 62
     7
100
AcDbCircle
 10
6192.5187574818
 20
5362.6994476786
 30
0.0
 40
2.000000000000316
100
AcDbArc
 50
90.0000973275
 51
179.9996892278
  0
ARC
  5
85
330
1F
100
AcDbEntity
  8
0
  6
Continuous
 62
     7
100
AcDbCircle
 10
6355.5187531903
 20
5362.6994476786
 30
0.0
 40
2.000000000001225
100
AcDbArc
 50
0.0003107722
 51
89.9999026696
  0
ARC
  5
86
330
1F
100
AcDbEntity
  8
0
  6
Continuous
 62
     7
100
AcDbCircle
 10
6355.5187531903
 20
5064.6994615069
 30
0.0
 40
2.000000000001226
100
AcDbArc
 50
270.0000973304
 51
359.9996892249
  0
ARC
  5
87
330
1F
100
AcDbEntity
  8
0
  6
Continuous
 62
     7
100
AcDbCircle
 10
6321.5624010878
 20
5271.0494549593
 30
0.0
 40
12.70000000000042
100
AcDbArc
 50
240.0133492261
 51
119.9866507739
  0
CIRCLE
  5
88
330
1F
100
AcDbEntity
  8
0
  6
Continuous
 62
     7
100
AcDbCircle
 10
6321.5624010878
 20
5271.0494549593
 30
0.0
 40
10.10000183934336
  0
ARC
  5
89
330
1F
100
AcDbEntity
  8
0
  6
Continuous
 62
     7
100
AcDbCircle
 10
6321.5624010878
 20
5271.0494549593
 30
0.0
 40
12.49999849067136
100
AcDbArc
 50
239.7687324658
 51
120.2312761316
  0
ARC
  5
8A
330
1F
100
AcDbEntity
  8
0
  6
Continuous
 62
     7
100
AcDbCircle
 10
6314.7687553361
 20
5318.2494545926
 30
0.0
 40
20.19999999999911
100
AcDbArc
 50
117.1581383017
 51
128.7110110374
  0
CIRCLE
  5
8B
330
1F
100
AcDbEntity
  8
0
  6
Continuous
 62
     7
100
AcDbCircle
 10
6233.518755336
 20
5188.6994545927
 30
0.0
 40
5.300000000000182
  0
CIRCLE
  5
8C
330
1F
100
AcDbEntity
  8
0
  6
Continuous
 62
     7
100
AcDbCircle
 10
6233.5200344842
 20
5188.6984953341
 30
0.0
 40
5.814856170074563
  0
CIRCLE
  5
8D
330
1F
100
AcDbEntity
  8
0
  6
Continuous
 62
     7
100
AcDbCircle
 10
6233.518755336
 20
5207.6994545927
 30
0.0
 40
5.299999999999272
  0
CIRCLE
  5
8E
330
1F
100
AcDbEntity
  8
0
  6
Continuous
 62
     7
100
AcDbCircle
 10
6233.5200356861
 20
5207.6984964908
 30
0.0
 40
5.814856012958444
  0
CIRCLE
  5
8F
330
1F
100
AcDbEntity
  8
0
  6
Continuous
 62
     7
100
AcDbCircle
 10
6233.518755336
 20
5264.6994545927
 30
0.0
 40
5.300000000001091
  0
CIRCLE
  5
90
330
1F
100
AcDbEntity
  8
0
  6
Continuous
 62
     7
100
AcDbCircle
 10
6233.5200364999
 20
5264.6984967455
 30
0.0
 40
5.814856351865274
  0
CIRCLE
  5
91
330
1F
100
AcDbEntity
  8
0
  6
Continuous
 62
     7
100
AcDbCircle
 10
6233.518755336
 20
5226.6994545927
 30
0.0
 40
5.299999999999272
  0
CIRCLE
  5
92
330
1F
100
AcDbEntity
  8
0
  6
Continuous
 62
     7
100
AcDbCircle
 10
6233.5200359225
 20
5226.6984966162
 30
0.0
 40
5.814855710757001
  0
CIRCLE
  5
93
330
1F
100
AcDbEntity
  8
0
  6
Continuous
 62
     7
100
AcDbCircle
 10
6233.518755336
 20
5245.6994545927
 30
0.0
 40
5.300000000000182
  0
CIRCLE
  5
94
330
1F
100
AcDbEntity
  8
0
  6
Continuous
 62
     7
100
AcDbCircle
 10
6233.5200348444
 20
5245.6984950669
 30
0.0
 40
5.814855709576477
  0
CIRCLE
  5
95
330
1F
100
AcDbEntity
  8
0
  6
Continuous
 62
     7
100
AcDbCircle
 10
6233.518755336
 20
5283.6994545927
 30
0.0
 40
5.300000000000182
  0
CIRCLE
  5
96
330
1F
100
AcDbEntity
  8
0
  6
Continuous
 62
     7
100
AcDbCircle
 10
6233.5200314672
 20
5283.6984911123
 30
0.0
 40
5.81485726813753
  0
CIRCLE
  5
97
330
1F
100
AcDbEntity
  8
0
  6
Continuous
 62
     7
100
AcDbCircle
 10
6233.518755336
 20
5169.6994545927
 30
0.0
 40
5.300000000000182
  0
CIRCLE
  5
98
330
1F
100
AcDbEntity
  8
0
  6
Continuous
 62
     7
100
AcDbCircle
 10
6233.5200367806
 20
5169.6984977061
 30
0.0
 40
5.814855993013225
  0
CIRCLE
  5
99
330
1F
100
AcDbEntity
  8
0
  6
Continuous
 62
     7
100
AcDbCircle
 10
6233.518755336
 20
5150.6994545927
 30
0.0
 40
5.300000000000182
  0
CIRCLE
  5
9A
330
1F
100
AcDbEntity
  8
0
  6
Continuous
 62
     7
100
AcDbCircle
 10
6233.5200418133
 20
5150.6985033393
 30
0.0
 40
5.814855076755521
  0
ARC
  5
9B
330
1F
100
AcDbEntity
  8
0
  6
Continuous
 62
     7
100
AcDbCircle
 10
6274.018755336
 20
5102.6994545926
 30
0.0
 40
5.600000000002031
100
AcDbArc
 50
94.4980126048
 51
84.2523695851
  0
ARC
  5
9C
330
1F
100
AcDbEntity
  8
0
  6
Continuous
 62
     7
100
AcDbCircle
 10
6274.0187704423
 20
5102.6994561368
 30
0.0
 40
5.400000000000567
100
AcDbArc
 50
94.6651290086
 51
84.038897882
  0
ARC
  5
9D
330
1F
100
AcDbEntity
  8
0
  6
Continuous
 62
     7
100
AcDbCircle
 10
6274.5795780771
 20
5103.3226346843
 30
0.0
 40
0.9999996903980009
100
AcDbArc
 50
130.711185178
 51
180.0000034283
  0
ARC
  5
9E
330
1F
100
AcDbEntity
  8
0
  6
Continuous
 62
     7
100
AcDbCircle
 10
6273.5795789576
 20
5104.4847836583
 30
0.0
 40
1.533162899617656
100
AcDbArc
 50
310.7111431887
 51
49.2888577485
  0
ARC
  5
9F
330
1F
100
AcDbEntity
  8
0
  6
Continuous
 62
     7
100
AcDbCircle
 10
6273.5795789576
 20
5104.4847836583
 30
0.0
 40
0.5331632092204567
100
AcDbArc
 50
310.7110644337
 51
90.0000986429
  0
ARC
  5
A0
330
1F
100
AcDbEntity
  8
0
  6
Continuous
 62
     7
100
AcDbCircle
 10
6274.2658048828
 20
5100.0760590306
 30
0.0
 40
0.4999998160492396
100
AcDbArc
 50
180.0
 51
0.0
  0
CIRCLE
  5
A1
330
1F
100
AcDbEntity
  8
0
  6
Continuous
 62
     7
100
AcDbCircle
 10
6274.018755336
 20
5098.6994545926
 30
0.0
 40
11.00000000000091
  0
ARC
  5
A2
330
1F
100
AcDbEntity
  8
0
  6
Continuous
 62
     7
100
AcDbCircle
 10
6274.018755336
 20
5102.6994545926
 30
0.0
 40
5.600000000002031
100
AcDbArc
 50
84.2523695851
 51
94.4980126048
  0
CIRCLE
  5
A3
330
1F
100
AcDbEntity
  8
0
  6
Continuous
 62
     7
100
AcDbCircle
 10
6274.018755336
 20
5098.6994545926
 30
0.0
 40
11.99999999999909
  0
ARC
  5
A4
330
1F
100
AcDbEntity
  8
0
  6
Continuous
 62
     7
100
AcDbCircle
 10
6706.3398341829
 20
5364.2494625229
 30
0.0
 40
3.400000000000941
100
AcDbArc
 50
359.9997470364
 51
189.3094763424
  0
ARC
  5
A5
330
1F
100
AcDbEntity
  8
0
  6
Continuous
 62
     7
100
AcDbCircle
 10
6712.9373354859
 20
5271.0494545926
 30
0.0
 40
26.50249999999938
100
AcDbArc
 50
357.3013800234
 51
16.101053977
  0
ARC
  5
A6
330
1F
100
AcDbEntity
  8
0
  6
Continuous
 62
     7
100
AcDbCircle
 10
6594.9398353872
 20
5232.1994545379
 30
0.0
 40
2.000000000000931
100
AcDbArc
 50
119.9999968575
 51
179.9999915991
  0
ARC
  5
A7
330
1F
100
AcDbEntity
  8
0
  6
Continuous
 62
     7
100
AcDbCircle
 10
6594.9398353872
 20
5195.1994546475
 30
0.0
 40
1.999999999999112
100
AcDbArc
 50
180.0000084009
 51
240.0000031426
  0
ARC
  5
A8
330
1F
100
AcDbEntity
  8
0
  6
Continuous
 62
     7
100
AcDbCircle
 10
6729.2398328835
 20
5195.5494545254
 30
0.0
 40
1.549999999999281
100
AcDbArc
 50
0.0000061239
 51
91.4806539338
  0
ARC
  5
A9
330
1F
100
AcDbEntity
  8
0
  6
Continuous
 62
     7
100
AcDbCircle
 10
6729.2398328835
 20
5181.84945466
 30
0.0
 40
1.550000000001576
100
AcDbArc
 50
268.5193460663
 51
0.0000351918
  0
ARC
  5
AA
330
1F
100
AcDbEntity
  8
0
  6
Continuous
 62
     7
100
AcDbCircle
 10
6734.7124778825
 20
5194.7994348342
 30
0.0
 40
0.8000000000012516
100
AcDbArc
 50
206.9028609724
 51
269.9997976724
  0
ARC
  5
AB
330
1F
100
AcDbEntity
  8
0
  6
Continuous
 62
     7
100
AcDbCircle
 10
6734.7124775697
 20
5182.5994342143
 30
0.0
 40
0.8000000000004885
100
AcDbArc
 50
90.0001799251
 51
157.628261121
  0
ARC
  5
AC
330
1F
100
AcDbEntity
  8
0
  6
Continuous
 62
     7
100
AcDbCircle
 10
6738.6124778506
 20
5192.3994348342
 30
0.0
 40
1.600000000001731
100
AcDbArc
 50
0.0000022374
 51
89.9998703533
  0
ARC
  5
AD
330
1F
100
AcDbEntity
  8
0
  6
Continuous
 62
     7
100
AcDbCircle
 10
6738.6124778508
 20
5184.9994342143
 30
0.0
 40
1.600000000000821
100
AcDbArc
 50
270.0001296382
 51
0.0000244362
  0
ARC
  5
AE
330
1F
100
AcDbEntity
  8
0
  6
Continuous
 62
     7
100
AcDbCircle
 10
6729.2398328835
 20
5214.5494545254
 30
0.0
 40
1.549999999999875
100
AcDbArc
 50
0.0000029043
 51
91.4806539338
  0
ARC
  5
AF
330
1F
100
AcDbEntity
  8
0
  6
Continuous
 62
     7
100
AcDbCircle
 10
6729.2398328835
 20
5200.84945466
 30
0.0
 40
1.550000000001129
100
AcDbArc
 50
268.5193460663
 51
0.0000126062
  0
ARC
  5
B0
330
1F
100
AcDbEntity
  8
0
  6
Continuous
 62
     7
100
AcDbCircle
 10
6734.7398354732
 20
5213.7994546177
 30
0.0
 40
0.8000000000004664
100
AcDbArc
 50
206.9028680121
 51
269.9998008601
  0
ARC
  5
B1
330
1F
100
AcDbEntity
  8
0
  6
Continuous
 62
     7
100
AcDbCircle
 10
6734.7398353369
 20
5201.5994542306
 30
0.0
 40
0.8000000000000042
100
AcDbArc
 50
90.0001893744
 51
157.6282859401
  0
ARC
  5
B2
330
1F
100
AcDbEntity
  8
0
  6
Continuous
 62
     7
100
AcDbCircle
 10
6738.6398354859
 20
5211.3994546177
 30
0.0
 40
1.600000000001731
100
AcDbArc
 50
0.0
 51
89.9998703576
  0
ARC
  5
B3
330
1F
100
AcDbEntity
  8
0
  6
Continuous
 62
     7
100
AcDbCircle
 10
6738.6398354859
 20
5203.9994542306
 30
0.0
 40
1.599999999999495
100
AcDbArc
 50
270.0001296424
 51
0.000012967
  0
ARC
  5
B4
330
1F
100
AcDbEntity
  8
0
  6
Continuous
 62
     7
100
AcDbCircle
 10
6729.2398328835
 20
5271.5494545254
 30
0.0
 40
1.550000000000784
100
AcDbArc
 50
359.9999846399
 51
91.4806539338
  0
ARC
  5
B5
330
1F
100
AcDbEntity
  8
0
  6
Continuous
 62
     7
100
AcDbCircle
 10
6729.2398328835
 20
5257.84945466
 30
0.0
 40
1.54999999999999
100
AcDbArc
 50
268.5193460663
 51
359.9999448567
  0
ARC
  5
B6
330
1F
100
AcDbEntity
  8
0
  6
Continuous
 62
     7
100
AcDbCircle
 10
6734.7398358125
 20
5270.799453949
 30
0.0
 40
0.8000000000012348
100
AcDbArc
 50
206.9028143077
 51
269.99977656
  0
ARC
  5
B7
330
1F
100
AcDbEntity
  8
0
  6
Continuous
 62
     7
100
AcDbCircle
 10
6734.7398349658
 20
5258.5994533291
 30
0.0
 40
0.7999999999997733
100
AcDbArc
 50
90.0001627996
 51
157.6282161196
  0
ARC
  5
B8
330
1F
100
AcDbEntity
  8
0
  6
Continuous
 62
     7
100
AcDbCircle
 10
6738.6398354859
 20
5268.399453949
 30
0.0
 40
1.600000000002641
100
AcDbArc
 50
0.0000230509
 51
89.9998703576
  0
ARC
  5
B9
330
1F
100
AcDbEntity
  8
0
  6
Continuous
 62
     7
100
AcDbCircle
 10
6738.6398354859
 20
5260.9994533291
 30
0.0
 40
1.599999999999912
100
AcDbArc
 50
270.0001296424
 51
0.0000452495
  0
ARC
  5
BA
330
1F
100
AcDbEntity
  8
0
  6
Continuous
 62
     7
100
AcDbCircle
 10
6729.2398328835
 20
5233.5494545254
 30
0.0
 40
1.55000000000167
100
AcDbArc
 50
0.0000298074
 51
91.4806539338
  0
ARC
  5
BB
330
1F
100
AcDbEntity
  8
0
  6
Continuous
 62
     7
100
AcDbCircle
 10
6729.2398328835
 20
5219.84945466
 30
0.0
 40
1.550000000000205
100
AcDbArc
 50
268.5193460663
 51
359.9999900243
  0
ARC
  5
BC
330
1F
100
AcDbEntity
  8
0
  6
Continuous
 62
     7
100
AcDbCircle
 10
6734.7398351925
 20
5232.7994551709
 30
0.0
 40
0.7999999999998885
100
AcDbArc
 50
206.9029124404
 51
269.9998209631
  0
ARC
  5
BD
330
1F
100
AcDbEntity
  8
0
  6
Continuous
 62
     7
100
AcDbCircle
 10
6734.7398354687
 20
5220.599454551
 30
0.0
 40
0.8000000000004509
100
AcDbArc
 50
90.0001988192
 51
157.6283107548
  0
ARC
  5
BE
330
1F
100
AcDbEntity
  8
0
  6
Continuous
 62
     7
100
AcDbCircle
 10
6738.6398354859
 20
5230.3994551709
 30
0.0
 40
1.600000000001731
100
AcDbArc
 50
0.0
 51
89.9998703576
  0
ARC
  5
BF
330
1F
100
AcDbEntity
  8
0
  6
Continuous
 62
     7
100
AcDbCircle
 10
6738.6398354859
 20
5222.999454551
 30
0.0
 40
1.599999999999455
100
AcDbArc
 50
270.0001296424
 51
0.0000014934
  0
ARC
  5
C0
330
1F
100
AcDbEntity
  8
0
  6
Continuous
 62
     7
100
AcDbCircle
 10
6729.2398328843
 20
5252.5494545254
 30
0.0
 40
1.550000000000169
100
AcDbArc
 50
359.9999383708
 51
91.4806539339
  0
ARC
  5
C1
330
1F
100
AcDbEntity
  8
0
  6
Continuous
 62
     7
100
AcDbCircle
 10
6729.2398328843
 20
5238.84945466
 30
0.0
 40
1.549999999999523
100
AcDbArc
 50
268.5193460663
 51
359.9999674387
  0
ARC
  5
C2
330
1F
100
AcDbEntity
  8
0
  6
Continuous
 62
     7
100
AcDbCircle
 10
6734.7398345574
 20
5251.7994564226
 30
0.0
 40
0.8000000000014457
100
AcDbArc
 50
206.9030129666
 51
269.9998664492
  0
ARC
  5
C3
330
1F
100
AcDbEntity
  8
0
  6
Continuous
 62
     7
100
AcDbCircle
 10
6734.7398352173
 20
5239.5994539401
 30
0.0
 40
0.7999999999996179
100
AcDbArc
 50
90.0001808108
 51
157.628263441
  0
ARC
  5
C4
330
1F
100
AcDbEntity
  8
0
  6
Continuous
 62
     7
100
AcDbCircle
 10
6738.6398354859
 20
5249.3994564226
 30
0.0
 40
1.600000000001731
100
AcDbArc
 50
0.0
 51
89.9998703576
  0
ARC
  5
C5
330
1F
100
AcDbEntity
  8
0
  6
Continuous
 62
     7
100
AcDbCircle
 10
6738.6398354859
 20
5241.9994539401
 30
0.0
 40
1.599999999998678
100
AcDbArc
 50
270.0001296424
 51
0.0000233697
  0
ARC
  5
C6
330
1F
100
AcDbEntity
  8
0
  6
Continuous
 62
     7
100
AcDbCircle
 10
6729.2398328835
 20
5290.5494545254
 30
0.0
 40
1.549999999999945
100
AcDbArc
 50
359.9998932032
 51
91.4806539339
  0
ARC
  5
C7
330
1F
100
AcDbEntity
  8
0
  6
Continuous
 62
     7
100
AcDbCircle
 10
6729.2398328835
 20
5276.84945466
 30
0.0
 40
1.550000000000784
100
AcDbArc
 50
268.5193460662
 51
0.0001288316
  0
ARC
  5
C8
330
1F
100
AcDbEntity
  8
0
  6
Continuous
 62
     7
100
AcDbCircle
 10
6734.7398351774
 20
5289.7994552007
 30
0.0
 40
0.7999999999992445
100
AcDbArc
 50
206.9029148334
 51
269.9998220459
  0
ARC
  5
C9
330
1F
100
AcDbEntity
  8
0
  6
Continuous
 62
     7
100
AcDbCircle
 10
6734.739835481
 20
5277.5994545808
 30
0.0
 40
0.8000000000004935
100
AcDbArc
 50
90.0001996975
 51
157.6283130626
  0
ARC
  5
CA
330
1F
100
AcDbEntity
  8
0
  6
Continuous
 62
     7
100
AcDbCircle
 10
6738.6398354859
 20
5287.3994552007
 30
0.0
 40
1.600000000001731
100
AcDbArc
 50
359.9999782276
 51
89.9998703576
  0
ARC
  5
CB
330
1F
100
AcDbEntity
  8
0
  6
Continuous
 62
     7
100
AcDbCircle
 10
6738.6398354859
 20
5279.9994545808
 30
0.0
 40
1.599999999999912
100
AcDbArc
 50
270.0001296424
 51
0.0000004263
  0
ARC
  5
CC
330
1F
100
AcDbEntity
  8
0
  6
Continuous
 62
     7
100
AcDbCircle
 10
6729.2398328835
 20
5176.5494545254
 30
0.0
 40
1.549999999999467
100
AcDbArc
 50
0.0000287058
 51
91.4806539338
  0
ARC
  5
CD
330
1F
100
AcDbEntity
  8
0
  6
Continuous
 62
     7
100
AcDbCircle
 10
6729.2398328835
 20
5162.84945466
 30
0.0
 40
1.55000000000112
100
AcDbArc
 50
268.5193460663
 51
359.9999889227
  0
ARC
  5
CE
330
1F
100
AcDbEntity
  8
0
  6
Continuous
 62
     7
100
AcDbCircle
 10
6734.7398352076
 20
5175.7994551411
 30
0.0
 40
0.8000000000004971
100
AcDbArc
 50
206.9029100471
 51
269.9998198802
  0
ARC
  5
CF
330
1F
100
AcDbEntity
  8
0
  6
Continuous
 62
     7
100
AcDbCircle
 10
6734.7398354565
 20
5163.5994545212
 30
0.0
 40
0.799999999999499
100
AcDbArc
 50
90.0001979406
 51
157.6283084467
  0
ARC
  5
D0
330
1F
100
AcDbEntity
  8
0
  6
Continuous
 62
     7
100
AcDbCircle
 10
6738.6398354859
 20
5173.3994551411
 30
0.0
 40
1.600000000001367
100
AcDbArc
 50
359.9999803617
 51
89.9998703576
  0
ARC
  5
D1
330
1F
100
AcDbEntity
  8
0
  6
Continuous
 62
     7
100
AcDbCircle
 10
6738.6398354859
 20
5165.9994545212
 30
0.0
 40
1.600000000000365
100
AcDbArc
 50
270.0001296424
 51
0.0000025606
  0
ARC
  5
D2
330
1F
100
AcDbEntity
  8
0
  6
Continuous
 62
     7
100
AcDbCircle
 10
6729.2398328835
 20
5157.5494545254
 30
0.0
 40
1.549999999999875
100
AcDbArc
 50
359.9999824367
 51
91.4806539338
  0
ARC
  5
D3
330
1F
100
AcDbEntity
  8
0
  6
Continuous
 62
     7
100
AcDbCircle
 10
6729.2398328835
 20
5143.84945466
 30
0.0
 40
1.550000000000797
100
AcDbArc
 50
268.5193460663
 51
0.0000803594
  0
ARC
  5
D4
330
1F
100
AcDbEntity
  8
0
  6
Continuous
 62
     7
100
AcDbCircle
 10
6734.7398358428
 20
5156.7994538894
 30
0.0
 40
0.7999999999981025
100
AcDbArc
 50
206.9028095208
 51
269.9997743941
  0
ARC
  5
D5
330
1F
100
AcDbEntity
  8
0
  6
Continuous
 62
     7
100
AcDbCircle
 10
6734.7398349413
 20
5144.5994532695
 30
0.0
 40
0.799999999999704
100
AcDbArc
 50
90.0001610427
 51
157.6282115036
  0
ARC
  5
D6
330
1F
100
AcDbEntity
  8
0
  6
Continuous
 62
     7
100
AcDbCircle
 10
6738.6398354859
 20
5154.3994538894
 30
0.0
 40
1.600000000001731
100
AcDbArc
 50
0.0
 51
89.9998703575
  0
ARC
  5
D7
330
1F
100
AcDbEntity
  8
0
  6
Continuous
 62
     7
100
AcDbCircle
 10
6738.6398354859
 20
5146.9994532695
 30
0.0
 40
1.599999999999092
100
AcDbArc
 50
270.0001296424
 51
0.0000473838
  0
ARC
  5
D8
330
1F
100
AcDbEntity
  8
0
  6
Continuous
 62
     7
100
AcDbCircle
 10
6729.0398289973
 20
5097.2994545925
 30
0.0
 40
0.1999999999995705
100
AcDbArc
 50
270.0018588383
 51
359.9990165194
  0
ARC
  5
D9
330
1F
100
AcDbEntity
  8
0
  6
Continuous
 62
     7
100
AcDbCircle
 10
6686.3633252636
 20
5042.9253947874
 30
0.0
 40
0.0851416197255107
100
AcDbArc
 50
26.0268667877
 51
84.3658134224
  0
ARC
  5
DA
330
1F
100
AcDbEntity
  8
0
  6
Continuous
 62
     7
100
AcDbCircle
 10
6684.4398325345
 20
5384.4361495976
 30
0.0
 40
2.000000000000099
100
AcDbArc
 50
0.0
 51
15.0001253177
  0
ARC
  5
DB
330
1F
100
AcDbEntity
  8
0
  6
Continuous
 62
     7
100
AcDbCircle
 10
6684.4398325345
 20
5042.9627637359
 30
0.0
 40
1.999999999999539
100
AcDbArc
 50
344.9997660869
 51
359.9997295757
  0
ARC
  5
DC
330
1F
100
AcDbEntity
  8
0
  6
Continuous
 62
     7
100
AcDbCircle
 10
6595.4398354822
 20
5047.6994545927
 30
0.0
 40
1.5
100
AcDbArc
 50
180.0
 51
270.0000009091
  0
ARC
  5
DD
330
1F
100
AcDbEntity
  8
0
  6
Continuous
 62
     7
100
AcDbCircle
 10
6595.4398354822
 20
5047.6994545927
 30
0.0
 40
0.4999979734006589
100
AcDbArc
 50
218.6189546271
 51
270.0000027274
  0
ARC
  5
DE
330
1F
100
AcDbEntity
  8
0
  6
Continuous
 62
     7
100
AcDbCircle
 10
6595.4398354822
 20
5379.6994545927
 30
0.0
 40
1.5
100
AcDbArc
 50
89.9999990909
 51
179.9999999993
  0
ARC
  5
DF
330
1F
100
AcDbEntity
  8
0
  6
Continuous
 62
     7
100
AcDbCircle
 10
6595.4398354822
 20
5379.6994545927
 30
0.0
 40
0.4999979735003169
100
AcDbArc
 50
89.9999972726
 51
141.3810453643
  0
ARC
  5
E0
330
1F
100
AcDbEntity
  8
0
  6
Continuous
 62
     7
100
AcDbCircle
 10
6710.9398208282
 20
5067.6994591227
 30
0.0
 40
2.499999999999236
100
AcDbArc
 50
270.000259348
 51
280.0003223533
  0
ARC
  5
E1
330
1F
100
AcDbEntity
  8
0
  6
Continuous
 62
     7
100
AcDbCircle
 10
6706.3398341829
 20
5364.2494625229
 30
0.0
 40
3.600001781085984
100
AcDbArc
 50
342.4134389498
 51
188.7880652148
  0
ARC
  5
E2
330
1F
100
AcDbEntity
  8
0
  6
Continuous
 62
     7
100
AcDbCircle
 10
6724.4398354859
 20
5066.1994545927
 30
0.0
 40
0.9999895096002771
100
AcDbArc
 50
270.0000954155
 51
306.959472945
  0
ARC
  5
E3
330
1F
100
AcDbEntity
  8
0
  6
Continuous
 62
     7
100
AcDbCircle
 10
6724.4398354859
 20
5066.1994545927
 30
0.0
 40
2.499999999999645
100
AcDbArc
 50
270.0000381658
 51
0.0
  0
ARC
  5
E4
330
1F
100
AcDbEntity
  8
0
  6
Continuous
 62
     7
100
AcDbCircle
 10
6724.4398354859
 20
5361.1994545926
 30
0.0
 40
0.9999895095995925
100
AcDbArc
 50
53.0405270848
 51
89.9999045845
  0
ARC
  5
E5
330
1F
100
AcDbEntity
  8
0
  6
Continuous
 62
     7
100
AcDbCircle
 10
6724.4398354859
 20
5361.1994545926
 30
0.0
 40
2.499999999999645
100
AcDbArc
 50
0.0
 51
89.9999618342
  0
ARC
  5
E6
330
1F
100
AcDbEntity
  8
0
  6
Continuous
 62
     7
100
AcDbCircle
 10
6732.4134740483
 20
5206.4400606183
 30
0.0
 40
8.97374604159658
100
AcDbArc
 50
269.8321026072
 51
359.8310938264
  0
ARC
  5
E7
330
1F
100
AcDbEntity
  8
0
  6
Continuous
 62
     7
100
AcDbCircle
 10
6706.3398385988
 20
5364.2494360788
 30
0.0
 40
3.313889224153351
100
AcDbArc
 50
0.0001976708
 51
189.5531551604
  0
ARC
  5
E8
330
1F
100
AcDbEntity
  8
0
  6
Continuous
 62
     7
100
AcDbCircle
 10
6257.535400015
 20
4720.2002427184
 30
0.0
 40
0.2166446789424299
100
AcDbArc
 50
37.0509748316
 51
179.9999999687
  0
ARC
  5
E9
330
1F
100
AcDbEntity
  8
0
  6
Continuous
 62
     7
100
AcDbCircle
 10
6257.535400015
 20
4713.8335320764
 30
0.0
 40
0.2166446789433394
100
AcDbArc
 50
180.0000000055
 51
322.9490251677
  0
ARC
  5
EA
330
1F
100
AcDbEntity
  8
0
  6
Continuous
 62
     7
100
AcDbCircle
 10
6253.318755336
 20
4717.0168873974
 30
0.0
 40
5.499999999999471
100
AcDbArc
 50
322.9490251942
 51
37.0509748058
  0
ARC
  5
EB
330
1F
100
AcDbEntity
  8
0
  6
Continuous
 62
     7
100
AcDbCircle
 10
6340.9354000151
 20
4720.2002427185
 30
0.0
 40
0.2166446789413293
100
AcDbArc
 50
37.0509747874
 51
180.0000000038
  0
ARC
  5
EC
330
1F
100
AcDbEntity
  8
0
  6
Continuous
 62
     7
100
AcDbCircle
 10
6340.9354000151
 20
4713.8335320763
 30
0.0
 40
0.2166446789422474
100
AcDbArc
 50
179.9999999704
 51
322.9490252119
  0
ARC
  5
ED
330
1F
100
AcDbEntity
  8
0
  6
Continuous
 62
     7
100
AcDbCircle
 10
6336.7187553362
 20
4717.0168873974
 30
0.0
 40
5.499999999999471
100
AcDbArc
 50
322.9490251942
 51
37.0509748058
  0
ARC
  5
EE
330
1F
100
AcDbEntity
  8
0
  6
Continuous
 62
     7
100
AcDbCircle
 10
6290.5021106572
 20
4713.8335320762
 30
0.0
 40
0.2166446789415204
100
AcDbArc
 50
217.0509747877
 51
0.0000000303
  0
ARC
  5
EF
330
1F
100
AcDbEntity
  8
0
  6
Continuous
 62
     7
100
AcDbCircle
 10
6290.5021106572
 20
4720.2002427184
 30
0.0
 40
0.2166446789415204
100
AcDbArc
 50
359.9999999962
 51
142.9490252125
  0
ARC
  5
F0
330
1F
100
AcDbEntity
  8
0
  6
Continuous
 62
     7
100
AcDbCircle
 10
6294.7187553361
 20
4717.0168873973
 30
0.0
 40
5.500000000000019
100
AcDbArc
 50
142.9490251942
 51
217.0509748058
  0
ARC
  5
F1
330
1F
100
AcDbEntity
  8
0
  6
Continuous
 62
     7
100
AcDbCircle
 10
6207.1021106571
 20
4713.8335320762
 30
0.0
 40
0.2166446789415216
100
AcDbArc
 50
217.0509747882
 51
0.0000000031
  0
ARC
  5
F2
330
1F
100
AcDbEntity
  8
0
  6
Continuous
 62
     7
100
AcDbCircle
 10
6207.1021106571
 20
4720.2002427184
 30
0.0
 40
0.2166446789415204
100
AcDbArc
 50
359.9999999702
 51
142.949025212
  0
ARC
  5
F3
330
1F
100
AcDbEntity
  8
0
  6
Continuous
 62
     7
100
AcDbCircle
 10
6211.318755336
 20
4717.0168873973
 30
0.0
 40
5.499999999999471
100
AcDbArc
 50
142.9490251942
 51
217.0509748058
  0
ARC
  5
F4
330
1F
100
AcDbEntity
  8
0
  6
Continuous
 62
     7
100
AcDbCircle
 10
6321.5624039664
 20
4710.4193873944
 30
0.0
 40
26.5024981936046
100
AcDbArc
 50
247.5984037343
 51
269.9999875056
  0
ARC
  5
F5
330
1F
100
AcDbEntity
  8
0
  6
Continuous
 62
     7
100
AcDbCircle
 10
6321.5624039664
 20
4710.4193873944
 30
0.0
 40
26.5024981936046
100
AcDbArc
 50
269.9999875056
 51
292.4015962657
  0
ARC
  5
F6
330
1F
100
AcDbEntity
  8
0
  6
Continuous
 62
     7
100
AcDbCircle
 10
6292.5187552813
 20
4828.416887493
 30
0.0
 40
1.999999999999039
100
AcDbArc
 50
29.9999968573
 51
89.9999915991
  0
ARC
  5
F7
330
1F
100
AcDbEntity
  8
0
  6
Continuous
 62
     7
100
AcDbCircle
 10
6255.5187553909
 20
4828.416887493
 30
0.0
 40
1.999999999999527
100
AcDbArc
 50
90.0000084009
 51
150.0000031425
  0
ARC
  5
F8
330
1F
100
AcDbEntity
  8
0
  6
Continuous
 62
     7
100
AcDbCircle
 10
6240.368755752
 20
4694.1168899967
 30
0.0
 40
1.550000000001093
100
AcDbArc
 50
269.9999976225
 51
1.480917288
  0
ARC
  5
F9
330
1F
100
AcDbEntity
  8
0
  6
Continuous
 62
     7
100
AcDbCircle
 10
6226.6687546817
 20
4694.1168899967
 30
0.0
 40
1.550000000002002
100
AcDbArc
 50
178.519082712
 51
270.0000023774
  0
ARC
  5
FA
330
1F
100
AcDbEntity
  8
0
  6
Continuous
 62
     7
100
AcDbCircle
 10
6239.6187555268
 20
4688.6168874841
 30
0.0
 40
0.8000000000002021
100
AcDbArc
 50
115.2107915777
 51
179.9998063851
  0
ARC
  5
FB
330
1F
100
AcDbEntity
  8
0
  6
Continuous
 62
     7
100
AcDbCircle
 10
6227.4187549069
 20
4688.6168875703
 30
0.0
 40
0.7999999999990061
100
AcDbArc
 50
0.0001874443
 51
67.700078187
  0
ARC
  5
FC
330
1F
100
AcDbEntity
  8
0
  6
Continuous
 62
     7
100
AcDbCircle
 10
6237.2187555268
 20
4684.7168873943
 30
0.0
 40
1.600000000000822
100
AcDbArc
 50
269.9999931674
 51
359.9998703576
  0
ARC
  5
FD
330
1F
100
AcDbEntity
  8
0
  6
Continuous
 62
     7
100
AcDbCircle
 10
6229.8187549069
 20
4684.7168873943
 30
0.0
 40
1.600000000000822
100
AcDbArc
 50
180.0001296424
 51
270.0000153661
  0
ARC
  5
FE
330
1F
100
AcDbEntity
  8
0
  6
Continuous
 62
     7
100
AcDbCircle
 10
6279.4187553361
 20
4694.316893883
 30
0.0
 40
0.1999999999998671
100
AcDbArc
 50
270.0000401056
 51
359.9981411244
  0
ARC
  5
FF
330
1F
100
AcDbEntity
  8
0
  6
Continuous
 62
     7
100
AcDbCircle
 10
6268.6187553359
 20
4694.316893883
 30
0.0
 40
0.2000000000007765
100
AcDbArc
 50
180.0018588759
 51
269.9999599233
  0
ARC
  5
100
330
1F
100
AcDbEntity
  8
0
  6
Continuous
 62
     7
100
AcDbCircle
 10
6377.2554503409
 20
4738.916887398
 30
0.0
 40
2.000000000000909
100
AcDbArc
 50
270.0000000013
 51
285.0000510973
  0
ARC
  5
101
330
1F
100
AcDbEntity
  8
0
  6
Continuous
 62
     7
100
AcDbCircle
 10
6170.7820603313
 20
4738.916887398
 30
0.0
 40
2.000000000001052
100
AcDbArc
 50
254.9999488999
 51
270.0
  0
ARC
  5
102
330
1F
100
AcDbEntity
  8
0
  6
Continuous
 62
     7
100
AcDbCircle
 10
6372.5187553361
 20
4827.916887398
 30
0.0
 40
1.5
100
AcDbArc
 50
359.9999990909
 51
90.0
  0
ARC
  5
103
330
1F
100
AcDbEntity
  8
0
  6
Continuous
 62
     7
100
AcDbCircle
 10
6372.5187553361
 20
4827.916887398
 30
0.0
 40
0.4999979734002414
100
AcDbArc
 50
359.9999972727
 51
51.381045369
  0
ARC
  5
104
330
1F
100
AcDbEntity
  8
0
  6
Continuous
 62
     7
100
AcDbCircle
 10
6175.5187553361
 20
4827.916887398
 30
0.0
 40
1.5
100
AcDbArc
 50
90.0
 51
180.0000009091
  0
ARC
  5
105
330
1F
100
AcDbEntity
  8
0
  6
Continuous
 62
     7
100
AcDbCircle
 10
6175.5187553361
 20
4827.916887398
 30
0.0
 40
0.4999979735003874
100
AcDbArc
 50
128.6189546244
 51
180.0000027273
  0
ARC
  5
106
330
1F
100
AcDbEntity
  8
0
  6
Continuous
 62
     7
100
AcDbCircle
 10
6195.5187550977
 20
4712.4169020514
 30
0.0
 40
2.500000000001258
100
AcDbArc
 50
180.0002593351
 51
190.0003223401
  0
ARC
  5
107
330
1F
100
AcDbEntity
  8
0
  6
Continuous
 62
     7
100
AcDbCircle
 10
6194.0187536969
 20
4698.9168873943
 30
0.0
 40
2.500001639150469
100
AcDbArc
 50
180.0000381658
 51
269.9999999996
  0
ARC
  5
108
330
1F
100
AcDbEntity
  8
0
  6
Continuous
 62
     7
100
AcDbCircle
 10
6194.0187536969
 20
4698.9168873943
 30
0.0
 40
0.9999985992514511
100
AcDbArc
 50
180.0000954148
 51
216.9594728918
  0
ARC
  5
109
330
1F
100
AcDbEntity
  8
0
  6
Continuous
 62
     7
100
AcDbCircle
 10
6354.0187536968
 20
4698.9168857551
 30
0.0
 40
0.9999969602008829
100
AcDbArc
 50
323.0405272078
 51
359.9999045852
  0
ARC
  5
10A
330
1F
100
AcDbEntity
  8
0
  6
Continuous
 62
     7
100
AcDbCircle
 10
6354.0187536968
 20
4698.9168857551
 30
0.0
 40
2.500000000000555
100
AcDbArc
 50
270.0000000001
 51
359.9999618342
  0
ARC
  5
10B
330
1F
100
AcDbEntity
  8
0
  6
Continuous
 62
     7
100
AcDbCircle
 10
6317.5671306197
 20
4684.2407318027
 30
0.0
 40
1.059947617052855
100
AcDbArc
 50
313.3162791491
 51
351.34846854
  0
ARC
  5
10C
330
1F
100
AcDbEntity
  8
0
  6
Continuous
 62
     7
100
AcDbCircle
 10
6321.7880607243
 20
4684.7869739468
 30
0.0
 40
6.050114872264394
100
AcDbArc
 50
332.2456036546
 51
358.8957379537
  0
ELLIPSE
  5
10D
330
1F
100
AcDbEntity
  8
0
  6
Continuous
 62
     7
100
AcDbEllipse
 10
6684.4398325345
 20
5384.4361495976
 30
0.0
 11
2.0
 21
0.0
 31
0.0
210
0.0
220
0.0
230
1.0
 40
0.091506351
 41
6.021385919417214
 42
6.283185307179586
  0
ELLIPSE
  5
10E
330
1F
100
AcDbEntity
  8
0
  6
Continuous
 62
     7
100
AcDbEllipse
 10
6595.4398354822
 20
5379.6994545927
 30
0.0
 11
1.5
 21
0.0
 31
0.0
210
0.0
220
0.0
230
1.0
 40
0.2154822031
 41
1.57079632679429
 42
3.141592653530702
  0
ELLIPSE
  5
10F
330
1F
100
AcDbEntity
  8
0
  6
Continuous
 62
     7
100
AcDbEllipse
 10
6595.4398354822
 20
5047.6994545927
 30
0.0
 11
1.5
 21
0.0
 31
0.0
210
0.0
220
0.0
230
1.0
 40
0.2154822031
 41
3.141592653589793
 42
4.712388980385299
  0
ELLIPSE
  5
110
330
1F
100
AcDbEntity
  8
0
  6
Continuous
 62
     7
100
AcDbEllipse
 10
6724.4398354859
 20
5066.1994545927
 30
0.0
 11
2.499999999999091
 21
0.0
 31
0.0
210
0.0
220
0.0
230
1.0
 40
0.3292893219
 41
4.71238898038615
 42
6.283185307179586
  0
ELLIPSE
  5
111
330
1F
100
AcDbEntity
  8
0
  6
Continuous
 62
     7
100
AcDbEllipse
 10
6724.4398354859
 20
5361.1994545926
 30
0.0
 11
2.499999999999091
 21
0.0
 31
0.0
210
0.0
220
0.0
230
1.0
 40
0.3292893219
 41
0.0
 42
1.570796326793441
  0
ELLIPSE
  5
112
330
1F
100
AcDbEntity
  8
0
  6
Continuous
 62
     7
100
AcDbEllipse
 10
6377.2554503409
 20
4738.916887398
 30
0.0
 11
0.0
 21
2.000000000000909
 31
0.0
210
0.0
220
0.0
230
1.0
 40
0.091506351
 41
2.879793265785163
 42
3.141592653833456
  0
ELLIPSE
  5
113
330
1F
100
AcDbEntity
  8
0
  6
Continuous
 62
     7
100
AcDbEllipse
 10
6170.7820603313
 20
4738.916887398
 30
0.0
 11
0.0
 21
2.000000000000909
 31
0.0
210
0.0
220
0.0
230
1.0
 40
0.0915063508
 41
3.141592653589792
 42
3.403392041386353
  0
ELLIPSE
  5
114
330
1F
100
AcDbEntity
  8
0
  6
Continuous
 62
     7
100
AcDbEllipse
 10
6372.5187553361
 20
4827.916887398
 30
0.0
 11
0.0
 21
1.5
 31
0.0
210
0.0
220
0.0
230
1.0
 40
0.2154822031
 41
4.712388980384087
 42
6.283185307179586
  0
ELLIPSE
  5
115
330
1F
100
AcDbEntity
  8
0
  6
Continuous
 62
     7
100
AcDbEllipse
 10
6175.5187553361
 20
4827.916887398
 30
0.0
 11
0.0
 21
1.5
 31
0.0
210
0.0
220
0.0
230
1.0
 40
0.2154822031
 41
0.0
 42
1.570796326795503
  0
ELLIPSE
  5
116
330
1F
100
AcDbEntity
  8
0
  6
Continuous
 62
     7
100
AcDbEllipse
 10
6194.0187536969
 20
4698.9168873943
 30
0.0
 11
0.0
 21
2.500001639150469
 31
0.0
210
0.0
220
0.0
230
1.0
 40
0.3292893219
 41
1.570796326796352
 42
3.141592653571012
  0
ELLIPSE
  5
117
330
1F
100
AcDbEntity
  8
0
  6
Continuous
 62
     7
100
AcDbEllipse
 10
6354.0187536968
 20
4698.9168857551
 30
0.0
 11
0.0
 21
2.500000000000909
 31
0.0
210
0.0
220
0.0
230
1.0
 40
0.3292893219
 41
3.141592653597569
 42
4.712389636043427
  0
LINE
  5
118
330
1F
100
AcDbEntity
  8
0
  6
Continuous
 62
     7
100
AcDbLine
 10
6240.652090092
 20
5367.8494488468
 30
0.0
 11
6232.3187535301
 21
5367.8494488468
 31
0.0
  0
LINE
  5
119
330
1F
100
AcDbEntity
  8
0
  6
Continuous
 62
     7
100
AcDbLine
 10
6257.3187557652
 20
5367.8494488468
 30
0.0
 11
6248.9854229286
 21
5367.8494488468
 31
0.0
  0
LINE
  5
11A
330
1F
100
AcDbEntity
  8
0
  6
Continuous
 62
     7
100
AcDbLine
 10
6223.9854206934
 20
5367.8494488468
 30
0.0
 11
6215.6520878568
 21
5367.8494488468
 31
0.0
  0
LINE
  5
11B
330
1F
100
AcDbEntity
  8
0
  6
Continuous
 62
     7
100
AcDbLine
 10
6307.3854205802
 20
5367.8494488468
 30
0.0
 11
6299.0520877435
 21
5367.8494488468
 31
0.0
  0
LINE
  5
11C
330
1F
100
AcDbEntity
  8
0
  6
Continuous
 62
     7
100
AcDbLine
 10
6324.0520899787
 20
5367.8494488468
 30
0.0
 11
6315.7187571421
 21
5367.8494488468
 31
0.0
  0
LINE
  5
11D
330
1F
100
AcDbEntity
  8
0
  6
Continuous
 62
     7
100
AcDbLine
 10
6340.7187519267
 20
5367.8494488468
 30
0.0
 11
6332.3854228154
 21
5367.8494488468
 31
0.0
  0
LINE
  5
11E
330
1F
100
AcDbEntity
  8
0
  6
Continuous
 62
     7
100
AcDbLine
 10
6299.0520877435
 20
5367.8494488468
 30
0.0
 11
6290.7187549069
 21
5367.8494488468
 31
0.0
  0
LINE
  5
11F
330
1F
100
AcDbEntity
  8
0
  6
Continuous
 62
     7
100
AcDbLine
 10
6315.7187571421
 20
5367.8494488468
 30
0.0
 11
6307.3854205802
 21
5367.8494488468
 31
0.0
  0
LINE
  5
120
330
1F
100
AcDbEntity
  8
0
  6
Continuous
 62
     7
100
AcDbLine
 10
6332.3854228154
 20
5367.8494488468
 30
0.0
 11
6324.0520899787
 21
5367.8494488468
 31
0.0
  0
LINE
  5
121
330
1F
100
AcDbEntity
  8
0
  6
Continuous
 62
     7
100
AcDbLine
 10
6215.6520878568
 20
5367.8494488468
 30
0.0
 11
6207.3187587455
 21
5367.8494488468
 31
0.0
  0
LINE
  5
122
330
1F
100
AcDbEntity
  8
0
  6
Continuous
 62
     7
100
AcDbLine
 10
6232.3187535301
 20
5367.8494488468
 30
0.0
 11
6223.9854206934
 21
5367.8494488468
 31
0.0
  0
LINE
  5
123
330
1F
100
AcDbEntity
  8
0
  6
Continuous
 62
     7
100
AcDbLine
 10
6248.9854229286
 20
5367.8494488468
 30
0.0
 11
6240.652090092
 21
5367.8494488468
 31
0.0
  0
LINE
  5
124
330
1F
100
AcDbEntity
  8
0
  6
Continuous
 62
     7
100
AcDbLine
 10
6331.3295526102
 20
5278.6074598899
 30
0.0
 11
6331.5140476122
 21
5278.8038273921
 31
0.0
  0
LINE
  5
125
330
1F
100
AcDbEntity
  8
0
  6
Continuous
 62
     7
100
AcDbLine
 10
6315.5288343921
 20
5281.9504683485
 30
0.0
 11
6315.4493255213
 21
5282.1863984337
 31
0.0
  0
LINE
  5
126
330
1F
100
AcDbEntity
  8
0
  6
Continuous
 62
     7
100
AcDbLine
 10
6170.8294285135
 20
5384.9537914265
 30
0.0
 11
6170.8138418989
 21
5384.7834413517
 31
0.0
  0
LINE
  5
127
330
1F
100
AcDbEntity
  8
0
  6
Continuous
 62
     7
100
AcDbLine
 10
6170.8138418989
 20
5384.7834413517
 30
0.0
 11
6170.7980094151
 21
5384.6104537714
 31
0.0
  0
LINE
  5
128
330
1F
100
AcDbEntity
  8
0
  6
Continuous
 62
     7
100
AcDbLine
 10
6170.7980094151
 20
5384.6104537714
 30
0.0
 11
6170.7820577221
 21
5384.4361548889
 31
0.0
  0
LINE
  5
129
330
1F
100
AcDbEntity
  8
0
  6
Continuous
 62
     7
100
AcDbLine
 10
6170.8294285135
 20
5384.9537914265
 30
0.0
 11
6377.208082159
 21
5384.9537914265
 31
0.0
  0
LINE
  5
12A
330
1F
100
AcDbEntity
  8
0
  6
Continuous
 62
     7
100
AcDbLine
 10
6377.2554529505
 20
5384.4361548889
 30
0.0
 11
6377.2395012574
 21
5384.6104537714
 31
0.0
  0
LINE
  5
12B
330
1F
100
AcDbEntity
  8
0
  6
Continuous
 62
     7
100
AcDbLine
 10
6377.2395012574
 20
5384.6104537714
 30
0.0
 11
6377.2236687736
 21
5384.7834413517
 31
0.0
  0
LINE
  5
12C
330
1F
100
AcDbEntity
  8
0
  6
Continuous
 62
     7
100
AcDbLine
 10
6377.2236687736
 20
5384.7834413517
 30
0.0
 11
6377.208082159
 21
5384.9537914265
 31
0.0
  0
LINE
  5
12D
330
1F
100
AcDbEntity
  8
0
  6
Continuous
 62
     7
100
AcDbLine
 10
6170.7820577221
 20
5384.4361548889
 30
0.0
 11
6377.2554529505
 21
5384.4361548889
 31
0.0
  0
LINE
  5
12E
330
1F
100
AcDbEntity
  8
0
  6
Continuous
 62
     7
100
AcDbLine
 10
6170.2644211843
 20
5043.0101250878
 30
0.0
 11
6170.4347638087
 21
5042.994538473
 31
0.0
  0
LINE
  5
12F
330
1F
100
AcDbEntity
  8
0
  6
Continuous
 62
     7
100
AcDbLine
 10
6170.4347638087
 20
5042.994538473
 30
0.0
 11
6170.607751389
 21
5042.9787134399
 31
0.0
  0
LINE
  5
130
330
1F
100
AcDbEntity
  8
0
  6
Continuous
 62
     7
100
AcDbLine
 10
6170.607751389
 20
5042.9787134399
 30
0.0
 11
6170.7820577221
 21
5042.9627542962
 31
0.0
  0
LINE
  5
131
330
1F
100
AcDbEntity
  8
0
  6
Continuous
 62
     7
100
AcDbLine
 10
6170.2644211843
 20
5043.0101250878
 30
0.0
 11
6170.2644211843
 21
5384.3887840975
 31
0.0
  0
LINE
  5
132
330
1F
100
AcDbEntity
  8
0
  6
Continuous
 62
     7
100
AcDbLine
 10
6170.7820577221
 20
5384.4361548889
 30
0.0
 11
6170.6077513889
 21
5384.4201957453
 31
0.0
  0
LINE
  5
133
330
1F
100
AcDbEntity
  8
0
  6
Continuous
 62
     7
100
AcDbLine
 10
6170.6077513889
 20
5384.4201957453
 30
0.0
 11
6170.4347638086
 21
5384.4043707121
 31
0.0
  0
LINE
  5
134
330
1F
100
AcDbEntity
  8
0
  6
Continuous
 62
     7
100
AcDbLine
 10
6170.4347638086
 20
5384.4043707121
 30
0.0
 11
6170.2644211843
 21
5384.3887840975
 31
0.0
  0
LINE
  5
135
330
1F
100
AcDbEntity
  8
0
  6
Continuous
 62
     7
100
AcDbLine
 10
6170.7820577221
 20
5042.9627542962
 30
0.0
 11
6170.7820577221
 21
5384.4361548889
 31
0.0
  0
LINE
  5
136
330
1F
100
AcDbEntity
  8
0
  6
Continuous
 62
     7
100
AcDbLine
 10
6377.2554529505
 20
5384.4361548889
 30
0.0
 11
6377.2554529505
 21
5042.9627542961
 31
0.0
  0
LINE
  5
137
330
1F
100
AcDbEntity
  8
0
  6
Continuous
 62
     7
100
AcDbLine
 10
6377.2554529505
 20
5042.9627542961
 30
0.0
 11
6170.7820577221
 21
5042.9627542962
 31
0.0
  0
LINE
  5
138
330
1F
100
AcDbEntity
  8
0
  6
Continuous
 62
     7
100
AcDbLine
 10
6192.5187540844
 20
5062.6994615069
 30
0.0
 11
6355.5187565878
 21
5062.6994615069
 31
0.0
  0
LINE
  5
139
330
1F
100
AcDbEntity
  8
0
  6
Continuous
 62
     7
100
AcDbLine
 10
6190.5187574818
 20
5362.6994585266
 30
0.0
 11
6190.5187574818
 21
5064.6994506588
 31
0.0
  0
LINE
  5
13A
330
1F
100
AcDbEntity
  8
0
  6
Continuous
 62
     7
100
AcDbLine
 10
6357.5187531903
 20
5064.6994506588
 30
0.0
 11
6357.5187531903
 21
5362.6994585266
 31
0.0
  0
LINE
  5
13B
330
1F
100
AcDbEntity
  8
0
  6
Continuous
 62
     7
100
AcDbLine
 10
6355.5187565878
 20
5364.6994476786
 30
0.0
 11
6342.2003147795
 21
5364.6994476786
 31
0.0
  0
LINE
  5
13C
330
1F
100
AcDbEntity
  8
0
  6
Continuous
 62
     7
100
AcDbLine
 10
6289.2371957794
 20
5364.6994476786
 30
0.0
 11
6258.8003148928
 21
5364.6994476786
 31
0.0
  0
LINE
  5
13D
330
1F
100
AcDbEntity
  8
0
  6
Continuous
 62
     7
100
AcDbLine
 10
6205.8371958926
 20
5364.6994476786
 30
0.0
 11
6192.5187540844
 21
5364.6994476786
 31
0.0
  0
LINE
  5
13E
330
1F
100
AcDbEntity
  8
0
  6
Continuous
 62
     7
100
AcDbLine
 10
6377.208082159
 20
5042.4451177586
 30
0.0
 11
6377.2236687736
 21
5042.6154678333
 31
0.0
  0
LINE
  5
13F
330
1F
100
AcDbEntity
  8
0
  6
Continuous
 62
     7
100
AcDbLine
 10
6377.2236687736
 20
5042.6154678333
 30
0.0
 11
6377.2395012574
 21
5042.7884554136
 31
0.0
  0
LINE
  5
140
330
1F
100
AcDbEntity
  8
0
  6
Continuous
 62
     7
100
AcDbLine
 10
6377.2395012574
 20
5042.7884554136
 30
0.0
 11
6377.2554529505
 21
5042.9627542961
 31
0.0
  0
LINE
  5
141
330
1F
100
AcDbEntity
  8
0
  6
Continuous
 62
     7
100
AcDbLine
 10
6377.208082159
 20
5042.4451177586
 30
0.0
 11
6170.8294285135
 21
5042.4451177586
 31
0.0
  0
LINE
  5
142
330
1F
100
AcDbEntity
  8
0
  6
Continuous
 62
     7
100
AcDbLine
 10
6170.7820577221
 20
5042.9627542962
 30
0.0
 11
6170.7980094151
 21
5042.7884554136
 31
0.0
  0
LINE
  5
143
330
1F
100
AcDbEntity
  8
0
  6
Continuous
 62
     7
100
AcDbLine
 10
6170.7980094151
 20
5042.7884554136
 30
0.0
 11
6170.8138418989
 21
5042.6154678333
 31
0.0
  0
LINE
  5
144
330
1F
100
AcDbEntity
  8
0
  6
Continuous
 62
     7
100
AcDbLine
 10
6170.8138418989
 20
5042.6154678333
 30
0.0
 11
6170.8294285135
 21
5042.4451177586
 31
0.0
  0
LINE
  5
145
330
1F
100
AcDbEntity
  8
0
  6
Continuous
 62
     7
100
AcDbLine
 10
6377.2554529505
 20
5042.9627542961
 30
0.0
 11
6377.4297592835
 21
5042.9787134398
 31
0.0
  0
LINE
  5
146
330
1F
100
AcDbEntity
  8
0
  6
Continuous
 62
     7
100
AcDbLine
 10
6377.4297592835
 20
5042.9787134398
 30
0.0
 11
6377.6027468638
 21
5042.9945384729
 31
0.0
  0
LINE
  5
147
330
1F
100
AcDbEntity
  8
0
  6
Continuous
 62
     7
100
AcDbLine
 10
6377.6027468638
 20
5042.9945384729
 30
0.0
 11
6377.773089488
 21
5043.0101250876
 31
0.0
  0
LINE
  5
148
330
1F
100
AcDbEntity
  8
0
  6
Continuous
 62
     7
100
AcDbLine
 10
6377.773089488
 20
5384.3887840975
 30
0.0
 11
6377.6027468638
 21
5384.4043707121
 31
0.0
  0
LINE
  5
149
330
1F
100
AcDbEntity
  8
0
  6
Continuous
 62
     7
100
AcDbLine
 10
6377.6027468638
 20
5384.4043707121
 30
0.0
 11
6377.4297592835
 21
5384.4201957453
 31
0.0
  0
LINE
  5
14A
330
1F
100
AcDbEntity
  8
0
  6
Continuous
 62
     7
100
AcDbLine
 10
6377.4297592835
 20
5384.4201957453
 30
0.0
 11
6377.2554529505
 21
5384.4361548889
 31
0.0
  0
LINE
  5
14B
330
1F
100
AcDbEntity
  8
0
  6
Continuous
 62
     7
100
AcDbLine
 10
6377.773089488
 20
5384.3887840975
 30
0.0
 11
6377.773089488
 21
5043.0101250876
 31
0.0
  0
LINE
  5
14C
330
1F
100
AcDbEntity
  8
0
  6
Continuous
 62
     7
100
AcDbLine
 10
6161.4245010214
 20
5033.0401902664
 30
0.0
 11
6161.4245010214
 21
5033.4284251202
 31
0.0
  0
LINE
  5
14D
330
1F
100
AcDbEntity
  8
0
  6
Continuous
 62
     7
100
AcDbLine
 10
6170.7968769269
 20
5042.8008084763
 30
0.0
 11
6161.4245010214
 21
5033.4284251202
 31
0.0
  0
LINE
  5
14E
330
1F
100
AcDbEntity
  8
0
  6
Continuous
 62
     7
100
AcDbLine
 10
6170.8294285135
 20
5042.4451177586
 30
0.0
 11
6161.4245010214
 21
5033.0401902664
 31
0.0
  0
LINE
  5
14F
330
1F
100
AcDbEntity
  8
0
  6
Continuous
 62
     7
100
AcDbLine
 10
6386.6130096512
 20
5033.0401902664
 30
0.0
 11
6377.208082159
 21
5042.4451177586
 31
0.0
  0
LINE
  5
150
330
1F
100
AcDbEntity
  8
0
  6
Continuous
 62
     7
100
AcDbLine
 10
6386.6130096512
 20
5033.0401902664
 30
0.0
 11
6161.4245010214
 21
5033.0401902664
 31
0.0
  0
LINE
  5
151
330
1F
100
AcDbEntity
  8
0
  6
Continuous
 62
     7
100
AcDbLine
 10
6160.8594936922
 20
5393.7937115898
 30
0.0
 11
6161.2477285459
 21
5393.7937115898
 31
0.0
  0
LINE
  5
152
330
1F
100
AcDbEntity
  8
0
  6
Continuous
 62
     7
100
AcDbLine
 10
6170.6201044514
 20
5384.4213282337
 30
0.0
 11
6161.2477285459
 21
5393.7937115898
 31
0.0
  0
LINE
  5
153
330
1F
100
AcDbEntity
  8
0
  6
Continuous
 62
     7
100
AcDbLine
 10
6170.2644211843
 20
5384.3887840975
 30
0.0
 11
6160.8594936922
 21
5393.7937115898
 31
0.0
  0
LINE
  5
154
330
1F
100
AcDbEntity
  8
0
  6
Continuous
 62
     7
100
AcDbLine
 10
6160.8594936922
 20
5033.6051975956
 30
0.0
 11
6170.2644211843
 21
5043.0101250878
 31
0.0
  0
LINE
  5
155
330
1F
100
AcDbEntity
  8
0
  6
Continuous
 62
     7
100
AcDbLine
 10
6160.8594936922
 20
5033.6051975956
 30
0.0
 11
6160.8594936922
 21
5393.7937115898
 31
0.0
  0
LINE
  5
156
330
1F
100
AcDbEntity
  8
0
  6
Continuous
 62
     7
100
AcDbLine
 10
6387.1780169802
 20
5393.7937115896
 30
0.0
 11
6377.773089488
 21
5384.3887840975
 31
0.0
  0
LINE
  5
157
330
1F
100
AcDbEntity
  8
0
  6
Continuous
 62
     7
100
AcDbLine
 10
6387.1780169802
 20
5393.7937115896
 30
0.0
 11
6387.1780169802
 21
5033.6051975954
 31
0.0
  0
LINE
  5
158
330
1F
100
AcDbEntity
  8
0
  6
Continuous
 62
     7
100
AcDbLine
 10
6377.773089488
 20
5043.0101250876
 30
0.0
 11
6387.1780169802
 21
5033.6051975954
 31
0.0
  0
LINE
  5
159
330
1F
100
AcDbEntity
  8
0
  6
Continuous
 62
     7
100
AcDbLine
 10
6387.1780169802
 20
5033.6051975954
 30
0.0
 11
6386.7897821264
 21
5033.6051975954
 31
0.0
  0
LINE
  5
15A
330
1F
100
AcDbEntity
  8
0
  6
Continuous
 62
     7
100
AcDbLine
 10
6377.4174062209
 20
5042.9775809515
 30
0.0
 11
6386.7897821264
 21
5033.6051975954
 31
0.0
  0
LINE
  5
15B
330
1F
100
AcDbEntity
  8
0
  6
Continuous
 62
     7
100
AcDbLine
 10
6161.2477285459
 20
5033.6051975956
 30
0.0
 11
6170.6201044514
 21
5042.9775809517
 31
0.0
  0
LINE
  5
15C
330
1F
100
AcDbEntity
  8
0
  6
Continuous
 62
     7
100
AcDbLine
 10
6160.8594936922
 20
5033.6051975956
 30
0.0
 11
6161.2477285459
 21
5033.6051975956
 31
0.0
  0
LINE
  5
15D
330
1F
100
AcDbEntity
  8
0
  6
Continuous
 62
     7
100
AcDbLine
 10
6386.7897821264
 20
5393.7937115896
 30
0.0
 11
6377.4174062209
 21
5384.4213282335
 31
0.0
  0
LINE
  5
15E
330
1F
100
AcDbEntity
  8
0
  6
Continuous
 62
     7
100
AcDbLine
 10
6387.1780169802
 20
5393.7937115896
 30
0.0
 11
6386.7897821264
 21
5393.7937115896
 31
0.0
  0
LINE
  5
15F
330
1F
100
AcDbEntity
  8
0
  6
Continuous
 62
     7
100
AcDbLine
 10
6161.4245010214
 20
5394.3587189186
 30
0.0
 11
6170.8294285135
 21
5384.9537914265
 31
0.0
  0
LINE
  5
160
330
1F
100
AcDbEntity
  8
0
  6
Continuous
 62
     7
100
AcDbLine
 10
6161.4245010214
 20
5393.9704840649
 30
0.0
 11
6170.7968769269
 21
5384.5981007088
 31
0.0
  0
LINE
  5
161
330
1F
100
AcDbEntity
  8
0
  6
Continuous
 62
     7
100
AcDbLine
 10
6161.4245010214
 20
5394.3587189186
 30
0.0
 11
6161.4245010214
 21
5393.9704840649
 31
0.0
  0
LINE
  5
162
330
1F
100
AcDbEntity
  8
0
  6
Continuous
 62
     7
100
AcDbLine
 10
6161.4245010214
 20
5394.3587189186
 30
0.0
 11
6386.6130096512
 21
5394.3587189186
 31
0.0
  0
LINE
  5
163
330
1F
100
AcDbEntity
  8
0
  6
Continuous
 62
     7
100
AcDbLine
 10
6377.208082159
 20
5384.9537914265
 30
0.0
 11
6386.6130096512
 21
5394.3587189186
 31
0.0
  0
LINE
  5
164
330
1F
100
AcDbEntity
  8
0
  6
Continuous
 62
     7
100
AcDbLine
 10
6386.6130096512
 20
5033.4284251202
 30
0.0
 11
6377.2406337457
 21
5042.8008084763
 31
0.0
  0
LINE
  5
165
330
1F
100
AcDbEntity
  8
0
  6
Continuous
 62
     7
100
AcDbLine
 10
6386.6130096512
 20
5033.0401902664
 30
0.0
 11
6386.6130096512
 21
5033.4284251202
 31
0.0
  0
LINE
  5
166
330
1F
100
AcDbEntity
  8
0
  6
Continuous
 62
     7
100
AcDbLine
 10
6386.6130096512
 20
5394.3587189186
 30
0.0
 11
6386.6130096512
 21
5393.9704840649
 31
0.0
  0
LINE
  5
167
330
1F
100
AcDbEntity
  8
0
  6
Continuous
 62
     7
100
AcDbLine
 10
6377.2406337457
 20
5384.5981007088
 30
0.0
 11
6386.6130096512
 21
5393.9704840649
 31
0.0
  0
LINE
  5
168
330
1F
100
AcDbEntity
  8
0
  6
Continuous
 62
     7
100
AcDbLine
 10
6193.0187550977
 20
5065.3762315979
 30
0.0
 11
6193.037970145
 21
5065.3920566311
 31
0.0
  0
LINE
  5
169
330
1F
100
AcDbEntity
  8
0
  6
Continuous
 62
     7
100
AcDbLine
 10
6193.037970145
 20
5065.3920566311
 30
0.0
 11
6193.0948776796
 21
5065.4388909807
 31
0.0
  0
LINE
  5
16A
330
1F
100
AcDbEntity
  8
0
  6
Continuous
 62
     7
100
AcDbLine
 10
6193.0948776796
 20
5065.4388909807
 30
0.0
 11
6193.1872872308
 21
5065.5149763098
 31
0.0
  0
LINE
  5
16B
330
1F
100
AcDbEntity
  8
0
  6
Continuous
 62
     7
100
AcDbLine
 10
6193.1872872308
 20
5065.5149763098
 30
0.0
 11
6193.3116448715
 21
5065.6173472872
 31
0.0
  0
LINE
  5
16C
330
1F
100
AcDbEntity
  8
0
  6
Continuous
 62
     7
100
AcDbLine
 10
6193.3116448715
 20
5065.6173472872
 30
0.0
 11
6193.4631822303
 21
5065.7420998087
 31
0.0
  0
LINE
  5
16D
330
1F
100
AcDbEntity
  8
0
  6
Continuous
 62
     7
100
AcDbLine
 10
6193.4631822303
 20
5065.7420998087
 30
0.0
 11
6193.636072953
 21
5065.8844207993
 31
0.0
  0
LINE
  5
16E
330
1F
100
AcDbEntity
  8
0
  6
Continuous
 62
     7
100
AcDbLine
 10
6193.636072953
 20
5065.8844207993
 30
0.0
 11
6193.725234051
 21
5065.9578239193
 31
0.0
  0
LINE
  5
16F
330
1F
100
AcDbEntity
  8
0
  6
Continuous
 62
     7
100
AcDbLine
 10
6194.0187571242
 20
5361.1994480362
 30
0.0
 11
6193.8451064422
 21
5361.3424097767
 31
0.0
  0
LINE
  5
170
330
1F
100
AcDbEntity
  8
0
  6
Continuous
 62
     7
100
AcDbLine
 10
6193.8451064422
 20
5361.3424097767
 30
0.0
 11
6193.6767382219
 21
5361.4810203781
 31
0.0
  0
LINE
  5
171
330
1F
100
AcDbEntity
  8
0
  6
Continuous
 62
     7
100
AcDbLine
 10
6193.6767382219
 20
5361.4810203781
 30
0.0
 11
6193.5187561109
 21
5361.6110628119
 31
0.0
  0
LINE
  5
172
330
1F
100
AcDbEntity
  8
0
  6
Continuous
 62
     7
100
AcDbLine
 10
6193.5187561109
 20
5361.6110628119
 30
0.0
 11
6193.3759657338
 21
5361.7286180725
 31
0.0
  0
LINE
  5
173
330
1F
100
AcDbEntity
  8
0
  6
Continuous
 62
     7
100
AcDbLine
 10
6193.3759657338
 20
5361.7286180725
 30
0.0
 11
6193.252710779
 21
5361.8300800791
 31
0.0
  0
LINE
  5
174
330
1F
100
AcDbEntity
  8
0
  6
Continuous
 62
     7
100
AcDbLine
 10
6193.252710779
 20
5361.8300800791
 30
0.0
 11
6193.1527314379
 21
5361.9123940935
 31
0.0
  0
LINE
  5
175
330
1F
100
AcDbEntity
  8
0
  6
Continuous
 62
     7
100
AcDbLine
 10
6193.1527314379
 20
5361.9123940935
 30
0.0
 11
6193.079060097
 21
5361.9730269184
 31
0.0
  0
LINE
  5
176
330
1F
100
AcDbEntity
  8
0
  6
Continuous
 62
     7
100
AcDbLine
 10
6193.079060097
 20
5361.9730269184
 30
0.0
 11
6193.0339468315
 21
5362.0101755133
 31
0.0
  0
LINE
  5
177
330
1F
100
AcDbEntity
  8
0
  6
Continuous
 62
     7
100
AcDbLine
 10
6193.0339468315
 20
5362.0101755133
 30
0.0
 11
6193.0187550977
 21
5362.0226775875
 31
0.0
  0
LINE
  5
178
330
1F
100
AcDbEntity
  8
0
  6
Continuous
 62
     7
100
AcDbLine
 10
6193.1955350235
 20
5362.1994500628
 30
0.0
 11
6193.2080370977
 21
5362.1842657795
 31
0.0
  0
LINE
  5
179
330
1F
100
AcDbEntity
  8
0
  6
Continuous
 62
     7
100
AcDbLine
 10
6193.2080370977
 20
5362.1842657795
 30
0.0
 11
6193.245178242
 21
5362.1391450634
 31
0.0
  0
LINE
  5
17A
330
1F
100
AcDbEntity
  8
0
  6
Continuous
 62
     7
100
AcDbLine
 10
6193.245178242
 20
5362.1391450634
 30
0.0
 11
6193.3058259681
 21
5362.0654737225
 31
0.0
  0
LINE
  5
17B
330
1F
100
AcDbEntity
  8
0
  6
Continuous
 62
     7
100
AcDbLine
 10
6193.3058259681
 20
5362.0654737225
 30
0.0
 11
6193.3881325319
 21
5361.965501832
 31
0.0
  0
LINE
  5
17C
330
1F
100
AcDbEntity
  8
0
  6
Continuous
 62
     7
100
AcDbLine
 10
6193.3881325319
 20
5361.965501832
 30
0.0
 11
6193.4895945385
 21
5361.8422394266
 31
0.0
  0
LINE
  5
17D
330
1F
100
AcDbEntity
  8
0
  6
Continuous
 62
     7
100
AcDbLine
 10
6193.4895945385
 20
5361.8422394266
 30
0.0
 11
6193.6071423486
 21
5361.6994565001
 31
0.0
  0
LINE
  5
17E
330
1F
100
AcDbEntity
  8
0
  6
Continuous
 62
     7
100
AcDbLine
 10
6193.6071423486
 20
5361.6994565001
 30
0.0
 11
6193.7371996835
 21
5361.5414743891
 31
0.0
  0
LINE
  5
17F
330
1F
100
AcDbEntity
  8
0
  6
Continuous
 62
     7
100
AcDbLine
 10
6193.7371996835
 20
5361.5414743891
 30
0.0
 11
6193.8758028343
 21
5361.3731061688
 31
0.0
  0
LINE
  5
180
330
1F
100
AcDbEntity
  8
0
  6
Continuous
 62
     7
100
AcDbLine
 10
6193.8758028343
 20
5361.3731061688
 30
0.0
 11
6194.0187571242
 21
5361.1994480362
 31
0.0
  0
LINE
  5
181
330
1F
100
AcDbEntity
  8
0
  6
Continuous
 62
     7
100
AcDbLine
 10
6354.0187535479
 20
5361.1994480362
 30
0.0
 11
6354.1793582633
 21
5361.3945489397
 31
0.0
  0
LINE
  5
182
330
1F
100
AcDbEntity
  8
0
  6
Continuous
 62
     7
100
AcDbLine
 10
6354.1793582633
 20
5361.3945489397
 30
0.0
 11
6354.3337864473
 21
5361.582139658
 31
0.0
  0
LINE
  5
183
330
1F
100
AcDbEntity
  8
0
  6
Continuous
 62
     7
100
AcDbLine
 10
6354.3337864473
 20
5361.582139658
 30
0.0
 11
6354.4761148885
 21
5361.7550229302
 31
0.0
  0
LINE
  5
184
330
1F
100
AcDbEntity
  8
0
  6
Continuous
 62
     7
100
AcDbLine
 10
6354.4761148885
 20
5361.7550229302
 30
0.0
 11
6354.6008599594
 21
5361.9065677395
 31
0.0
  0
LINE
  5
185
330
1F
100
AcDbEntity
  8
0
  6
Continuous
 62
     7
100
AcDbLine
 10
6354.6008599594
 20
5361.9065677395
 30
0.0
 11
6354.7032383874
 21
5362.0309179297
 31
0.0
  0
LINE
  5
186
330
1F
100
AcDbEntity
  8
0
  6
Continuous
 62
     7
100
AcDbLine
 10
6354.7032383874
 20
5362.0309179297
 30
0.0
 11
6354.7793162658
 21
5362.1233349314
 31
0.0
  0
LINE
  5
187
330
1F
100
AcDbEntity
  8
0
  6
Continuous
 62
     7
100
AcDbLine
 10
6354.7793162658
 20
5362.1233349314
 30
0.0
 11
6354.8261580661
 21
5362.180242466
 31
0.0
  0
LINE
  5
188
330
1F
100
AcDbEntity
  8
0
  6
Continuous
 62
     7
100
AcDbLine
 10
6354.8261580661
 20
5362.180242466
 30
0.0
 11
6354.8419756487
 21
5362.1994500628
 31
0.0
  0
LINE
  5
189
330
1F
100
AcDbEntity
  8
0
  6
Continuous
 62
     7
100
AcDbLine
 10
6354.8419756487
 20
5065.1994591227
 30
0.0
 11
6354.8261580661
 21
5065.2186667195
 31
0.0
  0
LINE
  5
18A
330
1F
100
AcDbEntity
  8
0
  6
Continuous
 62
     7
100
AcDbLine
 10
6354.8261580661
 20
5065.2186667195
 30
0.0
 11
6354.7793162658
 21
5065.2755742541
 31
0.0
  0
LINE
  5
18B
330
1F
100
AcDbEntity
  8
0
  6
Continuous
 62
     7
100
AcDbLine
 10
6354.7793162658
 20
5065.2755742541
 30
0.0
 11
6354.7032383874
 21
5065.3679912558
 31
0.0
  0
LINE
  5
18C
330
1F
100
AcDbEntity
  8
0
  6
Continuous
 62
     7
100
AcDbLine
 10
6354.7032383874
 20
5065.3679912558
 30
0.0
 11
6354.6008599594
 21
5065.4923414459
 31
0.0
  0
LINE
  5
18D
330
1F
100
AcDbEntity
  8
0
  6
Continuous
 62
     7
100
AcDbLine
 10
6354.6008599594
 20
5065.4923414459
 30
0.0
 11
6354.4761148885
 21
5065.6438862553
 31
0.0
  0
LINE
  5
18E
330
1F
100
AcDbEntity
  8
0
  6
Continuous
 62
     7
100
AcDbLine
 10
6354.4761148885
 20
5065.6438862553
 30
0.0
 11
6354.3337864473
 21
5065.8167695275
 31
0.0
  0
LINE
  5
18F
330
1F
100
AcDbEntity
  8
0
  6
Continuous
 62
     7
100
AcDbLine
 10
6354.3337864473
 20
5065.8167695275
 30
0.0
 11
6354.1793582633
 21
5066.0043602457
 31
0.0
  0
LINE
  5
190
330
1F
100
AcDbEntity
  8
0
  6
Continuous
 62
     7
100
AcDbLine
 10
6354.1793582633
 20
5066.0043602457
 30
0.0
 11
6354.0187535479
 21
5066.1994611492
 31
0.0
  0
LINE
  5
191
330
1F
100
AcDbEntity
  8
0
  6
Continuous
 62
     7
100
AcDbLine
 10
6193.7771198943
 20
5065.905938076
 30
0.0
 11
6193.7037242248
 21
5065.8167695275
 31
0.0
  0
LINE
  5
192
330
1F
100
AcDbEntity
  8
0
  6
Continuous
 62
     7
100
AcDbLine
 10
6193.7037242248
 20
5065.8167695275
 30
0.0
 11
6193.5613957837
 21
5065.6438862553
 31
0.0
  0
LINE
  5
193
330
1F
100
AcDbEntity
  8
0
  6
Continuous
 62
     7
100
AcDbLine
 10
6193.5613957837
 20
5065.6438862553
 30
0.0
 11
6193.4366507128
 21
5065.4923414459
 31
0.0
  0
LINE
  5
194
330
1F
100
AcDbEntity
  8
0
  6
Continuous
 62
     7
100
AcDbLine
 10
6193.4366507128
 20
5065.4923414459
 30
0.0
 11
6193.3342722848
 21
5065.3679912558
 31
0.0
  0
LINE
  5
195
330
1F
100
AcDbEntity
  8
0
  6
Continuous
 62
     7
100
AcDbLine
 10
6193.3342722848
 20
5065.3679912558
 30
0.0
 11
6193.2581944063
 21
5065.2755742541
 31
0.0
  0
LINE
  5
196
330
1F
100
AcDbEntity
  8
0
  6
Continuous
 62
     7
100
AcDbLine
 10
6193.2581944063
 20
5065.2755742541
 30
0.0
 11
6193.2113526061
 21
5065.2186667195
 31
0.0
  0
LINE
  5
197
330
1F
100
AcDbEntity
  8
0
  6
Continuous
 62
     7
100
AcDbLine
 10
6193.2113526061
 20
5065.2186667195
 30
0.0
 11
6193.1955350235
 21
5065.1994591227
 31
0.0
  0
LINE
  5
198
330
1F
100
AcDbEntity
  8
0
  6
Continuous
 62
     7
100
AcDbLine
 10
6355.0187555745
 20
5362.0226775875
 30
0.0
 11
6354.9995405271
 21
5362.0068525543
 31
0.0
  0
LINE
  5
199
330
1F
100
AcDbEntity
  8
0
  6
Continuous
 62
     7
100
AcDbLine
 10
6354.9995405271
 20
5362.0068525543
 30
0.0
 11
6354.9426329925
 21
5361.9600182047
 31
0.0
  0
LINE
  5
19A
330
1F
100
AcDbEntity
  8
0
  6
Continuous
 62
     7
100
AcDbLine
 10
6354.9426329925
 20
5361.9600182047
 30
0.0
 11
6354.8502234414
 21
5361.8839328757
 31
0.0
  0
LINE
  5
19B
330
1F
100
AcDbEntity
  8
0
  6
Continuous
 62
     7
100
AcDbLine
 10
6354.8502234414
 20
5361.8839328757
 30
0.0
 11
6354.7258658006
 21
5361.7815618982
 31
0.0
  0
LINE
  5
19C
330
1F
100
AcDbEntity
  8
0
  6
Continuous
 62
     7
100
AcDbLine
 10
6354.7258658006
 20
5361.7815618982
 30
0.0
 11
6354.5743284419
 21
5361.6568093767
 31
0.0
  0
LINE
  5
19D
330
1F
100
AcDbEntity
  8
0
  6
Continuous
 62
     7
100
AcDbLine
 10
6354.5743284419
 20
5361.6568093767
 30
0.0
 11
6354.4014377191
 21
5361.5144883862
 31
0.0
  0
LINE
  5
19E
330
1F
100
AcDbEntity
  8
0
  6
Continuous
 62
     7
100
AcDbLine
 10
6354.4014377191
 20
5361.5144883862
 30
0.0
 11
6354.2138470009
 21
5361.3600527516
 31
0.0
  0
LINE
  5
19F
330
1F
100
AcDbEntity
  8
0
  6
Continuous
 62
     7
100
AcDbLine
 10
6354.2138470009
 20
5361.3600527516
 30
0.0
 11
6354.0187535479
 21
5361.1994480362
 31
0.0
  0
LINE
  5
1A0
330
1F
100
AcDbEntity
  8
0
  6
Continuous
 62
     7
100
AcDbLine
 10
6354.0187535479
 20
5066.1994611492
 30
0.0
 11
6354.2138470009
 21
5066.0388564339
 31
0.0
  0
LINE
  5
1A1
330
1F
100
AcDbEntity
  8
0
  6
Continuous
 62
     7
100
AcDbLine
 10
6354.2138470009
 20
5066.0388564339
 30
0.0
 11
6354.4014377191
 21
5065.8844207993
 31
0.0
  0
LINE
  5
1A2
330
1F
100
AcDbEntity
  8
0
  6
Continuous
 62
     7
100
AcDbLine
 10
6354.4014377191
 20
5065.8844207993
 30
0.0
 11
6354.5743284419
 21
5065.7420998087
 31
0.0
  0
LINE
  5
1A3
330
1F
100
AcDbEntity
  8
0
  6
Continuous
 62
     7
100
AcDbLine
 10
6354.5743284419
 20
5065.7420998087
 30
0.0
 11
6354.7258658006
 21
5065.6173472872
 31
0.0
  0
LINE
  5
1A4
330
1F
100
AcDbEntity
  8
0
  6
Continuous
 62
     7
100
AcDbLine
 10
6354.7258658006
 20
5065.6173472872
 30
0.0
 11
6354.8502234414
 21
5065.5149763098
 31
0.0
  0
LINE
  5
1A5
330
1F
100
AcDbEntity
  8
0
  6
Continuous
 62
     7
100
AcDbLine
 10
6354.8502234414
 20
5065.5149763098
 30
0.0
 11
6354.9426329925
 21
5065.4388909807
 31
0.0
  0
LINE
  5
1A6
330
1F
100
AcDbEntity
  8
0
  6
Continuous
 62
     7
100
AcDbLine
 10
6354.9426329925
 20
5065.4388909807
 30
0.0
 11
6354.9995405271
 21
5065.3920566311
 31
0.0
  0
LINE
  5
1A7
330
1F
100
AcDbEntity
  8
0
  6
Continuous
 62
     7
100
AcDbLine
 10
6354.9995405271
 20
5065.3920566311
 30
0.0
 11
6355.0187555745
 21
5065.3762315979
 31
0.0
  0
LINE
  5
1A8
330
1F
100
AcDbEntity
  8
0
  6
Continuous
 62
     7
100
AcDbLine
 10
6193.725234051
 20
5065.9578239193
 30
0.0
 11
6193.7509907081
 21
5065.9316872826
 31
0.0
  0
LINE
  5
1A9
330
1F
100
AcDbEntity
  8
0
  6
Continuous
 62
     7
100
AcDbLine
 10
6193.7509907081
 20
5065.9316872826
 30
0.0
 11
6193.7771198943
 21
5065.905938076
 31
0.0
  0
LINE
  5
1AA
330
1F
100
AcDbEntity
  8
0
  6
Continuous
 62
     7
100
AcDbLine
 10
6232.3187535301
 20
5367.8494488468
 30
0.0
 11
6232.3187535301
 21
5363.6994605532
 31
0.0
  0
LINE
  5
1AB
330
1F
100
AcDbEntity
  8
0
  6
Continuous
 62
     7
100
AcDbLine
 10
6240.652090092
 20
5363.6994605532
 30
0.0
 11
6240.652090092
 21
5367.8494488468
 31
0.0
  0
LINE
  5
1AC
330
1F
100
AcDbEntity
  8
0
  6
Continuous
 62
     7
100
AcDbLine
 10
6257.3187557652
 20
5363.6994605532
 30
0.0
 11
6257.3187557652
 21
5367.8494488468
 31
0.0
  0
LINE
  5
1AD
330
1F
100
AcDbEntity
  8
0
  6
Continuous
 62
     7
100
AcDbLine
 10
6248.9854229286
 20
5367.8494488468
 30
0.0
 11
6248.9854229286
 21
5363.6994605532
 31
0.0
  0
LINE
  5
1AE
330
1F
100
AcDbEntity
  8
0
  6
Continuous
 62
     7
100
AcDbLine
 10
6215.6520878568
 20
5367.8494488468
 30
0.0
 11
6215.6520878568
 21
5363.6994605532
 31
0.0
  0
LINE
  5
1AF
330
1F
100
AcDbEntity
  8
0
  6
Continuous
 62
     7
100
AcDbLine
 10
6223.9854206934
 20
5363.6994605532
 30
0.0
 11
6223.9854206934
 21
5367.8494488468
 31
0.0
  0
LINE
  5
1B0
330
1F
100
AcDbEntity
  8
0
  6
Continuous
 62
     7
100
AcDbLine
 10
6299.0520877435
 20
5367.8494488468
 30
0.0
 11
6299.0520877435
 21
5363.6994605532
 31
0.0
  0
LINE
  5
1B1
330
1F
100
AcDbEntity
  8
0
  6
Continuous
 62
     7
100
AcDbLine
 10
6307.3854205802
 20
5363.6994605532
 30
0.0
 11
6307.3854205802
 21
5367.8494488468
 31
0.0
  0
LINE
  5
1B2
330
1F
100
AcDbEntity
  8
0
  6
Continuous
 62
     7
100
AcDbLine
 10
6315.7187571421
 20
5367.8494488468
 30
0.0
 11
6315.7187571421
 21
5363.6994605532
 31
0.0
  0
LINE
  5
1B3
330
1F
100
AcDbEntity
  8
0
  6
Continuous
 62
     7
100
AcDbLine
 10
6324.0520899787
 20
5363.6994605532
 30
0.0
 11
6324.0520899787
 21
5367.8494488468
 31
0.0
  0
LINE
  5
1B4
330
1F
100
AcDbEntity
  8
0
  6
Continuous
 62
     7
100
AcDbLine
 10
6340.7187519267
 20
5363.6994605532
 30
0.0
 11
6340.7187519267
 21
5367.8494488468
 31
0.0
  0
LINE
  5
1B5
330
1F
100
AcDbEntity
  8
0
  6
Continuous
 62
     7
100
AcDbLine
 10
6332.3854228154
 20
5367.8494488468
 30
0.0
 11
6332.3854228154
 21
5363.6994605532
 31
0.0
  0
LINE
  5
1B6
330
1F
100
AcDbEntity
  8
0
  6
Continuous
 62
     7
100
AcDbLine
 10
6290.7187549069
 20
5367.8494488468
 30
0.0
 11
6290.7187549069
 21
5363.6994605532
 31
0.0
  0
LINE
  5
1B7
330
1F
100
AcDbEntity
  8
0
  6
Continuous
 62
     7
100
AcDbLine
 10
6207.3187587455
 20
5367.8494488468
 30
0.0
 11
6207.3187587455
 21
5363.6994605532
 31
0.0
  0
LINE
  5
1B8
330
1F
100
AcDbEntity
  8
0
  6
Continuous
 62
     7
100
AcDbLine
 10
6354.0187535479
 20
5066.1994611492
 30
0.0
 11
6354.1793582633
 21
5065.7117312422
 31
0.0
  0
LINE
  5
1B9
330
1F
100
AcDbEntity
  8
0
  6
Continuous
 62
     7
100
AcDbLine
 10
6354.1793582633
 20
5065.7117312422
 30
0.0
 11
6354.3337864473
 21
5065.2427469959
 31
0.0
  0
LINE
  5
1BA
330
1F
100
AcDbEntity
  8
0
  6
Continuous
 62
     7
100
AcDbLine
 10
6354.3337864473
 20
5065.2427469959
 30
0.0
 11
6354.4761148885
 21
5064.8105239144
 31
0.0
  0
LINE
  5
1BB
330
1F
100
AcDbEntity
  8
0
  6
Continuous
 62
     7
100
AcDbLine
 10
6354.4761148885
 20
5064.8105239144
 30
0.0
 11
6354.6008599594
 21
5064.4316916933
 31
0.0
  0
LINE
  5
1BC
330
1F
100
AcDbEntity
  8
0
  6
Continuous
 62
     7
100
AcDbLine
 10
6354.6008599594
 20
5064.4316916933
 30
0.0
 11
6354.7032383874
 21
5064.120778965
 31
0.0
  0
LINE
  5
1BD
330
1F
100
AcDbEntity
  8
0
  6
Continuous
 62
     7
100
AcDbLine
 10
6354.7032383874
 20
5064.120778965
 30
0.0
 11
6354.7793162658
 21
5063.8897513619
 31
0.0
  0
LINE
  5
1BE
330
1F
100
AcDbEntity
  8
0
  6
Continuous
 62
     7
100
AcDbLine
 10
6354.7793162658
 20
5063.8897513619
 30
0.0
 11
6354.8261580661
 21
5063.7474899759
 31
0.0
  0
LINE
  5
1BF
330
1F
100
AcDbEntity
  8
0
  6
Continuous
 62
     7
100
AcDbLine
 10
6354.8261580661
 20
5063.7474899759
 30
0.0
 11
6354.8419756487
 21
5063.6994486323
 31
0.0
  0
LINE
  5
1C0
330
1F
100
AcDbEntity
  8
0
  6
Continuous
 62
     7
100
AcDbLine
 10
6193.1955350235
 20
5063.6994486323
 30
0.0
 11
6354.8419756487
 21
5063.6994486323
 31
0.0
  0
LINE
  5
1C1
330
1F
100
AcDbEntity
  8
0
  6
Continuous
 62
     7
100
AcDbLine
 10
6193.1955350235
 20
5063.6994486323
 30
0.0
 11
6193.2113526061
 21
5063.7474899759
 31
0.0
  0
LINE
  5
1C2
330
1F
100
AcDbEntity
  8
0
  6
Continuous
 62
     7
100
AcDbLine
 10
6193.2113526061
 20
5063.7474899759
 30
0.0
 11
6193.2581944063
 21
5063.8897513619
 31
0.0
  0
LINE
  5
1C3
330
1F
100
AcDbEntity
  8
0
  6
Continuous
 62
     7
100
AcDbLine
 10
6193.2581944063
 20
5063.8897513619
 30
0.0
 11
6193.3342722848
 21
5064.120778965
 31
0.0
  0
LINE
  5
1C4
330
1F
100
AcDbEntity
  8
0
  6
Continuous
 62
     7
100
AcDbLine
 10
6193.3342722848
 20
5064.120778965
 30
0.0
 11
6193.4366507128
 21
5064.4316916933
 31
0.0
  0
LINE
  5
1C5
330
1F
100
AcDbEntity
  8
0
  6
Continuous
 62
     7
100
AcDbLine
 10
6193.4366507128
 20
5064.4316916933
 30
0.0
 11
6193.5613957837
 21
5064.8105239144
 31
0.0
  0
LINE
  5
1C6
330
1F
100
AcDbEntity
  8
0
  6
Continuous
 62
     7
100
AcDbLine
 10
6193.5613957837
 20
5064.8105239144
 30
0.0
 11
6193.7037242248
 21
5065.2427469959
 31
0.0
  0
LINE
  5
1C7
330
1F
100
AcDbEntity
  8
0
  6
Continuous
 62
     7
100
AcDbLine
 10
6193.7037242248
 20
5065.2427469959
 30
0.0
 11
6193.8581524089
 21
5065.7117312422
 31
0.0
  0
LINE
  5
1C8
330
1F
100
AcDbEntity
  8
0
  6
Continuous
 62
     7
100
AcDbLine
 10
6193.8581524089
 20
5065.7117312422
 30
0.0
 11
6194.0187571242
 21
5066.1994611492
 31
0.0
  0
LINE
  5
1C9
330
1F
100
AcDbEntity
  8
0
  6
Continuous
 62
     7
100
AcDbLine
 10
6194.0187571242
 20
5066.1994611492
 30
0.0
 11
6354.0187535479
 21
5066.1994611492
 31
0.0
  0
LINE
  5
1CA
330
1F
100
AcDbEntity
  8
0
  6
Continuous
 62
     7
100
AcDbLine
 10
6354.0187535479
 20
5066.1994611492
 30
0.0
 11
6354.1793582633
 21
5066.0043602457
 31
0.0
  0
LINE
  5
1CB
330
1F
100
AcDbEntity
  8
0
  6
Continuous
 62
     7
100
AcDbLine
 10
6354.1793582633
 20
5066.0043602457
 30
0.0
 11
6354.3337864473
 21
5065.8167695275
 31
0.0
  0
LINE
  5
1CC
330
1F
100
AcDbEntity
  8
0
  6
Continuous
 62
     7
100
AcDbLine
 10
6354.3337864473
 20
5065.8167695275
 30
0.0
 11
6354.4761148885
 21
5065.6438862553
 31
0.0
  0
LINE
  5
1CD
330
1F
100
AcDbEntity
  8
0
  6
Continuous
 62
     7
100
AcDbLine
 10
6354.4761148885
 20
5065.6438862553
 30
0.0
 11
6354.6008599594
 21
5065.4923414459
 31
0.0
  0
LINE
  5
1CE
330
1F
100
AcDbEntity
  8
0
  6
Continuous
 62
     7
100
AcDbLine
 10
6354.6008599594
 20
5065.4923414459
 30
0.0
 11
6354.7032383874
 21
5065.3679912558
 31
0.0
  0
LINE
  5
1CF
330
1F
100
AcDbEntity
  8
0
  6
Continuous
 62
     7
100
AcDbLine
 10
6354.7032383874
 20
5065.3679912558
 30
0.0
 11
6354.7793162658
 21
5065.2755742541
 31
0.0
  0
LINE
  5
1D0
330
1F
100
AcDbEntity
  8
0
  6
Continuous
 62
     7
100
AcDbLine
 10
6354.7793162658
 20
5065.2755742541
 30
0.0
 11
6354.8261580661
 21
5065.2186667195
 31
0.0
  0
LINE
  5
1D1
330
1F
100
AcDbEntity
  8
0
  6
Continuous
 62
     7
100
AcDbLine
 10
6354.8261580661
 20
5065.2186667195
 30
0.0
 11
6354.8419756487
 21
5065.1994591227
 31
0.0
  0
LINE
  5
1D2
330
1F
100
AcDbEntity
  8
0
  6
Continuous
 62
     7
100
AcDbLine
 10
6354.8419756487
 20
5063.6994486323
 30
0.0
 11
6354.8419756487
 21
5065.1994591227
 31
0.0
  0
LINE
  5
1D3
330
1F
100
AcDbEntity
  8
0
  6
Continuous
 62
     7
100
AcDbLine
 10
6194.0187571242
 20
5361.1994480362
 30
0.0
 11
6193.8758028343
 21
5361.3731061688
 31
0.0
  0
LINE
  5
1D4
330
1F
100
AcDbEntity
  8
0
  6
Continuous
 62
     7
100
AcDbLine
 10
6193.8758028343
 20
5361.3731061688
 30
0.0
 11
6193.7371996835
 21
5361.5414743891
 31
0.0
  0
LINE
  5
1D5
330
1F
100
AcDbEntity
  8
0
  6
Continuous
 62
     7
100
AcDbLine
 10
6193.7371996835
 20
5361.5414743891
 30
0.0
 11
6193.6071423486
 21
5361.6994565001
 31
0.0
  0
LINE
  5
1D6
330
1F
100
AcDbEntity
  8
0
  6
Continuous
 62
     7
100
AcDbLine
 10
6193.6071423486
 20
5361.6994565001
 30
0.0
 11
6193.4895945385
 21
5361.8422394266
 31
0.0
  0
LINE
  5
1D7
330
1F
100
AcDbEntity
  8
0
  6
Continuous
 62
     7
100
AcDbLine
 10
6193.4895945385
 20
5361.8422394266
 30
0.0
 11
6193.3881325319
 21
5361.965501832
 31
0.0
  0
LINE
  5
1D8
330
1F
100
AcDbEntity
  8
0
  6
Continuous
 62
     7
100
AcDbLine
 10
6193.3881325319
 20
5361.965501832
 30
0.0
 11
6193.3058259681
 21
5362.0654737225
 31
0.0
  0
LINE
  5
1D9
330
1F
100
AcDbEntity
  8
0
  6
Continuous
 62
     7
100
AcDbLine
 10
6193.3058259681
 20
5362.0654737225
 30
0.0
 11
6193.245178242
 21
5362.1391450634
 31
0.0
  0
LINE
  5
1DA
330
1F
100
AcDbEntity
  8
0
  6
Continuous
 62
     7
100
AcDbLine
 10
6193.245178242
 20
5362.1391450634
 30
0.0
 11
6193.2080370977
 21
5362.1842657795
 31
0.0
  0
LINE
  5
1DB
330
1F
100
AcDbEntity
  8
0
  6
Continuous
 62
     7
100
AcDbLine
 10
6193.2080370977
 20
5362.1842657795
 30
0.0
 11
6193.1955350235
 21
5362.1994500628
 31
0.0
  0
LINE
  5
1DC
330
1F
100
AcDbEntity
  8
0
  6
Continuous
 62
     7
100
AcDbLine
 10
6193.1955350235
 20
5363.6994605532
 30
0.0
 11
6193.1955350235
 21
5362.1994500628
 31
0.0
  0
LINE
  5
1DD
330
1F
100
AcDbEntity
  8
0
  6
Continuous
 62
     7
100
AcDbLine
 10
6194.0187571242
 20
5361.1994480362
 30
0.0
 11
6193.8581524089
 21
5361.6871779432
 31
0.0
  0
LINE
  5
1DE
330
1F
100
AcDbEntity
  8
0
  6
Continuous
 62
     7
100
AcDbLine
 10
6193.8581524089
 20
5361.6871779432
 30
0.0
 11
6193.7037242248
 21
5362.1561621895
 31
0.0
  0
LINE
  5
1DF
330
1F
100
AcDbEntity
  8
0
  6
Continuous
 62
     7
100
AcDbLine
 10
6193.7037242248
 20
5362.1561621895
 30
0.0
 11
6193.5613957837
 21
5362.5883852711
 31
0.0
  0
LINE
  5
1E0
330
1F
100
AcDbEntity
  8
0
  6
Continuous
 62
     7
100
AcDbLine
 10
6193.5613957837
 20
5362.5883852711
 30
0.0
 11
6193.4366507128
 21
5362.9672174921
 31
0.0
  0
LINE
  5
1E1
330
1F
100
AcDbEntity
  8
0
  6
Continuous
 62
     7
100
AcDbLine
 10
6193.4366507128
 20
5362.9672174921
 30
0.0
 11
6193.3342722848
 21
5363.2781302204
 31
0.0
  0
LINE
  5
1E2
330
1F
100
AcDbEntity
  8
0
  6
Continuous
 62
     7
100
AcDbLine
 10
6193.3342722848
 20
5363.2781302204
 30
0.0
 11
6193.2581944063
 21
5363.5091578236
 31
0.0
  0
LINE
  5
1E3
330
1F
100
AcDbEntity
  8
0
  6
Continuous
 62
     7
100
AcDbLine
 10
6193.2581944063
 20
5363.5091578236
 30
0.0
 11
6193.2113526061
 21
5363.6514192095
 31
0.0
  0
LINE
  5
1E4
330
1F
100
AcDbEntity
  8
0
  6
Continuous
 62
     7
100
AcDbLine
 10
6193.2113526061
 20
5363.6514192095
 30
0.0
 11
6193.1955350235
 21
5363.6994605532
 31
0.0
  0
LINE
  5
1E5
330
1F
100
AcDbEntity
  8
0
  6
Continuous
 62
     7
100
AcDbLine
 10
6354.8419756487
 20
5363.6994605532
 30
0.0
 11
6193.1955350235
 21
5363.6994605532
 31
0.0
  0
LINE
  5
1E6
330
1F
100
AcDbEntity
  8
0
  6
Continuous
 62
     7
100
AcDbLine
 10
6354.8419756487
 20
5363.6994605532
 30
0.0
 11
6354.8261580661
 21
5363.6514192095
 31
0.0
  0
LINE
  5
1E7
330
1F
100
AcDbEntity
  8
0
  6
Continuous
 62
     7
100
AcDbLine
 10
6354.8261580661
 20
5363.6514192095
 30
0.0
 11
6354.7793162658
 21
5363.5091578236
 31
0.0
  0
LINE
  5
1E8
330
1F
100
AcDbEntity
  8
0
  6
Continuous
 62
     7
100
AcDbLine
 10
6354.7793162658
 20
5363.5091578236
 30
0.0
 11
6354.7032383874
 21
5363.2781302204
 31
0.0
  0
LINE
  5
1E9
330
1F
100
AcDbEntity
  8
0
  6
Continuous
 62
     7
100
AcDbLine
 10
6354.7032383874
 20
5363.2781302204
 30
0.0
 11
6354.6008599594
 21
5362.9672174921
 31
0.0
  0
LINE
  5
1EA
330
1F
100
AcDbEntity
  8
0
  6
Continuous
 62
     7
100
AcDbLine
 10
6354.6008599594
 20
5362.9672174921
 30
0.0
 11
6354.4761148885
 21
5362.5883852711
 31
0.0
  0
LINE
  5
1EB
330
1F
100
AcDbEntity
  8
0
  6
Continuous
 62
     7
100
AcDbLine
 10
6354.4761148885
 20
5362.5883852711
 30
0.0
 11
6354.3337864473
 21
5362.1561621895
 31
0.0
  0
LINE
  5
1EC
330
1F
100
AcDbEntity
  8
0
  6
Continuous
 62
     7
100
AcDbLine
 10
6354.3337864473
 20
5362.1561621895
 30
0.0
 11
6354.1793582633
 21
5361.6871779432
 31
0.0
  0
LINE
  5
1ED
330
1F
100
AcDbEntity
  8
0
  6
Continuous
 62
     7
100
AcDbLine
 10
6354.1793582633
 20
5361.6871779432
 30
0.0
 11
6354.0187535479
 21
5361.1994480362
 31
0.0
  0
LINE
  5
1EE
330
1F
100
AcDbEntity
  8
0
  6
Continuous
 62
     7
100
AcDbLine
 10
6354.0187535479
 20
5361.1994480362
 30
0.0
 11
6194.0187571242
 21
5361.1994480362
 31
0.0
  0
LINE
  5
1EF
330
1F
100
AcDbEntity
  8
0
  6
Continuous
 62
     7
100
AcDbLine
 10
6194.0187571242
 20
5361.1994480362
 30
0.0
 11
6194.0187571242
 21
5066.1994611492
 31
0.0
  0
LINE
  5
1F0
330
1F
100
AcDbEntity
  8
0
  6
Continuous
 62
     7
100
AcDbLine
 10
6354.0187535479
 20
5066.1994611492
 30
0.0
 11
6354.0187535479
 21
5361.1994480362
 31
0.0
  0
LINE
  5
1F1
330
1F
100
AcDbEntity
  8
0
  6
Continuous
 62
     7
100
AcDbLine
 10
6206.5187526539
 20
5308.6994534006
 30
0.0
 11
6266.5187555037
 21
5308.6994534006
 31
0.0
  0
LINE
  5
1F2
330
1F
100
AcDbEntity
  8
0
  6
Continuous
 62
     7
100
AcDbLine
 10
6266.5187555037
 20
5308.6994534006
 30
0.0
 11
6266.5187555037
 21
5338.6994545927
 31
0.0
  0
LINE
  5
1F3
330
1F
100
AcDbEntity
  8
0
  6
Continuous
 62
     7
100
AcDbLine
 10
6266.5187555037
 20
5338.6994545927
 30
0.0
 11
6206.5187526539
 21
5338.6994545927
 31
0.0
  0
LINE
  5
1F4
330
1F
100
AcDbEntity
  8
0
  6
Continuous
 62
     7
100
AcDbLine
 10
6206.5187526539
 20
5338.6994545927
 30
0.0
 11
6206.5187526539
 21
5308.6994534006
 31
0.0
  0
LINE
  5
1F5
330
1F
100
AcDbEntity
  8
0
  6
Continuous
 62
     7
100
AcDbLine
 10
6307.4045462206
 20
5301.3498058191
 30
0.0
 11
6312.2372088626
 21
5302.1593710056
 31
0.0
  0
LINE
  5
1F6
330
1F
100
AcDbEntity
  8
0
  6
Continuous
 62
     7
100
AcDbLine
 10
6312.2372088626
 20
5302.1593710056
 30
0.0
 11
6306.4711188569
 21
5336.5797495117
 31
0.0
  0
LINE
  5
1F7
330
1F
100
AcDbEntity
  8
0
  6
Continuous
 62
     7
100
AcDbLine
 10
6306.4711188569
 20
5336.5797495117
 30
0.0
 11
6301.6384599402
 21
5335.7701843252
 31
0.0
  0
LINE
  5
1F8
330
1F
100
AcDbEntity
  8
0
  6
Continuous
 62
     7
100
AcDbLine
 10
6301.6384599402
 20
5335.7701843252
 30
0.0
 11
6307.4045462206
 21
5301.3498058191
 31
0.0
  0
LINE
  5
1F9
330
1F
100
AcDbEntity
  8
0
  6
Continuous
 62
     7
100
AcDbLine
 10
6315.2149637833
 20
5282.0494567623
 30
0.0
 11
6284.362402898
 21
5282.0494567623
 31
0.0
  0
LINE
  5
1FA
330
1F
100
AcDbEntity
  8
0
  6
Continuous
 62
     7
100
AcDbLine
 10
6284.362402898
 20
5282.0494567623
 30
0.0
 11
6284.362402898
 21
5260.0494531563
 31
0.0
  0
LINE
  5
1FB
330
1F
100
AcDbEntity
  8
0
  6
Continuous
 62
     7
100
AcDbLine
 10
6284.362402898
 20
5260.0494531563
 30
0.0
 11
6315.2149637833
 21
5260.0494531563
 31
0.0
  0
LINE
  5
1FC
330
1F
100
AcDbEntity
  8
0
  6
Continuous
 62
     7
100
AcDbLine
 10
6314.7410062745
 20
5212.5556473967
 30
0.0
 11
6316.8491145268
 21
5193.1699348262
 31
0.0
  0
LINE
  5
1FD
330
1F
100
AcDbEntity
  8
0
  6
Continuous
 62
     7
100
AcDbLine
 10
6328.7787867382
 20
5194.4672317823
 30
0.0
 11
6326.6706784859
 21
5213.8529446439
 31
0.0
  0
LINE
  5
1FE
330
1F
100
AcDbEntity
  8
0
  6
Continuous
 62
     7
100
AcDbLine
 10
6326.6706784859
 20
5213.8529446439
 30
0.0
 11
6323.9865025177
 21
5213.5610527531
 31
0.0
  0
LINE
  5
1FF
330
1F
100
AcDbEntity
  8
0
  6
Continuous
 62
     7
100
AcDbLine
 10
6323.9865025177
 20
5213.5610527531
 30
0.0
 11
6321.4459625676
 21
5236.9233222326
 31
0.0
  0
LINE
  5
200
330
1F
100
AcDbEntity
  8
0
  6
Continuous
 62
     7
100
AcDbLine
 10
6321.4459625676
 20
5236.9233222326
 30
0.0
 11
6314.8846422925
 21
5236.2098099312
 31
0.0
  0
LINE
  5
201
330
1F
100
AcDbEntity
  8
0
  6
Continuous
 62
     7
100
AcDbLine
 10
6314.8846422925
 20
5236.2098099312
 30
0.0
 11
6317.4251822427
 21
5212.8475392584
 31
0.0
  0
LINE
  5
202
330
1F
100
AcDbEntity
  8
0
  6
Continuous
 62
     7
100
AcDbLine
 10
6317.4251822427
 20
5212.8475392584
 30
0.0
 11
6314.7410062745
 21
5212.5556473967
 31
0.0
  0
LINE
  5
203
330
1F
100
AcDbEntity
  8
0
  6
Continuous
 62
     7
100
AcDbLine
 10
6316.8491145268
 20
5193.1699348262
 30
0.0
 11
6328.7787867382
 21
5194.4672317823
 31
0.0
  0
LINE
  5
204
330
1F
100
AcDbEntity
  8
0
  6
Continuous
 62
     7
100
AcDbLine
 10
6193.1955350235
 20
5065.1994591227
 30
0.0
 11
6193.2113526061
 21
5065.2186667195
 31
0.0
  0
LINE
  5
205
330
1F
100
AcDbEntity
  8
0
  6
Continuous
 62
     7
100
AcDbLine
 10
6193.2113526061
 20
5065.2186667195
 30
0.0
 11
6193.2581944063
 21
5065.2755742541
 31
0.0
  0
LINE
  5
206
330
1F
100
AcDbEntity
  8
0
  6
Continuous
 62
     7
100
AcDbLine
 10
6193.2581944063
 20
5065.2755742541
 30
0.0
 11
6193.3342722848
 21
5065.3679912558
 31
0.0
  0
LINE
  5
207
330
1F
100
AcDbEntity
  8
0
  6
Continuous
 62
     7
100
AcDbLine
 10
6193.3342722848
 20
5065.3679912558
 30
0.0
 11
6193.4366507128
 21
5065.4923414459
 31
0.0
  0
LINE
  5
208
330
1F
100
AcDbEntity
  8
0
  6
Continuous
 62
     7
100
AcDbLine
 10
6193.4366507128
 20
5065.4923414459
 30
0.0
 11
6193.5613957837
 21
5065.6438862553
 31
0.0
  0
LINE
  5
209
330
1F
100
AcDbEntity
  8
0
  6
Continuous
 62
     7
100
AcDbLine
 10
6193.5613957837
 20
5065.6438862553
 30
0.0
 11
6193.7037242248
 21
5065.8167695275
 31
0.0
  0
LINE
  5
20A
330
1F
100
AcDbEntity
  8
0
  6
Continuous
 62
     7
100
AcDbLine
 10
6193.7037242248
 20
5065.8167695275
 30
0.0
 11
6193.8581524089
 21
5066.0043602457
 31
0.0
  0
LINE
  5
20B
330
1F
100
AcDbEntity
  8
0
  6
Continuous
 62
     7
100
AcDbLine
 10
6193.8581524089
 20
5066.0043602457
 30
0.0
 11
6194.0187571242
 21
5066.1994611492
 31
0.0
  0
LINE
  5
20C
330
1F
100
AcDbEntity
  8
0
  6
Continuous
 62
     7
100
AcDbLine
 10
6193.1955350235
 20
5063.6994486323
 30
0.0
 11
6193.1955350235
 21
5065.1994591227
 31
0.0
  0
LINE
  5
20D
330
1F
100
AcDbEntity
  8
0
  6
Continuous
 62
     7
100
AcDbLine
 10
6194.0187571242
 20
5066.1994611492
 30
0.0
 11
6193.8236636713
 21
5066.0388564339
 31
0.0
  0
LINE
  5
20E
330
1F
100
AcDbEntity
  8
0
  6
Continuous
 62
     7
100
AcDbLine
 10
6193.8236636713
 20
5066.0388564339
 30
0.0
 11
6193.636072953
 21
5065.8844207993
 31
0.0
  0
LINE
  5
20F
330
1F
100
AcDbEntity
  8
0
  6
Continuous
 62
     7
100
AcDbLine
 10
6193.636072953
 20
5065.8844207993
 30
0.0
 11
6193.4631822303
 21
5065.7420998087
 31
0.0
  0
LINE
  5
210
330
1F
100
AcDbEntity
  8
0
  6
Continuous
 62
     7
100
AcDbLine
 10
6193.4631822303
 20
5065.7420998087
 30
0.0
 11
6193.3116448715
 21
5065.6173472872
 31
0.0
  0
LINE
  5
211
330
1F
100
AcDbEntity
  8
0
  6
Continuous
 62
     7
100
AcDbLine
 10
6193.3116448715
 20
5065.6173472872
 30
0.0
 11
6193.1872872308
 21
5065.5149763098
 31
0.0
  0
LINE
  5
212
330
1F
100
AcDbEntity
  8
0
  6
Continuous
 62
     7
100
AcDbLine
 10
6193.1872872308
 20
5065.5149763098
 30
0.0
 11
6193.0948776796
 21
5065.4388909807
 31
0.0
  0
LINE
  5
213
330
1F
100
AcDbEntity
  8
0
  6
Continuous
 62
     7
100
AcDbLine
 10
6193.0948776796
 20
5065.4388909807
 30
0.0
 11
6193.037970145
 21
5065.3920566311
 31
0.0
  0
LINE
  5
214
330
1F
100
AcDbEntity
  8
0
  6
Continuous
 62
     7
100
AcDbLine
 10
6193.037970145
 20
5065.3920566311
 30
0.0
 11
6193.0187550977
 21
5065.3762315979
 31
0.0
  0
LINE
  5
215
330
1F
100
AcDbEntity
  8
0
  6
Continuous
 62
     7
100
AcDbLine
 10
6191.5187520578
 20
5065.3762315979
 30
0.0
 11
6193.0187550977
 21
5065.3762315979
 31
0.0
  0
LINE
  5
216
330
1F
100
AcDbEntity
  8
0
  6
Continuous
 62
     7
100
AcDbLine
 10
6194.0187571242
 20
5066.1994611492
 30
0.0
 11
6193.5310272172
 21
5066.0388564339
 31
0.0
  0
LINE
  5
217
330
1F
100
AcDbEntity
  8
0
  6
Continuous
 62
     7
100
AcDbLine
 10
6193.5310272172
 20
5066.0388564339
 30
0.0
 11
6193.0620504215
 21
5065.8844207993
 31
0.0
  0
LINE
  5
218
330
1F
100
AcDbEntity
  8
0
  6
Continuous
 62
     7
100
AcDbLine
 10
6193.0620504215
 20
5065.8844207993
 30
0.0
 11
6192.6298273399
 21
5065.7420998087
 31
0.0
  0
LINE
  5
219
330
1F
100
AcDbEntity
  8
0
  6
Continuous
 62
     7
100
AcDbLine
 10
6192.6298273399
 20
5065.7420998087
 30
0.0
 11
6192.2509876683
 21
5065.6173472872
 31
0.0
  0
LINE
  5
21A
330
1F
100
AcDbEntity
  8
0
  6
Continuous
 62
     7
100
AcDbLine
 10
6192.2509876683
 20
5065.6173472872
 30
0.0
 11
6191.9400823906
 21
5065.5149763098
 31
0.0
  0
LINE
  5
21B
330
1F
100
AcDbEntity
  8
0
  6
Continuous
 62
     7
100
AcDbLine
 10
6191.9400823906
 20
5065.5149763098
 30
0.0
 11
6191.7090547874
 21
5065.4388909807
 31
0.0
  0
LINE
  5
21C
330
1F
100
AcDbEntity
  8
0
  6
Continuous
 62
     7
100
AcDbLine
 10
6191.7090547874
 20
5065.4388909807
 30
0.0
 11
6191.5667934015
 21
5065.3920566311
 31
0.0
  0
LINE
  5
21D
330
1F
100
AcDbEntity
  8
0
  6
Continuous
 62
     7
100
AcDbLine
 10
6191.5667934015
 20
5065.3920566311
 30
0.0
 11
6191.5187520578
 21
5065.3762315979
 31
0.0
  0
LINE
  5
21E
330
1F
100
AcDbEntity
  8
0
  6
Continuous
 62
     7
100
AcDbLine
 10
6191.5187520578
 20
5362.0226775875
 30
0.0
 11
6191.5187520578
 21
5065.3762315979
 31
0.0
  0
LINE
  5
21F
330
1F
100
AcDbEntity
  8
0
  6
Continuous
 62
     7
100
AcDbLine
 10
6191.5187520578
 20
5362.0226775875
 30
0.0
 11
6191.5667934015
 21
5362.0068525543
 31
0.0
  0
LINE
  5
220
330
1F
100
AcDbEntity
  8
0
  6
Continuous
 62
     7
100
AcDbLine
 10
6191.5667934015
 20
5362.0068525543
 30
0.0
 11
6191.7090547874
 21
5361.9600182047
 31
0.0
  0
LINE
  5
221
330
1F
100
AcDbEntity
  8
0
  6
Continuous
 62
     7
100
AcDbLine
 10
6191.7090547874
 20
5361.9600182047
 30
0.0
 11
6191.9400823906
 21
5361.8839328757
 31
0.0
  0
LINE
  5
222
330
1F
100
AcDbEntity
  8
0
  6
Continuous
 62
     7
100
AcDbLine
 10
6191.9400823906
 20
5361.8839328757
 30
0.0
 11
6192.2509876683
 21
5361.7815618982
 31
0.0
  0
LINE
  5
223
330
1F
100
AcDbEntity
  8
0
  6
Continuous
 62
     7
100
AcDbLine
 10
6192.2509876683
 20
5361.7815618982
 30
0.0
 11
6192.6298273399
 21
5361.6568093767
 31
0.0
  0
LINE
  5
224
330
1F
100
AcDbEntity
  8
0
  6
Continuous
 62
     7
100
AcDbLine
 10
6192.6298273399
 20
5361.6568093767
 30
0.0
 11
6193.0620504215
 21
5361.5144883862
 31
0.0
  0
LINE
  5
225
330
1F
100
AcDbEntity
  8
0
  6
Continuous
 62
     7
100
AcDbLine
 10
6193.0620504215
 20
5361.5144883862
 30
0.0
 11
6193.5310272172
 21
5361.3600527516
 31
0.0
  0
LINE
  5
226
330
1F
100
AcDbEntity
  8
0
  6
Continuous
 62
     7
100
AcDbLine
 10
6193.5310272172
 20
5361.3600527516
 30
0.0
 11
6194.0187571242
 21
5361.1994480362
 31
0.0
  0
LINE
  5
227
330
1F
100
AcDbEntity
  8
0
  6
Continuous
 62
     7
100
AcDbLine
 10
6354.8419756487
 20
5362.1994500628
 30
0.0
 11
6354.8261580661
 21
5362.180242466
 31
0.0
  0
LINE
  5
228
330
1F
100
AcDbEntity
  8
0
  6
Continuous
 62
     7
100
AcDbLine
 10
6354.8261580661
 20
5362.180242466
 30
0.0
 11
6354.7793162658
 21
5362.1233349314
 31
0.0
  0
LINE
  5
229
330
1F
100
AcDbEntity
  8
0
  6
Continuous
 62
     7
100
AcDbLine
 10
6354.7793162658
 20
5362.1233349314
 30
0.0
 11
6354.7032383874
 21
5362.0309179297
 31
0.0
  0
LINE
  5
22A
330
1F
100
AcDbEntity
  8
0
  6
Continuous
 62
     7
100
AcDbLine
 10
6354.7032383874
 20
5362.0309179297
 30
0.0
 11
6354.6008599594
 21
5361.9065677395
 31
0.0
  0
LINE
  5
22B
330
1F
100
AcDbEntity
  8
0
  6
Continuous
 62
     7
100
AcDbLine
 10
6354.6008599594
 20
5361.9065677395
 30
0.0
 11
6354.4761148885
 21
5361.7550229302
 31
0.0
  0
LINE
  5
22C
330
1F
100
AcDbEntity
  8
0
  6
Continuous
 62
     7
100
AcDbLine
 10
6354.4761148885
 20
5361.7550229302
 30
0.0
 11
6354.3337864473
 21
5361.582139658
 31
0.0
  0
LINE
  5
22D
330
1F
100
AcDbEntity
  8
0
  6
Continuous
 62
     7
100
AcDbLine
 10
6354.3337864473
 20
5361.582139658
 30
0.0
 11
6354.1793582633
 21
5361.3945489397
 31
0.0
  0
LINE
  5
22E
330
1F
100
AcDbEntity
  8
0
  6
Continuous
 62
     7
100
AcDbLine
 10
6354.1793582633
 20
5361.3945489397
 30
0.0
 11
6354.0187535479
 21
5361.1994480362
 31
0.0
  0
LINE
  5
22F
330
1F
100
AcDbEntity
  8
0
  6
Continuous
 62
     7
100
AcDbLine
 10
6354.8419756487
 20
5363.6994605532
 30
0.0
 11
6354.8419756487
 21
5362.1994500628
 31
0.0
  0
LINE
  5
230
330
1F
100
AcDbEntity
  8
0
  6
Continuous
 62
     7
100
AcDbLine
 10
6354.0187535479
 20
5361.1994480362
 30
0.0
 11
6354.1924042299
 21
5361.3424097767
 31
0.0
  0
LINE
  5
231
330
1F
100
AcDbEntity
  8
0
  6
Continuous
 62
     7
100
AcDbLine
 10
6354.1924042299
 20
5361.3424097767
 30
0.0
 11
6354.3607724502
 21
5361.4810203781
 31
0.0
  0
LINE
  5
232
330
1F
100
AcDbEntity
  8
0
  6
Continuous
 62
     7
100
AcDbLine
 10
6354.3607724502
 20
5361.4810203781
 30
0.0
 11
6354.5187545612
 21
5361.6110628119
 31
0.0
  0
LINE
  5
233
330
1F
100
AcDbEntity
  8
0
  6
Continuous
 62
     7
100
AcDbLine
 10
6354.5187545612
 20
5361.6110628119
 30
0.0
 11
6354.6615449384
 21
5361.7286180725
 31
0.0
  0
LINE
  5
234
330
1F
100
AcDbEntity
  8
0
  6
Continuous
 62
     7
100
AcDbLine
 10
6354.6615449384
 20
5361.7286180725
 30
0.0
 11
6354.7847998932
 21
5361.8300800791
 31
0.0
  0
LINE
  5
235
330
1F
100
AcDbEntity
  8
0
  6
Continuous
 62
     7
100
AcDbLine
 10
6354.7847998932
 20
5361.8300800791
 30
0.0
 11
6354.8847792342
 21
5361.9123940935
 31
0.0
  0
LINE
  5
236
330
1F
100
AcDbEntity
  8
0
  6
Continuous
 62
     7
100
AcDbLine
 10
6354.8847792342
 20
5361.9123940935
 30
0.0
 11
6354.9584505751
 21
5361.9730269184
 31
0.0
  0
LINE
  5
237
330
1F
100
AcDbEntity
  8
0
  6
Continuous
 62
     7
100
AcDbLine
 10
6354.9584505751
 20
5361.9730269184
 30
0.0
 11
6355.0035638407
 21
5362.0101755133
 31
0.0
  0
LINE
  5
238
330
1F
100
AcDbEntity
  8
0
  6
Continuous
 62
     7
100
AcDbLine
 10
6355.0035638407
 20
5362.0101755133
 30
0.0
 11
6355.0187555745
 21
5362.0226775875
 31
0.0
  0
LINE
  5
239
330
1F
100
AcDbEntity
  8
0
  6
Continuous
 62
     7
100
AcDbLine
 10
6356.5187586143
 20
5362.0226775875
 30
0.0
 11
6355.0187555745
 21
5362.0226775875
 31
0.0
  0
LINE
  5
23A
330
1F
100
AcDbEntity
  8
0
  6
Continuous
 62
     7
100
AcDbLine
 10
6354.0187535479
 20
5361.1994480362
 30
0.0
 11
6354.4528765276
 21
5361.3424097767
 31
0.0
  0
LINE
  5
23B
330
1F
100
AcDbEntity
  8
0
  6
Continuous
 62
     7
100
AcDbLine
 10
6354.4528765276
 20
5361.3424097767
 30
0.0
 11
6354.873804529
 21
5361.4810203781
 31
0.0
  0
LINE
  5
23C
330
1F
100
AcDbEntity
  8
0
  6
Continuous
 62
     7
100
AcDbLine
 10
6354.873804529
 20
5361.4810203781
 30
0.0
 11
6355.2687523558
 21
5361.6110628119
 31
0.0
  0
LINE
  5
23D
330
1F
100
AcDbEntity
  8
0
  6
Continuous
 62
     7
100
AcDbLine
 10
6355.2687523558
 20
5361.6110628119
 30
0.0
 11
6355.6257245734
 21
5361.7286180725
 31
0.0
  0
LINE
  5
23E
330
1F
100
AcDbEntity
  8
0
  6
Continuous
 62
     7
100
AcDbLine
 10
6355.6257245734
 20
5361.7286180725
 30
0.0
 11
6355.9338656857
 21
5361.8300800791
 31
0.0
  0
LINE
  5
23F
330
1F
100
AcDbEntity
  8
0
  6
Continuous
 62
     7
100
AcDbLine
 10
6355.9338656857
 20
5361.8300800791
 30
0.0
 11
6356.1838177636
 21
5361.9123940935
 31
0.0
  0
LINE
  5
240
330
1F
100
AcDbEntity
  8
0
  6
Continuous
 62
     7
100
AcDbLine
 10
6356.1838177636
 20
5361.9123940935
 30
0.0
 11
6356.3679886654
 21
5361.9730269184
 31
0.0
  0
LINE
  5
241
330
1F
100
AcDbEntity
  8
0
  6
Continuous
 62
     7
100
AcDbLine
 10
6356.3679886654
 20
5361.9730269184
 30
0.0
 11
6356.4807755544
 21
5362.0101755133
 31
0.0
  0
LINE
  5
242
330
1F
100
AcDbEntity
  8
0
  6
Continuous
 62
     7
100
AcDbLine
 10
6356.4807755544
 20
5362.0101755133
 30
0.0
 11
6356.5187586143
 21
5362.0226775875
 31
0.0
  0
LINE
  5
243
330
1F
100
AcDbEntity
  8
0
  6
Continuous
 62
     7
100
AcDbLine
 10
6356.5187586143
 20
5065.3762315979
 30
0.0
 11
6356.5187586143
 21
5362.0226775875
 31
0.0
  0
LINE
  5
244
330
1F
100
AcDbEntity
  8
0
  6
Continuous
 62
     7
100
AcDbLine
 10
6356.5187586143
 20
5065.3762315979
 30
0.0
 11
6356.4807755544
 21
5065.3887336722
 31
0.0
  0
LINE
  5
245
330
1F
100
AcDbEntity
  8
0
  6
Continuous
 62
     7
100
AcDbLine
 10
6356.4807755544
 20
5065.3887336722
 30
0.0
 11
6356.3679886654
 21
5065.425882267
 31
0.0
  0
LINE
  5
246
330
1F
100
AcDbEntity
  8
0
  6
Continuous
 62
     7
100
AcDbLine
 10
6356.3679886654
 20
5065.425882267
 30
0.0
 11
6356.1838177636
 21
5065.4865150919
 31
0.0
  0
LINE
  5
247
330
1F
100
AcDbEntity
  8
0
  6
Continuous
 62
     7
100
AcDbLine
 10
6356.1838177636
 20
5065.4865150919
 30
0.0
 11
6355.9338656857
 21
5065.5688291063
 31
0.0
  0
LINE
  5
248
330
1F
100
AcDbEntity
  8
0
  6
Continuous
 62
     7
100
AcDbLine
 10
6355.9338656857
 20
5065.5688291063
 30
0.0
 11
6355.6257245734
 21
5065.6702911129
 31
0.0
  0
LINE
  5
249
330
1F
100
AcDbEntity
  8
0
  6
Continuous
 62
     7
100
AcDbLine
 10
6355.6257245734
 20
5065.6702911129
 30
0.0
 11
6355.2687523558
 21
5065.7878463736
 31
0.0
  0
LINE
  5
24A
330
1F
100
AcDbEntity
  8
0
  6
Continuous
 62
     7
100
AcDbLine
 10
6355.2687523558
 20
5065.7878463736
 30
0.0
 11
6354.873804529
 21
5065.9178888073
 31
0.0
  0
LINE
  5
24B
330
1F
100
AcDbEntity
  8
0
  6
Continuous
 62
     7
100
AcDbLine
 10
6354.873804529
 20
5065.9178888073
 30
0.0
 11
6354.4528765276
 21
5066.0564994087
 31
0.0
  0
LINE
  5
24C
330
1F
100
AcDbEntity
  8
0
  6
Continuous
 62
     7
100
AcDbLine
 10
6354.4528765276
 20
5066.0564994087
 30
0.0
 11
6354.0187535479
 21
5066.1994611492
 31
0.0
  0
LINE
  5
24D
330
1F
100
AcDbEntity
  8
0
  6
Continuous
 62
     7
100
AcDbLine
 10
6193.0187550977
 20
5362.0226775875
 30
0.0
 11
6193.037970145
 21
5362.0068525543
 31
0.0
  0
LINE
  5
24E
330
1F
100
AcDbEntity
  8
0
  6
Continuous
 62
     7
100
AcDbLine
 10
6193.037970145
 20
5362.0068525543
 30
0.0
 11
6193.0948776796
 21
5361.9600182047
 31
0.0
  0
LINE
  5
24F
330
1F
100
AcDbEntity
  8
0
  6
Continuous
 62
     7
100
AcDbLine
 10
6193.0948776796
 20
5361.9600182047
 30
0.0
 11
6193.1872872308
 21
5361.8839328757
 31
0.0
  0
LINE
  5
250
330
1F
100
AcDbEntity
  8
0
  6
Continuous
 62
     7
100
AcDbLine
 10
6193.1872872308
 20
5361.8839328757
 30
0.0
 11
6193.3116448715
 21
5361.7815618982
 31
0.0
  0
LINE
  5
251
330
1F
100
AcDbEntity
  8
0
  6
Continuous
 62
     7
100
AcDbLine
 10
6193.3116448715
 20
5361.7815618982
 30
0.0
 11
6193.4631822303
 21
5361.6568093767
 31
0.0
  0
LINE
  5
252
330
1F
100
AcDbEntity
  8
0
  6
Continuous
 62
     7
100
AcDbLine
 10
6193.4631822303
 20
5361.6568093767
 30
0.0
 11
6193.636072953
 21
5361.5144883862
 31
0.0
  0
LINE
  5
253
330
1F
100
AcDbEntity
  8
0
  6
Continuous
 62
     7
100
AcDbLine
 10
6193.636072953
 20
5361.5144883862
 30
0.0
 11
6193.8236636713
 21
5361.3600527516
 31
0.0
  0
LINE
  5
254
330
1F
100
AcDbEntity
  8
0
  6
Continuous
 62
     7
100
AcDbLine
 10
6193.8236636713
 20
5361.3600527516
 30
0.0
 11
6194.0187571242
 21
5361.1994480362
 31
0.0
  0
LINE
  5
255
330
1F
100
AcDbEntity
  8
0
  6
Continuous
 62
     7
100
AcDbLine
 10
6191.5187520578
 20
5362.0226775875
 30
0.0
 11
6193.0187550977
 21
5362.0226775875
 31
0.0
  0
LINE
  5
256
330
1F
100
AcDbEntity
  8
0
  6
Continuous
 62
     7
100
AcDbLine
 10
6355.0187555745
 20
5065.3762315979
 30
0.0
 11
6354.9995405271
 21
5065.3920566311
 31
0.0
  0
LINE
  5
257
330
1F
100
AcDbEntity
  8
0
  6
Continuous
 62
     7
100
AcDbLine
 10
6354.9995405271
 20
5065.3920566311
 30
0.0
 11
6354.9426329925
 21
5065.4388909807
 31
0.0
  0
LINE
  5
258
330
1F
100
AcDbEntity
  8
0
  6
Continuous
 62
     7
100
AcDbLine
 10
6354.9426329925
 20
5065.4388909807
 30
0.0
 11
6354.8502234414
 21
5065.5149763098
 31
0.0
  0
LINE
  5
259
330
1F
100
AcDbEntity
  8
0
  6
Continuous
 62
     7
100
AcDbLine
 10
6354.8502234414
 20
5065.5149763098
 30
0.0
 11
6354.7258658006
 21
5065.6173472872
 31
0.0
  0
LINE
  5
25A
330
1F
100
AcDbEntity
  8
0
  6
Continuous
 62
     7
100
AcDbLine
 10
6354.7258658006
 20
5065.6173472872
 30
0.0
 11
6354.5743284419
 21
5065.7420998087
 31
0.0
  0
LINE
  5
25B
330
1F
100
AcDbEntity
  8
0
  6
Continuous
 62
     7
100
AcDbLine
 10
6354.5743284419
 20
5065.7420998087
 30
0.0
 11
6354.4014377191
 21
5065.8844207993
 31
0.0
  0
LINE
  5
25C
330
1F
100
AcDbEntity
  8
0
  6
Continuous
 62
     7
100
AcDbLine
 10
6354.4014377191
 20
5065.8844207993
 30
0.0
 11
6354.2138470009
 21
5066.0388564339
 31
0.0
  0
LINE
  5
25D
330
1F
100
AcDbEntity
  8
0
  6
Continuous
 62
     7
100
AcDbLine
 10
6354.2138470009
 20
5066.0388564339
 30
0.0
 11
6354.0187535479
 21
5066.1994611492
 31
0.0
  0
LINE
  5
25E
330
1F
100
AcDbEntity
  8
0
  6
Continuous
 62
     7
100
AcDbLine
 10
6356.5187586143
 20
5065.3762315979
 30
0.0
 11
6355.0187555745
 21
5065.3762315979
 31
0.0
  0
LINE
  5
25F
330
1F
100
AcDbEntity
  8
0
  6
Continuous
 62
     7
100
AcDbLine
 10
6266.4187552079
 20
5338.5994529
 30
0.0
 11
6206.6187543466
 21
5338.5994529
 31
0.0
  0
LINE
  5
260
330
1F
100
AcDbEntity
  8
0
  6
Continuous
 62
     7
100
AcDbLine
 10
6266.4187552079
 20
5308.7994550934
 30
0.0
 11
6266.4187552079
 21
5338.5994529
 31
0.0
  0
LINE
  5
261
330
1F
100
AcDbEntity
  8
0
  6
Continuous
 62
     7
100
AcDbLine
 10
6206.6187543466
 20
5308.7994550934
 30
0.0
 11
6266.4187552079
 21
5308.7994550934
 31
0.0
  0
LINE
  5
262
330
1F
100
AcDbEntity
  8
0
  6
Continuous
 62
     7
100
AcDbLine
 10
6206.6187543466
 20
5338.5994529
 30
0.0
 11
6206.6187543466
 21
5308.7994550934
 31
0.0
  0
LINE
  5
263
330
1F
100
AcDbEntity
  8
0
  6
Continuous
 62
     7
100
AcDbLine
 10
6328.1150927439
 20
5198.7204078233
 30
0.0
 11
6316.5830803707
 21
5197.4663531056
 31
0.0
  0
LINE
  5
264
330
1F
100
AcDbEntity
  8
0
  6
Continuous
 62
     7
100
AcDbLine
 10
6315.6101053252
 20
5206.4136063328
 30
0.0
 11
6315.7999237671
 21
5204.6680843105
 31
0.0
  0
LINE
  5
265
330
1F
100
AcDbEntity
  8
0
  6
Continuous
 62
     7
100
AcDbLine
 10
6315.7999237671
 20
5204.6680843105
 30
0.0
 11
6315.9824480906
 21
5202.9896407967
 31
0.0
  0
LINE
  5
266
330
1F
100
AcDbEntity
  8
0
  6
Continuous
 62
     7
100
AcDbLine
 10
6315.9824480906
 20
5202.9896407967
 30
0.0
 11
6316.1506598487
 21
5201.4427791929
 31
0.0
  0
LINE
  5
267
330
1F
100
AcDbEntity
  8
0
  6
Continuous
 62
     7
100
AcDbLine
 10
6316.1506598487
 20
5201.4427791929
 30
0.0
 11
6316.2981031134
 21
5200.0869439563
 31
0.0
  0
LINE
  5
268
330
1F
100
AcDbEntity
  8
0
  6
Continuous
 62
     7
100
AcDbLine
 10
6316.2981031134
 20
5200.0869439563
 30
0.0
 11
6316.4191042676
 21
5198.9742379283
 31
0.0
  0
LINE
  5
269
330
1F
100
AcDbEntity
  8
0
  6
Continuous
 62
     7
100
AcDbLine
 10
6316.4191042676
 20
5198.9742379283
 30
0.0
 11
6316.509014149
 21
5198.1474227851
 31
0.0
  0
LINE
  5
26A
330
1F
100
AcDbEntity
  8
0
  6
Continuous
 62
     7
100
AcDbLine
 10
6316.509014149
 20
5198.1474227851
 30
0.0
 11
6316.5643831387
 21
5197.6382733902
 31
0.0
  0
LINE
  5
26B
330
1F
100
AcDbEntity
  8
0
  6
Continuous
 62
     7
100
AcDbLine
 10
6316.5643831387
 20
5197.6382733902
 30
0.0
 11
6316.5830803707
 21
5197.4663531056
 31
0.0
  0
LINE
  5
26C
330
1F
100
AcDbEntity
  8
0
  6
Continuous
 62
     7
100
AcDbLine
 10
6327.1421214237
 20
5207.6676601192
 30
0.0
 11
6315.6101053252
 21
5206.4136063328
 31
0.0
  0
LINE
  5
26D
330
1F
100
AcDbEntity
  8
0
  6
Continuous
 62
     7
100
AcDbLine
 10
6327.1421214237
 20
5207.6676601192
 30
0.0
 11
6327.3319361403
 21
5205.9221380969
 31
0.0
  0
LINE
  5
26E
330
1F
100
AcDbEntity
  8
0
  6
Continuous
 62
     7
100
AcDbLine
 10
6327.3319361403
 20
5205.9221380969
 30
0.0
 11
6327.5144604638
 21
5204.2436955145
 31
0.0
  0
LINE
  5
26F
330
1F
100
AcDbEntity
  8
0
  6
Continuous
 62
     7
100
AcDbLine
 10
6327.5144604638
 20
5204.2436955145
 30
0.0
 11
6327.6826759472
 21
5202.6968329793
 31
0.0
  0
LINE
  5
270
330
1F
100
AcDbEntity
  8
0
  6
Continuous
 62
     7
100
AcDbLine
 10
6327.6826759472
 20
5202.6968329793
 30
0.0
 11
6327.8301154866
 21
5201.3409977427
 31
0.0
  0
LINE
  5
271
330
1F
100
AcDbEntity
  8
0
  6
Continuous
 62
     7
100
AcDbLine
 10
6327.8301154866
 20
5201.3409977427
 30
0.0
 11
6327.9511166408
 21
5200.2282917147
 31
0.0
  0
LINE
  5
272
330
1F
100
AcDbEntity
  8
0
  6
Continuous
 62
     7
100
AcDbLine
 10
6327.9511166408
 20
5200.2282917147
 30
0.0
 11
6328.0410302475
 21
5199.4014775028
 31
0.0
  0
LINE
  5
273
330
1F
100
AcDbEntity
  8
0
  6
Continuous
 62
     7
100
AcDbLine
 10
6328.0410302475
 20
5199.4014775028
 30
0.0
 11
6328.0963992372
 21
5198.8923271766
 31
0.0
  0
LINE
  5
274
330
1F
100
AcDbEntity
  8
0
  6
Continuous
 62
     7
100
AcDbLine
 10
6328.0963992372
 20
5198.8923271766
 30
0.0
 11
6328.1150927439
 21
5198.7204078233
 31
0.0
  0
LINE
  5
275
330
1F
100
AcDbEntity
  8
0
  6
Continuous
 62
     7
100
AcDbLine
 10
6314.9614577785
 20
5212.3784411579
 30
0.0
 11
6315.6101053252
 21
5206.4136063328
 31
0.0
  0
LINE
  5
276
330
1F
100
AcDbEntity
  8
0
  6
Continuous
 62
     7
100
AcDbLine
 10
6326.4934701517
 20
5213.6324951917
 30
0.0
 11
6314.9614577785
 21
5212.3784411579
 31
0.0
  0
LINE
  5
277
330
1F
100
AcDbEntity
  8
0
  6
Continuous
 62
     7
100
AcDbLine
 10
6326.4934701517
 20
5213.6324951917
 30
0.0
 11
6327.1421214237
 21
5207.6676601192
 31
0.0
  0
LINE
  5
278
330
1F
100
AcDbEntity
  8
0
  6
Continuous
 62
     7
100
AcDbLine
 10
6315.2687577855
 20
5260.249454207
 30
0.0
 11
6294.268756206
 21
5260.249454207
 31
0.0
  0
LINE
  5
279
330
1F
100
AcDbEntity
  8
0
  6
Continuous
 62
     7
100
AcDbLine
 10
6294.268756206
 20
5281.8494547673
 30
0.0
 11
6294.268756206
 21
5260.249454207
 31
0.0
  0
LINE
  5
27A
330
1F
100
AcDbEntity
  8
0
  6
Continuous
 62
     7
100
AcDbLine
 10
6294.268756206
 20
5281.8494547673
 30
0.0
 11
6315.2687561649
 21
5281.8494547673
 31
0.0
  0
LINE
  5
27B
330
1F
100
AcDbEntity
  8
0
  6
Continuous
 62
     7
100
AcDbLine
 10
6284.3624037083
 20
5281.8494547673
 30
0.0
 11
6294.268756206
 21
5281.8494547673
 31
0.0
  0
LINE
  5
27C
330
1F
100
AcDbEntity
  8
0
  6
Continuous
 62
     7
100
AcDbLine
 10
6284.3624037083
 20
5260.249454207
 30
0.0
 11
6294.268756206
 21
5260.249454207
 31
0.0
  0
LINE
  5
27D
330
1F
100
AcDbEntity
  8
0
  6
Continuous
 62
     7
100
AcDbLine
 10
6312.0069114163
 20
5302.3235818019
 30
0.0
 11
6309.1563155546
 21
5319.3400745859
 31
0.0
  0
LINE
  5
27E
330
1F
100
AcDbEntity
  8
0
  6
Continuous
 62
     7
100
AcDbLine
 10
6309.1563155546
 20
5319.3400745859
 30
0.0
 11
6306.3069117859
 21
5336.3494520655
 31
0.0
  0
LINE
  5
27F
330
1F
100
AcDbEntity
  8
0
  6
Continuous
 62
     7
100
AcDbLine
 10
6321.2687542334
 20
5236.7028725913
 30
0.0
 11
6318.1874325171
 21
5236.3677939048
 31
0.0
  0
LINE
  5
280
330
1F
100
AcDbEntity
  8
0
  6
Continuous
 62
     7
100
AcDbLine
 10
6318.1874325171
 20
5236.3677939048
 30
0.0
 11
6315.1050937965
 21
5236.0326034596
 31
0.0
  0
LINE
  5
281
330
1F
100
AcDbEntity
  8
0
  6
Continuous
 62
     7
100
AcDbLine
 10
6301.6715032652
 20
5335.5729302039
 30
0.0
 11
6304.0275854662
 21
5335.9676247111
 31
0.0
  0
LINE
  5
282
330
1F
100
AcDbEntity
  8
0
  6
Continuous
 62
     7
100
AcDbLine
 10
6304.0275854662
 20
5335.9676247111
 30
0.0
 11
6306.5041659072
 21
5336.3824953904
 31
0.0
  0
LINE
  5
283
330
1F
100
AcDbEntity
  8
0
  6
Continuous
 62
     7
100
AcDbLine
 10
6312.2041655376
 20
5302.3566251269
 30
0.0
 11
6309.7597380772
 21
5301.9471337667
 31
0.0
  0
LINE
  5
284
330
1F
100
AcDbEntity
  8
0
  6
Continuous
 62
     7
100
AcDbLine
 10
6309.7597380772
 20
5301.9471337667
 30
0.0
 11
6307.3715028956
 21
5301.5470599404
 31
0.0
  0
LINE
  5
285
330
1F
100
AcDbEntity
  8
0
  6
Continuous
 62
     7
100
AcDbLine
 10
6323.8092941835
 20
5213.3406033155
 30
0.0
 11
6321.2687542334
 21
5236.7028725913
 31
0.0
  0
LINE
  5
286
330
1F
100
AcDbEntity
  8
0
  6
Continuous
 62
     7
100
AcDbLine
 10
6315.1050937965
 20
5236.0326034596
 30
0.0
 11
6317.6456337467
 21
5212.6703330196
 31
0.0
  0
LINE
  5
287
330
1F
100
AcDbEntity
  8
0
  6
Continuous
 62
     7
100
AcDbLine
 10
6301.8687555238
 20
5335.6059735289
 30
0.0
 11
6304.7173285529
 21
5318.601558136
 31
0.0
  0
LINE
  5
288
330
1F
100
AcDbEntity
  8
0
  6
Continuous
 62
     7
100
AcDbLine
 10
6304.7173285529
 20
5318.601558136
 30
0.0
 11
6307.5687570169
 21
5301.5801032653
 31
0.0
  0
LINE
  5
289
330
1F
100
AcDbEntity
  8
0
  6
Continuous
 62
     7
100
AcDbLine
 10
6323.7744478181
 20
5213.6610612307
 30
0.0
 11
6317.5378946259
 21
5213.6610612307
 31
0.0
  0
LINE
  5
28A
330
1F
100
AcDbEntity
  8
0
  6
Continuous
 62
     7
100
AcDbLine
 10
6303.9406595423
 20
5323.2378458252
 30
0.0
 11
6308.5033652976
 21
5323.2378458252
 31
0.0
  0
LINE
  5
28B
330
1F
100
AcDbEntity
  8
0
  6
Continuous
 62
     7
100
AcDbLine
 10
6307.3044662967
 20
5330.3946053257
 30
0.0
 11
6302.866308172
 21
5329.6511267891
 31
0.0
  0
LINE
  5
28C
330
1F
100
AcDbEntity
  8
0
  6
Continuous
 62
     7
100
AcDbLine
 10
6346.5187532499
 20
5063.5994618406
 30
0.0
 11
6346.5187532499
 21
5063.6994486323
 31
0.0
  0
LINE
  5
28D
330
1F
100
AcDbEntity
  8
0
  6
Continuous
 62
     7
100
AcDbLine
 10
6318.5187561109
 20
5063.5994618406
 30
0.0
 11
6318.5187561109
 21
5063.6994486323
 31
0.0
  0
LINE
  5
28E
330
1F
100
AcDbEntity
  8
0
  6
Continuous
 62
     7
100
AcDbLine
 10
6346.5187532499
 20
5063.5994618406
 30
0.0
 11
6318.5187561109
 21
5063.5994618406
 31
0.0
  0
LINE
  5
28F
330
1F
100
AcDbEntity
  8
0
  6
Continuous
 62
     7
100
AcDbLine
 10
6273.5795783867
 20
5102.7526875606
 30
0.0
 11
6273.7658050667
 21
5102.5704761615
 31
0.0
  0
LINE
  5
290
330
1F
100
AcDbEntity
  8
0
  6
Continuous
 62
     7
100
AcDbLine
 10
6274.5795780771
 20
5103.173295187
 30
0.0
 11
6274.5795780771
 21
5103.3226346843
 31
0.0
  0
LINE
  5
291
330
1F
100
AcDbEntity
  8
0
  6
Continuous
 62
     7
100
AcDbLine
 10
6274.7658046988
 20
5102.9910837879
 30
0.0
 11
6274.5795780771
 21
5103.173295187
 31
0.0
  0
LINE
  5
292
330
1F
100
AcDbEntity
  8
0
  6
Continuous
 62
     7
100
AcDbLine
 10
6273.7658050667
 20
5102.5704761615
 30
0.0
 11
6273.7658050667
 21
5100.0760590306
 31
0.0
  0
LINE
  5
293
330
1F
100
AcDbEntity
  8
0
  6
Continuous
 62
     7
100
AcDbLine
 10
6273.5795783867
 20
5103.3226346245
 30
0.0
 11
6273.5795783867
 21
5102.7526875606
 31
0.0
  0
LINE
  5
294
330
1F
100
AcDbEntity
  8
0
  6
Continuous
 62
     7
100
AcDbLine
 10
6274.7658046988
 20
5100.0760590306
 30
0.0
 11
6274.7658046988
 21
5102.9910837879
 31
0.0
  0
LINE
  5
295
330
1F
100
AcDbEntity
  8
0
  6
Continuous
 62
     7
100
AcDbLine
 10
6273.5795780397
 20
5108.0815663209
 30
0.0
 11
6273.5795780397
 21
5105.0179468676
 31
0.0
  0
LINE
  5
296
330
1F
100
AcDbEntity
  8
0
  6
Continuous
 62
     7
100
AcDbLine
 10
6274.5795780581
 20
5105.6469326487
 30
0.0
 11
6274.5795780581
 21
5108.0702563396
 31
0.0
  0
LINE
  5
297
330
1F
100
AcDbEntity
  8
0
  6
Continuous
 62
     7
100
AcDbLine
 10
6257.7083040839
 20
5367.5633438168
 30
0.0
 11
6257.7083037838
 21
5363.6994605532
 31
0.0
  0
LINE
  5
298
330
1F
100
AcDbEntity
  8
0
  6
Continuous
 62
     7
100
AcDbLine
 10
6341.1083040841
 20
5367.5633438168
 30
0.0
 11
6341.1083055332
 21
5363.6994605532
 31
0.0
  0
LINE
  5
299
330
1F
100
AcDbEntity
  8
0
  6
Continuous
 62
     7
100
AcDbLine
 10
6290.3292068883
 20
5363.6994605532
 30
0.0
 11
6290.3292065882
 21
5367.5633438168
 31
0.0
  0
LINE
  5
29A
330
1F
100
AcDbEntity
  8
0
  6
Continuous
 62
     7
100
AcDbLine
 10
6206.9292051389
 20
5363.6994605532
 30
0.0
 11
6206.9292065881
 21
5367.5633438168
 31
0.0
  0
LINE
  5
29B
330
1F
100
AcDbEntity
  8
0
  6
Continuous
 62
     7
100
AcDbLine
 10
6703.62736296
 20
5362.1994500628
 30
0.0
 11
6703.7705035144
 21
5362.0226775875
 31
0.0
  0
LINE
  5
29C
330
1F
100
AcDbEntity
  8
0
  6
Continuous
 62
     7
100
AcDbLine
 10
6708.9091689521
 20
5362.0226775875
 30
0.0
 11
6709.0523095065
 21
5362.1994500628
 31
0.0
  0
LINE
  5
29D
330
1F
100
AcDbEntity
  8
0
  6
Continuous
 62
     7
100
AcDbLine
 10
6709.6532211834
 20
5363.4869103899
 30
0.0
 11
6709.7398341829
 21
5364.2494475117
 31
0.0
  0
LINE
  5
29E
330
1F
100
AcDbEntity
  8
0
  6
Continuous
 62
     7
100
AcDbLine
 10
6727.0070539051
 20
5197.2002984604
 30
0.0
 11
6726.939834767
 21
5196.9494541755
 31
0.0
  0
LINE
  5
29F
330
1F
100
AcDbEntity
  8
0
  6
Continuous
 62
     7
100
AcDbLine
 10
6726.939834767
 20
5180.4494542649
 30
0.0
 11
6727.0070539051
 21
5180.1986118427
 31
0.0
  0
LINE
  5
2A0
330
1F
100
AcDbEntity
  8
0
  6
Continuous
 62
     7
100
AcDbLine
 10
6732.4954048926
 20
5195.5494546911
 30
0.0
 11
6730.7898328835
 21
5195.5494546911
 31
0.0
  0
LINE
  5
2A1
330
1F
100
AcDbEntity
  8
0
  6
Continuous
 62
     7
100
AcDbLine
 10
6730.7898328835
 20
5181.849455612
 30
0.0
 11
6732.4954048926
 21
5181.849455612
 31
0.0
  0
LINE
  5
2A2
330
1F
100
AcDbEntity
  8
0
  6
Continuous
 62
     7
100
AcDbLine
 10
6738.612481471
 20
5193.9994348342
 30
0.0
 11
6734.7124750575
 21
5193.9994348342
 31
0.0
  0
LINE
  5
2A3
330
1F
100
AcDbEntity
  8
0
  6
Continuous
 62
     7
100
AcDbLine
 10
6734.7124750575
 20
5183.3994342143
 30
0.0
 11
6738.612481471
 21
5183.3994342143
 31
0.0
  0
LINE
  5
2A4
330
1F
100
AcDbEntity
  8
0
  6
Continuous
 62
     7
100
AcDbLine
 10
6727.0070539051
 20
5216.2002985479
 30
0.0
 11
6726.939834767
 21
5215.9494544959
 31
0.0
  0
LINE
  5
2A5
330
1F
100
AcDbEntity
  8
0
  6
Continuous
 62
     7
100
AcDbLine
 10
6726.939834767
 20
5199.4494545853
 30
0.0
 11
6727.0070539051
 21
5199.1986103004
 31
0.0
  0
LINE
  5
2A6
330
1F
100
AcDbEntity
  8
0
  6
Continuous
 62
     7
100
AcDbLine
 10
6732.4954048926
 20
5214.549454604
 30
0.0
 11
6730.7898328835
 21
5214.549454604
 31
0.0
  0
LINE
  5
2A7
330
1F
100
AcDbEntity
  8
0
  6
Continuous
 62
     7
100
AcDbLine
 10
6730.7898328835
 20
5200.849455001
 30
0.0
 11
6732.4954048926
 21
5200.849455001
 31
0.0
  0
LINE
  5
2A8
330
1F
100
AcDbEntity
  8
0
  6
Continuous
 62
     7
100
AcDbLine
 10
6738.6398391062
 20
5212.9994546177
 30
0.0
 11
6734.7398326927
 21
5212.9994546177
 31
0.0
  0
LINE
  5
2A9
330
1F
100
AcDbEntity
  8
0
  6
Continuous
 62
     7
100
AcDbLine
 10
6734.7398326927
 20
5202.3994542306
 30
0.0
 11
6738.6398391062
 21
5202.3994542306
 31
0.0
  0
LINE
  5
2AA
330
1F
100
AcDbEntity
  8
0
  6
Continuous
 62
     7
100
AcDbLine
 10
6727.0070539051
 20
5273.2002978792
 30
0.0
 11
6726.939834767
 21
5272.949455457
 31
0.0
  0
LINE
  5
2AB
330
1F
100
AcDbEntity
  8
0
  6
Continuous
 62
     7
100
AcDbLine
 10
6726.939834767
 20
5256.4494555464
 30
0.0
 11
6727.0070539051
 21
5256.1986093989
 31
0.0
  0
LINE
  5
2AC
330
1F
100
AcDbEntity
  8
0
  6
Continuous
 62
     7
100
AcDbLine
 10
6732.4954048926
 20
5271.5494541099
 30
0.0
 11
6730.7898328835
 21
5271.5494541099
 31
0.0
  0
LINE
  5
2AD
330
1F
100
AcDbEntity
  8
0
  6
Continuous
 62
     7
100
AcDbLine
 10
6730.7898328835
 20
5257.8494531682
 30
0.0
 11
6732.4954048926
 21
5257.8494531682
 31
0.0
  0
LINE
  5
2AE
330
1F
100
AcDbEntity
  8
0
  6
Continuous
 62
     7
100
AcDbLine
 10
6738.6398391062
 20
5269.999453949
 30
0.0
 11
6734.7398326927
 21
5269.999453949
 31
0.0
  0
LINE
  5
2AF
330
1F
100
AcDbEntity
  8
0
  6
Continuous
 62
     7
100
AcDbLine
 10
6734.7398326927
 20
5259.3994533291
 30
0.0
 11
6738.6398391062
 21
5259.3994533291
 31
0.0
  0
LINE
  5
2B0
330
1F
100
AcDbEntity
  8
0
  6
Continuous
 62
     7
100
AcDbLine
 10
6727.0070539051
 20
5235.2002991011
 30
0.0
 11
6726.939834767
 21
5234.9494548162
 31
0.0
  0
LINE
  5
2B1
330
1F
100
AcDbEntity
  8
0
  6
Continuous
 62
     7
100
AcDbLine
 10
6726.939834767
 20
5218.44945444
 30
0.0
 11
6727.0070539051
 21
5218.1986106208
 31
0.0
  0
LINE
  5
2B2
330
1F
100
AcDbEntity
  8
0
  6
Continuous
 62
     7
100
AcDbLine
 10
6732.4954048926
 20
5233.5494553318
 30
0.0
 11
6730.7898328835
 21
5233.5494553318
 31
0.0
  0
LINE
  5
2B3
330
1F
100
AcDbEntity
  8
0
  6
Continuous
 62
     7
100
AcDbLine
 10
6730.7898328835
 20
5219.8494543901
 30
0.0
 11
6732.4954048926
 21
5219.8494543901
 31
0.0
  0
LINE
  5
2B4
330
1F
100
AcDbEntity
  8
0
  6
Continuous
 62
     7
100
AcDbLine
 10
6738.6398391062
 20
5231.9994551709
 30
0.0
 11
6734.7398326927
 21
5231.9994551709
 31
0.0
  0
LINE
  5
2B5
330
1F
100
AcDbEntity
  8
0
  6
Continuous
 62
     7
100
AcDbLine
 10
6734.7398326927
 20
5221.399454551
 30
0.0
 11
6738.6398391062
 21
5221.399454551
 31
0.0
  0
LINE
  5
2B6
330
1F
100
AcDbEntity
  8
0
  6
Continuous
 62
     7
100
AcDbLine
 10
6727.0070539051
 20
5254.2002966275
 30
0.0
 11
6726.939834767
 21
5253.9494542053
 31
0.0
  0
LINE
  5
2B7
330
1F
100
AcDbEntity
  8
0
  6
Continuous
 62
     7
100
AcDbLine
 10
6726.939834767
 20
5237.4494542947
 30
0.0
 11
6727.0070539051
 21
5237.1986100098
 31
0.0
  0
LINE
  5
2B8
330
1F
100
AcDbEntity
  8
0
  6
Continuous
 62
     7
100
AcDbLine
 10
6732.4954048934
 20
5252.5494528582
 30
0.0
 11
6730.7898328843
 21
5252.5494528582
 31
0.0
  0
LINE
  5
2B9
330
1F
100
AcDbEntity
  8
0
  6
Continuous
 62
     7
100
AcDbLine
 10
6730.7898328843
 20
5238.8494537791
 30
0.0
 11
6732.4954048934
 21
5238.8494537791
 31
0.0
  0
LINE
  5
2BA
330
1F
100
AcDbEntity
  8
0
  6
Continuous
 62
     7
100
AcDbLine
 10
6738.6398391062
 20
5250.9994564226
 30
0.0
 11
6734.7398326927
 21
5250.9994564226
 31
0.0
  0
LINE
  5
2BB
330
1F
100
AcDbEntity
  8
0
  6
Continuous
 62
     7
100
AcDbLine
 10
6734.7398326927
 20
5240.3994539401
 30
0.0
 11
6738.6398391062
 21
5240.3994539401
 31
0.0
  0
LINE
  5
2BC
330
1F
100
AcDbEntity
  8
0
  6
Continuous
 62
     7
100
AcDbLine
 10
6727.0070539051
 20
5292.2002991309
 30
0.0
 11
6726.939834767
 21
5291.9494529834
 31
0.0
  0
LINE
  5
2BD
330
1F
100
AcDbEntity
  8
0
  6
Continuous
 62
     7
100
AcDbLine
 10
6726.939834767
 20
5275.4494530728
 30
0.0
 11
6727.0070539051
 21
5275.1986106506
 31
0.0
  0
LINE
  5
2BE
330
1F
100
AcDbEntity
  8
0
  6
Continuous
 62
     7
100
AcDbLine
 10
6732.4954048926
 20
5290.5494516363
 30
0.0
 11
6730.7898328835
 21
5290.5494516363
 31
0.0
  0
LINE
  5
2BF
330
1F
100
AcDbEntity
  8
0
  6
Continuous
 62
     7
100
AcDbLine
 10
6730.7898328835
 20
5276.8494581452
 30
0.0
 11
6732.4954048926
 21
5276.8494581452
 31
0.0
  0
LINE
  5
2C0
330
1F
100
AcDbEntity
  8
0
  6
Continuous
 62
     7
100
AcDbLine
 10
6738.6398391062
 20
5288.9994552007
 30
0.0
 11
6734.7398326927
 21
5288.9994552007
 31
0.0
  0
LINE
  5
2C1
330
1F
100
AcDbEntity
  8
0
  6
Continuous
 62
     7
100
AcDbLine
 10
6734.7398326927
 20
5278.3994545808
 30
0.0
 11
6738.6398391062
 21
5278.3994545808
 31
0.0
  0
LINE
  5
2C2
330
1F
100
AcDbEntity
  8
0
  6
Continuous
 62
     7
100
AcDbLine
 10
6727.0070539051
 20
5178.2002990713
 30
0.0
 11
6726.939834767
 21
5177.9494529238
 31
0.0
  0
LINE
  5
2C3
330
1F
100
AcDbEntity
  8
0
  6
Continuous
 62
     7
100
AcDbLine
 10
6726.939834767
 20
5161.4494530132
 30
0.0
 11
6727.0070539051
 21
5161.198610591
 31
0.0
  0
LINE
  5
2C4
330
1F
100
AcDbEntity
  8
0
  6
Continuous
 62
     7
100
AcDbLine
 10
6732.4954048926
 20
5176.549455302
 30
0.0
 11
6730.7898328835
 21
5176.549455302
 31
0.0
  0
LINE
  5
2C5
330
1F
100
AcDbEntity
  8
0
  6
Continuous
 62
     7
100
AcDbLine
 10
6730.7898328835
 20
5162.8494543603
 30
0.0
 11
6732.4954048926
 21
5162.8494543603
 31
0.0
  0
LINE
  5
2C6
330
1F
100
AcDbEntity
  8
0
  6
Continuous
 62
     7
100
AcDbLine
 10
6738.6398391062
 20
5174.9994551411
 30
0.0
 11
6734.7398326927
 21
5174.9994551411
 31
0.0
  0
LINE
  5
2C7
330
1F
100
AcDbEntity
  8
0
  6
Continuous
 62
     7
100
AcDbLine
 10
6734.7398326927
 20
5164.3994545212
 30
0.0
 11
6738.6398391062
 21
5164.3994545212
 31
0.0
  0
LINE
  5
2C8
330
1F
100
AcDbEntity
  8
0
  6
Continuous
 62
     7
100
AcDbLine
 10
6727.0070539051
 20
5159.2002978196
 30
0.0
 11
6726.939834767
 21
5158.9494553974
 31
0.0
  0
LINE
  5
2C9
330
1F
100
AcDbEntity
  8
0
  6
Continuous
 62
     7
100
AcDbLine
 10
6726.939834767
 20
5142.4494554868
 30
0.0
 11
6727.0070539051
 21
5142.1986093393
 31
0.0
  0
LINE
  5
2CA
330
1F
100
AcDbEntity
  8
0
  6
Continuous
 62
     7
100
AcDbLine
 10
6732.4954048926
 20
5157.5494540503
 30
0.0
 11
6730.7898328835
 21
5157.5494540503
 31
0.0
  0
LINE
  5
2CB
330
1F
100
AcDbEntity
  8
0
  6
Continuous
 62
     7
100
AcDbLine
 10
6730.7898328835
 20
5143.8494568339
 30
0.0
 11
6732.4954048926
 21
5143.8494568339
 31
0.0
  0
LINE
  5
2CC
330
1F
100
AcDbEntity
  8
0
  6
Continuous
 62
     7
100
AcDbLine
 10
6738.6398391062
 20
5155.9994538894
 30
0.0
 11
6734.7398326927
 21
5155.9994538894
 31
0.0
  0
LINE
  5
2CD
330
1F
100
AcDbEntity
  8
0
  6
Continuous
 62
     7
100
AcDbLine
 10
6734.7398326927
 20
5145.3994532695
 30
0.0
 11
6738.6398391062
 21
5145.3994532695
 31
0.0
  0
LINE
  5
2CE
330
1F
100
AcDbEntity
  8
0
  6
Continuous
 62
     7
100
AcDbLine
 10
6726.939834767
 20
5086.6994505396
 30
0.0
 11
6728.0398384863
 21
5086.6994505396
 31
0.0
  0
LINE
  5
2CF
330
1F
100
AcDbEntity
  8
0
  6
Continuous
 62
     7
100
AcDbLine
 10
6728.0398384863
 20
5110.6994544735
 30
0.0
 11
6726.939834767
 21
5110.6994544735
 31
0.0
  0
LINE
  5
2D0
330
1F
100
AcDbEntity
  8
0
  6
Continuous
 62
     7
100
AcDbLine
 10
6728.0398384863
 20
5086.6994505396
 30
0.0
 11
6729.0398405129
 21
5087.6994525662
 31
0.0
  0
LINE
  5
2D1
330
1F
100
AcDbEntity
  8
0
  6
Continuous
 62
     7
100
AcDbLine
 10
6729.0398405129
 20
5109.699452447
 30
0.0
 11
6728.0398384863
 21
5110.6994544735
 31
0.0
  0
LINE
  5
2D2
330
1F
100
AcDbEntity
  8
0
  6
Continuous
 62
     7
100
AcDbLine
 10
6683.8516445094
 20
5033.6051975956
 30
0.0
 11
6683.8516445094
 21
5393.7937115898
 31
0.0
  0
LINE
  5
2D3
330
1F
100
AcDbEntity
  8
0
  6
Continuous
 62
     7
100
AcDbLine
 10
6683.8516445094
 20
5033.6051975956
 30
0.0
 11
6682.4027599031
 21
5033.6051975956
 31
0.0
  0
LINE
  5
2D4
330
1F
100
AcDbEntity
  8
0
  6
Continuous
 62
     7
100
AcDbLine
 10
6682.4027599031
 20
5033.6051975956
 30
0.0
 11
6682.4027599031
 21
5393.7937115898
 31
0.0
  0
LINE
  5
2D5
330
1F
100
AcDbEntity
  8
0
  6
Continuous
 62
     7
100
AcDbLine
 10
6683.8516445094
 20
5393.7937115898
 30
0.0
 11
6682.4027599031
 21
5393.7937115898
 31
0.0
  0
LINE
  5
2D6
330
1F
100
AcDbEntity
  8
0
  6
Continuous
 62
     7
100
AcDbLine
 10
6683.8516445094
 20
5033.6051975956
 30
0.0
 11
6686.3716841871
 21
5043.0101250878
 31
0.0
  0
LINE
  5
2D7
330
1F
100
AcDbEntity
  8
0
  6
Continuous
 62
     7
100
AcDbLine
 10
6686.3716841871
 20
5043.0101250878
 30
0.0
 11
6686.3716841871
 21
5384.3887824248
 31
0.0
  0
LINE
  5
2D8
330
1F
100
AcDbEntity
  8
0
  6
Continuous
 62
     7
100
AcDbLine
 10
6686.3716841871
 20
5384.3887824248
 30
0.0
 11
6683.8516445094
 21
5393.7937115898
 31
0.0
  0
LINE
  5
2D9
330
1F
100
AcDbEntity
  8
0
  6
Continuous
 62
     7
100
AcDbLine
 10
6683.8516423961
 20
5033.0401902666
 30
0.0
 11
6682.4027577898
 21
5033.4284251204
 31
0.0
  0
LINE
  5
2DA
330
1F
100
AcDbEntity
  8
0
  6
Continuous
 62
     7
100
AcDbLine
 10
6686.3716820738
 20
5042.4451177588
 30
0.0
 11
6686.2304339668
 21
5042.4829667082
 31
0.0
  0
LINE
  5
2DB
330
1F
100
AcDbEntity
  8
0
  6
Continuous
 62
     7
100
AcDbLine
 10
6686.3716820738
 20
5042.4451177588
 30
0.0
 11
6683.8516423961
 21
5033.0401902666
 31
0.0
  0
LINE
  5
2DC
330
1F
100
AcDbEntity
  8
0
  6
Continuous
 62
     7
100
AcDbLine
 10
6682.4501211306
 20
5033.6051975956
 30
0.0
 11
6682.4027577898
 21
5033.4284251204
 31
0.0
  0
LINE
  5
2DD
330
1F
100
AcDbEntity
  8
0
  6
Continuous
 62
     7
100
AcDbLine
 10
6683.8516433772
 20
5394.3587194053
 30
0.0
 11
6686.3716830549
 21
5384.9537919132
 31
0.0
  0
LINE
  5
2DE
330
1F
100
AcDbEntity
  8
0
  6
Continuous
 62
     7
100
AcDbLine
 10
6686.3716830549
 20
5384.9537919132
 30
0.0
 11
6686.2304349479
 21
5384.9159429637
 31
0.0
  0
LINE
  5
2DF
330
1F
100
AcDbEntity
  8
0
  6
Continuous
 62
     7
100
AcDbLine
 10
6682.4027587709
 20
5393.9704845516
 30
0.0
 11
6682.4501221117
 21
5393.7937120763
 31
0.0
  0
LINE
  5
2E0
330
1F
100
AcDbEntity
  8
0
  6
Continuous
 62
     7
100
AcDbLine
 10
6683.8516433772
 20
5394.3587194053
 30
0.0
 11
6682.4027587709
 21
5393.9704845516
 31
0.0
  0
LINE
  5
2E1
330
1F
100
AcDbEntity
  8
0
  6
Continuous
 62
     7
100
AcDbLine
 10
6686.4398325345
 20
5042.9627542963
 30
0.0
 11
6686.358993735
 21
5042.9627542963
 31
0.0
  0
LINE
  5
2E2
330
1F
100
AcDbEntity
  8
0
  6
Continuous
 62
     7
100
AcDbLine
 10
6686.4398325345
 20
5042.9627542963
 30
0.0
 11
6686.4398325345
 21
5384.4361495976
 31
0.0
  0
LINE
  5
2E3
330
1F
100
AcDbEntity
  8
0
  6
Continuous
 62
     7
100
AcDbLine
 10
6686.4398325345
 20
5384.4361495976
 30
0.0
 11
6686.3589929006
 21
5384.4361548891
 31
0.0
  0
LINE
  5
2E4
330
1F
100
AcDbEntity
  8
0
  6
Continuous
 62
     7
100
AcDbLine
 10
6682.4027599031
 20
5047.3762249222
 30
0.0
 11
6595.4398354822
 21
5047.376231288
 31
0.0
  0
LINE
  5
2E5
330
1F
100
AcDbEntity
  8
0
  6
Continuous
 62
     7
100
AcDbLine
 10
6595.4398354822
 20
5047.376231288
 30
0.0
 11
6595.4398354822
 21
5380.0226778974
 31
0.0
  0
LINE
  5
2E6
330
1F
100
AcDbEntity
  8
0
  6
Continuous
 62
     7
100
AcDbLine
 10
6595.4398354822
 20
5380.0226778974
 30
0.0
 11
6682.4027599031
 21
5380.0226842632
 31
0.0
  0
LINE
  5
2E7
330
1F
100
AcDbEntity
  8
0
  6
Continuous
 62
     7
100
AcDbLine
 10
6593.9398354822
 20
5047.6994545927
 30
0.0
 11
6593.9398354822
 21
5379.6994545927
 31
0.0
  0
LINE
  5
2E8
330
1F
100
AcDbEntity
  8
0
  6
Continuous
 62
     7
100
AcDbLine
 10
6595.439835506
 20
5046.1994545927
 30
0.0
 11
6682.4027599031
 21
5046.1994545927
 31
0.0
  0
LINE
  5
2E9
330
1F
100
AcDbEntity
  8
0
  6
Continuous
 62
     7
100
AcDbLine
 10
6595.439835506
 20
5046.1994545927
 30
0.0
 11
6595.439835506
 21
5047.1994566193
 31
0.0
  0
LINE
  5
2EA
330
1F
100
AcDbEntity
  8
0
  6
Continuous
 62
     7
100
AcDbLine
 10
6595.439835506
 20
5047.1994566193
 30
0.0
 11
6682.4027599031
 21
5047.1994566193
 31
0.0
  0
LINE
  5
2EB
330
1F
100
AcDbEntity
  8
0
  6
Continuous
 62
     7
100
AcDbLine
 10
6682.4027599031
 20
5381.1994545927
 30
0.0
 11
6595.439835506
 21
5381.1994545927
 31
0.0
  0
LINE
  5
2EC
330
1F
100
AcDbEntity
  8
0
  6
Continuous
 62
     7
100
AcDbLine
 10
6682.4027599031
 20
5380.1994525662
 30
0.0
 11
6595.439835506
 21
5380.1994525662
 31
0.0
  0
LINE
  5
2ED
330
1F
100
AcDbEntity
  8
0
  6
Continuous
 62
     7
100
AcDbLine
 10
6595.439835506
 20
5381.1994545927
 30
0.0
 11
6595.439835506
 21
5380.1994525662
 31
0.0
  0
LINE
  5
2EE
330
1F
100
AcDbEntity
  8
0
  6
Continuous
 62
     7
100
AcDbLine
 10
6709.9398375684
 20
5065.3762315979
 30
0.0
 11
6709.9398375684
 21
5362.0226775875
 31
0.0
  0
LINE
  5
2EF
330
1F
100
AcDbEntity
  8
0
  6
Continuous
 62
     7
100
AcDbLine
 10
6709.9398375684
 20
5065.3762315979
 30
0.0
 11
6686.4398346478
 21
5065.3762315979
 31
0.0
  0
LINE
  5
2F0
330
1F
100
AcDbEntity
  8
0
  6
Continuous
 62
     7
100
AcDbLine
 10
6686.4398346478
 20
5362.0226775875
 30
0.0
 11
6709.9398375684
 21
5362.0226775875
 31
0.0
  0
LINE
  5
2F1
330
1F
100
AcDbEntity
  8
0
  6
Continuous
 62
     7
100
AcDbLine
 10
6709.9398375684
 20
5362.699452566
 30
0.0
 11
6709.5758618051
 21
5363.6994545926
 31
0.0
  0
LINE
  5
2F2
330
1F
100
AcDbEntity
  8
0
  6
Continuous
 62
     7
100
AcDbLine
 10
6709.9398375684
 20
5362.699452566
 30
0.0
 11
6709.9398375684
 21
5362.1994441022
 31
0.0
  0
LINE
  5
2F3
330
1F
100
AcDbEntity
  8
0
  6
Continuous
 62
     7
100
AcDbLine
 10
6709.5758618051
 20
5363.6994545926
 30
0.0
 11
6686.4398346478
 21
5363.6994545926
 31
0.0
  0
LINE
  5
2F4
330
1F
100
AcDbEntity
  8
0
  6
Continuous
 62
     7
100
AcDbLine
 10
6709.9398375684
 20
5362.1994441022
 30
0.0
 11
6686.4398346478
 21
5362.1994441022
 31
0.0
  0
LINE
  5
2F5
330
1F
100
AcDbEntity
  8
0
  6
Continuous
 62
     7
100
AcDbLine
 10
6709.9398375684
 20
5063.6994545927
 30
0.0
 11
6709.9398375684
 21
5065.1994650831
 31
0.0
  0
LINE
  5
2F6
330
1F
100
AcDbEntity
  8
0
  6
Continuous
 62
     7
100
AcDbLine
 10
6686.4398346478
 20
5063.6994545927
 30
0.0
 11
6709.9398375684
 21
5063.6994545927
 31
0.0
  0
LINE
  5
2F7
330
1F
100
AcDbEntity
  8
0
  6
Continuous
 62
     7
100
AcDbLine
 10
6686.4398346478
 20
5065.1994650831
 30
0.0
 11
6709.9398375684
 21
5065.1994650831
 31
0.0
  0
LINE
  5
2F8
330
1F
100
AcDbEntity
  8
0
  6
Continuous
 62
     7
100
AcDbLine
 10
6699.6654794747
 20
5065.1994591227
 30
0.0
 11
6699.6654794747
 21
5065.3762315979
 31
0.0
  0
LINE
  5
2F9
330
1F
100
AcDbEntity
  8
0
  6
Continuous
 62
     7
100
AcDbLine
 10
6710.9398321444
 20
5065.3762315979
 30
0.0
 11
6710.9398321444
 21
5065.1994591227
 31
0.0
  0
LINE
  5
2FA
330
1F
100
AcDbEntity
  8
0
  6
Continuous
 62
     7
100
AcDbLine
 10
6712.1611089641
 20
5065.3762315979
 30
0.0
 11
6711.373955124
 21
5065.2374421826
 31
0.0
  0
LINE
  5
2FB
330
1F
100
AcDbEntity
  8
0
  6
Continuous
 62
     7
100
AcDbLine
 10
6691.8398366505
 20
5065.1994591227
 30
0.0
 11
6691.8398366505
 21
5065.3762315979
 31
0.0
  0
LINE
  5
2FC
330
1F
100
AcDbEntity
  8
0
  6
Continuous
 62
     7
100
AcDbLine
 10
6702.7398348981
 20
5362.1994500628
 30
0.0
 11
6702.7398348981
 21
5362.0226775875
 31
0.0
  0
LINE
  5
2FD
330
1F
100
AcDbEntity
  8
0
  6
Continuous
 62
     7
100
AcDbLine
 10
6688.7398363286
 20
5362.1994500628
 30
0.0
 11
6688.7398363286
 21
5362.0226775875
 31
0.0
  0
LINE
  5
2FE
330
1F
100
AcDbEntity
  8
0
  6
Continuous
 62
     7
100
AcDbLine
 10
6723.9398286873
 20
5362.1994500628
 30
0.0
 11
6723.9398286873
 21
5362.0226775875
 31
0.0
  0
LINE
  5
2FF
330
1F
100
AcDbEntity
  8
0
  6
Continuous
 62
     7
100
AcDbLine
 10
6703.5111488038
 20
5362.0226775875
 30
0.0
 11
6703.3805252248
 21
5362.1994500628
 31
0.0
  0
LINE
  5
300
330
1F
100
AcDbEntity
  8
0
  6
Continuous
 62
     7
100
AcDbLine
 10
6724.4398354859
 20
5065.376231288
 30
0.0
 11
6709.9398375684
 21
5065.3762315979
 31
0.0
  0
LINE
  5
301
330
1F
100
AcDbEntity
  8
0
  6
Continuous
 62
     7
100
AcDbLine
 10
6709.9398375684
 20
5362.0226775875
 30
0.0
 11
6724.4398354859
 21
5362.0226778973
 31
0.0
  0
LINE
  5
302
330
1F
100
AcDbEntity
  8
0
  6
Continuous
 62
     7
100
AcDbLine
 10
6724.4398354859
 20
5362.0226778973
 30
0.0
 11
6724.4398354859
 21
5065.376231288
 31
0.0
  0
LINE
  5
303
330
1F
100
AcDbEntity
  8
0
  6
Continuous
 62
     7
100
AcDbLine
 10
6726.9398354859
 20
5361.1994545926
 30
0.0
 11
6726.9398354859
 21
5066.1994545927
 31
0.0
  0
LINE
  5
304
330
1F
100
AcDbEntity
  8
0
  6
Continuous
 62
     7
100
AcDbLine
 10
6709.9398375684
 20
5065.1994650831
 30
0.0
 11
6724.4398371512
 21
5065.1994650831
 31
0.0
  0
LINE
  5
305
330
1F
100
AcDbEntity
  8
0
  6
Continuous
 62
     7
100
AcDbLine
 10
6724.4398371512
 20
5063.6994545927
 30
0.0
 11
6724.4398371512
 21
5065.1994650831
 31
0.0
  0
LINE
  5
306
330
1F
100
AcDbEntity
  8
0
  6
Continuous
 62
     7
100
AcDbLine
 10
6709.9398375684
 20
5063.6994545927
 30
0.0
 11
6724.4398371512
 21
5063.6994545927
 31
0.0
  0
LINE
  5
307
330
1F
100
AcDbEntity
  8
0
  6
Continuous
 62
     7
100
AcDbLine
 10
6724.4398371512
 20
5363.6994545926
 30
0.0
 11
6724.4398371512
 21
5362.1994441022
 31
0.0
  0
LINE
  5
308
330
1F
100
AcDbEntity
  8
0
  6
Continuous
 62
     7
100
AcDbLine
 10
6710.5171830589
 20
5363.6994545926
 30
0.0
 11
6709.9398375684
 21
5362.699452566
 31
0.0
  0
LINE
  5
309
330
1F
100
AcDbEntity
  8
0
  6
Continuous
 62
     7
100
AcDbLine
 10
6724.4398371512
 20
5362.1994441022
 30
0.0
 11
6709.9398375684
 21
5362.1994441022
 31
0.0
  0
LINE
  5
30A
330
1F
100
AcDbEntity
  8
0
  6
Continuous
 62
     7
100
AcDbLine
 10
6724.4398371512
 20
5363.6994545926
 30
0.0
 11
6710.5171830589
 21
5363.6994545926
 31
0.0
  0
LINE
  5
30B
330
1F
100
AcDbEntity
  8
0
  6
Continuous
 62
     7
100
AcDbLine
 10
6731.4398364359
 20
5276.8494581452
 30
0.0
 11
6731.4398364359
 21
5271.5494541099
 31
0.0
  0
LINE
  5
30C
330
1F
100
AcDbEntity
  8
0
  6
Continuous
 62
     7
100
AcDbLine
 10
6737.4398336941
 20
5278.3994545808
 30
0.0
 11
6737.4398336941
 21
5269.999453949
 31
0.0
  0
LINE
  5
30D
330
1F
100
AcDbEntity
  8
0
  6
Continuous
 62
     7
100
AcDbLine
 10
6739.8871855074
 20
5213.3406033155
 30
0.0
 11
6739.8871855074
 21
5212.6703330196
 31
0.0
  0
LINE
  5
30E
330
1F
100
AcDbEntity
  8
0
  6
Continuous
 62
     7
100
AcDbLine
 10
6734.0845094258
 20
5213.3406033155
 30
0.0
 11
6739.8871855074
 21
5213.3406033155
 31
0.0
  0
LINE
  5
30F
330
1F
100
AcDbEntity
  8
0
  6
Continuous
 62
     7
100
AcDbLine
 10
6733.9286879832
 20
5213.6324951917
 30
0.0
 11
6741.3871810967
 21
5213.6324951917
 31
0.0
  0
LINE
  5
310
330
1F
100
AcDbEntity
  8
0
  6
Continuous
 62
     7
100
AcDbLine
 10
6741.3871810967
 20
5213.6324951917
 30
0.0
 11
6741.3871810967
 21
5212.3784411579
 31
0.0
  0
LINE
  5
311
330
1F
100
AcDbEntity
  8
0
  6
Continuous
 62
     7
100
AcDbLine
 10
6739.9053798252
 20
5212.3784411579
 30
0.0
 11
6741.3871810967
 21
5212.3784411579
 31
0.0
  0
LINE
  5
312
330
1F
100
AcDbEntity
  8
0
  6
Continuous
 62
     7
100
AcDbLine
 10
6739.6118716532
 20
5212.6703330196
 30
0.0
 11
6739.8871855074
 21
5212.6703330196
 31
0.0
  0
LINE
  5
313
330
1F
100
AcDbEntity
  8
0
  6
Continuous
 62
     7
100
AcDbLine
 10
6741.3871810967
 20
5212.3784411579
 30
0.0
 11
6741.3871810967
 21
5206.4136063328
 31
0.0
  0
LINE
  5
314
330
1F
100
AcDbEntity
  8
0
  6
Continuous
 62
     7
100
AcDbLine
 10
6732.3871777588
 20
5197.4663531056
 30
0.0
 11
6726.939834767
 21
5197.4663531056
 31
0.0
  0
LINE
  5
315
330
1F
100
AcDbEntity
  8
0
  6
Continuous
 62
     7
100
AcDbLine
 10
6592.9398353872
 20
5232.1994548311
 30
0.0
 11
6592.9398353872
 21
5195.1994543543
 31
0.0
  0
LINE
  5
316
330
1F
100
AcDbEntity
  8
0
  6
Continuous
 62
     7
100
AcDbLine
 10
6718.9398334557
 20
5063.5994618406
 30
0.0
 11
6718.9398334557
 21
5063.6994486323
 31
0.0
  0
LINE
  5
317
330
1F
100
AcDbEntity
  8
0
  6
Continuous
 62
     7
100
AcDbLine
 10
6718.9398334557
 20
5063.5994618406
 30
0.0
 11
6711.9398341709
 21
5063.5994618406
 31
0.0
  0
LINE
  5
318
330
1F
100
AcDbEntity
  8
0
  6
Continuous
 62
     7
100
AcDbLine
 10
6711.9398341709
 20
5063.5994618406
 30
0.0
 11
6711.9398341709
 21
5063.6994486323
 31
0.0
  0
LINE
  5
319
330
1F
100
AcDbEntity
  8
0
  6
Continuous
 62
     7
100
AcDbLine
 10
6728.8205103213
 20
5180.1994537583
 30
0.0
 11
6727.3591683441
 21
5180.1994537583
 31
0.0
  0
LINE
  5
31A
330
1F
100
AcDbEntity
  8
0
  6
Continuous
 62
     7
100
AcDbLine
 10
6728.8205103213
 20
5188.6994542202
 30
0.0
 11
6727.3591683441
 21
5188.6994542202
 31
0.0
  0
LINE
  5
31B
330
1F
100
AcDbEntity
  8
0
  6
Continuous
 62
     7
100
AcDbLine
 10
6727.0101980501
 20
5197.1994546821
 30
0.0
 11
6727.3591683441
 21
5197.1994546821
 31
0.0
  0
LINE
  5
31C
330
1F
100
AcDbEntity
  8
0
  6
Continuous
 62
     7
100
AcDbLine
 10
6730.7898328835
 20
5192.1244544556
 30
0.0
 11
6730.7898328835
 21
5181.849455612
 31
0.0
  0
LINE
  5
31D
330
1F
100
AcDbEntity
  8
0
  6
Continuous
 62
     7
100
AcDbLine
 10
6730.7898328835
 20
5195.5494546911
 30
0.0
 11
6730.7898328835
 21
5192.1244544556
 31
0.0
  0
LINE
  5
31E
330
1F
100
AcDbEntity
  8
0
  6
Continuous
 62
     7
100
AcDbLine
 10
6727.3591683441
 20
5197.1994546821
 30
0.0
 11
6728.8205103213
 21
5197.1994546821
 31
0.0
  0
LINE
  5
31F
330
1F
100
AcDbEntity
  8
0
  6
Continuous
 62
     7
100
AcDbLine
 10
6728.8205103213
 20
5199.19945501
 30
0.0
 11
6727.3591683441
 21
5199.19945501
 31
0.0
  0
LINE
  5
320
330
1F
100
AcDbEntity
  8
0
  6
Continuous
 62
     7
100
AcDbLine
 10
6728.8205103213
 20
5207.6994545406
 30
0.0
 11
6727.3591683441
 21
5207.6994545406
 31
0.0
  0
LINE
  5
321
330
1F
100
AcDbEntity
  8
0
  6
Continuous
 62
     7
100
AcDbLine
 10
6727.0101980501
 20
5216.1994545368
 30
0.0
 11
6727.3591683441
 21
5216.1994545368
 31
0.0
  0
LINE
  5
322
330
1F
100
AcDbEntity
  8
0
  6
Continuous
 62
     7
100
AcDbLine
 10
6730.7898328835
 20
5211.1244545432
 30
0.0
 11
6730.7898328835
 21
5200.849455001
 31
0.0
  0
LINE
  5
323
330
1F
100
AcDbEntity
  8
0
  6
Continuous
 62
     7
100
AcDbLine
 10
6730.7898328835
 20
5214.549454604
 30
0.0
 11
6730.7898328835
 21
5211.1244545432
 31
0.0
  0
LINE
  5
324
330
1F
100
AcDbEntity
  8
0
  6
Continuous
 62
     7
100
AcDbLine
 10
6727.3591683441
 20
5216.1994545368
 30
0.0
 11
6728.8205103213
 21
5216.1994545368
 31
0.0
  0
LINE
  5
325
330
1F
100
AcDbEntity
  8
0
  6
Continuous
 62
     7
100
AcDbLine
 10
6728.8205103213
 20
5256.1994550398
 30
0.0
 11
6727.3591683441
 21
5256.1994550398
 31
0.0
  0
LINE
  5
326
330
1F
100
AcDbEntity
  8
0
  6
Continuous
 62
     7
100
AcDbLine
 10
6728.8205103213
 20
5264.699453639
 30
0.0
 11
6727.3591683441
 21
5264.699453639
 31
0.0
  0
LINE
  5
327
330
1F
100
AcDbEntity
  8
0
  6
Continuous
 62
     7
100
AcDbLine
 10
6727.0101980501
 20
5273.1994559636
 30
0.0
 11
6727.3591683441
 21
5273.1994559636
 31
0.0
  0
LINE
  5
328
330
1F
100
AcDbEntity
  8
0
  6
Continuous
 62
     7
100
AcDbLine
 10
6730.7898328835
 20
5268.1244557371
 30
0.0
 11
6730.7898328835
 21
5257.8494531682
 31
0.0
  0
LINE
  5
329
330
1F
100
AcDbEntity
  8
0
  6
Continuous
 62
     7
100
AcDbLine
 10
6730.7898328835
 20
5271.5494541099
 30
0.0
 11
6730.7898328835
 21
5268.1244557371
 31
0.0
  0
LINE
  5
32A
330
1F
100
AcDbEntity
  8
0
  6
Continuous
 62
     7
100
AcDbLine
 10
6727.3591683441
 20
5273.1994559636
 30
0.0
 11
6728.8205103213
 21
5273.1994559636
 31
0.0
  0
LINE
  5
32B
330
1F
100
AcDbEntity
  8
0
  6
Continuous
 62
     7
100
AcDbLine
 10
6728.8205103213
 20
5218.199454399
 30
0.0
 11
6727.3591683441
 21
5218.199454399
 31
0.0
  0
LINE
  5
32C
330
1F
100
AcDbEntity
  8
0
  6
Continuous
 62
     7
100
AcDbLine
 10
6728.8205103213
 20
5226.6994548609
 30
0.0
 11
6727.3591683441
 21
5226.6994548609
 31
0.0
  0
LINE
  5
32D
330
1F
100
AcDbEntity
  8
0
  6
Continuous
 62
     7
100
AcDbLine
 10
6727.0101980501
 20
5235.1994553229
 30
0.0
 11
6727.3591683441
 21
5235.1994553229
 31
0.0
  0
LINE
  5
32E
330
1F
100
AcDbEntity
  8
0
  6
Continuous
 62
     7
100
AcDbLine
 10
6730.7898328835
 20
5230.1244550964
 30
0.0
 11
6730.7898328835
 21
5219.8494543901
 31
0.0
  0
LINE
  5
32F
330
1F
100
AcDbEntity
  8
0
  6
Continuous
 62
     7
100
AcDbLine
 10
6730.7898328835
 20
5233.5494553318
 30
0.0
 11
6730.7898328835
 21
5230.1244550964
 31
0.0
  0
LINE
  5
330
330
1F
100
AcDbEntity
  8
0
  6
Continuous
 62
     7
100
AcDbLine
 10
6727.3591683441
 20
5235.1994553229
 30
0.0
 11
6728.8205103213
 21
5235.1994553229
 31
0.0
  0
LINE
  5
331
330
1F
100
AcDbEntity
  8
0
  6
Continuous
 62
     7
100
AcDbLine
 10
6728.8205103213
 20
5237.1994537881
 30
0.0
 11
6727.3591683441
 21
5237.1994537881
 31
0.0
  0
LINE
  5
332
330
1F
100
AcDbEntity
  8
0
  6
Continuous
 62
     7
100
AcDbLine
 10
6728.8205103213
 20
5245.6994561126
 30
0.0
 11
6727.3591683441
 21
5245.6994561126
 31
0.0
  0
LINE
  5
333
330
1F
100
AcDbEntity
  8
0
  6
Continuous
 62
     7
100
AcDbLine
 10
6727.0101980501
 20
5254.1994547119
 30
0.0
 11
6727.3591683441
 21
5254.1994547119
 31
0.0
  0
LINE
  5
334
330
1F
100
AcDbEntity
  8
0
  6
Continuous
 62
     7
100
AcDbLine
 10
6730.7898328843
 20
5249.1244544854
 30
0.0
 11
6730.7898328843
 21
5238.8494537791
 31
0.0
  0
LINE
  5
335
330
1F
100
AcDbEntity
  8
0
  6
Continuous
 62
     7
100
AcDbLine
 10
6730.7898328843
 20
5252.5494528582
 30
0.0
 11
6730.7898328843
 21
5249.1244544854
 31
0.0
  0
LINE
  5
336
330
1F
100
AcDbEntity
  8
0
  6
Continuous
 62
     7
100
AcDbLine
 10
6727.3591683441
 20
5254.1994547119
 30
0.0
 11
6728.8205103213
 21
5254.1994547119
 31
0.0
  0
LINE
  5
337
330
1F
100
AcDbEntity
  8
0
  6
Continuous
 62
     7
100
AcDbLine
 10
6728.8205103213
 20
5275.1994562915
 30
0.0
 11
6727.3591683441
 21
5275.1994562915
 31
0.0
  0
LINE
  5
338
330
1F
100
AcDbEntity
  8
0
  6
Continuous
 62
     7
100
AcDbLine
 10
6728.8205103213
 20
5283.6994548907
 30
0.0
 11
6727.3591683441
 21
5283.6994548907
 31
0.0
  0
LINE
  5
339
330
1F
100
AcDbEntity
  8
0
  6
Continuous
 62
     7
100
AcDbLine
 10
6727.0101980501
 20
5292.1994572153
 30
0.0
 11
6727.3591683441
 21
5292.1994572153
 31
0.0
  0
LINE
  5
33A
330
1F
100
AcDbEntity
  8
0
  6
Continuous
 62
     7
100
AcDbLine
 10
6730.7898328835
 20
5287.1244569888
 30
0.0
 11
6730.7898328835
 21
5276.8494581452
 31
0.0
  0
LINE
  5
33B
330
1F
100
AcDbEntity
  8
0
  6
Continuous
 62
     7
100
AcDbLine
 10
6730.7898328835
 20
5290.5494516363
 30
0.0
 11
6730.7898328835
 21
5287.1244569888
 31
0.0
  0
LINE
  5
33C
330
1F
100
AcDbEntity
  8
0
  6
Continuous
 62
     7
100
AcDbLine
 10
6727.3591683441
 20
5292.1994572153
 30
0.0
 11
6728.8205103213
 21
5292.1994572153
 31
0.0
  0
LINE
  5
33D
330
1F
100
AcDbEntity
  8
0
  6
Continuous
 62
     7
100
AcDbLine
 10
6728.8205103213
 20
5161.1994562319
 30
0.0
 11
6727.3591683441
 21
5161.1994562318
 31
0.0
  0
LINE
  5
33E
330
1F
100
AcDbEntity
  8
0
  6
Continuous
 62
     7
100
AcDbLine
 10
6728.8205103213
 20
5169.6994548311
 30
0.0
 11
6727.3591683441
 21
5169.6994548311
 31
0.0
  0
LINE
  5
33F
330
1F
100
AcDbEntity
  8
0
  6
Continuous
 62
     7
100
AcDbLine
 10
6727.0101980501
 20
5178.1994534304
 30
0.0
 11
6727.3591683441
 21
5178.1994534304
 31
0.0
  0
LINE
  5
340
330
1F
100
AcDbEntity
  8
0
  6
Continuous
 62
     7
100
AcDbLine
 10
6730.7898328835
 20
5173.1244532039
 30
0.0
 11
6730.7898328835
 21
5162.8494543603
 31
0.0
  0
LINE
  5
341
330
1F
100
AcDbEntity
  8
0
  6
Continuous
 62
     7
100
AcDbLine
 10
6730.7898328835
 20
5176.549455302
 30
0.0
 11
6730.7898328835
 21
5173.1244532039
 31
0.0
  0
LINE
  5
342
330
1F
100
AcDbEntity
  8
0
  6
Continuous
 62
     7
100
AcDbLine
 10
6727.3591683441
 20
5178.1994534304
 30
0.0
 11
6728.8205103213
 21
5178.1994534304
 31
0.0
  0
LINE
  5
343
330
1F
100
AcDbEntity
  8
0
  6
Continuous
 62
     7
100
AcDbLine
 10
6728.8205103213
 20
5142.1994512549
 30
0.0
 11
6727.3591683441
 21
5142.1994512549
 31
0.0
  0
LINE
  5
344
330
1F
100
AcDbEntity
  8
0
  6
Continuous
 62
     7
100
AcDbLine
 10
6728.8205103213
 20
5150.6994535794
 30
0.0
 11
6727.3591683441
 21
5150.6994535794
 31
0.0
  0
LINE
  5
345
330
1F
100
AcDbEntity
  8
0
  6
Continuous
 62
     7
100
AcDbLine
 10
6727.0101980501
 20
5159.199455904
 30
0.0
 11
6727.3591683441
 21
5159.199455904
 31
0.0
  0
LINE
  5
346
330
1F
100
AcDbEntity
  8
0
  6
Continuous
 62
     7
100
AcDbLine
 10
6730.7898328835
 20
5154.1244556775
 30
0.0
 11
6730.7898328835
 21
5143.8494568339
 31
0.0
  0
LINE
  5
347
330
1F
100
AcDbEntity
  8
0
  6
Continuous
 62
     7
100
AcDbLine
 10
6730.7898328835
 20
5157.5494540503
 30
0.0
 11
6730.7898328835
 21
5154.1244556775
 31
0.0
  0
LINE
  5
348
330
1F
100
AcDbEntity
  8
0
  6
Continuous
 62
     7
100
AcDbLine
 10
6727.3591683441
 20
5159.199455904
 30
0.0
 11
6728.8205103213
 21
5159.199455904
 31
0.0
  0
LINE
  5
349
330
1F
100
AcDbEntity
  8
0
  6
Continuous
 62
     7
100
AcDbLine
 10
6728.0398384863
 20
5086.6994505396
 30
0.0
 11
6728.0398384863
 21
5110.6994544735
 31
0.0
  0
LINE
  5
34A
330
1F
100
AcDbEntity
  8
0
  6
Continuous
 62
     7
100
AcDbLine
 10
6729.0398405129
 20
5109.699452447
 30
0.0
 11
6729.0398405129
 21
5087.6994525662
 31
0.0
  0
LINE
  5
34B
330
1F
100
AcDbEntity
  8
0
  6
Continuous
 62
     7
100
AcDbLine
 10
6729.2398289973
 20
5108.0815663209
 30
0.0
 11
6729.2398289973
 21
5097.2994511595
 31
0.0
  0
LINE
  5
34C
330
1F
100
AcDbEntity
  8
0
  6
Continuous
 62
     7
100
AcDbLine
 10
6711.3494799668
 20
5065.3762315979
 30
0.0
 11
6711.373955124
 21
5065.2374421826
 31
0.0
  0
LINE
  5
34D
330
1F
100
AcDbEntity
  8
0
  6
Continuous
 62
     7
100
AcDbLine
 10
6695.8398373061
 20
5065.3762315979
 30
0.0
 11
6695.8398373061
 21
5065.1994591227
 31
0.0
  0
LINE
  5
34E
330
1F
100
AcDbEntity
  8
0
  6
Continuous
 62
     7
100
AcDbLine
 10
6703.7361116344
 20
5362.1994500628
 30
0.0
 11
6703.8855851823
 21
5362.0226775875
 31
0.0
  0
LINE
  5
34F
330
1F
100
AcDbEntity
  8
0
  6
Continuous
 62
     7
100
AcDbLine
 10
6708.7940798336
 20
5362.0226775875
 30
0.0
 11
6708.9435533816
 21
5362.1994500628
 31
0.0
  0
LINE
  5
350
330
1F
100
AcDbEntity
  8
0
  6
Continuous
 62
     7
100
AcDbLine
 10
6709.597304576
 20
5363.640556263
 30
0.0
 11
6709.6537278229
 21
5364.2494475117
 31
0.0
  0
LINE
  5
351
330
1F
100
AcDbEntity
  8
0
  6
Continuous
 62
     7
100
AcDbLine
 10
6733.9918540055
 20
5194.4205054661
 30
0.0
 11
6733.9917049938
 21
5194.3663043549
 31
0.0
  0
LINE
  5
352
330
1F
100
AcDbEntity
  8
0
  6
Continuous
 62
     7
100
AcDbLine
 10
6734.7124750575
 20
5184.1095006223
 30
0.0
 11
6734.7124750575
 21
5183.3994342143
 31
0.0
  0
LINE
  5
353
330
1F
100
AcDbEntity
  8
0
  6
Continuous
 62
     7
100
AcDbLine
 10
6734.7124750575
 20
5193.9994348342
 30
0.0
 11
6734.7124750575
 21
5184.1095006223
 31
0.0
  0
LINE
  5
354
330
1F
100
AcDbEntity
  8
0
  6
Continuous
 62
     7
100
AcDbLine
 10
6738.612481471
 20
5184.1095006223
 30
0.0
 11
6738.612481471
 21
5193.9994348342
 31
0.0
  0
LINE
  5
355
330
1F
100
AcDbEntity
  8
0
  6
Continuous
 62
     7
100
AcDbLine
 10
6738.612481471
 20
5183.3994342143
 30
0.0
 11
6738.612481471
 21
5184.1095006223
 31
0.0
  0
LINE
  5
356
330
1F
100
AcDbEntity
  8
0
  6
Continuous
 62
     7
100
AcDbLine
 10
6733.9918540055
 20
5213.4205058447
 30
0.0
 11
6733.9917049938
 21
5213.366303744
 31
0.0
  0
LINE
  5
357
330
1F
100
AcDbEntity
  8
0
  6
Continuous
 62
     7
100
AcDbLine
 10
6734.7398326927
 20
5203.1095197072
 30
0.0
 11
6734.7398326927
 21
5202.3994542306
 31
0.0
  0
LINE
  5
358
330
1F
100
AcDbEntity
  8
0
  6
Continuous
 62
     7
100
AcDbLine
 10
6734.7398326927
 20
5212.9994546177
 30
0.0
 11
6734.7398326927
 21
5203.1095197072
 31
0.0
  0
LINE
  5
359
330
1F
100
AcDbEntity
  8
0
  6
Continuous
 62
     7
100
AcDbLine
 10
6738.6398391062
 20
5203.1095197072
 30
0.0
 11
6738.6398391062
 21
5212.9994546177
 31
0.0
  0
LINE
  5
35A
330
1F
100
AcDbEntity
  8
0
  6
Continuous
 62
     7
100
AcDbLine
 10
6738.6398391062
 20
5202.3994542306
 30
0.0
 11
6738.6398391062
 21
5203.1095197072
 31
0.0
  0
LINE
  5
35B
330
1F
100
AcDbEntity
  8
0
  6
Continuous
 62
     7
100
AcDbLine
 10
6733.9918540055
 20
5270.420504885
 30
0.0
 11
6733.9917049938
 21
5270.3663019111
 31
0.0
  0
LINE
  5
35C
330
1F
100
AcDbEntity
  8
0
  6
Continuous
 62
     7
100
AcDbLine
 10
6734.7398326927
 20
5260.109519737
 30
0.0
 11
6734.7398326927
 21
5259.3994533291
 31
0.0
  0
LINE
  5
35D
330
1F
100
AcDbEntity
  8
0
  6
Continuous
 62
     7
100
AcDbLine
 10
6734.7398326927
 20
5269.999453949
 30
0.0
 11
6734.7398326927
 21
5260.109519737
 31
0.0
  0
LINE
  5
35E
330
1F
100
AcDbEntity
  8
0
  6
Continuous
 62
     7
100
AcDbLine
 10
6738.6398391062
 20
5260.109519737
 30
0.0
 11
6738.6398391062
 21
5269.999453949
 31
0.0
  0
LINE
  5
35F
330
1F
100
AcDbEntity
  8
0
  6
Continuous
 62
     7
100
AcDbLine
 10
6738.6398391062
 20
5259.3994533291
 30
0.0
 11
6738.6398391062
 21
5260.109519737
 31
0.0
  0
LINE
  5
360
330
1F
100
AcDbEntity
  8
0
  6
Continuous
 62
     7
100
AcDbLine
 10
6733.9918540055
 20
5232.4205061069
 30
0.0
 11
6733.9917049938
 21
5232.366303133
 31
0.0
  0
LINE
  5
361
330
1F
100
AcDbEntity
  8
0
  6
Continuous
 62
     7
100
AcDbLine
 10
6734.7398326927
 20
5222.1095200276
 30
0.0
 11
6734.7398326927
 21
5221.399454551
 31
0.0
  0
LINE
  5
362
330
1F
100
AcDbEntity
  8
0
  6
Continuous
 62
     7
100
AcDbLine
 10
6734.7398326927
 20
5231.9994551709
 30
0.0
 11
6734.7398326927
 21
5222.1095200276
 31
0.0
  0
LINE
  5
363
330
1F
100
AcDbEntity
  8
0
  6
Continuous
 62
     7
100
AcDbLine
 10
6738.6398391062
 20
5222.1095200276
 30
0.0
 11
6738.6398391062
 21
5231.9994551709
 31
0.0
  0
LINE
  5
364
330
1F
100
AcDbEntity
  8
0
  6
Continuous
 62
     7
100
AcDbLine
 10
6738.6398391062
 20
5221.399454551
 30
0.0
 11
6738.6398391062
 21
5222.1095200276
 31
0.0
  0
LINE
  5
365
330
1F
100
AcDbEntity
  8
0
  6
Continuous
 62
     7
100
AcDbLine
 10
6733.9918540055
 20
5251.4205073586
 30
0.0
 11
6733.9917049938
 21
5251.3663043847
 31
0.0
  0
LINE
  5
366
330
1F
100
AcDbEntity
  8
0
  6
Continuous
 62
     7
100
AcDbLine
 10
6734.7398326927
 20
5241.109520348
 30
0.0
 11
6734.7398326927
 21
5240.3994539401
 31
0.0
  0
LINE
  5
367
330
1F
100
AcDbEntity
  8
0
  6
Continuous
 62
     7
100
AcDbLine
 10
6734.7398326927
 20
5250.9994564226
 30
0.0
 11
6734.7398326927
 21
5241.109520348
 31
0.0
  0
LINE
  5
368
330
1F
100
AcDbEntity
  8
0
  6
Continuous
 62
     7
100
AcDbLine
 10
6738.6398391062
 20
5241.109520348
 30
0.0
 11
6738.6398391062
 21
5250.9994564226
 31
0.0
  0
LINE
  5
369
330
1F
100
AcDbEntity
  8
0
  6
Continuous
 62
     7
100
AcDbLine
 10
6738.6398391062
 20
5240.3994539401
 30
0.0
 11
6738.6398391062
 21
5241.109520348
 31
0.0
  0
LINE
  5
36A
330
1F
100
AcDbEntity
  8
0
  6
Continuous
 62
     7
100
AcDbLine
 10
6733.9918540055
 20
5289.4205024114
 30
0.0
 11
6733.9917049938
 21
5289.3663068881
 31
0.0
  0
LINE
  5
36B
330
1F
100
AcDbEntity
  8
0
  6
Continuous
 62
     7
100
AcDbLine
 10
6734.7398326927
 20
5279.1095172634
 30
0.0
 11
6734.7398326927
 21
5278.3994545808
 31
0.0
  0
LINE
  5
36C
330
1F
100
AcDbEntity
  8
0
  6
Continuous
 62
     7
100
AcDbLine
 10
6734.7398326927
 20
5288.9994552007
 30
0.0
 11
6734.7398326927
 21
5279.1095172634
 31
0.0
  0
LINE
  5
36D
330
1F
100
AcDbEntity
  8
0
  6
Continuous
 62
     7
100
AcDbLine
 10
6738.6398391062
 20
5279.1095172634
 30
0.0
 11
6738.6398391062
 21
5288.9994552007
 31
0.0
  0
LINE
  5
36E
330
1F
100
AcDbEntity
  8
0
  6
Continuous
 62
     7
100
AcDbLine
 10
6738.6398391062
 20
5278.3994545808
 30
0.0
 11
6738.6398391062
 21
5279.1095172634
 31
0.0
  0
LINE
  5
36F
330
1F
100
AcDbEntity
  8
0
  6
Continuous
 62
     7
100
AcDbLine
 10
6733.9918540055
 20
5175.4205060771
 30
0.0
 11
6733.9917049938
 21
5175.3663031032
 31
0.0
  0
LINE
  5
370
330
1F
100
AcDbEntity
  8
0
  6
Continuous
 62
     7
100
AcDbLine
 10
6734.7398326927
 20
5165.1095209291
 30
0.0
 11
6734.7398326927
 21
5164.3994545212
 31
0.0
  0
LINE
  5
371
330
1F
100
AcDbEntity
  8
0
  6
Continuous
 62
     7
100
AcDbLine
 10
6734.7398326927
 20
5174.9994551411
 30
0.0
 11
6734.7398326927
 21
5165.1095209291
 31
0.0
  0
LINE
  5
372
330
1F
100
AcDbEntity
  8
0
  6
Continuous
 62
     7
100
AcDbLine
 10
6738.6398391062
 20
5165.1095209291
 30
0.0
 11
6738.6398391062
 21
5174.9994551411
 31
0.0
  0
LINE
  5
373
330
1F
100
AcDbEntity
  8
0
  6
Continuous
 62
     7
100
AcDbLine
 10
6738.6398391062
 20
5164.3994545212
 30
0.0
 11
6738.6398391062
 21
5165.1095209291
 31
0.0
  0
LINE
  5
374
330
1F
100
AcDbEntity
  8
0
  6
Continuous
 62
     7
100
AcDbLine
 10
6733.9918540055
 20
5156.4205048254
 30
0.0
 11
6733.9917049938
 21
5156.3663055768
 31
0.0
  0
LINE
  5
375
330
1F
100
AcDbEntity
  8
0
  6
Continuous
 62
     7
100
AcDbLine
 10
6734.7398326927
 20
5146.1095234027
 30
0.0
 11
6734.7398326927
 21
5145.3994532695
 31
0.0
  0
LINE
  5
376
330
1F
100
AcDbEntity
  8
0
  6
Continuous
 62
     7
100
AcDbLine
 10
6734.7398326927
 20
5155.9994538894
 30
0.0
 11
6734.7398326927
 21
5146.1095234027
 31
0.0
  0
LINE
  5
377
330
1F
100
AcDbEntity
  8
0
  6
Continuous
 62
     7
100
AcDbLine
 10
6738.6398391062
 20
5146.1095234027
 30
0.0
 11
6738.6398391062
 21
5155.9994538894
 31
0.0
  0
LINE
  5
378
330
1F
100
AcDbEntity
  8
0
  6
Continuous
 62
     7
100
AcDbLine
 10
6738.6398391062
 20
5145.3994532695
 30
0.0
 11
6738.6398391062
 21
5146.1095234027
 31
0.0
  0
LINE
  5
379
330
1F
100
AcDbEntity
  8
0
  6
Continuous
 62
     7
100
AcDbLine
 10
6223.9854185145
 20
4720.6168879821
 30
0.0
 11
6215.6520856779
 21
4720.6168879821
 31
0.0
  0
LINE
  5
37A
330
1F
100
AcDbEntity
  8
0
  6
Continuous
 62
     7
100
AcDbLine
 10
6215.6520856779
 20
4713.4168853118
 30
0.0
 11
6223.9854185145
 21
4713.4168853118
 31
0.0
  0
LINE
  5
37B
330
1F
100
AcDbEntity
  8
0
  6
Continuous
 62
     7
100
AcDbLine
 10
6240.6520879131
 20
4720.6168879821
 30
0.0
 11
6232.3187513512
 21
4720.6168879821
 31
0.0
  0
LINE
  5
37C
330
1F
100
AcDbEntity
  8
0
  6
Continuous
 62
     7
100
AcDbLine
 10
6232.3187513512
 20
4713.4168853118
 30
0.0
 11
6240.6520879131
 21
4713.4168853118
 31
0.0
  0
LINE
  5
37D
330
1F
100
AcDbEntity
  8
0
  6
Continuous
 62
     7
100
AcDbLine
 10
6257.3187535863
 20
4720.6168879821
 30
0.0
 11
6248.9854207497
 21
4720.6168879821
 31
0.0
  0
LINE
  5
37E
330
1F
100
AcDbEntity
  8
0
  6
Continuous
 62
     7
100
AcDbLine
 10
6248.9854207497
 20
4713.4168853118
 30
0.0
 11
6257.3187535863
 21
4713.4168853118
 31
0.0
  0
LINE
  5
37F
330
1F
100
AcDbEntity
  8
0
  6
Continuous
 62
     7
100
AcDbLine
 10
6307.3854184013
 20
4720.6168879821
 30
0.0
 11
6299.0520855646
 21
4720.6168879821
 31
0.0
  0
LINE
  5
380
330
1F
100
AcDbEntity
  8
0
  6
Continuous
 62
     7
100
AcDbLine
 10
6299.0520855646
 20
4713.4168853118
 30
0.0
 11
6307.3854184013
 21
4713.4168853118
 31
0.0
  0
LINE
  5
381
330
1F
100
AcDbEntity
  8
0
  6
Continuous
 62
     7
100
AcDbLine
 10
6324.0520877998
 20
4720.6168879821
 30
0.0
 11
6315.7187549632
 21
4720.6168879821
 31
0.0
  0
LINE
  5
382
330
1F
100
AcDbEntity
  8
0
  6
Continuous
 62
     7
100
AcDbLine
 10
6315.7187549632
 20
4713.4168853118
 30
0.0
 11
6324.0520877998
 21
4713.4168853118
 31
0.0
  0
LINE
  5
383
330
1F
100
AcDbEntity
  8
0
  6
Continuous
 62
     7
100
AcDbLine
 10
6340.7187497478
 20
4720.6168879821
 30
0.0
 11
6332.3854206365
 21
4720.6168879821
 31
0.0
  0
LINE
  5
384
330
1F
100
AcDbEntity
  8
0
  6
Continuous
 62
     7
100
AcDbLine
 10
6332.3854206365
 20
4713.4168853118
 30
0.0
 11
6340.7187497478
 21
4713.4168853118
 31
0.0
  0
LINE
  5
385
330
1F
100
AcDbEntity
  8
0
  6
Continuous
 62
     7
100
AcDbLine
 10
6324.0520877998
 20
4713.4168853118
 30
0.0
 11
6332.3854206365
 21
4713.4168853118
 31
0.0
  0
LINE
  5
386
330
1F
100
AcDbEntity
  8
0
  6
Continuous
 62
     7
100
AcDbLine
 10
6332.3854206365
 20
4720.6168879821
 30
0.0
 11
6324.0520877998
 21
4720.6168879821
 31
0.0
  0
LINE
  5
387
330
1F
100
AcDbEntity
  8
0
  6
Continuous
 62
     7
100
AcDbLine
 10
6307.3854184013
 20
4713.4168853118
 30
0.0
 11
6315.7187549632
 21
4713.4168853118
 31
0.0
  0
LINE
  5
388
330
1F
100
AcDbEntity
  8
0
  6
Continuous
 62
     7
100
AcDbLine
 10
6315.7187549632
 20
4720.6168879821
 30
0.0
 11
6307.3854184013
 21
4720.6168879821
 31
0.0
  0
LINE
  5
389
330
1F
100
AcDbEntity
  8
0
  6
Continuous
 62
     7
100
AcDbLine
 10
6290.718752728
 20
4713.4168853118
 30
0.0
 11
6299.0520855646
 21
4713.4168853118
 31
0.0
  0
LINE
  5
38A
330
1F
100
AcDbEntity
  8
0
  6
Continuous
 62
     7
100
AcDbLine
 10
6299.0520855646
 20
4720.6168879821
 30
0.0
 11
6290.718752728
 21
4720.6168879821
 31
0.0
  0
LINE
  5
38B
330
1F
100
AcDbEntity
  8
0
  6
Continuous
 62
     7
100
AcDbLine
 10
6223.9854185145
 20
4713.4168853118
 30
0.0
 11
6232.3187513512
 21
4713.4168853118
 31
0.0
  0
LINE
  5
38C
330
1F
100
AcDbEntity
  8
0
  6
Continuous
 62
     7
100
AcDbLine
 10
6232.3187513512
 20
4720.6168879821
 30
0.0
 11
6223.9854185145
 21
4720.6168879821
 31
0.0
  0
LINE
  5
38D
330
1F
100
AcDbEntity
  8
0
  6
Continuous
 62
     7
100
AcDbLine
 10
6240.6520879131
 20
4713.4168853118
 30
0.0
 11
6248.9854207497
 21
4713.4168853118
 31
0.0
  0
LINE
  5
38E
330
1F
100
AcDbEntity
  8
0
  6
Continuous
 62
     7
100
AcDbLine
 10
6248.9854207497
 20
4720.6168879821
 30
0.0
 11
6240.6520879131
 21
4720.6168879821
 31
0.0
  0
LINE
  5
38F
330
1F
100
AcDbEntity
  8
0
  6
Continuous
 62
     7
100
AcDbLine
 10
6207.3187565666
 20
4713.4168853118
 30
0.0
 11
6215.6520856779
 21
4713.4168853118
 31
0.0
  0
LINE
  5
390
330
1F
100
AcDbEntity
  8
0
  6
Continuous
 62
     7
100
AcDbLine
 10
6215.6520856779
 20
4720.6168879821
 30
0.0
 11
6207.3187565666
 21
4720.6168879821
 31
0.0
  0
LINE
  5
391
330
1F
100
AcDbEntity
  8
0
  6
Continuous
 62
     7
100
AcDbLine
 10
6334.0624032214
 20
4691.9168864443
 30
0.0
 11
6334.0624032214
 21
4696.4168881132
 31
0.0
  0
LINE
  5
392
330
1F
100
AcDbEntity
  8
0
  6
Continuous
 62
     7
100
AcDbLine
 10
6311.4624043598
 20
4691.9168864443
 30
0.0
 11
6311.4624043598
 21
4685.9168891861
 31
0.0
  0
LINE
  5
393
330
1F
100
AcDbEntity
  8
0
  6
Continuous
 62
     7
100
AcDbLine
 10
6331.6624035731
 20
4685.9168891861
 30
0.0
 11
6331.6624035731
 21
4691.9168864443
 31
0.0
  0
LINE
  5
394
330
1F
100
AcDbEntity
  8
0
  6
Continuous
 62
     7
100
AcDbLine
 10
6223.7037999227
 20
4694.536212559
 30
0.0
 11
6225.1192724004
 21
4694.1569482042
 31
0.0
  0
LINE
  5
395
330
1F
100
AcDbEntity
  8
0
  6
Continuous
 62
     7
100
AcDbLine
 10
6241.9182380333
 20
4694.1569482042
 30
0.0
 11
6243.333710511
 21
4694.536212559
 31
0.0
  0
LINE
  5
396
330
1F
100
AcDbEntity
  8
0
  6
Continuous
 62
     7
100
AcDbLine
 10
6243.333710511
 20
4695.9975545361
 30
0.0
 11
6241.7687570348
 21
4696.4168881132
 31
0.0
  0
LINE
  5
397
330
1F
100
AcDbEntity
  8
0
  6
Continuous
 62
     7
100
AcDbLine
 10
6225.2687571242
 20
4696.4168881132
 30
0.0
 11
6223.7037999227
 21
4695.9975545361
 31
0.0
  0
LINE
  5
398
330
1F
100
AcDbEntity
  8
0
  6
Continuous
 62
     7
100
AcDbLine
 10
6240.3687556877
 20
4690.8613179877
 30
0.0
 11
6240.3687556877
 21
4692.5668899967
 31
0.0
  0
LINE
  5
399
330
1F
100
AcDbEntity
  8
0
  6
Continuous
 62
     7
100
AcDbLine
 10
6226.668754746
 20
4692.5668899967
 30
0.0
 11
6226.668754746
 21
4690.8613179877
 31
0.0
  0
LINE
  5
39A
330
1F
100
AcDbEntity
  8
0
  6
Continuous
 62
     7
100
AcDbLine
 10
6238.8187555268
 20
4684.716883774
 30
0.0
 11
6238.8187555268
 21
4688.6168901875
 31
0.0
  0
LINE
  5
39B
330
1F
100
AcDbEntity
  8
0
  6
Continuous
 62
     7
100
AcDbLine
 10
6228.2187549069
 20
4688.6168901875
 30
0.0
 11
6228.2187549069
 21
4684.716883774
 31
0.0
  0
LINE
  5
39C
330
1F
100
AcDbEntity
  8
0
  6
Continuous
 62
     7
100
AcDbLine
 10
6262.0187552318
 20
4696.4168881132
 30
0.0
 11
6262.0187552318
 21
4695.3168843939
 31
0.0
  0
LINE
  5
39D
330
1F
100
AcDbEntity
  8
0
  6
Continuous
 62
     7
100
AcDbLine
 10
6286.0187554404
 20
4695.3168843939
 30
0.0
 11
6286.0187554404
 21
4696.4168881132
 31
0.0
  0
LINE
  5
39E
330
1F
100
AcDbEntity
  8
0
  6
Continuous
 62
     7
100
AcDbLine
 10
6262.0187552318
 20
4695.3168843939
 30
0.0
 11
6263.0187553957
 21
4694.3168823673
 31
0.0
  0
LINE
  5
39F
330
1F
100
AcDbEntity
  8
0
  6
Continuous
 62
     7
100
AcDbLine
 10
6285.0187552765
 20
4694.3168823673
 30
0.0
 11
6286.0187554404
 21
4695.3168843939
 31
0.0
  0
LINE
  5
3A0
330
1F
100
AcDbEntity
  8
0
  6
Continuous
 62
     7
100
AcDbLine
 10
6274.1127409761
 20
4694.116893883
 30
0.0
 11
6274.1127409761
 21
4694.3168823673
 31
0.0
  0
LINE
  5
3A1
330
1F
100
AcDbEntity
  8
0
  6
Continuous
 62
     7
100
AcDbLine
 10
6161.4245010212
 20
4739.5050783708
 30
0.0
 11
6386.613009651
 21
4739.5050783708
 31
0.0
  0
LINE
  5
3A2
330
1F
100
AcDbEntity
  8
0
  6
Continuous
 62
     7
100
AcDbLine
 10
6161.4245010212
 20
4739.5050783708
 30
0.0
 11
6161.4245010212
 21
4740.9539629771
 31
0.0
  0
LINE
  5
3A3
330
1F
100
AcDbEntity
  8
0
  6
Continuous
 62
     7
100
AcDbLine
 10
6161.4245010212
 20
4740.9539629771
 30
0.0
 11
6386.613009651
 21
4740.9539629771
 31
0.0
  0
LINE
  5
3A4
330
1F
100
AcDbEntity
  8
0
  6
Continuous
 62
     7
100
AcDbLine
 10
6386.613009651
 20
4739.5050783708
 30
0.0
 11
6386.613009651
 21
4740.9539629771
 31
0.0
  0
LINE
  5
3A5
330
1F
100
AcDbEntity
  8
0
  6
Continuous
 62
     7
100
AcDbLine
 10
6161.4245010212
 20
4739.5050783708
 30
0.0
 11
6170.829427504
 21
4736.9850357454
 31
0.0
  0
LINE
  5
3A6
330
1F
100
AcDbEntity
  8
0
  6
Continuous
 62
     7
100
AcDbLine
 10
6170.829427504
 20
4736.9850357454
 30
0.0
 11
6377.2080831681
 21
4736.9850357454
 31
0.0
  0
LINE
  5
3A7
330
1F
100
AcDbEntity
  8
0
  6
Continuous
 62
     7
100
AcDbLine
 10
6377.2080831681
 20
4736.9850357454
 30
0.0
 11
6386.613009651
 21
4739.5050783708
 31
0.0
  0
LINE
  5
3A8
330
1F
100
AcDbEntity
  8
0
  6
Continuous
 62
     7
100
AcDbLine
 10
6377.773090154
 20
4736.9850362071
 30
0.0
 11
6377.7352412046
 21
4737.126284314
 31
0.0
  0
LINE
  5
3A9
330
1F
100
AcDbEntity
  8
0
  6
Continuous
 62
     7
100
AcDbLine
 10
6386.7897827924
 20
4740.953960491
 30
0.0
 11
6386.6130103172
 21
4740.9065971502
 31
0.0
  0
LINE
  5
3AA
330
1F
100
AcDbEntity
  8
0
  6
Continuous
 62
     7
100
AcDbLine
 10
6387.1780176462
 20
4739.5050758847
 30
0.0
 11
6386.7897827924
 21
4740.953960491
 31
0.0
  0
LINE
  5
3AB
330
1F
100
AcDbEntity
  8
0
  6
Continuous
 62
     7
100
AcDbLine
 10
6387.1780176462
 20
4739.5050758847
 30
0.0
 11
6377.773090154
 21
4736.9850362071
 31
0.0
  0
LINE
  5
3AC
330
1F
100
AcDbEntity
  8
0
  6
Continuous
 62
     7
100
AcDbLine
 10
6170.2644205181
 20
4736.9850362071
 30
0.0
 11
6170.3022694676
 21
4737.126284314
 31
0.0
  0
LINE
  5
3AD
330
1F
100
AcDbEntity
  8
0
  6
Continuous
 62
     7
100
AcDbLine
 10
6161.424500355
 20
4740.9065971502
 30
0.0
 11
6161.2477278797
 21
4740.953960491
 31
0.0
  0
LINE
  5
3AE
330
1F
100
AcDbEntity
  8
0
  6
Continuous
 62
     7
100
AcDbLine
 10
6170.2644205181
 20
4736.9850362071
 30
0.0
 11
6160.859493026
 21
4739.5050758847
 31
0.0
  0
LINE
  5
3AF
330
1F
100
AcDbEntity
  8
0
  6
Continuous
 62
     7
100
AcDbLine
 10
6160.859493026
 20
4739.5050758847
 30
0.0
 11
6161.2477278797
 21
4740.953960491
 31
0.0
  0
LINE
  5
3B0
330
1F
100
AcDbEntity
  8
0
  6
Continuous
 62
     7
100
AcDbLine
 10
6377.2554503409
 20
4736.916887398
 30
0.0
 11
6377.2554529503
 21
4736.9977270319
 31
0.0
  0
LINE
  5
3B1
330
1F
100
AcDbEntity
  8
0
  6
Continuous
 62
     7
100
AcDbLine
 10
6170.7820603313
 20
4736.916887398
 30
0.0
 11
6377.2554503409
 21
4736.916887398
 31
0.0
  0
LINE
  5
3B2
330
1F
100
AcDbEntity
  8
0
  6
Continuous
 62
     7
100
AcDbLine
 10
6170.7820603313
 20
4736.916887398
 30
0.0
 11
6170.7820577219
 21
4736.9977270319
 31
0.0
  0
LINE
  5
3B3
330
1F
100
AcDbEntity
  8
0
  6
Continuous
 62
     7
100
AcDbLine
 10
6175.1955283478
 20
4740.9539629771
 30
0.0
 11
6175.1955320315
 21
4827.916887398
 31
0.0
  0
LINE
  5
3B4
330
1F
100
AcDbEntity
  8
0
  6
Continuous
 62
     7
100
AcDbLine
 10
6175.1955320315
 20
4827.916887398
 30
0.0
 11
6372.8419786408
 21
4827.916887398
 31
0.0
  0
LINE
  5
3B5
330
1F
100
AcDbEntity
  8
0
  6
Continuous
 62
     7
100
AcDbLine
 10
6372.8419786408
 20
4827.916887398
 30
0.0
 11
6372.8419823244
 21
4740.9539629771
 31
0.0
  0
LINE
  5
3B6
330
1F
100
AcDbEntity
  8
0
  6
Continuous
 62
     7
100
AcDbLine
 10
6175.5187553361
 20
4829.416887398
 30
0.0
 11
6372.5187553361
 21
4829.416887398
 31
0.0
  0
LINE
  5
3B7
330
1F
100
AcDbEntity
  8
0
  6
Continuous
 62
     7
100
AcDbLine
 10
6374.0187553361
 20
4827.9168873742
 30
0.0
 11
6373.0187533095
 21
4827.9168873742
 31
0.0
  0
LINE
  5
3B8
330
1F
100
AcDbEntity
  8
0
  6
Continuous
 62
     7
100
AcDbLine
 10
6374.0187553361
 20
4740.9539629771
 30
0.0
 11
6374.0187553361
 21
4827.9168873742
 31
0.0
  0
LINE
  5
3B9
330
1F
100
AcDbEntity
  8
0
  6
Continuous
 62
     7
100
AcDbLine
 10
6373.0187533095
 20
4740.9539629771
 30
0.0
 11
6373.0187533095
 21
4827.9168873742
 31
0.0
  0
LINE
  5
3BA
330
1F
100
AcDbEntity
  8
0
  6
Continuous
 62
     7
100
AcDbLine
 10
6174.0187553361
 20
4827.9168873742
 30
0.0
 11
6174.0187553361
 21
4740.9539629771
 31
0.0
  0
LINE
  5
3BB
330
1F
100
AcDbEntity
  8
0
  6
Continuous
 62
     7
100
AcDbLine
 10
6174.0187553361
 20
4827.9168873742
 30
0.0
 11
6175.0187573626
 21
4827.9168873742
 31
0.0
  0
LINE
  5
3BC
330
1F
100
AcDbEntity
  8
0
  6
Continuous
 62
     7
100
AcDbLine
 10
6175.0187573626
 20
4827.9168873742
 30
0.0
 11
6175.0187573626
 21
4740.9539629771
 31
0.0
  0
LINE
  5
3BD
330
1F
100
AcDbEntity
  8
0
  6
Continuous
 62
     7
100
AcDbLine
 10
6355.0187555745
 20
4723.6912434056
 30
0.0
 11
6354.8419756487
 21
4723.6912434056
 31
0.0
  0
LINE
  5
3BE
330
1F
100
AcDbEntity
  8
0
  6
Continuous
 62
     7
100
AcDbLine
 10
6259.0187534924
 20
4720.6168879821
 30
0.0
 11
6257.3187535863
 21
4720.6168879821
 31
0.0
  0
LINE
  5
3BF
330
1F
100
AcDbEntity
  8
0
  6
Continuous
 62
     7
100
AcDbLine
 10
6207.3187565666
 20
4720.6168879821
 30
0.0
 11
6205.8187535267
 21
4720.6168879821
 31
0.0
  0
LINE
  5
3C0
330
1F
100
AcDbEntity
  8
0
  6
Continuous
 62
     7
100
AcDbLine
 10
6205.8187535267
 20
4720.6168879821
 30
0.0
 11
6205.8187535267
 21
4713.7808610751
 31
0.0
  0
LINE
  5
3C1
330
1F
100
AcDbEntity
  8
0
  6
Continuous
 62
     7
100
AcDbLine
 10
6193.1955328446
 20
4713.7808610751
 30
0.0
 11
6205.8187535267
 21
4713.7808610751
 31
0.0
  0
LINE
  5
3C2
330
1F
100
AcDbEntity
  8
0
  6
Continuous
 62
     7
100
AcDbLine
 10
6193.1955328446
 20
4713.7808610751
 30
0.0
 11
6193.1955328446
 21
4736.9168882324
 31
0.0
  0
LINE
  5
3C3
330
1F
100
AcDbEntity
  8
0
  6
Continuous
 62
     7
100
AcDbLine
 10
6354.8419740095
 20
4736.9168882324
 30
0.0
 11
6354.8419740095
 21
4713.7808610751
 31
0.0
  0
LINE
  5
3C4
330
1F
100
AcDbEntity
  8
0
  6
Continuous
 62
     7
100
AcDbLine
 10
6342.2187533273
 20
4713.7808610751
 30
0.0
 11
6354.8419740095
 21
4713.7808610751
 31
0.0
  0
LINE
  5
3C5
330
1F
100
AcDbEntity
  8
0
  6
Continuous
 62
     7
100
AcDbLine
 10
6342.2187533273
 20
4713.7808610751
 30
0.0
 11
6342.2187533273
 21
4720.6168879821
 31
0.0
  0
LINE
  5
3C6
330
1F
100
AcDbEntity
  8
0
  6
Continuous
 62
     7
100
AcDbLine
 10
6342.2187533273
 20
4720.6168879821
 30
0.0
 11
6340.7187497478
 21
4720.6168879821
 31
0.0
  0
LINE
  5
3C7
330
1F
100
AcDbEntity
  8
0
  6
Continuous
 62
     7
100
AcDbLine
 10
6290.718752728
 20
4720.6168879821
 30
0.0
 11
6289.0187528219
 21
4720.6168879821
 31
0.0
  0
LINE
  5
3C8
330
1F
100
AcDbEntity
  8
0
  6
Continuous
 62
     7
100
AcDbLine
 10
6289.0187528219
 20
4713.7808610751
 30
0.0
 11
6289.0187528219
 21
4720.6168879821
 31
0.0
  0
LINE
  5
3C9
330
1F
100
AcDbEntity
  8
0
  6
Continuous
 62
     7
100
AcDbLine
 10
6259.0187534924
 20
4713.7808610751
 30
0.0
 11
6289.0187528219
 21
4713.7808610751
 31
0.0
  0
LINE
  5
3CA
330
1F
100
AcDbEntity
  8
0
  6
Continuous
 62
     7
100
AcDbLine
 10
6259.0187534924
 20
4720.6168879821
 30
0.0
 11
6259.0187534924
 21
4713.7808610751
 31
0.0
  0
LINE
  5
3CB
330
1F
100
AcDbEntity
  8
0
  6
Continuous
 62
     7
100
AcDbLine
 10
6289.0187528219
 20
4713.7808610751
 30
0.0
 11
6289.0187528219
 21
4713.4168853118
 31
0.0
  0
LINE
  5
3CC
330
1F
100
AcDbEntity
  8
0
  6
Continuous
 62
     7
100
AcDbLine
 10
6289.0187528219
 20
4713.4168853118
 30
0.0
 11
6259.0187534924
 21
4713.4168853118
 31
0.0
  0
LINE
  5
3CD
330
1F
100
AcDbEntity
  8
0
  6
Continuous
 62
     7
100
AcDbLine
 10
6259.0187534924
 20
4713.4168853118
 30
0.0
 11
6259.0187534924
 21
4713.7808610751
 31
0.0
  0
LINE
  5
3CE
330
1F
100
AcDbEntity
  8
0
  6
Continuous
 62
     7
100
AcDbLine
 10
6205.8187535267
 20
4713.7808610751
 30
0.0
 11
6205.8187535267
 21
4713.4168853118
 31
0.0
  0
LINE
  5
3CF
330
1F
100
AcDbEntity
  8
0
  6
Continuous
 62
     7
100
AcDbLine
 10
6205.8187535267
 20
4713.4168853118
 30
0.0
 11
6193.1955328446
 21
4713.4168853118
 31
0.0
  0
LINE
  5
3D0
330
1F
100
AcDbEntity
  8
0
  6
Continuous
 62
     7
100
AcDbLine
 10
6193.1955328446
 20
4713.4168853118
 30
0.0
 11
6193.1955328446
 21
4713.7808610751
 31
0.0
  0
LINE
  5
3D1
330
1F
100
AcDbEntity
  8
0
  6
Continuous
 62
     7
100
AcDbLine
 10
6354.8419740095
 20
4713.7808610751
 30
0.0
 11
6354.8419740095
 21
4713.4168853118
 31
0.0
  0
LINE
  5
3D2
330
1F
100
AcDbEntity
  8
0
  6
Continuous
 62
     7
100
AcDbLine
 10
6354.8419740095
 20
4713.4168853118
 30
0.0
 11
6342.2187533273
 21
4713.4168853118
 31
0.0
  0
LINE
  5
3D3
330
1F
100
AcDbEntity
  8
0
  6
Continuous
 62
     7
100
AcDbLine
 10
6342.2187533273
 20
4713.4168853118
 30
0.0
 11
6342.2187533273
 21
4713.7808610751
 31
0.0
  0
LINE
  5
3D4
330
1F
100
AcDbEntity
  8
0
  6
Continuous
 62
     7
100
AcDbLine
 10
6355.018750657
 20
4713.4168836727
 30
0.0
 11
6355.018750657
 21
4736.9168865933
 31
0.0
  0
LINE
  5
3D5
330
1F
100
AcDbEntity
  8
0
  6
Continuous
 62
     7
100
AcDbLine
 10
6356.5187536968
 20
4713.4168836727
 30
0.0
 11
6356.5187536968
 21
4736.9168865933
 31
0.0
  0
LINE
  5
3D6
330
1F
100
AcDbEntity
  8
0
  6
Continuous
 62
     7
100
AcDbLine
 10
6356.5187536968
 20
4713.4168836727
 30
0.0
 11
6355.018750657
 21
4713.4168836727
 31
0.0
  0
LINE
  5
3D7
330
1F
100
AcDbEntity
  8
0
  6
Continuous
 62
     7
100
AcDbLine
 10
6191.5187520578
 20
4713.4168853118
 30
0.0
 11
6193.0187550977
 21
4713.4168853118
 31
0.0
  0
LINE
  5
3D8
330
1F
100
AcDbEntity
  8
0
  6
Continuous
 62
     7
100
AcDbLine
 10
6191.5187520578
 20
4736.9168882324
 30
0.0
 11
6191.5187520578
 21
4713.4168853118
 31
0.0
  0
LINE
  5
3D9
330
1F
100
AcDbEntity
  8
0
  6
Continuous
 62
     7
100
AcDbLine
 10
6193.0187550977
 20
4736.9168882324
 30
0.0
 11
6193.0187550977
 21
4713.4168853118
 31
0.0
  0
LINE
  5
3DA
330
1F
100
AcDbEntity
  8
0
  6
Continuous
 62
     7
100
AcDbLine
 10
6193.1955350235
 20
4723.6912434056
 30
0.0
 11
6193.0187550977
 21
4723.6912434056
 31
0.0
  0
LINE
  5
3DB
330
1F
100
AcDbEntity
  8
0
  6
Continuous
 62
     7
100
AcDbLine
 10
6193.1955350235
 20
4711.1956139161
 30
0.0
 11
6193.0567381575
 21
4711.9827677562
 31
0.0
  0
LINE
  5
3DC
330
1F
100
AcDbEntity
  8
0
  6
Continuous
 62
     7
100
AcDbLine
 10
6223.9854185145
 20
4713.4168853118
 30
0.0
 11
6223.9854185145
 21
4720.6168879821
 31
0.0
  0
LINE
  5
3DD
330
1F
100
AcDbEntity
  8
0
  6
Continuous
 62
     7
100
AcDbLine
 10
6215.6520856779
 20
4720.6168879821
 30
0.0
 11
6215.6520856779
 21
4713.4168853118
 31
0.0
  0
LINE
  5
3DE
330
1F
100
AcDbEntity
  8
0
  6
Continuous
 62
     7
100
AcDbLine
 10
6240.6520879131
 20
4713.4168853118
 30
0.0
 11
6240.6520879131
 21
4720.6168879821
 31
0.0
  0
LINE
  5
3DF
330
1F
100
AcDbEntity
  8
0
  6
Continuous
 62
     7
100
AcDbLine
 10
6232.3187513512
 20
4720.6168879821
 30
0.0
 11
6232.3187513512
 21
4713.4168853118
 31
0.0
  0
LINE
  5
3E0
330
1F
100
AcDbEntity
  8
0
  6
Continuous
 62
     7
100
AcDbLine
 10
6248.9854207497
 20
4720.6168879821
 30
0.0
 11
6248.9854207497
 21
4713.4168853118
 31
0.0
  0
LINE
  5
3E1
330
1F
100
AcDbEntity
  8
0
  6
Continuous
 62
     7
100
AcDbLine
 10
6257.3187535863
 20
4713.4168853118
 30
0.0
 11
6257.3187535863
 21
4720.6168879821
 31
0.0
  0
LINE
  5
3E2
330
1F
100
AcDbEntity
  8
0
  6
Continuous
 62
     7
100
AcDbLine
 10
6307.3854184013
 20
4713.4168853118
 30
0.0
 11
6307.3854184013
 21
4720.6168879821
 31
0.0
  0
LINE
  5
3E3
330
1F
100
AcDbEntity
  8
0
  6
Continuous
 62
     7
100
AcDbLine
 10
6299.0520855646
 20
4720.6168879821
 30
0.0
 11
6299.0520855646
 21
4713.4168853118
 31
0.0
  0
LINE
  5
3E4
330
1F
100
AcDbEntity
  8
0
  6
Continuous
 62
     7
100
AcDbLine
 10
6315.7187549632
 20
4720.6168879821
 30
0.0
 11
6315.7187549632
 21
4713.4168853118
 31
0.0
  0
LINE
  5
3E5
330
1F
100
AcDbEntity
  8
0
  6
Continuous
 62
     7
100
AcDbLine
 10
6324.0520877998
 20
4713.4168853118
 30
0.0
 11
6324.0520877998
 21
4720.6168879821
 31
0.0
  0
LINE
  5
3E6
330
1F
100
AcDbEntity
  8
0
  6
Continuous
 62
     7
100
AcDbLine
 10
6332.3854206365
 20
4720.6168879821
 30
0.0
 11
6332.3854206365
 21
4713.4168853118
 31
0.0
  0
LINE
  5
3E7
330
1F
100
AcDbEntity
  8
0
  6
Continuous
 62
     7
100
AcDbLine
 10
6340.7187497478
 20
4713.4168853118
 30
0.0
 11
6340.7187497478
 21
4720.6168879821
 31
0.0
  0
LINE
  5
3E8
330
1F
100
AcDbEntity
  8
0
  6
Continuous
 62
     7
100
AcDbLine
 10
6290.718752728
 20
4720.6168879821
 30
0.0
 11
6290.718752728
 21
4713.4168853118
 31
0.0
  0
LINE
  5
3E9
330
1F
100
AcDbEntity
  8
0
  6
Continuous
 62
     7
100
AcDbLine
 10
6207.3187565666
 20
4720.6168879821
 30
0.0
 11
6207.3187565666
 21
4713.4168853118
 31
0.0
  0
LINE
  5
3EA
330
1F
100
AcDbEntity
  8
0
  6
Continuous
 62
     7
100
AcDbLine
 10
6354.8419740095
 20
4712.8395398214
 30
0.0
 11
6193.1955328446
 21
4712.8395398214
 31
0.0
  0
LINE
  5
3EB
330
1F
100
AcDbEntity
  8
0
  6
Continuous
 62
     7
100
AcDbLine
 10
6193.1955328446
 20
4713.4168853118
 30
0.0
 11
6207.3187565666
 21
4713.4168853118
 31
0.0
  0
LINE
  5
3EC
330
1F
100
AcDbEntity
  8
0
  6
Continuous
 62
     7
100
AcDbLine
 10
6215.6520856779
 20
4713.4168853118
 30
0.0
 11
6223.9854185145
 21
4713.4168853118
 31
0.0
  0
LINE
  5
3ED
330
1F
100
AcDbEntity
  8
0
  6
Continuous
 62
     7
100
AcDbLine
 10
6257.3187535863
 20
4713.4168853118
 30
0.0
 11
6290.718752728
 21
4713.4168853118
 31
0.0
  0
LINE
  5
3EE
330
1F
100
AcDbEntity
  8
0
  6
Continuous
 62
     7
100
AcDbLine
 10
6340.7187497478
 20
4713.4168853118
 30
0.0
 11
6354.8419740095
 21
4713.4168853118
 31
0.0
  0
LINE
  5
3EF
330
1F
100
AcDbEntity
  8
0
  6
Continuous
 62
     7
100
AcDbLine
 10
6354.8419740095
 20
4713.4168853118
 30
0.0
 11
6354.8419740095
 21
4712.8395398214
 31
0.0
  0
LINE
  5
3F0
330
1F
100
AcDbEntity
  8
0
  6
Continuous
 62
     7
100
AcDbLine
 10
6193.1955328446
 20
4712.8395398214
 30
0.0
 11
6193.1955328446
 21
4713.4168853118
 31
0.0
  0
LINE
  5
3F1
330
1F
100
AcDbEntity
  8
0
  6
Continuous
 62
     7
100
AcDbLine
 10
6354.8419770016
 20
4698.9168873943
 30
0.0
 11
6193.1955298524
 21
4698.9168873943
 31
0.0
  0
LINE
  5
3F2
330
1F
100
AcDbEntity
  8
0
  6
Continuous
 62
     7
100
AcDbLine
 10
6354.8419740095
 20
4712.8395398214
 30
0.0
 11
6354.8419770016
 21
4698.9168873943
 31
0.0
  0
LINE
  5
3F3
330
1F
100
AcDbEntity
  8
0
  6
Continuous
 62
     7
100
AcDbLine
 10
6193.1955298524
 20
4698.9168873943
 30
0.0
 11
6193.1955328446
 21
4712.8395398214
 31
0.0
  0
LINE
  5
3F4
330
1F
100
AcDbEntity
  8
0
  6
Continuous
 62
     7
100
AcDbLine
 10
6354.0187536969
 20
4696.4168857551
 30
0.0
 11
6194.0187536969
 21
4696.4168857551
 31
0.0
  0
LINE
  5
3F5
330
1F
100
AcDbEntity
  8
0
  6
Continuous
 62
     7
100
AcDbLine
 10
6191.5187520578
 20
4698.916885729
 30
0.0
 11
6193.0187550977
 21
4698.916885729
 31
0.0
  0
LINE
  5
3F6
330
1F
100
AcDbEntity
  8
0
  6
Continuous
 62
     7
100
AcDbLine
 10
6191.5187520578
 20
4713.4168853118
 30
0.0
 11
6191.5187520578
 21
4698.916885729
 31
0.0
  0
LINE
  5
3F7
330
1F
100
AcDbEntity
  8
0
  6
Continuous
 62
     7
100
AcDbLine
 10
6193.0187550977
 20
4713.4168853118
 30
0.0
 11
6193.0187550977
 21
4698.916885729
 31
0.0
  0
LINE
  5
3F8
330
1F
100
AcDbEntity
  8
0
  6
Continuous
 62
     7
100
AcDbLine
 10
6356.5187536968
 20
4698.9168840899
 30
0.0
 11
6355.018750657
 21
4698.9168840899
 31
0.0
  0
LINE
  5
3F9
330
1F
100
AcDbEntity
  8
0
  6
Continuous
 62
     7
100
AcDbLine
 10
6356.5187536968
 20
4698.9168840899
 30
0.0
 11
6356.5187536968
 21
4713.4168836727
 31
0.0
  0
LINE
  5
3FA
330
1F
100
AcDbEntity
  8
0
  6
Continuous
 62
     7
100
AcDbLine
 10
6355.018750657
 20
4698.9168840899
 30
0.0
 11
6355.018750657
 21
4713.4168836727
 31
0.0
  0
LINE
  5
3FB
330
1F
100
AcDbEntity
  8
0
  6
Continuous
 62
     7
100
AcDbLine
 10
6315.2687569752
 20
4691.9168864443
 30
0.0
 11
6334.0624032214
 21
4691.9168864443
 31
0.0
  0
LINE
  5
3FC
330
1F
100
AcDbEntity
  8
0
  6
Continuous
 62
     7
100
AcDbLine
 10
6315.2687569752
 20
4691.9168864443
 30
0.0
 11
6315.2687569752
 21
4696.4168881132
 31
0.0
  0
LINE
  5
3FD
330
1F
100
AcDbEntity
  8
0
  6
Continuous
 62
     7
100
AcDbLine
 10
6286.9893435061
 20
4696.4168881132
 30
0.0
 11
6294.2687553957
 21
4691.9168864443
 31
0.0
  0
LINE
  5
3FE
330
1F
100
AcDbEntity
  8
0
  6
Continuous
 62
     7
100
AcDbLine
 10
6294.2687553957
 20
4691.9168864443
 30
0.0
 11
6315.2687569752
 21
4691.9168864443
 31
0.0
  0
LINE
  5
3FF
330
1F
100
AcDbEntity
  8
0
  6
Continuous
 62
     7
100
AcDbLine
 10
6331.6624035731
 20
4685.9168891861
 30
0.0
 11
6311.4624043598
 21
4685.9168891861
 31
0.0
  0
LINE
  5
400
330
1F
100
AcDbEntity
  8
0
  6
Continuous
 62
     7
100
AcDbLine
 10
6317.6456337467
 20
4684.2079197123
 30
0.0
 11
6317.6456337467
 21
4683.4695373728
 31
0.0
  0
LINE
  5
401
330
1F
100
AcDbEntity
  8
0
  6
Continuous
 62
     7
100
AcDbLine
 10
6326.4934701517
 20
4681.9695417835
 30
0.0
 11
6327.1421214237
 21
4681.9695417835
 31
0.0
  0
LINE
  5
402
330
1F
100
AcDbEntity
  8
0
  6
Continuous
 62
     7
100
AcDbLine
 10
6326.4934701517
 20
4684.3796704962
 30
0.0
 11
6326.4934701517
 21
4681.9695417835
 31
0.0
  0
LINE
  5
403
330
1F
100
AcDbEntity
  8
0
  6
Continuous
 62
     7
100
AcDbLine
 10
6323.8092941835
 20
4683.4695373728
 30
0.0
 11
6317.6456337467
 21
4683.4695373728
 31
0.0
  0
LINE
  5
404
330
1F
100
AcDbEntity
  8
0
  6
Continuous
 62
     7
100
AcDbLine
 10
6326.4934701517
 20
4681.9695417835
 30
0.0
 11
6314.9614577785
 21
4681.9695417835
 31
0.0
  0
LINE
  5
405
330
1F
100
AcDbEntity
  8
0
  6
Continuous
 62
     7
100
AcDbLine
 10
6314.9614577785
 20
4684.7520952179
 30
0.0
 11
6314.9614577785
 21
4681.9695417835
 31
0.0
  0
LINE
  5
406
330
1F
100
AcDbEntity
  8
0
  6
Continuous
 62
     7
100
AcDbLine
 10
6323.8092941835
 20
4684.0123121693
 30
0.0
 11
6323.8092941835
 21
4683.4695373728
 31
0.0
  0
LINE
  5
407
330
1F
100
AcDbEntity
  8
0
  6
Continuous
 62
     7
100
AcDbLine
 10
6292.5187555745
 20
4830.416887493
 30
0.0
 11
6255.5187550977
 21
4830.416887493
 31
0.0
  0
LINE
  5
408
330
1F
100
AcDbEntity
  8
0
  6
Continuous
 62
     7
100
AcDbLine
 10
6226.2445894673
 20
4694.1569482042
 30
0.0
 11
6225.1192724004
 21
4694.1569482042
 31
0.0
  0
LINE
  5
409
330
1F
100
AcDbEntity
  8
0
  6
Continuous
 62
     7
100
AcDbLine
 10
6241.9182380333
 20
4694.1569482042
 30
0.0
 11
6226.2445894673
 21
4694.1569482042
 31
0.0
  0
LINE
  5
40A
330
1F
100
AcDbEntity
  8
0
  6
Continuous
 62
     7
100
AcDbLine
 10
6228.6112775698
 20
4695.9975545361
 30
0.0
 11
6228.6112775698
 21
4694.536212559
 31
0.0
  0
LINE
  5
40B
330
1F
100
AcDbEntity
  8
0
  6
Continuous
 62
     7
100
AcDbLine
 10
6238.4262328639
 20
4694.536212559
 30
0.0
 11
6238.4262328639
 21
4695.9975545361
 31
0.0
  0
LINE
  5
40C
330
1F
100
AcDbEntity
  8
0
  6
Continuous
 62
     7
100
AcDbLine
 10
6227.586480011
 20
4692.5668899967
 30
0.0
 11
6226.668754746
 21
4692.5668899967
 31
0.0
  0
LINE
  5
40D
330
1F
100
AcDbEntity
  8
0
  6
Continuous
 62
     7
100
AcDbLine
 10
6240.3687556877
 20
4692.5668899967
 30
0.0
 11
6227.586480011
 21
4692.5668899967
 31
0.0
  0
LINE
  5
40E
330
1F
100
AcDbEntity
  8
0
  6
Continuous
 62
     7
100
AcDbLine
 10
6239.2640096739
 20
4689.3650029852
 30
0.0
 11
6239.2652576461
 21
4689.3650178864
 31
0.0
  0
LINE
  5
40F
330
1F
100
AcDbEntity
  8
0
  6
Continuous
 62
     7
100
AcDbLine
 10
6239.2652576461
 20
4689.3650178864
 30
0.0
 11
6238.8217953637
 21
4689.3650476887
 31
0.0
  0
LINE
  5
410
330
1F
100
AcDbEntity
  8
0
  6
Continuous
 62
     7
100
AcDbLine
 10
6238.8217953637
 20
4689.3650476887
 30
0.0
 11
6238.1714453593
 21
4689.365077491
 31
0.0
  0
LINE
  5
411
330
1F
100
AcDbEntity
  8
0
  6
Continuous
 62
     7
100
AcDbLine
 10
6238.1714453593
 20
4689.365077491
 30
0.0
 11
6237.5027483001
 21
4689.3650923922
 31
0.0
  0
LINE
  5
412
330
1F
100
AcDbEntity
  8
0
  6
Continuous
 62
     7
100
AcDbLine
 10
6237.5027483001
 20
4689.3650923922
 30
0.0
 11
6236.9436418309
 21
4689.3651221945
 31
0.0
  0
LINE
  5
413
330
1F
100
AcDbEntity
  8
0
  6
Continuous
 62
     7
100
AcDbLine
 10
6236.9436418309
 20
4689.3651221945
 30
0.0
 11
6236.5706657663
 21
4689.3651370957
 31
0.0
  0
LINE
  5
414
330
1F
100
AcDbEntity
  8
0
  6
Continuous
 62
     7
100
AcDbLine
 10
6236.5706657663
 20
4689.3651370957
 30
0.0
 11
6236.4673411145
 21
4689.3651370957
 31
0.0
  0
LINE
  5
415
330
1F
100
AcDbEntity
  8
0
  6
Continuous
 62
     7
100
AcDbLine
 10
6236.4673411145
 20
4689.3651370957
 30
0.0
 11
6236.4377213314
 21
4689.3651519968
 31
0.0
  0
LINE
  5
416
330
1F
100
AcDbEntity
  8
0
  6
Continuous
 62
     7
100
AcDbLine
 10
6236.4377213314
 20
4689.3651519968
 30
0.0
 11
6236.4285049632
 21
4689.3651519968
 31
0.0
  0
LINE
  5
417
330
1F
100
AcDbEntity
  8
0
  6
Continuous
 62
     7
100
AcDbLine
 10
6236.4285049632
 20
4689.3651519968
 30
0.0
 11
6236.4249808386
 21
4689.3651519968
 31
0.0
  0
LINE
  5
418
330
1F
100
AcDbEntity
  8
0
  6
Continuous
 62
     7
100
AcDbLine
 10
6236.4249808386
 20
4689.3651519968
 30
0.0
 11
6236.4238036468
 21
4689.3651519968
 31
0.0
  0
LINE
  5
419
330
1F
100
AcDbEntity
  8
0
  6
Continuous
 62
     7
100
AcDbLine
 10
6236.4238036468
 20
4689.3651519968
 30
0.0
 11
6236.423356612
 21
4689.3651519968
 31
0.0
  0
LINE
  5
41A
330
1F
100
AcDbEntity
  8
0
  6
Continuous
 62
     7
100
AcDbLine
 10
6236.423356612
 20
4689.3651519968
 30
0.0
 11
6236.423036237
 21
4689.3651519968
 31
0.0
  0
LINE
  5
41B
330
1F
100
AcDbEntity
  8
0
  6
Continuous
 62
     7
100
AcDbLine
 10
6236.423036237
 20
4689.3651519968
 30
0.0
 11
6235.2844198838
 21
4689.3653457119
 31
0.0
  0
LINE
  5
41C
330
1F
100
AcDbEntity
  8
0
  6
Continuous
 62
     7
100
AcDbLine
 10
6235.2844198838
 20
4689.3653457119
 30
0.0
 11
6234.2742478147
 21
4689.3647496655
 31
0.0
  0
LINE
  5
41D
330
1F
100
AcDbEntity
  8
0
  6
Continuous
 62
     7
100
AcDbLine
 10
6234.2742478147
 20
4689.3647496655
 30
0.0
 11
6232.0088950589
 21
4689.3651370957
 31
0.0
  0
LINE
  5
41E
330
1F
100
AcDbEntity
  8
0
  6
Continuous
 62
     7
100
AcDbLine
 10
6232.0088950589
 20
4689.3651370957
 30
0.0
 11
6229.97031935
 21
4689.3661354735
 31
0.0
  0
LINE
  5
41F
330
1F
100
AcDbEntity
  8
0
  6
Continuous
 62
     7
100
AcDbLine
 10
6229.97031935
 20
4689.3661354735
 30
0.0
 11
6229.5357493356
 21
4689.3656884386
 31
0.0
  0
LINE
  5
420
330
1F
100
AcDbEntity
  8
0
  6
Continuous
 62
     7
100
AcDbLine
 10
6229.5357493356
 20
4689.3656884386
 30
0.0
 11
6229.1403805509
 21
4689.3649433806
 31
0.0
  0
LINE
  5
421
330
1F
100
AcDbEntity
  8
0
  6
Continuous
 62
     7
100
AcDbLine
 10
6229.1403805509
 20
4689.3649433806
 30
0.0
 11
6228.7881431773
 21
4689.3639152004
 31
0.0
  0
LINE
  5
422
330
1F
100
AcDbEntity
  8
0
  6
Continuous
 62
     7
100
AcDbLine
 10
6228.7881431773
 20
4689.3639152004
 30
0.0
 11
6228.4825054601
 21
4689.3625889971
 31
0.0
  0
LINE
  5
423
330
1F
100
AcDbEntity
  8
0
  6
Continuous
 62
     7
100
AcDbLine
 10
6228.4825054601
 20
4689.3625889971
 30
0.0
 11
6228.2967960134
 21
4689.3626784041
 31
0.0
  0
LINE
  5
424
330
1F
100
AcDbEntity
  8
0
  6
Continuous
 62
     7
100
AcDbLine
 10
6228.2967960134
 20
4689.3626784041
 30
0.0
 11
6228.0096469119
 21
4689.3640642121
 31
0.0
  0
LINE
  5
425
330
1F
100
AcDbEntity
  8
0
  6
Continuous
 62
     7
100
AcDbLine
 10
6228.0096469119
 20
4689.3640642121
 30
0.0
 11
6227.8083508506
 21
4689.3657033398
 31
0.0
  0
LINE
  5
426
330
1F
100
AcDbEntity
  8
0
  6
Continuous
 62
     7
100
AcDbLine
 10
6227.8083508506
 20
4689.3657033398
 30
0.0
 11
6227.7667840615
 21
4689.3661503746
 31
0.0
  0
LINE
  5
427
330
1F
100
AcDbEntity
  8
0
  6
Continuous
 62
     7
100
AcDbLine
 10
6227.7667840615
 20
4689.3661503746
 30
0.0
 11
6227.754818429
 21
4689.3662844851
 31
0.0
  0
LINE
  5
428
330
1F
100
AcDbEntity
  8
0
  6
Continuous
 62
     7
100
AcDbLine
 10
6227.754818429
 20
4689.3662844851
 30
0.0
 11
6227.7472784415
 21
4689.3663589909
 31
0.0
  0
LINE
  5
429
330
1F
100
AcDbEntity
  8
0
  6
Continuous
 62
     7
100
AcDbLine
 10
6227.7472784415
 20
4689.3663589909
 30
0.0
 11
6227.7265546515
 21
4689.3662248804
 31
0.0
  0
LINE
  5
42A
330
1F
100
AcDbEntity
  8
0
  6
Continuous
 62
     7
100
AcDbLine
 10
6243.333710511
 20
4694.536212559
 30
0.0
 11
6243.333710511
 21
4695.9975545361
 31
0.0
  0
LINE
  5
42B
330
1F
100
AcDbEntity
  8
0
  6
Continuous
 62
     7
100
AcDbLine
 10
6223.7037999227
 20
4694.536212559
 30
0.0
 11
6223.7037999227
 21
4695.9975545361
 31
0.0
  0
LINE
  5
42C
330
1F
100
AcDbEntity
  8
0
  6
Continuous
 62
     7
100
AcDbLine
 10
6259.0187556713
 20
4714.4168873384
 30
0.0
 11
6258.165404354
 21
4714.4168873384
 31
0.0
  0
LINE
  5
42D
330
1F
100
AcDbEntity
  8
0
  6
Continuous
 62
     7
100
AcDbLine
 10
6206.4721045687
 20
4714.4168873384
 30
0.0
 11
6205.8187557056
 21
4714.4168873384
 31
0.0
  0
LINE
  5
42E
330
1F
100
AcDbEntity
  8
0
  6
Continuous
 62
     7
100
AcDbLine
 10
6262.0187552318
 20
4695.3168843939
 30
0.0
 11
6286.0187554404
 21
4695.3168843939
 31
0.0
  0
LINE
  5
42F
330
1F
100
AcDbEntity
  8
0
  6
Continuous
 62
     7
100
AcDbLine
 10
6285.0187552765
 20
4694.3168823673
 30
0.0
 11
6263.0187553957
 21
4694.3168823673
 31
0.0
  0
LINE
  5
430
330
1F
100
AcDbEntity
  8
0
  6
Continuous
 62
     7
100
AcDbLine
 10
6273.5795780397
 20
4694.116893883
 30
0.0
 11
6268.618755196
 21
4694.116893883
 31
0.0
  0
LINE
  5
431
330
1F
100
AcDbEntity
  8
0
  6
Continuous
 62
     7
100
AcDbLine
 10
6279.4187554761
 20
4694.116893883
 30
0.0
 11
6274.5795780581
 21
4694.116893883
 31
0.0
  0
LINE
  5
432
330
1F
100
AcDbEntity
  8
0
  6
Continuous
 62
     7
100
AcDbLine
 10
6273.5795780397
 20
4694.116893883
 30
0.0
 11
6274.1127409761
 21
4694.116893883
 31
0.0
  0
LINE
  5
433
330
1F
100
AcDbEntity
  8
0
  6
Continuous
 62
     7
100
AcDbLine
 10
6274.1127409761
 20
4694.116893883
 30
0.0
 11
6274.5795780581
 21
4694.116893883
 31
0.0
  0
LINE
  5
434
330
1F
100
AcDbEntity
  8
0
  6
Continuous
 62
     7
100
AcDbLine
 10
6193.1955350235
 20
4712.4168907358
 30
0.0
 11
6193.0187550977
 21
4712.4168907358
 31
0.0
  0
LINE
  5
435
330
1F
100
AcDbEntity
  8
0
  6
Continuous
 62
     7
100
AcDbLine
 10
6193.1955350235
 20
4712.0072429135
 30
0.0
 11
6193.0567381575
 21
4711.9827677562
 31
0.0
  0
LINE
  5
436
330
1F
100
AcDbEntity
  8
0
  6
Continuous
 62
     7
100
AcDbLine
 10
6257.7083040839
 20
4720.3307766216
 30
0.0
 11
6257.7083040839
 21
4713.7029981732
 31
0.0
  0
LINE
  5
437
330
1F
100
AcDbEntity
  8
0
  6
Continuous
 62
     7
100
AcDbLine
 10
6341.1083040841
 20
4720.3307766216
 30
0.0
 11
6341.1083040841
 21
4713.7029981732
 31
0.0
  0
LINE
  5
438
330
1F
100
AcDbEntity
  8
0
  6
Continuous
 62
     7
100
AcDbLine
 10
6290.3292065882
 20
4713.7029981731
 30
0.0
 11
6290.3292065882
 21
4720.3307766215
 31
0.0
  0
LINE
  5
439
330
1F
100
AcDbEntity
  8
0
  6
Continuous
 62
     7
100
AcDbLine
 10
6206.9292065881
 20
4713.7029981731
 30
0.0
 11
6206.9292065881
 21
4720.3307766215
 31
0.0
  0
LINE
  5
43A
330
1F
100
AcDbEntity
  8
0
  6
Continuous
 62
     7
100
AcDbLine
 10
6239.2628846362
 20
4689.3650029852
 30
0.0
 11
6239.2640096739
 21
4689.3650029852
 31
0.0
  0
LINE
  5
43B
330
1F
100
AcDbEntity
  8
0
  6
Continuous
 62
     7
100
AcDbLine
 10
6238.8187555268
 20
4688.6168901875
 30
0.0
 11
6228.2187549069
 21
4688.6168901875
 31
0.0
  0
LINE
  5
43C
330
1F
100
AcDbEntity
  8
0
  6
Continuous
 62
     7
100
AcDbLine
 10
6228.2187549069
 20
4684.716883774
 30
0.0
 11
6238.8187555268
 21
4684.716883774
 31
0.0
  0
LINE
  5
43D
330
1F
100
AcDbEntity
  8
0
  6
Continuous
 62
     7
100
AcDbLine
 10
6740.2398354859
 20
5249.3994564226
 30
0.0
 11
6740.2398354859
 21
5241.9994545927
 31
0.0
  0
LINE
  5
43E
330
1F
100
AcDbEntity
  8
0
  6
Continuous
 62
     7
100
AcDbLine
 10
6740.2398354859
 20
5230.3994551709
 30
0.0
 11
6740.2398354859
 21
5222.9994545927
 31
0.0
  0
LINE
  5
43F
330
1F
100
AcDbEntity
  8
0
  6
Continuous
 62
     7
100
AcDbLine
 10
6740.2398354859
 20
5211.3994546177
 30
0.0
 11
6740.2398354859
 21
5203.9994545927
 31
0.0
  0
LINE
  5
440
330
1F
100
AcDbEntity
  8
0
  6
Continuous
 62
     7
100
AcDbLine
 10
6740.2124778508
 20
5184.9994348967
 30
0.0
 11
6740.2124778508
 21
5185.4951409752
 31
0.0
  0
LINE
  5
441
330
1F
100
AcDbEntity
  8
0
  6
Continuous
 62
     7
100
AcDbLine
 10
6740.2398354859
 20
5173.3994545927
 30
0.0
 11
6740.2398354859
 21
5165.9994545927
 31
0.0
  0
LINE
  5
442
330
1F
100
AcDbEntity
  8
0
  6
Continuous
 62
     7
100
AcDbLine
 10
6740.2398354859
 20
5154.3994538894
 30
0.0
 11
6740.2398354859
 21
5146.9994545927
 31
0.0
  0
LINE
  5
443
330
1F
100
AcDbEntity
  8
0
  6
Continuous
 62
     7
100
AcDbLine
 10
6732.4954048926
 20
5290.5494516363
 30
0.0
 11
6732.4954048926
 21
5276.8494581452
 31
0.0
  0
LINE
  5
444
330
1F
100
AcDbEntity
  8
0
  6
Continuous
 62
     7
100
AcDbLine
 10
6733.9916900927
 20
5277.8838595023
 30
0.0
 11
6733.9916900927
 21
5289.5132844916
 31
0.0
  0
LINE
  5
445
330
1F
100
AcDbEntity
  8
0
  6
Continuous
 62
     7
100
AcDbLine
 10
6732.4954048926
 20
5271.5463546684
 30
0.0
 11
6732.4954048926
 21
5257.8494531682
 31
0.0
  0
LINE
  5
446
330
1F
100
AcDbEntity
  8
0
  6
Continuous
 62
     7
100
AcDbLine
 10
6733.9916900927
 20
5258.8838582506
 30
0.0
 11
6733.9917049938
 21
5270.3663019111
 31
0.0
  0
LINE
  5
447
330
1F
100
AcDbEntity
  8
0
  6
Continuous
 62
     7
100
AcDbLine
 10
6732.4954048934
 20
5252.546357142
 30
0.0
 11
6732.4954048934
 21
5238.8494537791
 31
0.0
  0
LINE
  5
448
330
1F
100
AcDbEntity
  8
0
  6
Continuous
 62
     7
100
AcDbLine
 10
6734.0000480978
 20
5239.9039453486
 30
0.0
 11
6733.9916900935
 21
5251.5132819882
 31
0.0
  0
LINE
  5
449
330
1F
100
AcDbEntity
  8
0
  6
Continuous
 62
     7
100
AcDbLine
 10
6732.4954048926
 20
5233.5463558903
 30
0.0
 11
6732.4954048926
 21
5219.8494543901
 31
0.0
  0
LINE
  5
44A
330
1F
100
AcDbEntity
  8
0
  6
Continuous
 62
     7
100
AcDbLine
 10
6733.9916900927
 20
5220.8838590069
 30
0.0
 11
6733.9916900927
 21
5232.5132825991
 31
0.0
  0
LINE
  5
44B
330
1F
100
AcDbEntity
  8
0
  6
Continuous
 62
     7
100
AcDbLine
 10
6732.4954048926
 20
5214.549454604
 30
0.0
 11
6732.4954048926
 21
5200.849455001
 31
0.0
  0
LINE
  5
44C
330
1F
100
AcDbEntity
  8
0
  6
Continuous
 62
     7
100
AcDbLine
 10
6733.9916900927
 20
5201.8838591522
 30
0.0
 11
6733.9286879832
 21
5213.6324951917
 31
0.0
  0
LINE
  5
44D
330
1F
100
AcDbEntity
  8
0
  6
Continuous
 62
     7
100
AcDbLine
 10
6732.4954048926
 20
5195.5494546911
 30
0.0
 11
6732.4954048926
 21
5181.849455612
 31
0.0
  0
LINE
  5
44E
330
1F
100
AcDbEntity
  8
0
  6
Continuous
 62
     7
100
AcDbLine
 10
6733.9726904625
 20
5182.9039256528
 30
0.0
 11
6733.964332457
 21
5194.5132641252
 31
0.0
  0
LINE
  5
44F
330
1F
100
AcDbEntity
  8
0
  6
Continuous
 62
     7
100
AcDbLine
 10
6732.4954048926
 20
5176.5463558605
 30
0.0
 11
6732.4954048926
 21
5162.8494543603
 31
0.0
  0
LINE
  5
450
330
1F
100
AcDbEntity
  8
0
  6
Continuous
 62
     7
100
AcDbLine
 10
6734.0000480978
 20
5163.9039453486
 30
0.0
 11
6733.9918540055
 21
5175.4205060771
 31
0.0
  0
LINE
  5
451
330
1F
100
AcDbEntity
  8
0
  6
Continuous
 62
     7
100
AcDbLine
 10
6732.4954048926
 20
5157.5494540503
 30
0.0
 11
6732.4954048926
 21
5143.8494568339
 31
0.0
  0
LINE
  5
452
330
1F
100
AcDbEntity
  8
0
  6
Continuous
 62
     7
100
AcDbLine
 10
6734.0000480978
 20
5144.9039453486
 30
0.0
 11
6733.9916900927
 21
5156.5132831803
 31
0.0
  0
LINE
  5
453
330
1F
100
AcDbEntity
  8
0
  6
Continuous
 62
     7
100
AcDbLine
 10
6226.6648320153
 20
4690.8613179877
 30
0.0
 11
6240.3687556877
 21
4690.8613179877
 31
0.0
  0
LWPOLYLINE
  5
454
330
1F
100
AcDbEntity
  8
0
  6
Continuous
 62
     7
100
AcDbPolyline
 90
        5
 70
   128
 43
0.0
 10
6235.3668212891
 20
5191.9037477693
 10
6237.0926800438
 20
5189.6570828396
 10
6236.7230480753
 20
5186.8494533727
 10
6234.476383875
 20
5185.1255294058
 10
6231.6687537029
 20
5185.4951606711
  0
LWPOLYLINE
  5
455
330
1F
100
AcDbEntity
  8
0
  6
Continuous
 62
     7
100
AcDbPolyline
 90
        5
 70
   128
 43
0.0
 10
6231.6665649414
 20
5185.4951606711
 10
6229.9448302984
 20
5187.7418259328
 10
6230.3144626666
 20
5190.5494556015
 10
6232.5611264511
 20
5192.2733808706
 10
6235.3687567308
 20
5191.9037477693
  0
LWPOLYLINE
  5
456
330
1F
100
AcDbEntity
  8
0
  6
Continuous
 62
     7
100
AcDbPolyline
 90
        5
 70
   128
 43
0.0
 10
6227.5848388672
 20
5192.1244544556
 10
6226.9021627151
 20
5186.9265442163
 10
6230.0937558508
 20
5182.7671814505
 10
6235.2916659228
 20
5182.0828637671
 10
6239.4510304227
 20
5185.2744539848
  0
LWPOLYLINE
  5
457
330
1F
100
AcDbEntity
  8
0
  6
Continuous
 62
     7
100
AcDbPolyline
 90
        5
 70
   128
 43
0.0
 10
6239.4485473633
 20
5185.2744539848
 10
6240.1353474877
 20
5190.4723650742
 10
6236.9437552207
 20
5194.6317284844
 10
6231.7458444685
 20
5195.3160465224
 10
6227.586480011
 20
5192.1244544556
  0
LWPOLYLINE
  5
458
330
1F
100
AcDbEntity
  8
0
  6
Continuous
 62
     7
100
AcDbPolyline
 90
        3
 70
   128
 43
0.0
 10
6238.4262084961
 20
5180.1994537583
 10
6241.1743009056
 20
5184.9592495366
 10
6243.333710511
 20
5188.6994542202
  0
LINE
  5
459
330
1F
100
AcDbEntity
  8
0
  6
Continuous
 62
     7
100
AcDbLine
 10
6228.6109924316
 20
5180.1994537583
 30
0.0
 11
6238.4262328639
 21
5180.1994537583
 31
0.0
  0
LWPOLYLINE
  5
45A
330
1F
100
AcDbEntity
  8
0
  6
Continuous
 62
     7
100
AcDbPolyline
 90
        3
 70
   128
 43
0.0
 10
6223.7014770508
 20
5188.6994542202
 10
6226.4518707026
 20
5183.939660012
 10
6228.6112775698
 20
5180.1994537583
  0
LWPOLYLINE
  5
45B
330
1F
100
AcDbEntity
  8
0
  6
Continuous
 62
     7
100
AcDbPolyline
 90
        3
 70
   128
 43
0.0
 10
6228.6109924316
 20
5197.1994546821
 10
6225.8632095282
 20
5192.4396589038
 10
6223.7037999227
 20
5188.6994542202
  0
LINE
  5
45C
330
1F
100
AcDbEntity
  8
0
  6
Continuous
 62
     7
100
AcDbLine
 10
6238.4262084961
 20
5197.1994546821
 30
0.0
 11
6228.6112775698
 21
5197.1994546821
 31
0.0
  0
LWPOLYLINE
  5
45D
330
1F
100
AcDbEntity
  8
0
  6
Continuous
 62
     7
100
AcDbPolyline
 90
        3
 70
   128
 43
0.0
 10
6243.3319091797
 20
5188.6994542202
 10
6240.5856397312
 20
5193.4592484284
 10
6238.4262328639
 20
5197.1994546821
  0
LWPOLYLINE
  5
45E
330
1F
100
AcDbEntity
  8
0
  6
Continuous
 62
     7
100
AcDbPolyline
 90
        5
 70
   128
 43
0.0
 10
6235.3668212891
 20
5210.9037485553
 10
6237.0926800275
 20
5208.6570832211
 10
6236.7230480409
 20
5205.8494536334
 10
6234.476384136
 20
5204.1255288645
 10
6231.6687537029
 20
5204.4951609915
  0
LWPOLYLINE
  5
45F
330
1F
100
AcDbEntity
  8
0
  6
Continuous
 62
     7
100
AcDbPolyline
 90
        5
 70
   128
 43
0.0
 10
6231.6665649414
 20
5204.4951609915
 10
6229.9448303475
 20
5206.7418260706
 10
6230.3144622651
 20
5209.5494556921
 10
6232.561126146
 20
5211.2733806436
 10
6235.3687567308
 20
5210.9037485553
  0
LWPOLYLINE
  5
460
330
1F
100
AcDbEntity
  8
0
  6
Continuous
 62
     7
100
AcDbPolyline
 90
        5
 70
   128
 43
0.0
 10
6227.5848388672
 20
5211.1244545432
 10
6226.9021628297
 20
5205.9265441093
 10
6230.0937558691
 20
5201.7671808289
 10
6235.2916661347
 20
5201.0828632116
 10
6239.4510304227
 20
5204.2744543051
  0
LWPOLYLINE
  5
461
330
1F
100
AcDbEntity
  8
0
  6
Continuous
 62
     7
100
AcDbPolyline
 90
        5
 70
   128
 43
0.0
 10
6239.4485473633
 20
5204.2744543051
 10
6240.1353475286
 20
5209.4723652453
 10
6236.9437548701
 20
5213.6317278794
 10
6231.7458443434
 20
5214.3160463436
 10
6227.586480011
 20
5211.1244545432
  0
LWPOLYLINE
  5
462
330
1F
100
AcDbEntity
  8
0
  6
Continuous
 62
     7
100
AcDbPolyline
 90
        3
 70
   128
 43
0.0
 10
6238.4262084961
 20
5199.19945501
 10
6241.1743011037
 20
5203.95925015
 10
6243.333710511
 20
5207.6994545406
  0
LINE
  5
463
330
1F
100
AcDbEntity
  8
0
  6
Continuous
 62
     7
100
AcDbLine
 10
6228.6109924316
 20
5199.19945501
 30
0.0
 11
6238.4262328639
 21
5199.19945501
 31
0.0
  0
LWPOLYLINE
  5
464
330
1F
100
AcDbEntity
  8
0
  6
Continuous
 62
     7
100
AcDbPolyline
 90
        3
 70
   128
 43
0.0
 10
6223.7014770508
 20
5207.6994545406
 10
6226.4518705082
 20
5202.9396607394
 10
6228.6112775698
 20
5199.19945501
  0
LWPOLYLINE
  5
465
330
1F
100
AcDbEntity
  8
0
  6
Continuous
 62
     7
100
AcDbPolyline
 90
        3
 70
   128
 43
0.0
 10
6228.6109924316
 20
5216.1994545368
 10
6225.8632096254
 20
5211.439658962
 10
6223.7037999227
 20
5207.6994545406
  0
LINE
  5
466
330
1F
100
AcDbEntity
  8
0
  6
Continuous
 62
     7
100
AcDbLine
 10
6238.4262084961
 20
5216.1994545368
 30
0.0
 11
6228.6112775698
 21
5216.1994545368
 31
0.0
  0
LWPOLYLINE
  5
467
330
1F
100
AcDbEntity
  8
0
  6
Continuous
 62
     7
100
AcDbPolyline
 90
        3
 70
   128
 43
0.0
 10
6243.3319091797
 20
5207.6994545406
 10
6240.5856398284
 20
5212.4592485453
 10
6238.4262328639
 20
5216.1994545368
  0
LWPOLYLINE
  5
468
330
1F
100
AcDbEntity
  8
0
  6
Continuous
 62
     7
100
AcDbPolyline
 90
        5
 70
   128
 43
0.0
 10
6235.3668212891
 20
5267.9037471881
 10
6237.0926799936
 20
5265.657082446
 10
6236.7230474359
 20
5262.8494535467
 10
6234.4763841979
 20
5261.1255289108
 10
6231.6687537029
 20
5261.49516009
  0
LWPOLYLINE
  5
469
330
1F
100
AcDbEntity
  8
0
  6
Continuous
 62
     7
100
AcDbPolyline
 90
        5
 70
   128
 43
0.0
 10
6231.6665649414
 20
5261.49516009
 10
6229.9448302266
 20
5263.7418256185
 10
6230.3144620697
 20
5266.5494558492
 10
6232.5611258992
 20
5268.2733820042
 10
6235.3687567308
 20
5267.9037471881
  0
LWPOLYLINE
  5
46A
330
1F
100
AcDbEntity
  8
0
  6
Continuous
 62
     7
100
AcDbPolyline
 90
        5
 70
   128
 43
0.0
 10
6227.5848388672
 20
5268.1244557371
 10
6226.9021624573
 20
5262.9265445972
 10
6230.0937568163
 20
5258.7671821745
 10
6235.2916666853
 20
5258.0828615229
 10
6239.4510304227
 20
5261.2744552663
  0
LWPOLYLINE
  5
46B
330
1F
100
AcDbEntity
  8
0
  6
Continuous
 62
     7
100
AcDbPolyline
 90
        5
 70
   128
 43
0.0
 10
6239.4485473633
 20
5261.2744552663
 10
6240.1353471888
 20
5266.4723655834
 10
6236.9437548108
 20
5270.6317281399
 10
6231.7458446405
 20
5271.3160459874
 10
6227.586480011
 20
5268.1244557371
  0
LWPOLYLINE
  5
46C
330
1F
100
AcDbEntity
  8
0
  6
Continuous
 62
     7
100
AcDbPolyline
 90
        3
 70
   128
 43
0.0
 10
6238.4262084961
 20
5256.1994550398
 10
6241.1743005168
 20
5260.9592500041
 10
6243.333710511
 20
5264.699453639
  0
LINE
  5
46D
330
1F
100
AcDbEntity
  8
0
  6
Continuous
 62
     7
100
AcDbLine
 10
6228.6109924316
 20
5256.1994550398
 30
0.0
 11
6238.4262328639
 21
5256.1994550398
 31
0.0
  0
LWPOLYLINE
  5
46E
330
1F
100
AcDbEntity
  8
0
  6
Continuous
 62
     7
100
AcDbPolyline
 90
        3
 70
   128
 43
0.0
 10
6223.7014770508
 20
5264.699453639
 10
6226.4518703138
 20
5259.9396602449
 10
6228.6112775698
 20
5256.1994550398
  0
LWPOLYLINE
  5
46F
330
1F
100
AcDbEntity
  8
0
  6
Continuous
 62
     7
100
AcDbPolyline
 90
        3
 70
   128
 43
0.0
 10
6228.6109924316
 20
5273.1994559636
 10
6225.8632091394
 20
5268.4396593713
 10
6223.7037999227
 20
5264.699453639
  0
LINE
  5
470
330
1F
100
AcDbEntity
  8
0
  6
Continuous
 62
     7
100
AcDbLine
 10
6238.4262084961
 20
5273.1994559636
 30
0.0
 11
6228.6112775698
 21
5273.1994559636
 31
0.0
  0
LWPOLYLINE
  5
471
330
1F
100
AcDbEntity
  8
0
  6
Continuous
 62
     7
100
AcDbPolyline
 90
        3
 70
   128
 43
0.0
 10
6243.3319091797
 20
5264.699453639
 10
6240.5856393424
 20
5269.4592486613
 10
6238.4262328639
 20
5273.1994559636
  0
LWPOLYLINE
  5
472
330
1F
100
AcDbEntity
  8
0
  6
Continuous
 62
     7
100
AcDbPolyline
 90
        5
 70
   128
 43
0.0
 10
6235.3668212891
 20
5229.90374841
 10
6237.0926801422
 20
5227.6570831133
 10
6236.7230482653
 20
5224.8494534112
 10
6234.4763843971
 20
5223.1255283232
 10
6231.6687537029
 20
5223.4951603806
  0
LWPOLYLINE
  5
473
330
1F
100
AcDbEntity
  8
0
  6
Continuous
 62
     7
100
AcDbPolyline
 90
        5
 70
   128
 43
0.0
 10
6231.6665649414
 20
5223.4951603806
 10
6229.9448304804
 20
5225.7418258971
 10
6230.3144622884
 20
5228.5494555872
 10
6232.5611260289
 20
5230.2733813982
 10
6235.3687567308
 20
5229.90374841
  0
LWPOLYLINE
  5
474
330
1F
100
AcDbEntity
  8
0
  6
Continuous
 62
     7
100
AcDbPolyline
 90
        5
 70
   128
 43
0.0
 10
6227.5848388672
 20
5230.1244550964
 10
6226.9021628382
 20
5224.9265443979
 10
6230.0937559048
 20
5220.7671811287
 10
6235.2916662529
 20
5220.0828630972
 10
6239.4510304227
 20
5223.2744546255
  0
LWPOLYLINE
  5
475
330
1F
100
AcDbEntity
  8
0
  6
Continuous
 62
     7
100
AcDbPolyline
 90
        5
 70
   128
 43
0.0
 10
6239.4485473633
 20
5223.2744546255
 10
6240.1353475488
 20
5228.4723654919
 10
6236.9437544655
 20
5232.6317276985
 10
6231.7458443386
 20
5233.3160471284
 10
6227.586480011
 20
5230.1244550964
  0
LWPOLYLINE
  5
476
330
1F
100
AcDbEntity
  8
0
  6
Continuous
 62
     7
100
AcDbPolyline
 90
        3
 70
   128
 43
0.0
 10
6238.4262084961
 20
5218.199454399
 10
6241.1743009056
 20
5222.9592501774
 10
6243.333710511
 20
5226.6994548609
  0
LINE
  5
477
330
1F
100
AcDbEntity
  8
0
  6
Continuous
 62
     7
100
AcDbLine
 10
6228.6109924316
 20
5218.199454399
 30
0.0
 11
6238.4262328639
 21
5218.199454399
 31
0.0
  0
LWPOLYLINE
  5
478
330
1F
100
AcDbEntity
  8
0
  6
Continuous
 62
     7
100
AcDbPolyline
 90
        3
 70
   128
 43
0.0
 10
6223.7014770508
 20
5226.6994548609
 10
6226.4518707026
 20
5221.9396606527
 10
6228.6112775698
 20
5218.199454399
  0
LWPOLYLINE
  5
479
330
1F
100
AcDbEntity
  8
0
  6
Continuous
 62
     7
100
AcDbPolyline
 90
        3
 70
   128
 43
0.0
 10
6228.6109924316
 20
5235.1994553229
 10
6225.8632095282
 20
5230.4396595445
 10
6223.7037999227
 20
5226.6994548609
  0
LINE
  5
47A
330
1F
100
AcDbEntity
  8
0
  6
Continuous
 62
     7
100
AcDbLine
 10
6238.4262084961
 20
5235.1994553229
 30
0.0
 11
6228.6112775698
 21
5235.1994553229
 31
0.0
  0
LWPOLYLINE
  5
47B
330
1F
100
AcDbEntity
  8
0
  6
Continuous
 62
     7
100
AcDbPolyline
 90
        3
 70
   128
 43
0.0
 10
6243.3319091797
 20
5226.6994548609
 10
6240.5856397312
 20
5231.4592490692
 10
6238.4262328639
 20
5235.1994553229
  0
LWPOLYLINE
  5
47C
330
1F
100
AcDbEntity
  8
0
  6
Continuous
 62
     7
100
AcDbPolyline
 90
        5
 70
   128
 43
0.0
 10
6235.3668212891
 20
5248.9037496617
 10
6237.0926802986
 20
5246.6570837814
 10
6236.7230483558
 20
5243.8494538883
 10
6234.4763841443
 20
5242.1255295074
 10
6231.6687537029
 20
5242.4951607009
  0
LWPOLYLINE
  5
47D
330
1F
100
AcDbEntity
  8
0
  6
Continuous
 62
     7
100
AcDbPolyline
 90
        5
 70
   128
 43
0.0
 10
6231.6665649414
 20
5242.4951607009
 10
6229.9448303817
 20
5244.7418256528
 10
6230.3144623951
 20
5247.5494551609
 10
6232.5611252909
 20
5249.2733805895
 10
6235.3687567308
 20
5248.9037496617
  0
LWPOLYLINE
  5
47E
330
1F
100
AcDbEntity
  8
0
  6
Continuous
 62
     7
100
AcDbPolyline
 90
        5
 70
   128
 43
0.0
 10
6227.5848388672
 20
5249.1244544854
 10
6226.9021627609
 20
5243.9265440755
 10
6230.0937561568
 20
5239.7671813036
 10
6235.2916665576
 20
5239.0828621004
 10
6239.4510304227
 20
5242.2744540146
  0
LWPOLYLINE
  5
47F
330
1F
100
AcDbEntity
  8
0
  6
Continuous
 62
     7
100
AcDbPolyline
 90
        5
 70
   128
 43
0.0
 10
6239.4485473633
 20
5242.2744540146
 10
6240.1353480802
 20
5247.4723648054
 10
6236.9437553193
 20
5251.6317265946
 10
6231.7458449239
 20
5252.3160448116
 10
6227.586480011
 20
5249.1244544854
  0
LWPOLYLINE
  5
480
330
1F
100
AcDbEntity
  8
0
  6
Continuous
 62
     7
100
AcDbPolyline
 90
        3
 70
   128
 43
0.0
 10
6238.4262084961
 20
5237.1994537881
 10
6241.1743012943
 20
5241.9592503804
 10
6243.333710511
 20
5245.6994561126
  0
LINE
  5
481
330
1F
100
AcDbEntity
  8
0
  6
Continuous
 62
     7
100
AcDbLine
 10
6228.6109924316
 20
5237.1994537881
 30
0.0
 11
6238.4262328639
 21
5237.1994537881
 31
0.0
  0
LWPOLYLINE
  5
482
330
1F
100
AcDbEntity
  8
0
  6
Continuous
 62
     7
100
AcDbPolyline
 90
        3
 70
   128
 43
0.0
 10
6223.7014770508
 20
5245.6994561126
 10
6226.4518703063
 20
5240.9396606278
 10
6228.6112775698
 20
5237.1994537881
  0
LWPOLYLINE
  5
483
330
1F
100
AcDbEntity
  8
0
  6
Continuous
 62
     7
100
AcDbPolyline
 90
        3
 70
   128
 43
0.0
 10
6228.6109924316
 20
5254.1994547119
 10
6225.863209917
 20
5249.4396597476
 10
6223.7037999227
 20
5245.6994561126
  0
LINE
  5
484
330
1F
100
AcDbEntity
  8
0
  6
Continuous
 62
     7
100
AcDbLine
 10
6238.4262084961
 20
5254.1994547119
 30
0.0
 11
6228.6112775698
 21
5254.1994547119
 31
0.0
  0
LWPOLYLINE
  5
485
330
1F
100
AcDbEntity
  8
0
  6
Continuous
 62
     7
100
AcDbPolyline
 90
        3
 70
   128
 43
0.0
 10
6243.3319091797
 20
5245.6994561126
 10
6240.58564012
 20
5250.4592495068
 10
6238.4262328639
 20
5254.1994547119
  0
LWPOLYLINE
  5
486
330
1F
100
AcDbEntity
  8
0
  6
Continuous
 62
     7
100
AcDbPolyline
 90
        5
 70
   128
 43
0.0
 10
6235.3668212891
 20
5286.9037484398
 10
6237.0926802572
 20
5284.6570827138
 10
6236.7230482534
 20
5281.8494524891
 10
6234.4763838297
 20
5280.1255300642
 10
6231.6687537029
 20
5280.4951613417
  0
LWPOLYLINE
  5
487
330
1F
100
AcDbEntity
  8
0
  6
Continuous
 62
     7
100
AcDbPolyline
 90
        5
 70
   128
 43
0.0
 10
6231.6665649414
 20
5280.4951613417
 10
6229.944830396
 20
5282.7418262405
 10
6230.3144616667
 20
5285.5494564028
 10
6232.5611267682
 20
5287.2733797635
 10
6235.3687567308
 20
5286.9037484398
  0
LWPOLYLINE
  5
488
330
1F
100
AcDbEntity
  8
0
  6
Continuous
 62
     7
100
AcDbPolyline
 90
        5
 70
   128
 43
0.0
 10
6227.5848388672
 20
5287.1244569888
 10
6226.9021622749
 20
5281.9265465296
 10
6230.0937555952
 20
5277.7671841312
 10
6235.2916646284
 20
5277.0828622362
 10
6239.4510304227
 20
5280.2744527927
  0
LWPOLYLINE
  5
489
330
1F
100
AcDbEntity
  8
0
  6
Continuous
 62
     7
100
AcDbPolyline
 90
        5
 70
   128
 43
0.0
 10
6239.4485473633
 20
5280.2744527927
 10
6240.1353480963
 20
5285.4723635249
 10
6236.9437553414
 20
5289.63172536
 10
6231.7458460787
 20
5290.3160476244
 10
6227.586480011
 20
5287.1244569888
  0
LWPOLYLINE
  5
48A
330
1F
100
AcDbEntity
  8
0
  6
Continuous
 62
     7
100
AcDbPolyline
 90
        3
 70
   128
 43
0.0
 10
6238.4262084961
 20
5275.1994562915
 10
6241.1743020869
 20
5279.9592503306
 10
6243.333710511
 20
5283.6994548907
  0
LINE
  5
48B
330
1F
100
AcDbEntity
  8
0
  6
Continuous
 62
     7
100
AcDbLine
 10
6228.6109924316
 20
5275.1994562915
 30
0.0
 11
6238.4262328639
 21
5275.1994562915
 31
0.0
  0
LWPOLYLINE
  5
48C
330
1F
100
AcDbEntity
  8
0
  6
Continuous
 62
     7
100
AcDbPolyline
 90
        3
 70
   128
 43
0.0
 10
6223.7014770508
 20
5283.6994548907
 10
6226.4518703138
 20
5278.9396614966
 10
6228.6112775698
 20
5275.1994562915
  0
LWPOLYLINE
  5
48D
330
1F
100
AcDbEntity
  8
0
  6
Continuous
 62
     7
100
AcDbPolyline
 90
        3
 70
   128
 43
0.0
 10
6228.6109924316
 20
5292.1994572153
 10
6225.8632091394
 20
5287.439660623
 10
6223.7037999227
 20
5283.6994548907
  0
LINE
  5
48E
330
1F
100
AcDbEntity
  8
0
  6
Continuous
 62
     7
100
AcDbLine
 10
6238.4262084961
 20
5292.1994572153
 30
0.0
 11
6228.6112775698
 21
5292.1994572153
 31
0.0
  0
LWPOLYLINE
  5
48F
330
1F
100
AcDbEntity
  8
0
  6
Continuous
 62
     7
100
AcDbPolyline
 90
        3
 70
   128
 43
0.0
 10
6243.3319091797
 20
5283.6994548907
 10
6240.5856393424
 20
5288.459249913
 10
6238.4262328639
 20
5292.1994572153
  0
LWPOLYLINE
  5
490
330
1F
100
AcDbEntity
  8
0
  6
Continuous
 62
     7
100
AcDbPolyline
 90
        5
 70
   128
 43
0.0
 10
6235.3668212891
 20
5172.9037483802
 10
6237.0926801073
 20
5170.6570832138
 10
6236.7230487659
 20
5167.8494533172
 10
6234.4763836012
 20
5166.1255299437
 10
6231.6687537029
 20
5166.4951612821
  0
LWPOLYLINE
  5
491
330
1F
100
AcDbEntity
  8
0
  6
Continuous
 62
     7
100
AcDbPolyline
 90
        5
 70
   128
 43
0.0
 10
6231.6665649414
 20
5166.4951612821
 10
6229.9448303248
 20
5168.7418264455
 10
6230.3144616678
 20
5171.5494563451
 10
6232.5611268342
 20
5173.2733797215
 10
6235.3687567308
 20
5172.9037483802
  0
LWPOLYLINE
  5
492
330
1F
100
AcDbEntity
  8
0
  6
Continuous
 62
     7
100
AcDbPolyline
 90
        5
 70
   128
 43
0.0
 10
6227.5848388672
 20
5173.1244532039
 10
6226.9021633406
 20
5167.9265424931
 10
6230.0937573469
 20
5163.767179335
 10
6235.2916681341
 20
5163.0828630942
 10
6239.4510304227
 20
5166.2744564583
  0
LWPOLYLINE
  5
493
330
1F
100
AcDbEntity
  8
0
  6
Continuous
 62
     7
100
AcDbPolyline
 90
        5
 70
   128
 43
0.0
 10
6239.4485473633
 20
5166.2744564583
 10
6240.1353470785
 20
5171.4723671776
 10
6236.9437540924
 20
5175.6317297467
 10
6231.7458434393
 20
5176.3160468576
 10
6227.586480011
 20
5173.1244532039
  0
LWPOLYLINE
  5
494
330
1F
100
AcDbEntity
  8
0
  6
Continuous
 62
     7
100
AcDbPolyline
 90
        3
 70
   128
 43
0.0
 10
6238.4262084961
 20
5161.1994562318
 10
6241.1743005168
 20
5165.9592511962
 10
6243.333710511
 20
5169.6994548311
  0
LINE
  5
495
330
1F
100
AcDbEntity
  8
0
  6
Continuous
 62
     7
100
AcDbLine
 10
6228.6109924316
 20
5161.1994562318
 30
0.0
 11
6238.4262328639
 21
5161.1994562318
 31
0.0
  0
LWPOLYLINE
  5
496
330
1F
100
AcDbEntity
  8
0
  6
Continuous
 62
     7
100
AcDbPolyline
 90
        3
 70
   128
 43
0.0
 10
6223.7014770508
 20
5169.6994548311
 10
6226.4518703138
 20
5164.939661437
 10
6228.6112775698
 20
5161.1994562318
  0
LWPOLYLINE
  5
497
330
1F
100
AcDbEntity
  8
0
  6
Continuous
 62
     7
100
AcDbPolyline
 90
        3
 70
   128
 43
0.0
 10
6228.6109924316
 20
5178.1994534304
 10
6225.863209917
 20
5173.4396584661
 10
6223.7037999227
 20
5169.6994548311
  0
LINE
  5
498
330
1F
100
AcDbEntity
  8
0
  6
Continuous
 62
     7
100
AcDbLine
 10
6238.4262084961
 20
5178.1994534304
 30
0.0
 11
6228.6112775698
 21
5178.1994534304
 31
0.0
  0
LWPOLYLINE
  5
499
330
1F
100
AcDbEntity
  8
0
  6
Continuous
 62
     7
100
AcDbPolyline
 90
        3
 70
   128
 43
0.0
 10
6243.3319091797
 20
5169.6994548311
 10
6240.58564012
 20
5174.4592482253
 10
6238.4262328639
 20
5178.1994534304
  0
LWPOLYLINE
  5
49A
330
1F
100
AcDbEntity
  8
0
  6
Continuous
 62
     7
100
AcDbPolyline
 90
        5
 70
   128
 43
0.0
 10
6235.3668212891
 20
5153.9037471285
 10
6237.0926801028
 20
5151.6570819789
 10
6236.7230486809
 20
5148.8494519183
 10
6234.4763835845
 20
5147.1255286875
 10
6231.6687537029
 20
5147.4951600304
  0
LWPOLYLINE
  5
49B
330
1F
100
AcDbEntity
  8
0
  6
Continuous
 62
     7
100
AcDbPolyline
 90
        5
 70
   128
 43
0.0
 10
6231.6665649414
 20
5147.4951600304
 10
6229.9448301571
 20
5149.7418258171
 10
6230.314462145
 20
5152.54945592
 10
6232.5611259716
 20
5154.273381964
 10
6235.3687567308
 20
5153.9037471285
  0
LWPOLYLINE
  5
49C
330
1F
100
AcDbEntity
  8
0
  6
Continuous
 62
     7
100
AcDbPolyline
 90
        5
 70
   128
 43
0.0
 10
6227.5848388672
 20
5154.1244556775
 10
6226.9021622749
 20
5148.9265452183
 10
6230.0937555952
 20
5144.7671828199
 10
6235.2916646284
 20
5144.0828609249
 10
6239.4510304227
 20
5147.2744514814
  0
LWPOLYLINE
  5
49D
330
1F
100
AcDbEntity
  8
0
  6
Continuous
 62
     7
100
AcDbPolyline
 90
        5
 70
   128
 43
0.0
 10
6239.4485473633
 20
5147.2744514814
 10
6240.1353479349
 20
5152.4723628022
 10
6236.9437564316
 20
5156.6317271445
 10
6231.7458455439
 20
5157.3160461698
 10
6227.586480011
 20
5154.1244556775
  0
LWPOLYLINE
  5
49E
330
1F
100
AcDbEntity
  8
0
  6
Continuous
 62
     7
100
AcDbPolyline
 90
        3
 70
   128
 43
0.0
 10
6238.4262084961
 20
5142.1994512549
 10
6241.1743012943
 20
5146.9592478472
 10
6243.333710511
 20
5150.6994535794
  0
LINE
  5
49F
330
1F
100
AcDbEntity
  8
0
  6
Continuous
 62
     7
100
AcDbLine
 10
6228.6109924316
 20
5142.1994512549
 30
0.0
 11
6238.4262328639
 21
5142.1994512549
 31
0.0
  0
LWPOLYLINE
  5
4A0
330
1F
100
AcDbEntity
  8
0
  6
Continuous
 62
     7
100
AcDbPolyline
 90
        3
 70
   128
 43
0.0
 10
6223.7014770508
 20
5150.6994535794
 10
6226.4518710914
 20
5145.9396585572
 10
6228.6112775698
 20
5142.1994512549
  0
LWPOLYLINE
  5
4A1
330
1F
100
AcDbEntity
  8
0
  6
Continuous
 62
     7
100
AcDbPolyline
 90
        3
 70
   128
 43
0.0
 10
6228.6109924316
 20
5159.199455904
 10
6225.8632091394
 20
5154.4396593117
 10
6223.7037999227
 20
5150.6994535794
  0
LINE
  5
4A2
330
1F
100
AcDbEntity
  8
0
  6
Continuous
 62
     7
100
AcDbLine
 10
6238.4262084961
 20
5159.199455904
 30
0.0
 11
6228.6112775698
 21
5159.199455904
 31
0.0
  0
LWPOLYLINE
  5
4A3
330
1F
100
AcDbEntity
  8
0
  6
Continuous
 62
     7
100
AcDbPolyline
 90
        3
 70
   128
 43
0.0
 10
6243.3319091797
 20
5150.6994535794
 10
6240.5856393424
 20
5155.4592486017
 10
6238.4262328639
 20
5159.199455904
  0
ARC
  5
4A4
330
1F
100
AcDbEntity
  8
0
  6
Continuous
 62
     7
100
AcDbCircle
 10
6272.7066097873
 20
5108.1778239907
 30
0.0
 40
0.8782591352548661
100
AcDbArc
 50
353.7077114034
 51
6.8258563608
  0
LWPOLYLINE
  5
4A5
330
1F
100
AcDbEntity
  8
0
  6
Continuous
 62
     7
100
AcDbPolyline
 90
        3
 70
   128
 43
0.0
 10
6274.5780944824
 20
5108.0702563396
 10
6274.5795780581
 20
5108.2249769747
 10
6274.5795780463
 20
5108.2713014936
  0
LWPOLYLINE
  5
4A6
330
1F
100
AcDbEntity
  8
0
  6
Continuous
 62
     7
100
AcDbPolyline
 90
        3
 70
   128
 43
0.0
 10
6732.494354248
 20
5181.849455612
 10
6733.4997171464
 20
5182.2043329839
 10
6733.9916900927
 20
5182.8838588318
  0
LWPOLYLINE
  5
4A7
330
1F
100
AcDbEntity
  8
0
  6
Continuous
 62
     7
100
AcDbPolyline
 90
        3
 70
   128
 43
0.0
 10
6733.9630126953
 20
5194.5132641252
 10
6733.2800258791
 20
5195.3263551677
 10
6732.4680472568
 20
5195.5463355537
  0
LWPOLYLINE
  5
4A8
330
1F
100
AcDbEntity
  8
0
  6
Continuous
 62
     7
100
AcDbPolyline
 90
        3
 70
   128
 43
0.0
 10
6732.494354248
 20
5200.849455001
 10
6733.4997169467
 20
5201.2043331401
 10
6733.9916900927
 20
5201.8838591522
  0
LWPOLYLINE
  5
4A9
330
1F
100
AcDbEntity
  8
0
  6
Continuous
 62
     7
100
AcDbPolyline
 90
        3
 70
   128
 43
0.0
 10
6733.9897155762
 20
5213.5132831664
 10
6733.3073838382
 20
5214.3263747444
 10
6732.4954048926
 20
5214.5463560356
  0
LWPOLYLINE
  5
4AA
330
1F
100
AcDbEntity
  8
0
  6
Continuous
 62
     7
100
AcDbPolyline
 90
        3
 70
   128
 43
0.0
 10
6732.494354248
 20
5257.8494531682
 10
6733.499716142
 20
5258.2043334472
 10
6733.9916900927
 20
5258.8838582506
  0
LWPOLYLINE
  5
4AB
330
1F
100
AcDbEntity
  8
0
  6
Continuous
 62
     7
100
AcDbPolyline
 90
        3
 70
   128
 43
0.0
 10
6733.9897155762
 20
5270.5132832398
 10
6733.307384221
 20
5271.3263750226
 10
6732.4954048926
 20
5271.5463546684
  0
LWPOLYLINE
  5
4AC
330
1F
100
AcDbEntity
  8
0
  6
Continuous
 62
     7
100
AcDbPolyline
 90
        3
 70
   128
 43
0.0
 10
6732.494354248
 20
5219.8494543901
 10
6733.499716717
 20
5220.2043332749
 10
6733.9916900927
 20
5220.8838590068
  0
LWPOLYLINE
  5
4AD
330
1F
100
AcDbEntity
  8
0
  6
Continuous
 62
     7
100
AcDbPolyline
 90
        3
 70
   128
 43
0.0
 10
6733.9897155762
 20
5232.5132825991
 10
6733.3073840166
 20
5233.3263741963
 10
6732.4954048926
 20
5233.5463558903
  0
LWPOLYLINE
  5
4AE
330
1F
100
AcDbEntity
  8
0
  6
Continuous
 62
     7
100
AcDbPolyline
 90
        3
 70
   128
 43
0.0
 10
6732.494354248
 20
5238.8494537791
 10
6733.4997169459
 20
5239.2043328454
 10
6733.9916900935
 20
5239.8838588616
  0
LWPOLYLINE
  5
4AF
330
1F
100
AcDbEntity
  8
0
  6
Continuous
 62
     7
100
AcDbPolyline
 90
        3
 70
   128
 43
0.0
 10
6733.9897155762
 20
5251.5132819882
 10
6733.307383813
 20
5252.3263733999
 10
6732.4954048934
 20
5252.546357142
  0
LWPOLYLINE
  5
4B0
330
1F
100
AcDbEntity
  8
0
  6
Continuous
 62
     7
100
AcDbPolyline
 90
        3
 70
   128
 43
0.0
 10
6732.494354248
 20
5276.8494581452
 10
6733.4997163797
 20
5277.2043349005
 10
6733.9916900927
 20
5277.8838595023
  0
LWPOLYLINE
  5
4B1
330
1F
100
AcDbEntity
  8
0
  6
Continuous
 62
     7
100
AcDbPolyline
 90
        3
 70
   128
 43
0.0
 10
6733.9897155762
 20
5289.5132844916
 10
6733.3073836492
 20
5290.3263744039
 10
6732.4954048926
 20
5290.5463596454
  0
LWPOLYLINE
  5
4B2
330
1F
100
AcDbEntity
  8
0
  6
Continuous
 62
     7
100
AcDbPolyline
 90
        3
 70
   128
 43
0.0
 10
6732.494354248
 20
5162.8494543603
 10
6733.499717748
 20
5163.2043322138
 10
6733.9916900927
 20
5163.8838594427
  0
LWPOLYLINE
  5
4B3
330
1F
100
AcDbEntity
  8
0
  6
Continuous
 62
     7
100
AcDbPolyline
 90
        3
 70
   128
 43
0.0
 10
6733.9897155762
 20
5175.5132844319
 10
6733.3073828086
 20
5176.3263747341
 10
6732.4954048926
 20
5176.5463558605
  0
LWPOLYLINE
  5
4B4
330
1F
100
AcDbEntity
  8
0
  6
Continuous
 62
     7
100
AcDbPolyline
 90
        3
 70
   128
 43
0.0
 10
6732.494354248
 20
5143.8494568339
 10
6733.4997163797
 20
5144.2043335892
 10
6733.9916900927
 20
5144.883858191
  0
LWPOLYLINE
  5
4B5
330
1F
100
AcDbEntity
  8
0
  6
Continuous
 62
     7
100
AcDbPolyline
 90
        3
 70
   128
 43
0.0
 10
6733.9897155762
 20
5156.5132831803
 10
6733.307384221
 20
5157.326374963
 10
6732.4954048926
 20
5157.5463546088
  0
LWPOLYLINE
  5
4B6
330
1F
100
AcDbEntity
  8
0
  6
Continuous
 62
     7
100
AcDbPolyline
 90
        3
 70
   128
 43
0.0
 10
6727.3559570312
 20
5188.6994542202
 10
6727.0144796047
 20
5183.939660012
 10
6727.3591683441
 20
5180.1994537583
  0
LWPOLYLINE
  5
4B7
330
1F
100
AcDbEntity
  8
0
  6
Continuous
 62
     7
100
AcDbPolyline
 90
        3
 70
   128
 43
0.0
 10
6728.816986084
 20
5188.6994542202
 10
6729.1651990607
 20
5183.939660012
 10
6728.8205103213
 20
5180.1994537583
  0
LWPOLYLINE
  5
4B8
330
1F
100
AcDbEntity
  8
0
  6
Continuous
 62
     7
100
AcDbPolyline
 90
        3
 70
   128
 43
0.0
 10
6727.3559570312
 20
5197.1994546821
 10
6727.0144796163
 20
5192.4396589038
 10
6727.3591683441
 20
5188.6994542202
  0
LINE
  5
4B9
330
1F
100
AcDbEntity
  8
0
  6
Continuous
 62
     7
100
AcDbLine
 10
6727.3559570312
 20
5180.1994537583
 30
0.0
 11
6726.9774616196
 21
5180.1994537583
 31
0.0
  0
LWPOLYLINE
  5
4BA
330
1F
100
AcDbEntity
  8
0
  6
Continuous
 62
     7
100
AcDbPolyline
 90
        3
 70
   128
 43
0.0
 10
6728.816986084
 20
5197.1994546821
 10
6729.1651990491
 20
5192.4396589038
 10
6728.8205103213
 20
5188.6994542202
  0
LWPOLYLINE
  5
4BB
330
1F
100
AcDbEntity
  8
0
  6
Continuous
 62
     7
100
AcDbPolyline
 90
        5
 70
   128
 43
0.0
 10
6740.2114868164
 20
5185.4951409752
 10
6740.2124778508
 20
5188.0516347391
 10
6740.2124778508
 20
5190.097810647
 10
6740.2124778508
 20
5191.7145561869
 10
6740.2124778508
 20
5192.3937527591
  0
LWPOLYLINE
  5
4BC
330
1F
100
AcDbEntity
  8
0
  6
Continuous
 62
     7
100
AcDbPolyline
 90
        3
 70
   128
 43
0.0
 10
6727.3559570312
 20
5207.6994545406
 10
6727.0144796022
 20
5202.9396607394
 10
6727.3591683441
 20
5199.19945501
  0
LWPOLYLINE
  5
4BD
330
1F
100
AcDbEntity
  8
0
  6
Continuous
 62
     7
100
AcDbPolyline
 90
        3
 70
   128
 43
0.0
 10
6728.816986084
 20
5207.6994545406
 10
6729.1651990632
 20
5202.9396607394
 10
6728.8205103213
 20
5199.19945501
  0
LWPOLYLINE
  5
4BE
330
1F
100
AcDbEntity
  8
0
  6
Continuous
 62
     7
100
AcDbPolyline
 90
        3
 70
   128
 43
0.0
 10
6727.3559570312
 20
5216.1994545368
 10
6727.014479615
 20
5211.439658962
 10
6727.3591683441
 20
5207.6994545406
  0
LINE
  5
4BF
330
1F
100
AcDbEntity
  8
0
  6
Continuous
 62
     7
100
AcDbLine
 10
6727.3559570312
 20
5199.19945501
 30
0.0
 11
6726.9774616196
 21
5199.19945501
 31
0.0
  0
LWPOLYLINE
  5
4C0
330
1F
100
AcDbEntity
  8
0
  6
Continuous
 62
     7
100
AcDbPolyline
 90
        3
 70
   128
 43
0.0
 10
6728.816986084
 20
5216.1994545368
 10
6729.1651990504
 20
5211.439658962
 10
6728.8205103213
 20
5207.6994545406
  0
LWPOLYLINE
  5
4C1
330
1F
100
AcDbEntity
  8
0
  6
Continuous
 62
     7
100
AcDbPolyline
 90
        3
 70
   128
 43
0.0
 10
6727.3559570312
 20
5264.699453639
 10
6727.0144795997
 20
5259.9396602449
 10
6727.3591683441
 20
5256.1994550398
  0
LWPOLYLINE
  5
4C2
330
1F
100
AcDbEntity
  8
0
  6
Continuous
 62
     7
100
AcDbPolyline
 90
        3
 70
   128
 43
0.0
 10
6728.816986084
 20
5264.699453639
 10
6729.1651990657
 20
5259.9396602449
 10
6728.8205103213
 20
5256.1994550398
  0
LWPOLYLINE
  5
4C3
330
1F
100
AcDbEntity
  8
0
  6
Continuous
 62
     7
100
AcDbPolyline
 90
        3
 70
   128
 43
0.0
 10
6727.3559570312
 20
5273.1994559636
 10
6727.0144796212
 20
5268.4396593713
 10
6727.3591683441
 20
5264.699453639
  0
LINE
  5
4C4
330
1F
100
AcDbEntity
  8
0
  6
Continuous
 62
     7
100
AcDbLine
 10
6727.3559570312
 20
5256.1994550398
 30
0.0
 11
6726.9774616196
 21
5256.1994550398
 31
0.0
  0
LWPOLYLINE
  5
4C5
330
1F
100
AcDbEntity
  8
0
  6
Continuous
 62
     7
100
AcDbPolyline
 90
        3
 70
   128
 43
0.0
 10
6728.816986084
 20
5273.1994559636
 10
6729.1651990442
 20
5268.4396593713
 10
6728.8205103213
 20
5264.699453639
  0
LWPOLYLINE
  5
4C6
330
1F
100
AcDbEntity
  8
0
  6
Continuous
 62
     7
100
AcDbPolyline
 90
        5
 70
   128
 43
0.0
 10
6740.2381896973
 20
5261.49516009
 10
6740.2398363882
 20
5264.0516542324
 10
6740.2398363882
 20
5266.0978304104
 10
6740.2398363882
 20
5267.7145761871
 10
6740.2398363882
 20
5268.393771874
  0
LWPOLYLINE
  5
4C7
330
1F
100
AcDbEntity
  8
0
  6
Continuous
 62
     7
100
AcDbPolyline
 90
        3
 70
   128
 43
0.0
 10
6727.3559570312
 20
5226.6994548609
 10
6727.0144796047
 20
5221.9396606527
 10
6727.3591683441
 20
5218.199454399
  0
LWPOLYLINE
  5
4C8
330
1F
100
AcDbEntity
  8
0
  6
Continuous
 62
     7
100
AcDbPolyline
 90
        3
 70
   128
 43
0.0
 10
6728.816986084
 20
5226.6994548609
 10
6729.1651990607
 20
5221.9396606527
 10
6728.8205103213
 20
5218.199454399
  0
LWPOLYLINE
  5
4C9
330
1F
100
AcDbEntity
  8
0
  6
Continuous
 62
     7
100
AcDbPolyline
 90
        3
 70
   128
 43
0.0
 10
6727.3559570312
 20
5235.1994553229
 10
6727.0144796163
 20
5230.4396595445
 10
6727.3591683441
 20
5226.6994548609
  0
LINE
  5
4CA
330
1F
100
AcDbEntity
  8
0
  6
Continuous
 62
     7
100
AcDbLine
 10
6727.3559570312
 20
5218.199454399
 30
0.0
 11
6726.9774616196
 21
5218.199454399
 31
0.0
  0
LWPOLYLINE
  5
4CB
330
1F
100
AcDbEntity
  8
0
  6
Continuous
 62
     7
100
AcDbPolyline
 90
        3
 70
   128
 43
0.0
 10
6728.816986084
 20
5235.1994553229
 10
6729.1651990491
 20
5230.4396595445
 10
6728.8205103213
 20
5226.6994548609
  0
LWPOLYLINE
  5
4CC
330
1F
100
AcDbEntity
  8
0
  6
Continuous
 62
     7
100
AcDbPolyline
 90
        3
 70
   128
 43
0.0
 10
6727.3559570312
 20
5245.6994561126
 10
6727.0144795997
 20
5240.9396606278
 10
6727.3591683441
 20
5237.1994537881
  0
LWPOLYLINE
  5
4CD
330
1F
100
AcDbEntity
  8
0
  6
Continuous
 62
     7
100
AcDbPolyline
 90
        3
 70
   128
 43
0.0
 10
6728.816986084
 20
5245.6994561126
 10
6729.1651990657
 20
5240.9396606278
 10
6728.8205103213
 20
5237.1994537881
  0
LWPOLYLINE
  5
4CE
330
1F
100
AcDbEntity
  8
0
  6
Continuous
 62
     7
100
AcDbPolyline
 90
        3
 70
   128
 43
0.0
 10
6727.3559570312
 20
5254.1994547119
 10
6727.0144796113
 20
5249.4396597476
 10
6727.3591683441
 20
5245.6994561126
  0
LINE
  5
4CF
330
1F
100
AcDbEntity
  8
0
  6
Continuous
 62
     7
100
AcDbLine
 10
6727.3559570312
 20
5237.1994537881
 30
0.0
 11
6726.9774616196
 21
5237.1994537881
 31
0.0
  0
LWPOLYLINE
  5
4D0
330
1F
100
AcDbEntity
  8
0
  6
Continuous
 62
     7
100
AcDbPolyline
 90
        3
 70
   128
 43
0.0
 10
6728.816986084
 20
5254.1994547119
 10
6729.1651990541
 20
5249.4396597476
 10
6728.8205103213
 20
5245.6994561126
  0
LWPOLYLINE
  5
4D1
330
1F
100
AcDbEntity
  8
0
  6
Continuous
 62
     7
100
AcDbPolyline
 90
        3
 70
   128
 43
0.0
 10
6727.3559570312
 20
5283.6994548907
 10
6727.0144795997
 20
5278.9396614966
 10
6727.3591683441
 20
5275.1994562915
  0
LWPOLYLINE
  5
4D2
330
1F
100
AcDbEntity
  8
0
  6
Continuous
 62
     7
100
AcDbPolyline
 90
        3
 70
   128
 43
0.0
 10
6728.816986084
 20
5283.6994548907
 10
6729.1651990657
 20
5278.9396614966
 10
6728.8205103213
 20
5275.1994562915
  0
LWPOLYLINE
  5
4D3
330
1F
100
AcDbEntity
  8
0
  6
Continuous
 62
     7
100
AcDbPolyline
 90
        3
 70
   128
 43
0.0
 10
6727.3559570312
 20
5292.1994572153
 10
6727.0144796212
 20
5287.439660623
 10
6727.3591683441
 20
5283.6994548907
  0
LINE
  5
4D4
330
1F
100
AcDbEntity
  8
0
  6
Continuous
 62
     7
100
AcDbLine
 10
6727.3559570312
 20
5275.1994562915
 30
0.0
 11
6726.9774616196
 21
5275.1994562915
 31
0.0
  0
LWPOLYLINE
  5
4D5
330
1F
100
AcDbEntity
  8
0
  6
Continuous
 62
     7
100
AcDbPolyline
 90
        3
 70
   128
 43
0.0
 10
6728.816986084
 20
5292.1994572153
 10
6729.1651990442
 20
5287.439660623
 10
6728.8205103213
 20
5283.6994548907
  0
LWPOLYLINE
  5
4D6
330
1F
100
AcDbEntity
  8
0
  6
Continuous
 62
     7
100
AcDbPolyline
 90
        5
 70
   128
 43
0.0
 10
6740.2381896973
 20
5280.4951613417
 10
6740.2398363882
 20
5283.0516548045
 10
6740.2398363882
 20
5285.0978306052
 10
6740.2398363882
 20
5286.7145761241
 10
6740.2398363882
 20
5287.3937731257
  0
LWPOLYLINE
  5
4D7
330
1F
100
AcDbEntity
  8
0
  6
Continuous
 62
     7
100
AcDbPolyline
 90
        3
 70
   128
 43
0.0
 10
6727.3559570312
 20
5169.6994548311
 10
6727.0144795997
 20
5164.939661437
 10
6727.3591683441
 20
5161.1994562318
  0
LWPOLYLINE
  5
4D8
330
1F
100
AcDbEntity
  8
0
  6
Continuous
 62
     7
100
AcDbPolyline
 90
        3
 70
   128
 43
0.0
 10
6728.816986084
 20
5169.6994548311
 10
6729.1651990657
 20
5164.939661437
 10
6728.8205103213
 20
5161.1994562319
  0
LWPOLYLINE
  5
4D9
330
1F
100
AcDbEntity
  8
0
  6
Continuous
 62
     7
100
AcDbPolyline
 90
        3
 70
   128
 43
0.0
 10
6727.3559570312
 20
5178.1994534304
 10
6727.0144796113
 20
5173.4396584661
 10
6727.3591683441
 20
5169.6994548311
  0
LINE
  5
4DA
330
1F
100
AcDbEntity
  8
0
  6
Continuous
 62
     7
100
AcDbLine
 10
6727.3559570312
 20
5161.1994562318
 30
0.0
 11
6726.9774616196
 21
5161.1994562318
 31
0.0
  0
LWPOLYLINE
  5
4DB
330
1F
100
AcDbEntity
  8
0
  6
Continuous
 62
     7
100
AcDbPolyline
 90
        3
 70
   128
 43
0.0
 10
6728.816986084
 20
5178.1994534304
 10
6729.1651990541
 20
5173.4396584661
 10
6728.8205103213
 20
5169.6994548311
  0
LWPOLYLINE
  5
4DC
330
1F
100
AcDbEntity
  8
0
  6
Continuous
 62
     7
100
AcDbPolyline
 90
        3
 70
   128
 43
0.0
 10
6727.3559570312
 20
5150.6994535794
 10
6727.0144796097
 20
5145.9396585572
 10
6727.3591683441
 20
5142.1994512549
  0
LWPOLYLINE
  5
4DD
330
1F
100
AcDbEntity
  8
0
  6
Continuous
 62
     7
100
AcDbPolyline
 90
        3
 70
   128
 43
0.0
 10
6728.816986084
 20
5150.6994535794
 10
6729.1651990557
 20
5145.9396585572
 10
6728.8205103213
 20
5142.1994512549
  0
LWPOLYLINE
  5
4DE
330
1F
100
AcDbEntity
  8
0
  6
Continuous
 62
     7
100
AcDbPolyline
 90
        3
 70
   128
 43
0.0
 10
6727.3559570312
 20
5159.199455904
 10
6727.0144796212
 20
5154.4396593117
 10
6727.3591683441
 20
5150.6994535794
  0
LINE
  5
4DF
330
1F
100
AcDbEntity
  8
0
  6
Continuous
 62
     7
100
AcDbLine
 10
6727.3559570312
 20
5142.1994512549
 30
0.0
 11
6726.9774616196
 21
5142.1994512549
 31
0.0
  0
LWPOLYLINE
  5
4E0
330
1F
100
AcDbEntity
  8
0
  6
Continuous
 62
     7
100
AcDbPolyline
 90
        3
 70
   128
 43
0.0
 10
6728.816986084
 20
5159.199455904
 10
6729.1651990442
 20
5154.4396593117
 10
6728.8205103213
 20
5150.6994535794
  0
LWPOLYLINE
  5
4E1
330
1F
100
AcDbEntity
  8
0
  6
Continuous
 62
     7
100
AcDbPolyline
 90
        3
 70
   128
 43
0.0
 10
6729.0382385254
 20
5108.2822104564
 10
6729.1940127893
 20
5108.2093040169
 10
6729.2398289973
 20
5108.0815663209
  0
LWPOLYLINE
  5
4E2
330
1F
100
AcDbEntity
  8
0
  6
Continuous
 62
     7
100
AcDbPolyline
 90
        3
 70
   128
 43
0.0
 10
6226.6616821289
 20
4690.8613179877
 10
6227.0196766066
 20
4689.8567464497
 10
6227.6990545585
 20
4689.3650327876
  0
LWPOLYLINE
  5
4E3
330
1F
100
AcDbEntity
  8
0
  6
Continuous
 62
     7
100
AcDbPolyline
 90
        3
 70
   128
 43
0.0
 10
6239.3341064453
 20
4689.3650327875
 10
6240.1485624096
 20
4690.0485151242
 10
6240.3687556877
 20
4690.8613179877
  0
LWPOLYLINE
  5
4E4
330
1F
100
AcDbEntity
  8
0
  6
Continuous
 62
     7
100
AcDbPolyline
 90
        3
 70
   128
 43
0.0
 10
6228.6109924316
 20
4694.536212559
 10
6225.8632091394
 20
4694.1915238361
 10
6223.7037999227
 20
4694.536212559
  0
LWPOLYLINE
  5
4E5
330
1F
100
AcDbEntity
  8
0
  6
Continuous
 62
     7
100
AcDbPolyline
 90
        3
 70
   128
 43
0.0
 10
6238.4262084961
 20
4694.536212559
 10
6232.9300946967
 20
4694.1915238211
 10
6228.6112775698
 20
4694.536212559
  0
LWPOLYLINE
  5
4E6
330
1F
100
AcDbEntity
  8
0
  6
Continuous
 62
     7
100
AcDbPolyline
 90
        3
 70
   128
 43
0.0
 10
6243.3319091797
 20
4694.536212559
 10
6240.5856393424
 20
4694.1915238245
 10
6238.4262328639
 20
4694.536212559
  0
LWPOLYLINE
  5
4E7
330
1F
100
AcDbEntity
  8
0
  6
Continuous
 62
     7
100
AcDbPolyline
 90
        3
 70
   128
 43
0.0
 10
6238.4262084961
 20
4695.9975545361
 10
6232.9300946967
 20
4696.3422432739
 10
6228.6112775698
 20
4695.9975545361
  0
LWPOLYLINE
  5
4E8
330
1F
100
AcDbEntity
  8
0
  6
Continuous
 62
     7
100
AcDbPolyline
 90
        3
 70
   128
 43
0.0
 10
6243.3319091797
 20
4695.9975545361
 10
6240.5856393424
 20
4696.3422432705
 10
6238.4262328639
 20
4695.9975545361
  0
LWPOLYLINE
  5
4E9
330
1F
100
AcDbEntity
  8
0
  6
Continuous
 62
     7
100
AcDbPolyline
 90
        3
 70
   128
 43
0.0
 10
6228.6109924316
 20
4695.9975545361
 10
6225.8632091394
 20
4696.342243259
 10
6223.7037999227
 20
4695.9975545361
  0
LINE
  5
4EA
330
1F
100
AcDbEntity
  8
0
  6
Continuous
 62
     7
100
AcDbLine
 10
6229.8240661621
 20
4683.116886492
 30
0.0
 11
6237.2130734518
 21
4683.116886492
 31
0.0
  0
LWPOLYLINE
  5
4EB
330
1F
100
AcDbEntity
  8
0
  6
Continuous
 62
     7
100
AcDbPolyline
 90
        3
 70
   128
 43
0.0
 10
6274.5780944824
 20
4694.116893883
 10
6274.5795780581
 20
4694.1209502489
 10
6274.5795780581
 20
4694.1291128351
  0
LWPOLYLINE
  5
4EC
330
1F
100
AcDbEntity
  8
0
  6
Continuous
 62
     7
100
AcDbPolyline
 90
        3
 70
   128
 43
0.0
 10
6274.5780944824
 20
4694.1291128351
 10
6274.5795780581
 20
4694.1455055939
 10
6274.5795780581
 20
4694.162744756
  0
LWPOLYLINE
  5
4ED
330
1F
100
AcDbEntity
  8
0
  6
Continuous
 62
     7
100
AcDbPolyline
 90
        3
 70
   128
 43
0.0
 10
6274.5780944824
 20
4694.162744756
 10
6274.5795780581
 20
4694.1895350779
 10
6274.5795780581
 20
4694.21387064
  0
LWPOLYLINE
  5
4EE
330
1F
100
AcDbEntity
  8
0
  6
Continuous
 62
     7
100
AcDbPolyline
 90
        3
 70
   128
 43
0.0
 10
6274.5780944824
 20
4694.21387064
 10
6274.5795780581
 20
4694.247948164
 10
6274.5795780581
 20
4694.2764853193
  0
LWPOLYLINE
  5
4EF
330
1F
100
AcDbEntity
  8
0
  6
Continuous
 62
     7
100
AcDbPolyline
 90
        3
 70
   128
 43
0.0
 10
6274.5780944824
 20
4694.2764853193
 10
6274.5795780581
 20
4694.2990155324
 10
6274.5795780581
 20
4694.3168823673
  0
LWPOLYLINE
  5
4F0
330
1F
100
AcDbEntity
  8
0
  6
Continuous
 62
     7
100
AcDbPolyline
 90
        3
 70
   128
 43
0.0
 10
6273.5786437988
 20
4694.3168823673
 10
6273.5795780397
 20
4694.1627100909
 10
6273.5795780397
 20
4694.116893883
  0
ENDSEC
  0
SECTION
  2
OBJECTS
  0
DICTIONARY
  5
C
330
0
100
AcDbDictionary
281
     1
  3
ACAD_GROUP
350
D
  3
ACAD_LAYOUT
350
1A
  3
ACAD_MLINESTYLE
350
17
  3
ACAD_PLOTSETTINGS
350
19
  3
ACAD_PLOTSTYLENAME
350
E
  3
ACAD_SCALELIST
350
47
  3
DWGPROPS
350
4F1
  0
DICTIONARY
  5
D
102
{ACAD_REACTORS
330
C
102
}
330
C
100
AcDbDictionary
281
     1
  0
DICTIONARY
  5
1A
102
{ACAD_REACTORS
330
C
102
}
330
C
100
AcDbDictionary
281
     1
  3
Layout1
350
1E
  3
Layout2
350
26
  3
Model
350
22
  0
DICTIONARY
  5
17
102
{ACAD_REACTORS
330
C
102
}
330
C
100
AcDbDictionary
281
     1
  3
Standard
350
18
  0
DICTIONARY
  5
19
102
{ACAD_REACTORS
330
C
102
}
330
C
100
AcDbDictionary
281
     1
  0
ACDBDICTIONARYWDFLT
  5
E
102
{ACAD_REACTORS
330
C
102
}
330
C
100
AcDbDictionary
281
     1
  3
Normal
350
F
100
AcDbDictionaryWithDefault
340
F
  0
DICTIONARY
  5
47
102
{ACAD_REACTORS
330
C
102
}
330
C
100
AcDbDictionary
281
     1
  3
A0
350
48
  3
A1
350
49
  3
A2
350
4A
  3
A3
350
4B
  3
A4
350
4C
  3
A5
350
4D
  3
A6
350
4E
  3
A7
350
4F
  3
A8
350
50
  3
A9
350
51
  3
B0
350
52
  3
B1
350
53
  3
B2
350
54
  3
B3
350
55
  3
B4
350
56
  3
B5
350
57
  3
B6
350
58
  3
B7
350
59
  3
B8
350
5A
  3
B9
350
5B
  3
C0
350
5C
  3
C1
350
5D
  3
C2
350
5E
  3
C3
350
5F
  3
C4
350
60
  3
C5
350
61
  3
C6
350
62
  3
C7
350
63
  3
C8
350
64
  3
C9
350
65
  3
D0
350
66
  3
D1
350
67
  3
D2
350
68
  0
XRECORD
  5
4F1
102
{ACAD_REACTORS
330
C
102
}
330
C
100
AcDbXrecord
280
     1
  1
DWGPROPS COOKIE
  2

  3

  4

  6

  7

  8
radek.stransky
  9

300
=
301
=
302
=
303
=
304
=
305
=
306
=
307
=
308
=
309
=
 40
0.0
 41
2459103.364484248
 42
2459103.364513206
  1

 90
        0
  0
LAYOUT
  5
1E
102
{ACAD_REACTORS
330
1A
102
}
330
1A
100
AcDbPlotSettings
  1

  2
none_device
  4

  6

 40
0.0
 41
0.0
 42
0.0
 43
0.0
 44
0.0
 45
0.0
 46
0.0
 47
0.0
 48
0.0
 49
0.0
140
0.0
141
0.0
142
1.0
143
1.0
 70
   688
 72
     1
 73
     0
 74
     5
  7

 75
    16
147
1.0
148
0.0
149
0.0
100
AcDbLayout
  1
Layout1
 70
     1
 71
     1
 10
0.0
 20
0.0
 11
420.0
 21
297.0
 12
0.0
 22
0.0
 32
0.0
 14
1.0000000000E+20
 24
1.0000000000E+20
 34
1.0000000000E+20
 15
-1.0000000000E+20
 25
-1.0000000000E+20
 35
-1.0000000000E+20
146
0.0
 13
0.0
 23
0.0
 33
0.0
 16
1.0
 26
0.0
 36
0.0
 17
0.0
 27
1.0
 37
0.0
 76
     0
330
1B
  0
LAYOUT
  5
26
102
{ACAD_REACTORS
330
1A
102
}
330
1A
100
AcDbPlotSettings
  1

  2
none_device
  4

  6

 40
0.0
 41
0.0
 42
0.0
 43
0.0
 44
0.0
 45
0.0
 46
0.0
 47
0.0
 48
0.0
 49
0.0
140
0.0
141
0.0
142
1.0
143
1.0
 70
   688
 72
     1
 73
     0
 74
     5
  7

 75
    16
147
1.0
148
0.0
149
0.0
100
AcDbLayout
  1
Layout2
 70
     1
 71
     2
 10
0.0
 20
0.0
 11
0.0
 21
0.0
 12
0.0
 22
0.0
 32
0.0
 14
0.0
 24
0.0
 34
0.0
 15
0.0
 25
0.0
 35
0.0
146
0.0
 13
0.0
 23
0.0
 33
0.0
 16
1.0
 26
0.0
 36
0.0
 17
0.0
 27
1.0
 37
0.0
 76
     0
330
23
  0
LAYOUT
  5
22
102
{ACAD_REACTORS
330
1A
102
}
330
1A
100
AcDbPlotSettings
  1

  2
none_device
  4
ANSI_A_(11.00_x_8.50_Inches)
  6

 40
6.35
 41
19.05
 42
6.35000508
 43
19.05000254
 44
279.4
 45
215.9
 46
-1802.206572602
 47
-1422.7207182387
 48
0.0
 49
0.0
140
0.0
141
0.0
142
0.0118123636
143
1.0
 70
  1696
 72
     0
 73
     0
 74
     0
  7

 75
     0
147
0.0179189148
148
-1300.4909072572
149
0.0
100
AcDbLayout
  1
Model
 70
     1
 71
     0
 10
0.0
 20
0.0
 11
420.0
 21
297.0
 12
0.0
 22
0.0
 32
0.0
 14
6160.859493026
 24
4681.9695417835
 34
0.0
 15
6741.3871810967
 25
5394.3587194053
 35
0.0
146
0.0
 13
0.0
 23
0.0
 33
0.0
 16
1.0
 26
0.0
 36
0.0
 17
0.0
 27
1.0
 37
0.0
 76
     0
330
1F
331
29
  0
MLINESTYLE
  5
18
102
{ACAD_REACTORS
330
17
102
}
330
17
100
AcDbMlineStyle
  2
Standard
 70
     0
  3

 62
   256
 51
90.0
 52
90.0
 71
     2
 49
0.5
 62
   256
  6
BYLAYER
 49
-0.5
 62
   256
  6
BYLAYER
  0
ACDBPLACEHOLDER
  5
F
102
{ACAD_REACTORS
330
E
102
}
330
E
  0
SCALE
  5
48
102
{ACAD_REACTORS
330
47
102
}
330
47
100
AcDbScale
 70
     0
300
1:1
140
1.0
141
1.0
290
     1
  0
SCALE
  5
49
102
{ACAD_REACTORS
330
47
102
}
330
47
100
AcDbScale
 70
     0
300
1:2
140
1.0
141
2.0
290
     0
  0
SCALE
  5
4A
102
{ACAD_REACTORS
330
47
102
}
330
47
100
AcDbScale
 70
     0
300
1:4
140
1.0
141
4.0
290
     0
  0
SCALE
  5
4B
102
{ACAD_REACTORS
330
47
102
}
330
47
100
AcDbScale
 70
     0
300
1:5
140
1.0
141
5.0
290
     0
  0
SCALE
  5
4C
102
{ACAD_REACTORS
330
47
102
}
330
47
100
AcDbScale
 70
     0
300
1:8
140
1.0
141
8.0
290
     0
  0
SCALE
  5
4D
102
{ACAD_REACTORS
330
47
102
}
330
47
100
AcDbScale
 70
     0
300
1:10
140
1.0
141
10.0
290
     0
  0
SCALE
  5
4E
102
{ACAD_REACTORS
330
47
102
}
330
47
100
AcDbScale
 70
     0
300
1:16
140
1.0
141
16.0
290
     0
  0
SCALE
  5
4F
102
{ACAD_REACTORS
330
47
102
}
330
47
100
AcDbScale
 70
     0
300
1:20
140
1.0
141
20.0
290
     0
  0
SCALE
  5
50
102
{ACAD_REACTORS
330
47
102
}
330
47
100
AcDbScale
 70
     0
300
1:30
140
1.0
141
30.0
290
     0
  0
SCALE
  5
51
102
{ACAD_REACTORS
330
47
102
}
330
47
100
AcDbScale
 70
     0
300
1:40
140
1.0
141
40.0
290
     0
  0
SCALE
  5
52
102
{ACAD_REACTORS
330
47
102
}
330
47
100
AcDbScale
 70
     0
300
1:50
140
1.0
141
50.0
290
     0
  0
SCALE
  5
53
102
{ACAD_REACTORS
330
47
102
}
330
47
100
AcDbScale
 70
     0
300
1:100
140
1.0
141
100.0
290
     0
  0
SCALE
  5
54
102
{ACAD_REACTORS
330
47
102
}
330
47
100
AcDbScale
 70
     0
300
2:1
140
2.0
141
1.0
290
     0
  0
SCALE
  5
55
102
{ACAD_REACTORS
330
47
102
}
330
47
100
AcDbScale
 70
     0
300
4:1
140
4.0
141
1.0
290
     0
  0
SCALE
  5
56
102
{ACAD_REACTORS
330
47
102
}
330
47
100
AcDbScale
 70
     0
300
8:1
140
8.0
141
1.0
290
     0
  0
SCALE
  5
57
102
{ACAD_REACTORS
330
47
102
}
330
47
100
AcDbScale
 70
     0
300
10:1
140
10.0
141
1.0
290
     0
  0
SCALE
  5
58
102
{ACAD_REACTORS
330
47
102
}
330
47
100
AcDbScale
 70
     0
300
100:1
140
100.0
141
1.0
290
     0
  0
SCALE
  5
59
102
{ACAD_REACTORS
330
47
102
}
330
47
100
AcDbScale
 70
     0
300
1/128" = 1'-0"
140
0.0078125
141
12.0
290
     0
  0
SCALE
  5
5A
102
{ACAD_REACTORS
330
47
102
}
330
47
100
AcDbScale
 70
     0
300
1/64" = 1'-0"
140
0.015625
141
12.0
290
     0
  0
SCALE
  5
5B
102
{ACAD_REACTORS
330
47
102
}
330
47
100
AcDbScale
 70
     0
300
1/32" = 1'-0"
140
0.03125
141
12.0
290
     0
  0
SCALE
  5
5C
102
{ACAD_REACTORS
330
47
102
}
330
47
100
AcDbScale
 70
     0
300
1/16" = 1'-0"
140
0.0625
141
12.0
290
     0
  0
SCALE
  5
5D
102
{ACAD_REACTORS
330
47
102
}
330
47
100
AcDbScale
 70
     0
300
3/32" = 1'-0"
140
0.09375
141
12.0
290
     0
  0
SCALE
  5
5E
102
{ACAD_REACTORS
330
47
102
}
330
47
100
AcDbScale
 70
     0
300
1/8" = 1'-0"
140
0.125
141
12.0
290
     0
  0
SCALE
  5
5F
102
{ACAD_REACTORS
330
47
102
}
330
47
100
AcDbScale
 70
     0
300
3/16" = 1'-0"
140
0.1875
141
12.0
290
     0
  0
SCALE
  5
60
102
{ACAD_REACTORS
330
47
102
}
330
47
100
AcDbScale
 70
     0
300
1/4" = 1'-0"
140
0.25
141
12.0
290
     0
  0
SCALE
  5
61
102
{ACAD_REACTORS
330
47
102
}
330
47
100
AcDbScale
 70
     0
300
3/8" = 1'-0"
140
0.375
141
12.0
290
     0
  0
SCALE
  5
62
102
{ACAD_REACTORS
330
47
102
}
330
47
100
AcDbScale
 70
     0
300
1/2" = 1'-0"
140
0.5
141
12.0
290
     0
  0
SCALE
  5
63
102
{ACAD_REACTORS
330
47
102
}
330
47
100
AcDbScale
 70
     0
300
3/4" = 1'-0"
140
0.75
141
12.0
290
     0
  0
SCALE
  5
64
102
{ACAD_REACTORS
330
47
102
}
330
47
100
AcDbScale
 70
     0
300
1" = 1'-0"
140
1.0
141
12.0
290
     0
  0
SCALE
  5
65
102
{ACAD_REACTORS
330
47
102
}
330
47
100
AcDbScale
 70
     0
300
1-1/2" = 1'-0"
140
1.5
141
12.0
290
     0
  0
SCALE
  5
66
102
{ACAD_REACTORS
330
47
102
}
330
47
100
AcDbScale
 70
     0
300
3" = 1'-0"
140
3.0
141
12.0
290
     0
  0
SCALE
  5
67
102
{ACAD_REACTORS
330
47
102
}
330
47
100
AcDbScale
 70
     0
300
6" = 1'-0"
140
6.0
141
12.0
290
     0
  0
SCALE
  5
68
102
{ACAD_REACTORS
330
47
102
}
330
47
100
AcDbScale
 70
     0
300
1'-0" = 1'-0"
140
12.0
141
12.0
290
     0
  0
ENDSEC
  0
EOF
