  0
SECTION
  2
HEADER
  9
$ACADVER
  1
AC1015
  9
$ACADMAINTVER
 70
     6
  9
$DWGCODEPAGE
  3
ANSI_1250
  9
$INSBASE
 10
0.0
 20
0.0
 30
0.0
  9
$EXTMIN
 10
6163.9995110825
 20
4213.791863413
 30
0.0
  9
$EXTMAX
 10
6918.5322899433
 20
5738.9091057617
 30
0.0
  9
$LIMMIN
 10
0.0
 20
0.0
  9
$LIMMAX
 10
420.0
 20
297.0
  9
$ORTHOMODE
 70
     0
  9
$REGENMODE
 70
     1
  9
$FILLMODE
 70
     1
  9
$QTEXTMODE
 70
     0
  9
$MIRRTEXT
 70
     1
  9
$LTSCALE
 40
1.0
  9
$ATTMODE
 70
     1
  9
$TEXTSIZE
 40
3.5
  9
$TRACEWID
 40
1.0
  9
$TEXTSTYLE
  7
Standard
  9
$CLAYER
  8
0
  9
$CELTYPE
  6
ByLayer
  9
$CECOLOR
 62
   256
  9
$CELTSCALE
 40
1.0
  9
$DISPSILH
 70
     0
  9
$DIMSCALE
 40
1.0
  9
$DIMASZ
 40
3.302
  9
$DIMEXO
 40
0.0
  9
$DIMDLI
 40
3.75
  9
$DIMRND
 40
0.0
  9
$DIMDLE
 40
0.0
  9
$DIMEXE
 40
1.0
  9
$DIMTP
 40
0.0
  9
$DIMTM
 40
0.0
  9
$DIMTXT
 40
3.5
  9
$DIMCEN
 40
2.5
  9
$DIMTSZ
 40
0.0
  9
$DIMTOL
 70
     0
  9
$DIMLIM
 70
     0
  9
$DIMTIH
 70
     1
  9
$DIMTOH
 70
     1
  9
$DIMSE1
 70
     0
  9
$DIMSE2
 70
     0
  9
$DIMTAD
 70
     1
  9
$DIMZIN
 70
     0
  9
$DIMBLK
  1

  9
$DIMASO
 70
     1
  9
$DIMSHO
 70
     1
  9
$DIMPOST
  1

  9
$DIMAPOST
  1

  9
$DIMALT
 70
     0
  9
$DIMALTD
 70
     3
  9
$DIMALTF
 40
0.0393700787
  9
$DIMLFAC
 40
1.0
  9
$DIMTOFL
 70
     1
  9
$DIMTVP
 40
0.0
  9
$DIMTIX
 70
     0
  9
$DIMSOXD
 70
     0
  9
$DIMSAH
 70
     0
  9
$DIMBLK1
  1

  9
$DIMBLK2
  1

  9
$DIMSTYLE
  2
ISO-25
  9
$DIMCLRD
 70
     0
  9
$DIMCLRE
 70
     0
  9
$DIMCLRT
 70
     0
  9
$DIMTFAC
 40
1.0
  9
$DIMGAP
 40
1.524
  9
$DIMJUST
 70
     0
  9
$DIMSD1
 70
     0
  9
$DIMSD2
 70
     0
  9
$DIMTOLJ
 70
     0
  9
$DIMTZIN
 70
     0
  9
$DIMALTZ
 70
     0
  9
$DIMALTTZ
 70
     0
  9
$DIMUPT
 70
     0
  9
$DIMDEC
 70
     2
  9
$DIMTDEC
 70
     2
  9
$DIMALTU
 70
     2
  9
$DIMALTTD
 70
     3
  9
$DIMTXSTY
  7
Standard
  9
$DIMAUNIT
 70
     0
  9
$DIMADEC
 70
     2
  9
$DIMALTRND
 40
0.0
  9
$DIMAZIN
 70
     0
  9
$DIMDSEP
 70
    44
  9
$DIMATFIT
 70
     3
  9
$DIMFRAC
 70
     0
  9
$DIMLDRBLK
  1

  9
$DIMLUNIT
 70
     2
  9
$DIMLWD
 70
    -2
  9
$DIMLWE
 70
    -2
  9
$DIMTMOVE
 70
     0
  9
$LUNITS
 70
     2
  9
$LUPREC
 70
     2
  9
$SKETCHINC
 40
1.0
  9
$FILLETRAD
 40
10.0
  9
$AUNITS
 70
     0
  9
$AUPREC
 70
     2
  9
$MENU
  1
.
  9
$ELEVATION
 40
0.0
  9
$PELEVATION
 40
0.0
  9
$THICKNESS
 40
0.0
  9
$LIMCHECK
 70
     0
  9
$CHAMFERA
 40
0.0
  9
$CHAMFERB
 40
0.0
  9
$CHAMFERC
 40
0.0
  9
$CHAMFERD
 40
0.0
  9
$SKPOLY
 70
     0
  9
$TDCREATE
 40
2459103.504555498
  9
$TDUCREATE
 40
2459103.421222164
  9
$TDUPDATE
 40
2459103.504593808
  9
$TDUUPDATE
 40
2459103.421260475
  9
$TDINDWG
 40
0.0000000116
  9
$TDUSRTIMER
 40
0.0000000116
  9
$USRTIMER
 70
     1
  9
$ANGBASE
 50
0.0
  9
$ANGDIR
 70
     0
  9
$PDMODE
 70
     0
  9
$PDSIZE
 40
-1.0
  9
$PLINEWID
 40
0.0
  9
$SPLFRAME
 70
     0
  9
$SPLINETYPE
 70
     6
  9
$SPLINESEGS
 70
     8
  9
$HANDSEED
  5
5E8
  9
$SURFTAB1
 70
     6
  9
$SURFTAB2
 70
     6
  9
$SURFTYPE
 70
     6
  9
$SURFU
 70
     6
  9
$SURFV
 70
     6
  9
$UCSBASE
  2

  9
$UCSNAME
  2

  9
$UCSORG
 10
0.0
 20
0.0
 30
0.0
  9
$UCSXDIR
 10
1.0
 20
0.0
 30
0.0
  9
$UCSYDIR
 10
0.0
 20
1.0
 30
0.0
  9
$UCSORTHOREF
  2

  9
$UCSORTHOVIEW
 70
     0
  9
$UCSORGTOP
 10
0.0
 20
0.0
 30
0.0
  9
$UCSORGBOTTOM
 10
0.0
 20
0.0
 30
0.0
  9
$UCSORGLEFT
 10
0.0
 20
0.0
 30
0.0
  9
$UCSORGRIGHT
 10
0.0
 20
0.0
 30
0.0
  9
$UCSORGFRONT
 10
0.0
 20
0.0
 30
0.0
  9
$UCSORGBACK
 10
0.0
 20
0.0
 30
0.0
  9
$PUCSBASE
  2

  9
$PUCSNAME
  2

  9
$PUCSORG
 10
0.0
 20
0.0
 30
0.0
  9
$PUCSXDIR
 10
1.0
 20
0.0
 30
0.0
  9
$PUCSYDIR
 10
0.0
 20
1.0
 30
0.0
  9
$PUCSORTHOREF
  2

  9
$PUCSORTHOVIEW
 70
     0
  9
$PUCSORGTOP
 10
0.0
 20
0.0
 30
0.0
  9
$PUCSORGBOTTOM
 10
0.0
 20
0.0
 30
0.0
  9
$PUCSORGLEFT
 10
0.0
 20
0.0
 30
0.0
  9
$PUCSORGRIGHT
 10
0.0
 20
0.0
 30
0.0
  9
$PUCSORGFRONT
 10
0.0
 20
0.0
 30
0.0
  9
$PUCSORGBACK
 10
0.0
 20
0.0
 30
0.0
  9
$USERI1
 70
     0
  9
$USERI2
 70
     0
  9
$USERI3
 70
     0
  9
$USERI4
 70
     0
  9
$USERI5
 70
     0
  9
$USERR1
 40
0.0
  9
$USERR2
 40
0.0
  9
$USERR3
 40
0.0
  9
$USERR4
 40
0.0
  9
$USERR5
 40
0.0
  9
$WORLDVIEW
 70
     1
  9
$SHADEDGE
 70
     3
  9
$SHADEDIF
 70
    70
  9
$TILEMODE
 70
     1
  9
$MAXACTVP
 70
    64
  9
$PINSBASE
 10
0.0
 20
0.0
 30
0.0
  9
$PLIMCHECK
 70
     0
  9
$PEXTMIN
 10
1.0000000000E+20
 20
1.0000000000E+20
 30
1.0000000000E+20
  9
$PEXTMAX
 10
-1.0000000000E+20
 20
-1.0000000000E+20
 30
-1.0000000000E+20
  9
$PLIMMIN
 10
0.0
 20
0.0
  9
$PLIMMAX
 10
420.0
 20
297.0
  9
$UNITMODE
 70
     0
  9
$VISRETAIN
 70
     1
  9
$PLINEGEN
 70
     0
  9
$PSLTSCALE
 70
     1
  9
$TREEDEPTH
 70
  3020
  9
$CMLSTYLE
  2
Standard
  9
$CMLJUST
 70
     0
  9
$CMLSCALE
 40
20.0
  9
$PROXYGRAPHICS
 70
     1
  9
$MEASUREMENT
 70
     1
  9
$CELWEIGHT
370
    -1
  9
$ENDCAPS
280
     0
  9
$JOINSTYLE
280
     0
  9
$LWDISPLAY
290
     1
  9
$INSUNITS
 70
     4
  9
$HYPERLINKBASE
  1

  9
$STYLESHEET
  1

  9
$XEDIT
290
     1
  9
$CEPSNTYPE
380
     0
  9
$PSTYLEMODE
290
     1
  9
$FINGERPRINTGUID
  2
{2cacea2f-3b8e-46f1-a96b-baf85f24173a}
  9
$VERSIONGUID
  2
{FAEB1C32-E019-11D5-929B-00C0DF256EC4}
  9
$EXTNAMES
290
     1
  9
$PSVPSCALE
 40
0.0
  9
$OLESTARTUP
290
     0
  0
ENDSEC
  0
SECTION
  2
CLASSES
  0
CLASS
  1
ACDBDICTIONARYWDFLT
  2
AcDbDictionaryWithDefault
  3
ObjectDBX Classes
 90
        0
280
     0
281
     0
  0
CLASS
  1
VISUALSTYLE
  2
AcDbVisualStyle
  3
ObjectDBX Classes
 90
     4095
280
     0
281
     0
  0
CLASS
  1
MATERIAL
  2
AcDbMaterial
  3
ObjectDBX Classes
 90
     1153
280
     0
281
     0
  0
CLASS
  1
SCALE
  2
AcDbScale
  3
ObjectDBX Classes
 90
     1153
280
     0
281
     0
  0
CLASS
  1
TABLESTYLE
  2
AcDbTableStyle
  3
ObjectDBX Classes
 90
     4095
280
     0
281
     0
  0
CLASS
  1
MLEADERSTYLE
  2
AcDbMLeaderStyle
  3
ACDB_MLEADERSTYLE_CLASS
 90
     4095
280
     0
281
     0
  0
CLASS
  1
SUN
  2
AcDbSun
  3
SCENEOE
 90
     1153
280
     0
281
     0
  0
CLASS
  1
ACDBPLACEHOLDER
  2
AcDbPlaceHolder
  3
ObjectDBX Classes
 90
        0
280
     0
281
     0
  0
CLASS
  1
LAYOUT
  2
AcDbLayout
  3
ObjectDBX Classes
 90
        0
280
     0
281
     0
  0
ENDSEC
  0
SECTION
  2
TABLES
  0
TABLE
  2
VPORT
  5
8
330
0
100
AcDbSymbolTable
 70
     1
  0
VPORT
  5
29
330
8
100
AcDbSymbolTableRecord
100
AcDbViewportTableRecord
  2
*Active
 70
     0
 10
0.0
 20
0.0
 11
1.0
 21
1.0
 12
6541.2659005129
 22
4976.3504845874
 13
0.0
 23
0.0
 14
10.0
 24
10.0
 15
10.0
 25
10.0
 16
0.0
 26
0.0
 36
1.0
 17
0.0
 27
0.0
 37
0.0
 40
1555.6195871957
 41
0.4947375572
 42
50.0
 43
0.0
 44
0.0
 50
0.0
 51
0.0
 71
     0
 72
   100
 73
     1
 74
     3
 75
     0
 76
     0
 77
     0
 78
     0
281
     0
 65
     1
110
0.0
120
0.0
130
0.0
111
1.0
121
0.0
131
0.0
112
0.0
122
1.0
132
0.0
 79
     0
146
0.0
  0
ENDTAB
  0
TABLE
  2
LTYPE
  5
5
330
0
100
AcDbSymbolTable
 70
     6
  0
LTYPE
  5
14
330
5
100
AcDbSymbolTableRecord
100
AcDbLinetypeTableRecord
  2
ByBlock
 70
     0
  3

 72
    65
 73
     0
 40
0.0
  0
LTYPE
  5
15
330
5
100
AcDbSymbolTableRecord
100
AcDbLinetypeTableRecord
  2
ByLayer
 70
     0
  3

 72
    65
 73
     0
 40
0.0
  0
LTYPE
  5
16
330
5
100
AcDbSymbolTableRecord
100
AcDbLinetypeTableRecord
  2
Continuous
 70
     0
  3
Solid line
 72
    65
 73
     0
 40
0.0
  0
LTYPE
  5
6E
330
5
100
AcDbSymbolTableRecord
100
AcDbLinetypeTableRecord
  2
HIDDEN
 70
     0
  3
Hidden __ __ __ __ __ __ __ __ __ __ __ __ __ __
 72
    65
 73
     2
 40
1.905
 49
1.27
 74
     0
 49
-0.635
 74
     0
  0
LTYPE
  5
6F
330
5
100
AcDbSymbolTableRecord
100
AcDbLinetypeTableRecord
  2
PHANTOM
 70
     0
  3
Phantom ______  __  __  ______  __  __  ______
 72
    65
 73
     6
 40
12.7
 49
6.35
 74
     0
 49
-1.27
 74
     0
 49
1.27
 74
     0
 49
-1.27
 74
     0
 49
1.27
 74
     0
 49
-1.27
 74
     0
  0
LTYPE
  5
70
330
5
100
AcDbSymbolTableRecord
100
AcDbLinetypeTableRecord
  2
CENTER
 70
     0
  3
Center ____ _ ____ _ ____ _ ____ _ ____ _ ____
 72
    65
 73
     4
 40
10.16
 49
6.35
 74
     0
 49
-1.27
 74
     0
 49
1.27
 74
     0
 49
-1.27
 74
     0
  0
LTYPE
  5
71
330
5
100
AcDbSymbolTableRecord
100
AcDbLinetypeTableRecord
  2
CENTERX2
 70
     0
  3
Center (2x) ________  __  ________  __  _____
 72
    65
 73
     4
 40
20.32
 49
12.7
 74
     0
 49
-2.54
 74
     0
 49
2.54
 74
     0
 49
-2.54
 74
     0
  0
LTYPE
  5
72
330
5
100
AcDbSymbolTableRecord
100
AcDbLinetypeTableRecord
  2
DOT2
 70
     0
  3
Dot (.5x) ........................................
 72
    65
 73
     2
 40
0.635
 49
0.0
 74
     0
 49
-0.635
 74
     0
  0
ENDTAB
  0
TABLE
  2
LAYER
  5
2
330
0
100
AcDbSymbolTable
 70
     1
  0
LAYER
  5
10
330
2
100
AcDbSymbolTableRecord
100
AcDbLayerTableRecord
  2
0
 70
     0
 62
     7
  6
Continuous
370
    -3
390
F
  0
ENDTAB
  0
TABLE
  2
STYLE
  5
3
330
0
100
AcDbSymbolTable
 70
     1
  0
STYLE
  5
11
330
3
100
AcDbSymbolTableRecord
100
AcDbTextStyleTableRecord
  2
Standard
 70
     0
 40
0.0
 41
1.0
 50
0.0
 71
     0
 42
3.5
  3
txt
  4

  0
ENDTAB
  0
TABLE
  2
VIEW
  5
6
330
0
100
AcDbSymbolTable
 70
     0
  0
ENDTAB
  0
TABLE
  2
UCS
  5
7
330
0
100
AcDbSymbolTable
 70
     0
  0
ENDTAB
  0
TABLE
  2
APPID
  5
9
330
0
100
AcDbSymbolTable
 70
     1
  0
APPID
  5
12
330
9
100
AcDbSymbolTableRecord
100
AcDbRegAppTableRecord
  2
ACAD
 70
     0
  0
ENDTAB
  0
TABLE
  2
DIMSTYLE
  5
A
330
0
100
AcDbSymbolTable
 70
     1
100
AcDbDimStyleTable
  0
DIMSTYLE
105
27
330
A
100
AcDbSymbolTableRecord
100
AcDbDimStyleTableRecord
  2
ISO-25
 70
     0
 41
2.5
 42
0.625
 43
3.75
 44
1.25
 73
     0
 74
     0
 77
     1
 78
     8
140
2.5
141
2.5
143
0.0393700787
147
0.625
171
     3
172
     1
178
     0
271
     2
272
     2
274
     3
278
    44
283
     0
284
     8
340
11
  0
ENDTAB
  0
TABLE
  2
BLOCK_RECORD
  5
1
330
0
100
AcDbSymbolTable
 70
     1
  0
BLOCK_RECORD
  5
1F
330
1
100
AcDbSymbolTableRecord
100
AcDbBlockTableRecord
  2
*Model_Space
340
22
  0
BLOCK_RECORD
  5
1B
330
1
100
AcDbSymbolTableRecord
100
AcDbBlockTableRecord
  2
*Paper_Space
340
1E
  0
BLOCK_RECORD
  5
23
330
1
100
AcDbSymbolTableRecord
100
AcDbBlockTableRecord
  2
*Paper_Space0
340
26
  0
ENDTAB
  0
ENDSEC
  0
SECTION
  2
BLOCKS
  0
BLOCK
  5
20
330
1F
100
AcDbEntity
  8
0
100
AcDbBlockBegin
  2
*Model_Space
 70
     0
 10
0.0
 20
0.0
 30
0.0
  3
*Model_Space
  1

  0
ENDBLK
  5
21
330
1F
100
AcDbEntity
  8
0
100
AcDbBlockEnd
  0
BLOCK
  5
1C
330
1B
100
AcDbEntity
 67
     1
  8
0
100
AcDbBlockBegin
  2
*Paper_Space
 70
     0
 10
0.0
 20
0.0
 30
0.0
  3
*Paper_Space
  1

  0
ENDBLK
  5
1D
330
1B
100
AcDbEntity
 67
     1
  8
0
100
AcDbBlockEnd
  0
BLOCK
  5
24
330
23
100
AcDbEntity
  8
0
100
AcDbBlockBegin
  2
*Paper_Space0
 70
     0
 10
0.0
 20
0.0
 30
0.0
  3
*Paper_Space0
  1

  0
ENDBLK
  5
25
330
23
100
AcDbEntity
  8
0
100
AcDbBlockEnd
  0
ENDSEC
  0
SECTION
  2
ENTITIES
  0
ARC
  5
73
330
1F
100
AcDbEntity
  8
0
  6
Continuous
 62
     7
100
AcDbCircle
 10
6179.4294696218
 20
4690.9898339032
 30
0.0
 40
2.660714285713772
100
AcDbArc
 50
180.0000039394
 51
249.9840444952
  0
ARC
  5
74
330
1F
100
AcDbEntity
  8
0
  6
Continuous
 62
     7
100
AcDbCircle
 10
6183.6080410504
 20
4690.9898347718
 30
0.0
 40
2.660714285715793
100
AcDbArc
 50
290.0159008629
 51
359.9999773577
  0
ARC
  5
75
330
1F
100
AcDbEntity
  8
0
  6
Continuous
 62
     7
100
AcDbCircle
 10
6216.9294696218
 20
4690.9898344461
 30
0.0
 40
2.660714285713865
100
AcDbArc
 50
180.0000156285
 51
249.9840786458
  0
ARC
  5
76
330
1F
100
AcDbEntity
  8
0
  6
Continuous
 62
     7
100
AcDbCircle
 10
6221.1080410504
 20
4690.9898342289
 30
0.0
 40
2.660714285714724
100
AcDbArc
 50
290.0159350135
 51
359.9999890468
  0
ARC
  5
77
330
1F
100
AcDbEntity
  8
0
  6
Continuous
 62
     7
100
AcDbCircle
 10
6364.4294696218
 20
4690.9898347718
 30
0.0
 40
2.660714285714883
100
AcDbArc
 50
180.0000226423
 51
249.9840991371
  0
ARC
  5
78
330
1F
100
AcDbEntity
  8
0
  6
Continuous
 62
     7
100
AcDbCircle
 10
6368.6080410504
 20
4690.9898339032
 30
0.0
 40
2.660714285714682
100
AcDbArc
 50
290.0159555048
 51
359.9999960606
  0
ARC
  5
79
330
1F
100
AcDbEntity
  8
0
  6
Continuous
 62
     7
100
AcDbCircle
 10
6326.9294696218
 20
4690.9898342289
 30
0.0
 40
2.660714285714724
100
AcDbArc
 50
180.0000109532
 51
249.9840649865
  0
ARC
  5
7A
330
1F
100
AcDbEntity
  8
0
  6
Continuous
 62
     7
100
AcDbCircle
 10
6331.1080410504
 20
4690.9898344461
 30
0.0
 40
2.660714285713865
100
AcDbArc
 50
290.0159213542
 51
359.9999843715
  0
ARC
  5
7B
330
1F
100
AcDbEntity
  8
0
  6
Continuous
 62
     7
100
AcDbCircle
 10
6273.2668477627
 20
4834.0611113149
 30
0.0
 40
0.6676187185503295
100
AcDbArc
 50
180.0
 51
0.0
  0
ARC
  5
7C
330
1F
100
AcDbEntity
  8
0
  6
Continuous
 62
     7
100
AcDbCircle
 10
6274.1745765974
 20
4837.0021457938
 30
0.0
 40
0.2401101162873011
100
AcDbArc
 50
90.0000018801
 51
180.0017169429
  0
ARC
  5
7D
330
1F
100
AcDbEntity
  8
0
  6
Continuous
 62
     7
100
AcDbCircle
 10
6274.7989897762
 20
4837.0021457938
 30
0.0
 40
0.2401101162873011
100
AcDbArc
 50
359.9982830571
 51
89.9999946358
  0
ARC
  5
7E
330
1F
100
AcDbEntity
  8
0
  6
Continuous
 62
     7
100
AcDbCircle
 10
6275.7067185383
 20
4834.0611113149
 30
0.0
 40
0.6676186458498705
100
AcDbArc
 50
180.0
 51
0.0
  0
ARC
  5
7F
330
1F
100
AcDbEntity
  8
0
  6
Continuous
 62
     7
100
AcDbCircle
 10
6276.6144473003
 20
4836.4929880169
 30
0.0
 40
0.2401101162868155
100
AcDbArc
 50
90.000005364
 51
180.0017169189
  0
ARC
  5
80
330
1F
100
AcDbEntity
  8
0
  6
Continuous
 62
     7
100
AcDbCircle
 10
6277.3615670303
 20
4836.4929880169
 30
0.0
 40
0.2401101162887256
100
AcDbArc
 50
359.9982830816
 51
90.0000501871
  0
ARC
  5
81
330
1F
100
AcDbEntity
  8
0
  6
Continuous
 62
     7
100
AcDbCircle
 10
6278.2692957341
 20
4834.0611113149
 30
0.0
 40
0.6676185876503951
100
AcDbArc
 50
180.0
 51
0.0
  0
ARC
  5
82
330
1F
100
AcDbEntity
  8
0
  6
Continuous
 62
     7
100
AcDbCircle
 10
6279.177024438
 20
4835.5766411093
 30
0.0
 40
0.2401101162882105
100
AcDbArc
 50
89.9999498129
 51
180.0017169425
  0
ARC
  5
83
330
1F
100
AcDbEntity
  8
0
  6
Continuous
 62
     7
100
AcDbCircle
 10
6279.8390522512
 20
4835.5766411093
 30
0.0
 40
0.2401101162882105
100
AcDbArc
 50
359.9982830575
 51
90.0000501871
  0
ARC
  5
84
330
1F
100
AcDbEntity
  8
0
  6
Continuous
 62
     7
100
AcDbCircle
 10
6276.5531618168
 20
4827.6934709897
 30
0.0
 40
3.526000550640136
100
AcDbArc
 50
270.0000001924
 51
0.0000262927
  0
ARC
  5
85
330
1F
100
AcDbEntity
  8
0
  6
Continuous
 62
     7
100
AcDbCircle
 10
6274.1859372046
 20
4829.4604007668
 30
0.0
 40
5.292930327733306
100
AcDbArc
 50
179.9999260464
 51
270.0000022805
  0
ARC
  5
86
330
1F
100
AcDbEntity
  8
0
  6
Continuous
 62
     7
100
AcDbCircle
 10
6268.5496929706
 20
4832.4058693734
 30
0.0
 40
1.539412885870612
100
AcDbArc
 50
359.9996707502
 51
77.1137530769
  0
ARC
  5
87
330
1F
100
AcDbEntity
  8
0
  6
Continuous
 62
     7
100
AcDbCircle
 10
6270.7567245605
 20
4830.4514391262
 30
0.0
 40
0.6676187040502555
100
AcDbArc
 50
180.0
 51
0.0
  0
ARC
  5
88
330
1F
100
AcDbEntity
  8
0
  6
Continuous
 62
     7
100
AcDbCircle
 10
6272.0117861543
 20
4841.7319459755
 30
0.0
 40
0.5874428898005135
100
AcDbArc
 50
0.0
 51
180.0
  0
CIRCLE
  5
89
330
1F
100
AcDbEntity
  8
0
  6
Continuous
 62
     7
100
AcDbCircle
 10
6274.0187553361
 20
4832.9898337204
 30
0.0
 40
12.5
  0
CIRCLE
  5
8A
330
1F
100
AcDbEntity
  8
0
  6
Continuous
 62
     7
100
AcDbCircle
 10
6274.0187553361
 20
4832.9898337204
 30
0.0
 40
14.0
  0
ARC
  5
8B
330
1F
100
AcDbEntity
  8
0
  6
Continuous
 62
     7
100
AcDbCircle
 10
6268.5496929706
 20
4832.4058693734
 30
0.0
 40
2.569006926785015
100
AcDbArc
 50
44.0943248534
 51
105.4942017359
  0
ARC
  5
8C
330
1F
100
AcDbEntity
  8
0
  6
Continuous
 62
     7
100
AcDbCircle
 10
6274.1859372046
 20
4829.4604007668
 30
0.0
 40
6.32253094476437
100
AcDbArc
 50
179.9999154246
 51
270.0000019091
  0
ARC
  5
8D
330
1F
100
AcDbEntity
  8
0
  6
Continuous
 62
     7
100
AcDbCircle
 10
6276.5531618168
 20
4827.6934709897
 30
0.0
 40
4.555601167671116
100
AcDbArc
 50
270.0000001489
 51
0.0000203503
  0
ARC
  5
8E
330
1F
100
AcDbEntity
  8
0
  6
Continuous
 62
     7
100
AcDbCircle
 10
6279.7551517382
 20
4835.5302419348
 30
0.0
 40
1.353611246208342
100
AcDbArc
 50
0.0001974397
 51
89.9999562687
  0
ARC
  5
8F
330
1F
100
AcDbEntity
  8
0
  6
Continuous
 62
     7
100
AcDbCircle
 10
6279.2609270057
 20
4835.5302419348
 30
0.0
 40
1.353611246208932
100
AcDbArc
 50
89.9999852137
 51
118.7365395001
  0
ARC
  5
90
330
1F
100
AcDbEntity
  8
0
  6
Continuous
 62
     7
100
AcDbCircle
 10
6277.2776678734
 20
4836.4788200541
 30
0.0
 40
1.353611246209805
100
AcDbArc
 50
10.1405732507
 51
90.0000136693
  0
ARC
  5
91
330
1F
100
AcDbEntity
  8
0
  6
Continuous
 62
     7
100
AcDbCircle
 10
6276.6983473317
 20
4836.4788200541
 30
0.0
 40
1.353611246208496
100
AcDbArc
 50
89.9998778569
 51
124.7438528433
  0
ARC
  5
92
330
1F
100
AcDbEntity
  8
0
  6
Continuous
 62
     7
100
AcDbCircle
 10
6274.7150896003
 20
4836.9879778309
 30
0.0
 40
1.353611246208158
100
AcDbArc
 50
26.459196806
 51
89.9999680713
  0
ARC
  5
93
330
1F
100
AcDbEntity
  8
0
  6
Continuous
 62
     7
100
AcDbCircle
 10
6274.2584784907
 20
4836.9879778309
 30
0.0
 40
1.353611246209527
100
AcDbArc
 50
89.9999597429
 51
117.7206660029
  0
ARC
  5
94
330
1F
100
AcDbEntity
  8
0
  6
Continuous
 62
     7
100
AcDbCircle
 10
6272.0117861543
 20
4841.7319459755
 30
0.0
 40
1.617044677482227
100
AcDbArc
 50
0.0
 51
180.0000639897
  0
ARC
  5
95
330
1F
100
AcDbEntity
  8
0
  6
Continuous
 62
     7
100
AcDbCircle
 10
6356.9415842894
 20
5391.5117463592
 30
0.0
 40
307.9382117477001
100
AcDbArc
 50
92.211907359
 51
92.34903257
  0
ARC
  5
96
330
1F
100
AcDbEntity
  8
0
  6
Continuous
 62
     7
100
AcDbCircle
 10
6239.3602289552
 20
5775.7564115564
 30
0.0
 40
82.53532097310799
100
AcDbArc
 50
206.5156903566
 51
206.6144119979
  0
ARC
  5
97
330
1F
100
AcDbEntity
  8
0
  6
Continuous
 62
     7
100
AcDbCircle
 10
6308.677281717
 20
5775.7564115564
 30
0.0
 40
82.53532097310799
100
AcDbArc
 50
333.3855880021
 51
333.4843096434
  0
ARC
  5
98
330
1F
100
AcDbEntity
  8
0
  6
Continuous
 62
     7
100
AcDbCircle
 10
6180.6834856472
 20
5770.6421089537
 30
0.0
 40
37.19225267342792
100
AcDbArc
 50
243.346913285
 51
243.5659508268
  0
ARC
  5
99
330
1F
100
AcDbEntity
  8
0
  6
Continuous
 62
     7
100
AcDbCircle
 10
6177.1468976681
 20
5749.6958675329
 30
0.0
 40
17.42407508358113
100
AcDbArc
 50
224.8757054579
 51
225.1713051155
  0
ARC
  5
9A
330
1F
100
AcDbEntity
  8
0
  6
Continuous
 62
     7
100
AcDbCircle
 10
6274.0187553361
 20
5649.1912407714
 30
0.0
 40
14.89999983459984
100
AcDbArc
 50
90.000000636
 51
180.0
  0
ARC
  5
9B
330
1F
100
AcDbEntity
  8
0
  6
Continuous
 62
     7
100
AcDbCircle
 10
6274.0187553361
 20
5649.1912407714
 30
0.0
 40
14.89999983459984
100
AcDbArc
 50
0.0
 51
90.000000636
  0
ARC
  5
9C
330
1F
100
AcDbEntity
  8
0
  6
Continuous
 62
     7
100
AcDbCircle
 10
6274.0187553361
 20
5649.1912407714
 30
0.0
 40
27.50000000000065
100
AcDbArc
 50
302.8074960474
 51
237.1925033734
  0
ARC
  5
9D
330
1F
100
AcDbEntity
  8
0
  6
Continuous
 62
     7
100
AcDbCircle
 10
6274.0187553361
 20
5649.1912407714
 30
0.0
 40
27.00000000000188
100
AcDbArc
 50
303.4941504375
 51
236.5058489771
  0
ARC
  5
9E
330
1F
100
AcDbEntity
  8
0
  6
Continuous
 62
     7
100
AcDbCircle
 10
6776.5392257653
 20
4690.9898337513
 30
0.0
 40
2.660714285713766
100
AcDbArc
 50
180.0000006674
 51
249.984034936
  0
ARC
  5
9F
330
1F
100
AcDbEntity
  8
0
  6
Continuous
 62
     7
100
AcDbCircle
 10
6780.7177971939
 20
4690.9898349237
 30
0.0
 40
2.660714285715857
100
AcDbArc
 50
290.0158913014
 51
359.999974085
  0
ARC
  5
A0
330
1F
100
AcDbEntity
  8
0
  6
Continuous
 62
     7
100
AcDbCircle
 10
6841.5392257653
 20
4690.9898335613
 30
0.0
 40
2.660714285714377
100
AcDbArc
 50
179.9999965757
 51
249.9840229818
  0
ARC
  5
A1
330
1F
100
AcDbEntity
  8
0
  6
Continuous
 62
     7
100
AcDbCircle
 10
6845.7177971939
 20
4690.9898337567
 30
0.0
 40
2.660714285715585
100
AcDbArc
 50
290.0159647271
 51
359.9999992173
  0
ARC
  5
A2
330
1F
100
AcDbEntity
  8
0
  6
Continuous
 62
     7
100
AcDbCircle
 10
6878.3774471139
 20
5653.090678154
 30
0.0
 40
56.50250000000142
100
AcDbArc
 50
305.7386833799
 51
315.2897588978
  0
ARC
  5
A3
330
1F
100
AcDbEntity
  8
0
  6
Continuous
 62
     7
100
AcDbCircle
 10
6878.3773663264
 20
5653.090548684
 30
0.0
 40
56.50250000000226
100
AcDbArc
 50
284.709864809
 51
294.2609662729
  0
ARC
  5
A4
330
1F
100
AcDbEntity
  8
0
  6
Continuous
 62
     7
100
AcDbCircle
 10
6857.1285114792
 20
5676.1912145454
 30
0.0
 40
0.5000000000007991
100
AcDbArc
 50
89.9999972266
 51
179.9974303875
  0
ARC
  5
A5
330
1F
100
AcDbEntity
  8
0
  6
Continuous
 62
     7
100
AcDbCircle
 10
6857.1285114788
 20
5622.1912073928
 30
0.0
 40
0.5000000000016662
100
AcDbArc
 50
179.9966107599
 51
270.0000028159
  0
ARC
  5
A6
330
1F
100
AcDbEntity
  8
0
  6
Continuous
 62
     7
100
AcDbCircle
 10
6858.128511576
 20
5676.1912145454
 30
0.0
 40
0.4999999999999982
100
AcDbArc
 50
0.0041527522
 51
90.0000095469
  0
ARC
  5
A7
330
1F
100
AcDbEntity
  8
0
  6
Continuous
 62
     7
100
AcDbCircle
 10
6858.1285115752
 20
5622.1912073928
 30
0.0
 40
0.4999999999993216
100
AcDbArc
 50
269.999990541
 51
0.0026774433
  0
ARC
  5
A8
330
1F
100
AcDbEntity
  8
0
  6
Continuous
 62
     7
100
AcDbCircle
 10
6765.2285079139
 20
5737.3090317853
 30
0.0
 40
0.8000000000000147
100
AcDbArc
 50
66.9997783662
 51
179.9966416076
  0
ARC
  5
A9
330
1F
100
AcDbEntity
  8
0
  6
Continuous
 62
     7
100
AcDbCircle
 10
6765.2285092741
 20
5737.3091041014
 30
0.0
 40
1.600000000000923
100
AcDbArc
 50
66.9997784693
 51
180.0009104324
  0
ARC
  5
AA
330
1F
100
AcDbEntity
  8
0
  6
Continuous
 62
     7
100
AcDbCircle
 10
6855.0285114802
 20
5699.1912642192
 30
0.0
 40
0.800000000001198
100
AcDbArc
 50
359.9980483808
 51
66.9999957096
  0
ARC
  5
AB
330
1F
100
AcDbEntity
  8
0
  6
Continuous
 62
     7
100
AcDbCircle
 10
6855.0285114799
 20
5699.1912160999
 30
0.0
 40
1.600000000000323
100
AcDbArc
 50
359.9991759376
 51
66.9999995156
  0
ARC
  5
AC
330
1F
100
AcDbEntity
  8
0
  6
Continuous
 62
     7
100
AcDbCircle
 10
6766.6285092743
 20
4693.9898337822
 30
0.0
 40
2.999999999999092
100
AcDbArc
 50
180.0000017246
 51
269.9999738178
  0
ARC
  5
AD
330
1F
100
AcDbEntity
  8
0
  6
Continuous
 62
     7
100
AcDbCircle
 10
6301.0187551871
 20
4274.1956417816
 30
0.0
 40
0.5000000000009162
100
AcDbArc
 50
270.0000973342
 51
0.0000093965
  0
ARC
  5
AE
330
1F
100
AcDbEntity
  8
0
  6
Continuous
 62
     7
100
AcDbCircle
 10
6247.0187554851
 20
4274.1956417816
 30
0.0
 40
0.5000000000009162
100
AcDbArc
 50
179.9999906035
 51
269.9999026658
  0
ARC
  5
AF
330
1F
100
AcDbEntity
  8
0
  6
Continuous
 62
     7
100
AcDbCircle
 10
6301.0187551871
 20
4275.1956418766
 30
0.0
 40
0.50000000000091
100
AcDbArc
 50
359.9999972839
 51
89.9999829258
  0
ARC
  5
B0
330
1F
100
AcDbEntity
  8
0
  6
Continuous
 62
     7
100
AcDbCircle
 10
6247.0187554851
 20
4275.1956418766
 30
0.0
 40
0.50000000000091
100
AcDbArc
 50
90.0000170742
 51
180.0000027161
  0
ARC
  5
B1
330
1F
100
AcDbEntity
  8
0
  6
Continuous
 62
     7
100
AcDbCircle
 10
6165.5995151521
 20
4367.0956448018
 30
0.0
 40
0.8000006392007684
100
AcDbArc
 50
89.9999525192
 51
203.0001491722
  0
ARC
  5
B2
330
1F
100
AcDbEntity
  8
0
  6
Continuous
 62
     7
100
AcDbCircle
 10
6165.5995151521
 20
4367.0956448018
 30
0.0
 40
1.599999280200928
100
AcDbArc
 50
89.9999762596
 51
203.0002115386
  0
ARC
  5
B3
330
1F
100
AcDbEntity
  8
0
  6
Continuous
 62
     7
100
AcDbCircle
 10
6382.4379955201
 20
4367.0956448018
 30
0.0
 40
0.8000006391963294
100
AcDbArc
 50
336.9998508274
 51
90.0000474804
  0
ARC
  5
B4
330
1F
100
AcDbEntity
  8
0
  6
Continuous
 62
     7
100
AcDbCircle
 10
6382.4379955201
 20
4367.0956448018
 30
0.0
 40
1.599999280199976
100
AcDbArc
 50
336.9997884613
 51
90.0000237402
  0
ARC
  5
B5
330
1F
100
AcDbEntity
  8
0
  6
Continuous
 62
     7
100
AcDbCircle
 10
6203.717352087
 20
4277.2956418766
 30
0.0
 40
0.7999975645625454
100
AcDbArc
 50
203.0000193752
 51
270.0
  0
ARC
  5
B6
330
1F
100
AcDbEntity
  8
0
  6
Continuous
 62
     7
100
AcDbCircle
 10
6203.717352087
 20
4277.2956418766
 30
0.0
 40
1.600000000009392
100
AcDbArc
 50
202.9999515631
 51
270.0
  0
ARC
  5
B7
330
1F
100
AcDbEntity
  8
0
  6
Continuous
 62
     7
100
AcDbCircle
 10
6344.3201585852
 20
4277.2956418766
 30
0.0
 40
1.600000000000791
100
AcDbArc
 50
270.0
 51
337.0000484369
  0
ARC
  5
B8
330
1F
100
AcDbEntity
  8
0
  6
Continuous
 62
     7
100
AcDbCircle
 10
6344.3201585852
 20
4277.2956418766
 30
0.0
 40
0.7999975645386154
100
AcDbArc
 50
270.0000000001
 51
336.9999806246
  0
ELLIPSE
  5
B9
330
1F
100
AcDbEntity
  8
0
  6
Continuous
 62
     7
100
AcDbEllipse
 10
6765.2285114797
 20
5736.6019686839
 30
0.0
 11
1.600000000000364
 21
0.0
 31
0.0
210
0.0
220
0.0
230
1.0
 40
0.5
 41
1.169370598836952
 42
3.141592653592095
  0
ELLIPSE
  5
BA
330
1F
100
AcDbEntity
  8
0
  6
Continuous
 62
     7
100
AcDbEllipse
 10
6855.0285114797
 20
5699.1912369695
 30
0.0
 11
1.599999999999454
 21
0.0
 31
0.0
210
0.0
220
0.0
230
1.0
 40
0.0198920065
 41
0.0
 42
1.16937059884961
  0
ELLIPSE
  5
BB
330
1F
100
AcDbEntity
  8
0
  6
Continuous
 62
     7
100
AcDbEllipse
 10
6381.7308902996
 20
4367.0956418766
 30
0.0
 11
0.0
 21
1.600000000001273
 31
0.0
210
0.0
220
0.0
230
1.0
 40
0.5
 41
4.310963252426472
 42
6.283185307179586
  0
ELLIPSE
  5
BC
330
1F
100
AcDbEntity
  8
0
  6
Continuous
 62
     7
100
AcDbEllipse
 10
6166.3066203725
 20
4367.0956418766
 30
0.0
 11
0.0
 21
1.600000000001273
 31
0.0
210
0.0
220
0.0
230
1.0
 40
0.5
 41
0.0
 42
1.972222054750587
  0
ELLIPSE
  5
BD
330
1F
100
AcDbEntity
  8
0
  6
Continuous
 62
     7
100
AcDbEllipse
 10
6344.3201585852
 20
4277.2956418766
 30
0.0
 11
0.0
 21
1.600000000000364
 31
0.0
210
0.0
220
0.0
230
1.0
 40
0.0198920064
 41
3.141592653589787
 42
4.310963252427777
  0
ELLIPSE
  5
BE
330
1F
100
AcDbEntity
  8
0
  6
Continuous
 62
     7
100
AcDbEllipse
 10
6203.717352087
 20
4277.2956418766
 30
0.0
 11
0.0
 21
1.600000000000364
 31
0.0
210
0.0
220
0.0
230
1.0
 40
0.0198920064
 41
1.972222054748411
 42
3.141592653589787
  0
ELLIPSE
  5
BF
330
1F
100
AcDbEntity
  8
0
  6
Continuous
 62
     7
100
AcDbEllipse
 10
6274.0187553361
 20
4251.6956418766
 30
0.0
 11
14.90000000000055
 21
0.0
 31
0.0
210
0.0
220
0.0
230
1.0
 40
0.5773502692
 41
3.141592653589793
 42
4.712388980384698
  0
ELLIPSE
  5
C0
330
1F
100
AcDbEntity
  8
0
  6
Continuous
 62
     7
100
AcDbEllipse
 10
6274.0187553361
 20
4251.6956418766
 30
0.0
 11
14.90000000000055
 21
0.0
 31
0.0
210
0.0
220
0.0
230
1.0
 40
0.5773502692
 41
4.712388980384698
 42
6.283185307179586
  0
LINE
  5
C1
330
1F
100
AcDbEntity
  8
0
  6
Continuous
 62
     7
100
AcDbLine
 10
6165.5066219762
 20
5738.9091057617
 30
0.0
 11
6165.5066294268
 21
5738.1090922195
 31
0.0
  0
LINE
  5
C2
330
1F
100
AcDbEntity
  8
0
  6
Continuous
 62
     7
100
AcDbLine
 10
6382.530888696
 20
5738.9091057617
 30
0.0
 11
6165.5066219762
 21
5738.9091057617
 31
0.0
  0
LINE
  5
C3
330
1F
100
AcDbEntity
  8
0
  6
Continuous
 62
     7
100
AcDbLine
 10
6384.0379995897
 20
5737.4019427139
 30
0.0
 11
6383.2379934981
 21
5737.4019427139
 31
0.0
  0
LINE
  5
C4
330
1F
100
AcDbEntity
  8
0
  6
Continuous
 62
     7
100
AcDbLine
 10
6384.0379995897
 20
4694.5898337204
 30
0.0
 11
6384.0379995897
 21
5737.4019427139
 31
0.0
  0
LINE
  5
C5
330
1F
100
AcDbEntity
  8
0
  6
Continuous
 62
     7
100
AcDbLine
 10
6163.9995110825
 20
5737.4019427139
 30
0.0
 11
6163.9995110825
 21
4694.5898337204
 31
0.0
  0
LINE
  5
C6
330
1F
100
AcDbEntity
  8
0
  6
Continuous
 62
     7
100
AcDbLine
 10
6382.530888696
 20
5738.1090922195
 30
0.0
 11
6382.530888696
 21
5738.9091057617
 31
0.0
  0
LINE
  5
C7
330
1F
100
AcDbEntity
  8
0
  6
Continuous
 62
     7
100
AcDbLine
 10
6164.7995171741
 20
5737.4019427139
 30
0.0
 11
6163.9995110825
 21
5737.4019427139
 31
0.0
  0
LINE
  5
C8
330
1F
100
AcDbEntity
  8
0
  6
Continuous
 62
     7
100
AcDbLine
 10
6259.1187555015
 20
5633.1697506744
 30
0.0
 11
6259.1187555015
 21
5605.8899564582
 31
0.0
  0
LINE
  5
C9
330
1F
100
AcDbEntity
  8
0
  6
Continuous
 62
     7
100
AcDbLine
 10
6288.9187551707
 20
5605.8899564582
 30
0.0
 11
6288.9187551707
 21
5633.1697506744
 31
0.0
  0
LINE
  5
CA
330
1F
100
AcDbEntity
  8
0
  6
Continuous
 62
     7
100
AcDbLine
 10
6259.1187555015
 20
5649.1912407714
 30
0.0
 11
6259.1187555015
 21
5633.6027784187
 31
0.0
  0
LINE
  5
CB
330
1F
100
AcDbEntity
  8
0
  6
Continuous
 62
     7
100
AcDbLine
 10
6288.9187551707
 20
5633.6027784187
 30
0.0
 11
6288.9187551707
 21
5649.1912407714
 31
0.0
  0
LINE
  5
CC
330
1F
100
AcDbEntity
  8
0
  6
Continuous
 62
     7
100
AcDbLine
 10
6320.4433900908
 20
4715.3196995992
 30
0.0
 11
6322.3664668992
 21
4715.3196995992
 31
0.0
  0
LINE
  5
CD
330
1F
100
AcDbEntity
  8
0
  6
Continuous
 62
     7
100
AcDbLine
 10
6322.3664668992
 20
4715.3196995992
 30
0.0
 11
6322.3664668992
 21
4709.0857261706
 31
0.0
  0
LINE
  5
CE
330
1F
100
AcDbEntity
  8
0
  6
Continuous
 62
     7
100
AcDbLine
 10
6314.7943524316
 20
4707.4991874311
 30
0.0
 11
6316.7895434096
 21
4707.4991874311
 31
0.0
  0
LINE
  5
CF
330
1F
100
AcDbEntity
  8
0
  6
Continuous
 62
     7
100
AcDbLine
 10
6320.4433900908
 20
4714.5063998092
 30
0.0
 11
6320.4433900908
 21
4715.3196995992
 31
0.0
  0
LINE
  5
D0
330
1F
100
AcDbEntity
  8
0
  6
Continuous
 62
     7
100
AcDbLine
 10
6300.3151865348
 20
4718.0120078761
 30
0.0
 11
6302.1100574776
 21
4718.0120078761
 31
0.0
  0
LINE
  5
D1
330
1F
100
AcDbEntity
  8
0
  6
Continuous
 62
     7
100
AcDbLine
 10
6302.1100574776
 20
4718.0120078761
 30
0.0
 11
6302.1100574776
 21
4709.8068799737
 31
0.0
  0
LINE
  5
D2
330
1F
100
AcDbEntity
  8
0
  6
Continuous
 62
     7
100
AcDbLine
 10
6304.9305697575
 20
4709.8068799737
 30
0.0
 11
6304.9305697575
 21
4708.0120080996
 31
0.0
  0
LINE
  5
D3
330
1F
100
AcDbEntity
  8
0
  6
Continuous
 62
     7
100
AcDbLine
 10
6304.9305697575
 20
4708.0120080996
 30
0.0
 11
6300.3151865348
 21
4708.0120080996
 31
0.0
  0
LINE
  5
D4
330
1F
100
AcDbEntity
  8
0
  6
Continuous
 62
     7
100
AcDbLine
 10
6302.1100574776
 20
4709.8068799737
 30
0.0
 11
6304.9305697575
 21
4709.8068799737
 31
0.0
  0
LINE
  5
D5
330
1F
100
AcDbEntity
  8
0
  6
Continuous
 62
     7
100
AcDbLine
 10
6300.3151865348
 20
4708.0120080996
 30
0.0
 11
6300.3151865348
 21
4718.0120078761
 31
0.0
  0
LINE
  5
D6
330
1F
100
AcDbEntity
  8
0
  6
Continuous
 62
     7
100
AcDbLine
 10
6334.3206589714
 20
4722.9898339051
 30
0.0
 11
6294.3206580028
 21
4722.9898339051
 31
0.0
  0
LINE
  5
D7
330
1F
100
AcDbEntity
  8
0
  6
Continuous
 62
     7
100
AcDbLine
 10
6334.3206589714
 20
4702.9898334208
 30
0.0
 11
6334.3206589714
 21
4722.9898339051
 31
0.0
  0
LINE
  5
D8
330
1F
100
AcDbEntity
  8
0
  6
Continuous
 62
     7
100
AcDbLine
 10
6294.3206580028
 20
4702.9898334208
 30
0.0
 11
6334.3206589714
 21
4702.9898334208
 31
0.0
  0
LINE
  5
D9
330
1F
100
AcDbEntity
  8
0
  6
Continuous
 62
     7
100
AcDbLine
 10
6294.3206580028
 20
4722.9898339051
 30
0.0
 11
6294.3206580028
 21
4702.9898334208
 31
0.0
  0
LINE
  5
DA
330
1F
100
AcDbEntity
  8
0
  6
Continuous
 62
     7
100
AcDbLine
 10
6273.9344664812
 20
4837.0021385986
 30
0.0
 11
6273.9344664812
 21
4834.0611113149
 31
0.0
  0
LINE
  5
DB
330
1F
100
AcDbEntity
  8
0
  6
Continuous
 62
     7
100
AcDbLine
 10
6274.7989897987
 20
4837.2422559101
 30
0.0
 11
6274.1745765895
 21
4837.2422559101
 31
0.0
  0
LINE
  5
DC
330
1F
100
AcDbEntity
  8
0
  6
Continuous
 62
     7
100
AcDbLine
 10
6275.0390998924
 20
4834.0611113149
 30
0.0
 11
6275.0390998924
 21
4837.0021385986
 31
0.0
  0
LINE
  5
DD
330
1F
100
AcDbEntity
  8
0
  6
Continuous
 62
     7
100
AcDbLine
 10
6276.3743371841
 20
4836.4929808218
 30
0.0
 11
6276.3743371841
 21
4834.0611113149
 31
0.0
  0
LINE
  5
DE
330
1F
100
AcDbEntity
  8
0
  6
Continuous
 62
     7
100
AcDbLine
 10
6277.36156682
 20
4836.7330981332
 30
0.0
 11
6276.6144472778
 21
4836.7330981332
 31
0.0
  0
LINE
  5
DF
330
1F
100
AcDbEntity
  8
0
  6
Continuous
 62
     7
100
AcDbLine
 10
6277.6016771465
 20
4834.0611113149
 30
0.0
 11
6277.6016771465
 21
4836.4929808218
 31
0.0
  0
LINE
  5
E0
330
1F
100
AcDbEntity
  8
0
  6
Continuous
 62
     7
100
AcDbLine
 10
6278.9369143218
 20
4835.5766339141
 30
0.0
 11
6278.9369143218
 21
4834.0611113149
 31
0.0
  0
LINE
  5
E1
330
1F
100
AcDbEntity
  8
0
  6
Continuous
 62
     7
100
AcDbLine
 10
6279.8390520409
 20
4835.8167512256
 30
0.0
 11
6279.1770246483
 21
4835.8167512256
 31
0.0
  0
LINE
  5
E2
330
1F
100
AcDbEntity
  8
0
  6
Continuous
 62
     7
100
AcDbLine
 10
6280.0791623674
 20
4827.6934726078
 30
0.0
 11
6280.0791623674
 21
4835.5766339141
 31
0.0
  0
LINE
  5
E3
330
1F
100
AcDbEntity
  8
0
  6
Continuous
 62
     7
100
AcDbLine
 10
6274.1859374153
 20
4824.1674704391
 30
0.0
 11
6276.5531618286
 21
4824.1674704391
 31
0.0
  0
LINE
  5
E4
330
1F
100
AcDbEntity
  8
0
  6
Continuous
 62
     7
100
AcDbLine
 10
6268.8930068769
 20
4833.9065117675
 30
0.0
 11
6268.8930068769
 21
4829.4604075986
 31
0.0
  0
LINE
  5
E5
330
1F
100
AcDbEntity
  8
0
  6
Continuous
 62
     7
100
AcDbLine
 10
6270.0891058564
 20
4830.4514391262
 30
0.0
 11
6270.0891058564
 21
4832.4058605272
 31
0.0
  0
LINE
  5
E6
330
1F
100
AcDbEntity
  8
0
  6
Continuous
 62
     7
100
AcDbLine
 10
6272.5992290441
 20
4834.0611113149
 30
0.0
 11
6272.5992290441
 21
4841.7319459755
 31
0.0
  0
LINE
  5
E7
330
1F
100
AcDbEntity
  8
0
  6
Continuous
 62
     7
100
AcDbLine
 10
6271.4243432645
 20
4841.7319459755
 30
0.0
 11
6271.4243432645
 21
4830.4514391262
 31
0.0
  0
LINE
  5
E8
330
1F
100
AcDbEntity
  8
0
  6
Continuous
 62
     7
100
AcDbLine
 10
6267.8634062599
 20
4834.8815121466
 30
0.0
 11
6267.8634062599
 21
4829.4604100996
 31
0.0
  0
LINE
  5
E9
330
1F
100
AcDbEntity
  8
0
  6
Continuous
 62
     7
100
AcDbLine
 10
6274.1859374153
 20
4823.1378698221
 30
0.0
 11
6276.5531618286
 21
4823.1378698221
 31
0.0
  0
LINE
  5
EA
330
1F
100
AcDbEntity
  8
0
  6
Continuous
 62
     7
100
AcDbLine
 10
6281.1087629844
 20
4827.6934726078
 30
0.0
 11
6281.1087629844
 21
4835.5302465993
 31
0.0
  0
LINE
  5
EB
330
1F
100
AcDbEntity
  8
0
  6
Continuous
 62
     7
100
AcDbLine
 10
6279.7551527714
 20
4836.883853181
 30
0.0
 11
6279.260927355
 21
4836.883853181
 31
0.0
  0
LINE
  5
EC
330
1F
100
AcDbEntity
  8
0
  6
Continuous
 62
     7
100
AcDbLine
 10
6277.2776675505
 20
4837.8324313003
 30
0.0
 11
6276.6983502173
 21
4837.8324313003
 31
0.0
  0
LINE
  5
ED
330
1F
100
AcDbEntity
  8
0
  6
Continuous
 62
     7
100
AcDbLine
 10
6274.7150903546
 20
4838.3415890771
 30
0.0
 11
6274.2584794418
 21
4838.3415890771
 31
0.0
  0
LINE
  5
EE
330
1F
100
AcDbEntity
  8
0
  6
Continuous
 62
     7
100
AcDbLine
 10
6273.6288308318
 20
4838.1862295705
 30
0.0
 11
6273.6288308318
 21
4841.7319459755
 31
0.0
  0
LINE
  5
EF
330
1F
100
AcDbEntity
  8
0
  6
Continuous
 62
     7
100
AcDbLine
 10
6270.3947414768
 20
4841.7319441695
 30
0.0
 11
6270.3947414768
 21
4834.193491425
 31
0.0
  0
LINE
  5
F0
330
1F
100
AcDbEntity
  8
0
  6
Continuous
 62
     7
100
AcDbLine
 10
6203.7173492506
 20
5699.1911930877
 30
0.0
 11
6344.3201614216
 21
5699.1911930877
 31
0.0
  0
LINE
  5
F1
330
1F
100
AcDbEntity
  8
0
  6
Continuous
 62
     7
100
AcDbLine
 10
6203.6880535677
 20
5700.6640238601
 30
0.0
 11
6203.6910188988
 21
5700.5151314575
 31
0.0
  0
LINE
  5
F2
330
1F
100
AcDbEntity
  8
0
  6
Continuous
 62
     7
100
AcDbLine
 10
6203.6910188988
 20
5700.5151314575
 30
0.0
 11
6203.6949751571
 21
5700.3160519439
 31
0.0
  0
LINE
  5
F3
330
1F
100
AcDbEntity
  8
0
  6
Continuous
 62
     7
100
AcDbLine
 10
6203.6949751571
 20
5700.3160519439
 30
0.0
 11
6203.6997882321
 21
5700.0742955047
 31
0.0
  0
LINE
  5
F4
330
1F
100
AcDbEntity
  8
0
  6
Continuous
 62
     7
100
AcDbLine
 10
6203.6997882321
 20
5700.0742955047
 30
0.0
 11
6203.7052569583
 21
5699.7992796737
 31
0.0
  0
LINE
  5
F5
330
1F
100
AcDbEntity
  8
0
  6
Continuous
 62
     7
100
AcDbLine
 10
6203.7052569583
 20
5699.7992796737
 30
0.0
 11
6203.7111876205
 21
5699.5011372406
 31
0.0
  0
LINE
  5
F6
330
1F
100
AcDbEntity
  8
0
  6
Continuous
 62
     7
100
AcDbLine
 10
6203.7111876205
 20
5699.5011372406
 30
0.0
 11
6203.7173492506
 21
5699.1911930877
 31
0.0
  0
LINE
  5
F7
330
1F
100
AcDbEntity
  8
0
  6
Continuous
 62
     7
100
AcDbLine
 10
6203.6880535677
 20
5700.6640238601
 30
0.0
 11
6344.3494571045
 21
5700.6640238601
 31
0.0
  0
LINE
  5
F8
330
1F
100
AcDbEntity
  8
0
  6
Continuous
 62
     7
100
AcDbLine
 10
6344.3201614216
 20
5699.1911930877
 30
0.0
 11
6344.3263230517
 21
5699.5011372406
 31
0.0
  0
LINE
  5
F9
330
1F
100
AcDbEntity
  8
0
  6
Continuous
 62
     7
100
AcDbLine
 10
6344.3263230517
 20
5699.5011372406
 30
0.0
 11
6344.3322537139
 21
5699.7992796737
 31
0.0
  0
LINE
  5
FA
330
1F
100
AcDbEntity
  8
0
  6
Continuous
 62
     7
100
AcDbLine
 10
6344.3322537139
 20
5699.7992796737
 30
0.0
 11
6344.3377224401
 21
5700.0742955047
 31
0.0
  0
LINE
  5
FB
330
1F
100
AcDbEntity
  8
0
  6
Continuous
 62
     7
100
AcDbLine
 10
6344.3377224401
 20
5700.0742955047
 30
0.0
 11
6344.3425355151
 21
5700.3160519439
 31
0.0
  0
LINE
  5
FC
330
1F
100
AcDbEntity
  8
0
  6
Continuous
 62
     7
100
AcDbLine
 10
6344.3425355151
 20
5700.3160519439
 30
0.0
 11
6344.3464917734
 21
5700.5151314575
 31
0.0
  0
LINE
  5
FD
330
1F
100
AcDbEntity
  8
0
  6
Continuous
 62
     7
100
AcDbLine
 10
6344.3464917734
 20
5700.5151314575
 30
0.0
 11
6344.3494571045
 21
5700.6640238601
 31
0.0
  0
LINE
  5
FE
330
1F
100
AcDbEntity
  8
0
  6
Continuous
 62
     7
100
AcDbLine
 10
6203.7173492506
 20
4694.5898337204
 30
0.0
 11
6203.7173492506
 21
5699.1911930877
 31
0.0
  0
LINE
  5
FF
330
1F
100
AcDbEntity
  8
0
  6
Continuous
 62
     7
100
AcDbLine
 10
6202.24454083
 20
4694.5898337204
 30
0.0
 11
6203.7173492506
 21
4694.5898337204
 31
0.0
  0
LINE
  5
100
330
1F
100
AcDbEntity
  8
0
  6
Continuous
 62
     7
100
AcDbLine
 10
6202.24454083
 20
4694.5898337204
 30
0.0
 11
6202.24454083
 21
5699.220518573
 31
0.0
  0
LINE
  5
101
330
1F
100
AcDbEntity
  8
0
  6
Continuous
 62
     7
100
AcDbLine
 10
6203.7173492506
 20
5699.1911930877
 30
0.0
 11
6203.4074870542
 21
5699.1973919708
 31
0.0
  0
LINE
  5
102
330
1F
100
AcDbEntity
  8
0
  6
Continuous
 62
     7
100
AcDbLine
 10
6203.4074870542
 20
5699.1973919708
 30
0.0
 11
6203.1093595222
 21
5699.2033524353
 31
0.0
  0
LINE
  5
103
330
1F
100
AcDbEntity
  8
0
  6
Continuous
 62
     7
100
AcDbLine
 10
6203.1093595222
 20
5699.2033524353
 30
0.0
 11
6202.8342542842
 21
5699.2088360626
 31
0.0
  0
LINE
  5
104
330
1F
100
AcDbEntity
  8
0
  6
Continuous
 62
     7
100
AcDbLine
 10
6202.8342542842
 20
5699.2088360626
 30
0.0
 11
6202.5925798014
 21
5699.2136044342
 31
0.0
  0
LINE
  5
105
330
1F
100
AcDbEntity
  8
0
  6
Continuous
 62
     7
100
AcDbLine
 10
6202.5925798014
 20
5699.2136044342
 30
0.0
 11
6202.3935002878
 21
5699.2175383407
 31
0.0
  0
LINE
  5
106
330
1F
100
AcDbEntity
  8
0
  6
Continuous
 62
     7
100
AcDbLine
 10
6202.3935002878
 20
5699.2175383407
 30
0.0
 11
6202.24454083
 21
5699.220518573
 31
0.0
  0
LINE
  5
107
330
1F
100
AcDbEntity
  8
0
  6
Continuous
 62
     7
100
AcDbLine
 10
6344.3201614216
 20
5699.1911930877
 30
0.0
 11
6344.3201614216
 21
4694.5898337204
 31
0.0
  0
LINE
  5
108
330
1F
100
AcDbEntity
  8
0
  6
Continuous
 62
     7
100
AcDbLine
 10
6345.7929698422
 20
5699.220518573
 30
0.0
 11
6345.6440103844
 21
5699.2175383407
 31
0.0
  0
LINE
  5
109
330
1F
100
AcDbEntity
  8
0
  6
Continuous
 62
     7
100
AcDbLine
 10
6345.6440103844
 20
5699.2175383407
 30
0.0
 11
6345.4449308708
 21
5699.2136044342
 31
0.0
  0
LINE
  5
10A
330
1F
100
AcDbEntity
  8
0
  6
Continuous
 62
     7
100
AcDbLine
 10
6345.4449308708
 20
5699.2136044342
 30
0.0
 11
6345.203256388
 21
5699.2088360626
 31
0.0
  0
LINE
  5
10B
330
1F
100
AcDbEntity
  8
0
  6
Continuous
 62
     7
100
AcDbLine
 10
6345.203256388
 20
5699.2088360626
 30
0.0
 11
6344.92815115
 21
5699.2033524353
 31
0.0
  0
LINE
  5
10C
330
1F
100
AcDbEntity
  8
0
  6
Continuous
 62
     7
100
AcDbLine
 10
6344.92815115
 20
5699.2033524353
 30
0.0
 11
6344.630023618
 21
5699.1973919708
 31
0.0
  0
LINE
  5
10D
330
1F
100
AcDbEntity
  8
0
  6
Continuous
 62
     7
100
AcDbLine
 10
6344.630023618
 20
5699.1973919708
 30
0.0
 11
6344.3201614216
 21
5699.1911930877
 31
0.0
  0
LINE
  5
10E
330
1F
100
AcDbEntity
  8
0
  6
Continuous
 62
     7
100
AcDbLine
 10
6345.7929698422
 20
5699.220518573
 30
0.0
 11
6345.7929698422
 21
4694.5898337204
 31
0.0
  0
LINE
  5
10F
330
1F
100
AcDbEntity
  8
0
  6
Continuous
 62
     7
100
AcDbLine
 10
6344.3201614216
 20
4694.5898337204
 30
0.0
 11
6345.7929698422
 21
4694.5898337204
 31
0.0
  0
LINE
  5
110
330
1F
100
AcDbEntity
  8
0
  6
Continuous
 62
     7
100
AcDbLine
 10
6204.2468620136
 20
4692.9898337608
 30
0.0
 11
6343.7906486586
 21
4692.9898337608
 31
0.0
  0
LINE
  5
111
330
1F
100
AcDbEntity
  8
0
  6
Continuous
 62
     7
100
AcDbLine
 10
6203.7173492506
 20
4694.5898337204
 30
0.0
 11
6344.3201614216
 21
4694.5898337204
 31
0.0
  0
LINE
  5
112
330
1F
100
AcDbEntity
  8
0
  6
Continuous
 62
     7
100
AcDbLine
 10
6203.7173492506
 20
5699.1911930877
 30
0.0
 11
6203.5624218777
 21
5699.1973919708
 31
0.0
  0
LINE
  5
113
330
1F
100
AcDbEntity
  8
0
  6
Continuous
 62
     7
100
AcDbLine
 10
6203.5624218777
 20
5699.1973919708
 30
0.0
 11
6203.4133581117
 21
5699.2033524353
 31
0.0
  0
LINE
  5
114
330
1F
100
AcDbEntity
  8
0
  6
Continuous
 62
     7
100
AcDbLine
 10
6203.4133581117
 20
5699.2033524353
 30
0.0
 11
6203.2758054927
 21
5699.2088360626
 31
0.0
  0
LINE
  5
115
330
1F
100
AcDbEntity
  8
0
  6
Continuous
 62
     7
100
AcDbLine
 10
6203.2758054927
 20
5699.2088360626
 30
0.0
 11
6203.154964526
 21
5699.2136044342
 31
0.0
  0
LINE
  5
116
330
1F
100
AcDbEntity
  8
0
  6
Continuous
 62
     7
100
AcDbLine
 10
6203.154964526
 20
5699.2136044342
 30
0.0
 11
6203.0554247692
 21
5699.2175383407
 31
0.0
  0
LINE
  5
117
330
1F
100
AcDbEntity
  8
0
  6
Continuous
 62
     7
100
AcDbLine
 10
6203.0554247692
 20
5699.2175383407
 30
0.0
 11
6202.9809487656
 21
5699.220518573
 31
0.0
  0
LINE
  5
118
330
1F
100
AcDbEntity
  8
0
  6
Continuous
 62
     7
100
AcDbLine
 10
6202.24454083
 20
5699.220518573
 30
0.0
 11
6202.9809487656
 21
5699.220518573
 31
0.0
  0
LINE
  5
119
330
1F
100
AcDbEntity
  8
0
  6
Continuous
 62
     7
100
AcDbLine
 10
6344.3201614216
 20
5699.1911930877
 30
0.0
 11
6344.3263230517
 21
5699.3461651641
 31
0.0
  0
LINE
  5
11A
330
1F
100
AcDbEntity
  8
0
  6
Continuous
 62
     7
100
AcDbLine
 10
6344.3263230517
 20
5699.3461651641
 30
0.0
 11
6344.3322537139
 21
5699.4951767761
 31
0.0
  0
LINE
  5
11B
330
1F
100
AcDbEntity
  8
0
  6
Continuous
 62
     7
100
AcDbLine
 10
6344.3322537139
 20
5699.4951767761
 30
0.0
 11
6344.3377224401
 21
5699.6327442962
 31
0.0
  0
LINE
  5
11C
330
1F
100
AcDbEntity
  8
0
  6
Continuous
 62
     7
100
AcDbLine
 10
6344.3377224401
 20
5699.6327442962
 30
0.0
 11
6344.3425355151
 21
5699.7536225158
 31
0.0
  0
LINE
  5
11D
330
1F
100
AcDbEntity
  8
0
  6
Continuous
 62
     7
100
AcDbLine
 10
6344.3425355151
 20
5699.7536225158
 30
0.0
 11
6344.3464917734
 21
5699.8531622726
 31
0.0
  0
LINE
  5
11E
330
1F
100
AcDbEntity
  8
0
  6
Continuous
 62
     7
100
AcDbLine
 10
6344.3464917734
 20
5699.8531622726
 30
0.0
 11
6344.3494571045
 21
5699.9276680786
 31
0.0
  0
LINE
  5
11F
330
1F
100
AcDbEntity
  8
0
  6
Continuous
 62
     7
100
AcDbLine
 10
6344.3494571045
 20
5700.6640238601
 30
0.0
 11
6344.3494571045
 21
5699.9276680786
 31
0.0
  0
LINE
  5
120
330
1F
100
AcDbEntity
  8
0
  6
Continuous
 62
     7
100
AcDbLine
 10
6345.7929698422
 20
5699.220518573
 30
0.0
 11
6345.0565619066
 21
5699.220518573
 31
0.0
  0
LINE
  5
121
330
1F
100
AcDbEntity
  8
0
  6
Continuous
 62
     7
100
AcDbLine
 10
6203.6880535677
 20
5699.9276680786
 30
0.0
 11
6203.6910188988
 21
5699.8531622726
 31
0.0
  0
LINE
  5
122
330
1F
100
AcDbEntity
  8
0
  6
Continuous
 62
     7
100
AcDbLine
 10
6203.6910188988
 20
5699.8531622726
 30
0.0
 11
6203.6949751571
 21
5699.7536225158
 31
0.0
  0
LINE
  5
123
330
1F
100
AcDbEntity
  8
0
  6
Continuous
 62
     7
100
AcDbLine
 10
6203.6949751571
 20
5699.7536225158
 30
0.0
 11
6203.6997882321
 21
5699.6327442962
 31
0.0
  0
LINE
  5
124
330
1F
100
AcDbEntity
  8
0
  6
Continuous
 62
     7
100
AcDbLine
 10
6203.6997882321
 20
5699.6327442962
 30
0.0
 11
6203.7052569583
 21
5699.4951767761
 31
0.0
  0
LINE
  5
125
330
1F
100
AcDbEntity
  8
0
  6
Continuous
 62
     7
100
AcDbLine
 10
6203.7052569583
 20
5699.4951767761
 30
0.0
 11
6203.7111876205
 21
5699.3461651641
 31
0.0
  0
LINE
  5
126
330
1F
100
AcDbEntity
  8
0
  6
Continuous
 62
     7
100
AcDbLine
 10
6203.7111876205
 20
5699.3461651641
 30
0.0
 11
6203.7173492506
 21
5699.1911930877
 31
0.0
  0
LINE
  5
127
330
1F
100
AcDbEntity
  8
0
  6
Continuous
 62
     7
100
AcDbLine
 10
6203.6880535677
 20
5700.6640238601
 30
0.0
 11
6203.6880535677
 21
5699.9276680786
 31
0.0
  0
LINE
  5
128
330
1F
100
AcDbEntity
  8
0
  6
Continuous
 62
     7
100
AcDbLine
 10
6344.5270565942
 20
4692.9898337608
 30
0.0
 11
6382.3053149179
 21
4692.9898337608
 31
0.0
  0
LINE
  5
129
330
1F
100
AcDbEntity
  8
0
  6
Continuous
 62
     7
100
AcDbLine
 10
6345.7929698422
 20
4694.5898337204
 30
0.0
 11
6383.9108032778
 21
4694.5898337204
 31
0.0
  0
LINE
  5
12A
330
1F
100
AcDbEntity
  8
0
  6
Continuous
 62
     7
100
AcDbLine
 10
6344.5270565942
 20
4693.7898337406
 30
0.0
 11
6344.5270565942
 21
4692.9898337608
 31
0.0
  0
LINE
  5
12B
330
1F
100
AcDbEntity
  8
0
  6
Continuous
 62
     7
100
AcDbLine
 10
6383.9108032778
 20
5737.3384041626
 30
0.0
 11
6383.9108032778
 21
4694.5898337204
 31
0.0
  0
LINE
  5
12C
330
1F
100
AcDbEntity
  8
0
  6
Continuous
 62
     7
100
AcDbLine
 10
6383.9108032778
 20
5737.3384041626
 30
0.0
 11
6345.7929698422
 21
5699.220518573
 31
0.0
  0
LINE
  5
12D
330
1F
100
AcDbEntity
  8
0
  6
Continuous
 62
     7
100
AcDbLine
 10
6344.3494571045
 20
5699.9276680786
 30
0.0
 11
6382.46729054
 21
5738.0454344589
 31
0.0
  0
LINE
  5
12E
330
1F
100
AcDbEntity
  8
0
  6
Continuous
 62
     7
100
AcDbLine
 10
6344.3494571045
 20
5700.6640238601
 30
0.0
 11
6382.46729054
 21
5738.7819094497
 31
0.0
  0
LINE
  5
12F
330
1F
100
AcDbEntity
  8
0
  6
Continuous
 62
     7
100
AcDbLine
 10
6382.46729054
 20
5738.7819094497
 30
0.0
 11
6382.46729054
 21
5738.0454344589
 31
0.0
  0
LINE
  5
130
330
1F
100
AcDbEntity
  8
0
  6
Continuous
 62
     7
100
AcDbLine
 10
6165.5702201322
 20
5738.7819094497
 30
0.0
 11
6203.6880535677
 21
5700.6640238601
 31
0.0
  0
LINE
  5
131
330
1F
100
AcDbEntity
  8
0
  6
Continuous
 62
     7
100
AcDbLine
 10
6165.5702201322
 20
5738.7819094497
 30
0.0
 11
6382.46729054
 21
5738.7819094497
 31
0.0
  0
LINE
  5
132
330
1F
100
AcDbEntity
  8
0
  6
Continuous
 62
     7
100
AcDbLine
 10
6165.7321957543
 20
4692.9898337608
 30
0.0
 11
6203.510454078
 21
4692.9898337608
 31
0.0
  0
LINE
  5
133
330
1F
100
AcDbEntity
  8
0
  6
Continuous
 62
     7
100
AcDbLine
 10
6164.1267073944
 20
4694.5898337204
 30
0.0
 11
6202.24454083
 21
4694.5898337204
 31
0.0
  0
LINE
  5
134
330
1F
100
AcDbEntity
  8
0
  6
Continuous
 62
     7
100
AcDbLine
 10
6203.510454078
 20
4693.7898337406
 30
0.0
 11
6203.510454078
 21
4692.9898337608
 31
0.0
  0
LINE
  5
135
330
1F
100
AcDbEntity
  8
0
  6
Continuous
 62
     7
100
AcDbLine
 10
6202.9809487656
 20
5699.220518573
 30
0.0
 11
6164.8631078795
 21
5737.3384041626
 31
0.0
  0
LINE
  5
136
330
1F
100
AcDbEntity
  8
0
  6
Continuous
 62
     7
100
AcDbLine
 10
6202.24454083
 20
5699.220518573
 30
0.0
 11
6164.1267073944
 21
5737.3384041626
 31
0.0
  0
LINE
  5
137
330
1F
100
AcDbEntity
  8
0
  6
Continuous
 62
     7
100
AcDbLine
 10
6164.1267073944
 20
5737.3384041626
 30
0.0
 11
6164.8631078795
 21
5737.3384041626
 31
0.0
  0
LINE
  5
138
330
1F
100
AcDbEntity
  8
0
  6
Continuous
 62
     7
100
AcDbLine
 10
6164.1267073944
 20
4694.5898337204
 30
0.0
 11
6164.1267073944
 21
5737.3384041626
 31
0.0
  0
LINE
  5
139
330
1F
100
AcDbEntity
  8
0
  6
Continuous
 62
     7
100
AcDbLine
 10
6383.1744027927
 20
5737.3384041626
 30
0.0
 11
6345.0565619066
 21
5699.220518573
 31
0.0
  0
LINE
  5
13A
330
1F
100
AcDbEntity
  8
0
  6
Continuous
 62
     7
100
AcDbLine
 10
6383.9108032778
 20
5737.3384041626
 30
0.0
 11
6383.1744027927
 21
5737.3384041626
 31
0.0
  0
LINE
  5
13B
330
1F
100
AcDbEntity
  8
0
  6
Continuous
 62
     7
100
AcDbLine
 10
6165.5702201322
 20
5738.0454344589
 30
0.0
 11
6203.6880535677
 21
5699.9276680786
 31
0.0
  0
LINE
  5
13C
330
1F
100
AcDbEntity
  8
0
  6
Continuous
 62
     7
100
AcDbLine
 10
6165.5702201322
 20
5738.7819094497
 30
0.0
 11
6165.5702201322
 21
5738.0454344589
 31
0.0
  0
LINE
  5
13D
330
1F
100
AcDbEntity
  8
0
  6
Continuous
 62
     7
100
AcDbLine
 10
6344.1399095252
 20
4693.7898337406
 30
0.0
 11
6344.5270565942
 21
4693.7898337406
 31
0.0
  0
LINE
  5
13E
330
1F
100
AcDbEntity
  8
0
  6
Continuous
 62
     7
100
AcDbLine
 10
6343.7906486586
 20
4692.9898337608
 30
0.0
 11
6344.5270565942
 21
4692.9898337608
 31
0.0
  0
LINE
  5
13F
330
1F
100
AcDbEntity
  8
0
  6
Continuous
 62
     7
100
AcDbLine
 10
6203.510454078
 20
4692.9898337608
 30
0.0
 11
6204.2468620136
 21
4692.9898337608
 31
0.0
  0
LINE
  5
140
330
1F
100
AcDbEntity
  8
0
  6
Continuous
 62
     7
100
AcDbLine
 10
6203.510454078
 20
4693.7898337406
 30
0.0
 11
6203.897601147
 21
4693.7898337406
 31
0.0
  0
LINE
  5
141
330
1F
100
AcDbEntity
  8
0
  6
Continuous
 62
     7
100
AcDbLine
 10
6165.5702201322
 20
5738.0454344589
 30
0.0
 11
6165.5262766078
 21
5738.0894226867
 31
0.0
  0
LINE
  5
142
330
1F
100
AcDbEntity
  8
0
  6
Continuous
 62
     7
100
AcDbLine
 10
6165.5262766078
 20
5738.0894226867
 30
0.0
 11
6165.5073521331
 21
5738.1083769638
 31
0.0
  0
LINE
  5
143
330
1F
100
AcDbEntity
  8
0
  6
Continuous
 62
     7
100
AcDbLine
 10
6165.5073521331
 20
5738.1083769638
 30
0.0
 11
6165.5066294268
 21
5738.1090922195
 31
0.0
  0
LINE
  5
144
330
1F
100
AcDbEntity
  8
0
  6
Continuous
 62
     7
100
AcDbLine
 10
6383.1744027927
 20
5737.3384041626
 30
0.0
 11
6383.2183388665
 21
5737.3822731811
 31
0.0
  0
LINE
  5
145
330
1F
100
AcDbEntity
  8
0
  6
Continuous
 62
     7
100
AcDbLine
 10
6383.2183388665
 20
5737.3822731811
 30
0.0
 11
6383.2372633412
 21
5737.4012274582
 31
0.0
  0
LINE
  5
146
330
1F
100
AcDbEntity
  8
0
  6
Continuous
 62
     7
100
AcDbLine
 10
6383.2372633412
 20
5737.4012274582
 30
0.0
 11
6383.2379934981
 21
5737.4019427139
 31
0.0
  0
LINE
  5
147
330
1F
100
AcDbEntity
  8
0
  6
Continuous
 62
     7
100
AcDbLine
 10
6383.9108032778
 20
5737.3384041626
 30
0.0
 11
6383.9986828759
 21
5737.3822731811
 31
0.0
  0
LINE
  5
148
330
1F
100
AcDbEntity
  8
0
  6
Continuous
 62
     7
100
AcDbLine
 10
6383.9986828759
 20
5737.3822731811
 30
0.0
 11
6384.0365318254
 21
5737.4012274582
 31
0.0
  0
LINE
  5
149
330
1F
100
AcDbEntity
  8
0
  6
Continuous
 62
     7
100
AcDbLine
 10
6384.0365318254
 20
5737.4012274582
 30
0.0
 11
6384.0379995897
 21
5737.4019427139
 31
0.0
  0
LINE
  5
14A
330
1F
100
AcDbEntity
  8
0
  6
Continuous
 62
     7
100
AcDbLine
 10
6384.0379995897
 20
4694.5898337204
 30
0.0
 11
6383.9108032778
 21
4694.5898337204
 31
0.0
  0
LINE
  5
14B
330
1F
100
AcDbEntity
  8
0
  6
Continuous
 62
     7
100
AcDbLine
 10
6164.1267073944
 20
4694.5898337204
 30
0.0
 11
6163.9995110825
 21
4694.5898337204
 31
0.0
  0
LINE
  5
14C
330
1F
100
AcDbEntity
  8
0
  6
Continuous
 62
     7
100
AcDbLine
 10
6382.530888696
 20
5738.1090922195
 30
0.0
 11
6382.5301585391
 21
5738.1083769638
 31
0.0
  0
LINE
  5
14D
330
1F
100
AcDbEntity
  8
0
  6
Continuous
 62
     7
100
AcDbLine
 10
6382.5301585391
 20
5738.1083769638
 30
0.0
 11
6382.5112340644
 21
5738.0894226867
 31
0.0
  0
LINE
  5
14E
330
1F
100
AcDbEntity
  8
0
  6
Continuous
 62
     7
100
AcDbLine
 10
6382.5112340644
 20
5738.0894226867
 30
0.0
 11
6382.46729054
 21
5738.0454344589
 31
0.0
  0
LINE
  5
14F
330
1F
100
AcDbEntity
  8
0
  6
Continuous
 62
     7
100
AcDbLine
 10
6178.5187555149
 20
4688.4898338381
 30
0.0
 11
6184.5187527731
 21
4688.4898338381
 31
0.0
  0
LINE
  5
150
330
1F
100
AcDbEntity
  8
0
  6
Continuous
 62
     7
100
AcDbLine
 10
6216.018757005
 20
4688.4898338381
 30
0.0
 11
6222.0187542632
 21
4688.4898338381
 31
0.0
  0
LINE
  5
151
330
1F
100
AcDbEntity
  8
0
  6
Continuous
 62
     7
100
AcDbLine
 10
6363.5187578991
 20
4688.4898338381
 30
0.0
 11
6369.5187551573
 21
4688.4898338381
 31
0.0
  0
LINE
  5
152
330
1F
100
AcDbEntity
  8
0
  6
Continuous
 62
     7
100
AcDbLine
 10
6326.018756409
 20
4688.4898338381
 30
0.0
 11
6332.0187536672
 21
4688.4898338381
 31
0.0
  0
LINE
  5
153
330
1F
100
AcDbEntity
  8
0
  6
Continuous
 62
     7
100
AcDbLine
 10
6199.0187523559
 20
5703.1826777298
 30
0.0
 11
6199.0187523559
 21
5704.596976741
 31
0.0
  0
LINE
  5
154
330
1F
100
AcDbEntity
  8
0
  6
Continuous
 62
     7
100
AcDbLine
 10
6349.0187583163
 20
5703.1826777298
 30
0.0
 11
6349.0187583163
 21
5704.596976741
 31
0.0
  0
LINE
  5
155
330
1F
100
AcDbEntity
  8
0
  6
Continuous
 62
     7
100
AcDbLine
 10
6209.6386162236
 20
4692.9898337608
 30
0.0
 11
6209.6386162236
 21
4690.9898337822
 31
0.0
  0
LINE
  5
156
330
1F
100
AcDbEntity
  8
0
  6
Continuous
 62
     7
100
AcDbLine
 10
6338.3988944486
 20
4690.9898337822
 30
0.0
 11
6338.3988944486
 21
4692.9898337608
 31
0.0
  0
LINE
  5
157
330
1F
100
AcDbEntity
  8
0
  6
Continuous
 62
     7
100
AcDbLine
 10
6209.6386162236
 20
4690.9898337822
 30
0.0
 11
6338.3988944486
 21
4690.9898337822
 31
0.0
  0
LINE
  5
158
330
1F
100
AcDbEntity
  8
0
  6
Continuous
 62
     7
100
AcDbLine
 10
6203.1950784519
 20
4690.9898337822
 30
0.0
 11
6203.1950784519
 21
4692.9898337608
 31
0.0
  0
LINE
  5
159
330
1F
100
AcDbEntity
  8
0
  6
Continuous
 62
     7
100
AcDbLine
 10
6209.6386162236
 20
4690.9898337822
 30
0.0
 11
6203.1950784519
 21
4690.9898337822
 31
0.0
  0
LINE
  5
15A
330
1F
100
AcDbEntity
  8
0
  6
Continuous
 62
     7
100
AcDbLine
 10
6344.8424322203
 20
4692.9898337608
 30
0.0
 11
6344.8424322203
 21
4690.9898337822
 31
0.0
  0
LINE
  5
15B
330
1F
100
AcDbEntity
  8
0
  6
Continuous
 62
     7
100
AcDbLine
 10
6344.8424322203
 20
4690.9898337822
 30
0.0
 11
6338.3988944486
 21
4690.9898337822
 31
0.0
  0
LINE
  5
15C
330
1F
100
AcDbEntity
  8
0
  6
Continuous
 62
     7
100
AcDbLine
 10
6174.5752228096
 20
4692.9898337608
 30
0.0
 11
6174.5752228096
 21
4690.9898337822
 31
0.0
  0
LINE
  5
15D
330
1F
100
AcDbEntity
  8
0
  6
Continuous
 62
     7
100
AcDbLine
 10
6174.5752228096
 20
4690.9898337822
 30
0.0
 11
6203.1950784519
 21
4690.9898337822
 31
0.0
  0
LINE
  5
15E
330
1F
100
AcDbEntity
  8
0
  6
Continuous
 62
     7
100
AcDbLine
 10
6373.4622878626
 20
4690.9898337822
 30
0.0
 11
6373.4622878626
 21
4692.9898337608
 31
0.0
  0
LINE
  5
15F
330
1F
100
AcDbEntity
  8
0
  6
Continuous
 62
     7
100
AcDbLine
 10
6344.8424322203
 20
4690.9898337822
 30
0.0
 11
6373.4622878626
 21
4690.9898337822
 31
0.0
  0
LINE
  5
160
330
1F
100
AcDbEntity
  8
0
  6
Continuous
 62
     7
100
AcDbLine
 10
6174.018753846
 20
4690.9898337822
 30
0.0
 11
6174.018753846
 21
4692.9898337608
 31
0.0
  0
LINE
  5
161
330
1F
100
AcDbEntity
  8
0
  6
Continuous
 62
     7
100
AcDbLine
 10
6174.5752228096
 20
4690.9898337822
 30
0.0
 11
6174.018753846
 21
4690.9898337822
 31
0.0
  0
LINE
  5
162
330
1F
100
AcDbEntity
  8
0
  6
Continuous
 62
     7
100
AcDbLine
 10
6374.0187568262
 20
4692.9898337608
 30
0.0
 11
6374.0187568262
 21
4690.9898337822
 31
0.0
  0
LINE
  5
163
330
1F
100
AcDbEntity
  8
0
  6
Continuous
 62
     7
100
AcDbLine
 10
6374.0187568262
 20
4690.9898337822
 30
0.0
 11
6373.4622878626
 21
4690.9898337822
 31
0.0
  0
LINE
  5
164
330
1F
100
AcDbEntity
  8
0
  6
Continuous
 62
     7
100
AcDbLine
 10
6176.0187578991
 20
5734.1851992446
 30
0.0
 11
6176.0187578991
 21
5734.0930504638
 31
0.0
  0
LINE
  5
165
330
1F
100
AcDbEntity
  8
0
  6
Continuous
 62
     7
100
AcDbLine
 10
6176.0187578991
 20
5734.1851992446
 30
0.0
 11
6204.0187550381
 21
5734.1851992446
 31
0.0
  0
LINE
  5
166
330
1F
100
AcDbEntity
  8
0
  6
Continuous
 62
     7
100
AcDbLine
 10
6176.0187578991
 20
5734.0930504638
 30
0.0
 11
6204.0187550381
 21
5734.0930504638
 31
0.0
  0
LINE
  5
167
330
1F
100
AcDbEntity
  8
0
  6
Continuous
 62
     7
100
AcDbLine
 10
6204.0187550381
 20
5734.1851992446
 30
0.0
 11
6204.0187550381
 21
5734.0930504638
 31
0.0
  0
LINE
  5
168
330
1F
100
AcDbEntity
  8
0
  6
Continuous
 62
     7
100
AcDbLine
 10
6189.5778907135
 20
5735.7334894973
 30
0.0
 11
6188.6445564821
 21
5734.9339527923
 31
0.0
  0
LINE
  5
169
330
1F
100
AcDbEntity
  8
0
  6
Continuous
 62
     7
100
AcDbLine
 10
6189.3058551148
 20
5735.7334894973
 30
0.0
 11
6189.5778907135
 21
5735.7334894973
 31
0.0
  0
LINE
  5
16A
330
1F
100
AcDbEntity
  8
0
  6
Continuous
 62
     7
100
AcDbLine
 10
6188.6266080335
 20
5735.1513905365
 30
0.0
 11
6189.3058551148
 21
5735.7334894973
 31
0.0
  0
LINE
  5
16B
330
1F
100
AcDbEntity
  8
0
  6
Continuous
 62
     7
100
AcDbLine
 10
6187.9473609522
 20
5735.7334894973
 30
0.0
 11
6188.6266080335
 21
5735.1513905365
 31
0.0
  0
LINE
  5
16C
330
1F
100
AcDbEntity
  8
0
  6
Continuous
 62
     7
100
AcDbLine
 10
6187.6753253534
 20
5735.7334894973
 30
0.0
 11
6187.9473609522
 21
5735.7334894973
 31
0.0
  0
LINE
  5
16D
330
1F
100
AcDbEntity
  8
0
  6
Continuous
 62
     7
100
AcDbLine
 10
6188.6086595848
 20
5734.9339527923
 30
0.0
 11
6187.6753253534
 21
5735.7334894973
 31
0.0
  0
LINE
  5
16E
330
1F
100
AcDbEntity
  8
0
  6
Continuous
 62
     7
100
AcDbLine
 10
6188.6445564821
 20
5734.9339527923
 30
0.0
 11
6188.6086595848
 21
5734.9339527923
 31
0.0
  0
LINE
  5
16F
330
1F
100
AcDbEntity
  8
0
  6
Continuous
 62
     7
100
AcDbLine
 10
6180.3163570955
 20
5735.8709378082
 30
0.0
 11
6180.0891888931
 21
5735.8035845596
 31
0.0
  0
LINE
  5
170
330
1F
100
AcDbEntity
  8
0
  6
Continuous
 62
     7
100
AcDbLine
 10
6178.700966914
 20
5735.1450724441
 30
0.0
 11
6178.9376718596
 21
5735.2005047638
 31
0.0
  0
LINE
  5
171
330
1F
100
AcDbEntity
  8
0
  6
Continuous
 62
     7
100
AcDbLine
 10
6204.0187550381
 20
5736.9203371841
 30
0.0
 11
6176.0187578991
 21
5736.9203371841
 31
0.0
  0
LINE
  5
172
330
1F
100
AcDbEntity
  8
0
  6
Continuous
 62
     7
100
AcDbLine
 10
6176.0187578991
 20
5736.9203371841
 30
0.0
 11
6176.0187578991
 21
5734.1851992446
 31
0.0
  0
LINE
  5
173
330
1F
100
AcDbEntity
  8
0
  6
Continuous
 62
     7
100
AcDbLine
 10
6182.8650740579
 20
5735.3126807052
 30
0.0
 11
6181.0343024924
 21
5735.3126807052
 31
0.0
  0
LINE
  5
174
330
1F
100
AcDbEntity
  8
0
  6
Continuous
 62
     7
100
AcDbLine
 10
6182.5341416195
 20
5735.1864380676
 30
0.0
 11
6182.7573833659
 21
5735.1406617004
 31
0.0
  0
LINE
  5
175
330
1F
100
AcDbEntity
  8
0
  6
Continuous
 62
     7
100
AcDbLine
 10
6182.3266131476
 20
5736.0842032272
 30
0.0
 11
6181.7887110308
 21
5735.859732135
 31
0.0
  0
LINE
  5
176
330
1F
100
AcDbEntity
  8
0
  6
Continuous
 62
     7
100
AcDbLine
 10
6181.9345412448
 20
5736.0842032272
 30
0.0
 11
6182.3266131476
 21
5736.0842032272
 31
0.0
  0
LINE
  5
177
330
1F
100
AcDbEntity
  8
0
  6
Continuous
 62
     7
100
AcDbLine
 10
6181.5368665054
 20
5735.859732135
 30
0.0
 11
6181.9345412448
 21
5736.0842032272
 31
0.0
  0
LINE
  5
178
330
1F
100
AcDbEntity
  8
0
  6
Continuous
 62
     7
100
AcDbLine
 10
6181.7887110308
 20
5735.859732135
 30
0.0
 11
6181.5368665054
 21
5735.859732135
 31
0.0
  0
LINE
  5
179
330
1F
100
AcDbEntity
  8
0
  6
Continuous
 62
     7
100
AcDbLine
 10
6183.5471225575
 20
5735.202650531
 30
0.0
 11
6183.5471225575
 21
5734.9339527923
 31
0.0
  0
LINE
  5
17A
330
1F
100
AcDbEntity
  8
0
  6
Continuous
 62
     7
100
AcDbLine
 10
6184.2650754049
 20
5735.7201380569
 30
0.0
 11
6184.1270906523
 21
5735.6351418335
 31
0.0
  0
LINE
  5
17B
330
1F
100
AcDbEntity
  8
0
  6
Continuous
 62
     7
100
AcDbLine
 10
6183.5471225575
 20
5735.7334894973
 30
0.0
 11
6183.5471225575
 21
5735.6158299285
 31
0.0
  0
LINE
  5
17C
330
1F
100
AcDbEntity
  8
0
  6
Continuous
 62
     7
100
AcDbLine
 10
6183.2958442762
 20
5735.7334894973
 30
0.0
 11
6183.5471225575
 21
5735.7334894973
 31
0.0
  0
LINE
  5
17D
330
1F
100
AcDbEntity
  8
0
  6
Continuous
 62
     7
100
AcDbLine
 10
6183.2958442762
 20
5734.9339527923
 30
0.0
 11
6183.2958442762
 21
5735.7334894973
 31
0.0
  0
LINE
  5
17E
330
1F
100
AcDbEntity
  8
0
  6
Continuous
 62
     7
100
AcDbLine
 10
6183.5471225575
 20
5734.9339527923
 30
0.0
 11
6183.2958442762
 21
5734.9339527923
 31
0.0
  0
LINE
  5
17F
330
1F
100
AcDbEntity
  8
0
  6
Continuous
 62
     7
100
AcDbLine
 10
6184.7317425206
 20
5735.7334894973
 30
0.0
 11
6184.7317425206
 21
5734.9339527923
 31
0.0
  0
LINE
  5
180
330
1F
100
AcDbEntity
  8
0
  6
Continuous
 62
     7
100
AcDbLine
 10
6184.4804567888
 20
5735.7334894973
 30
0.0
 11
6184.7317425206
 21
5735.7334894973
 31
0.0
  0
LINE
  5
181
330
1F
100
AcDbEntity
  8
0
  6
Continuous
 62
     7
100
AcDbLine
 10
6184.4804567888
 20
5734.9339527923
 30
0.0
 11
6184.4804567888
 21
5735.7334894973
 31
0.0
  0
LINE
  5
182
330
1F
100
AcDbEntity
  8
0
  6
Continuous
 62
     7
100
AcDbLine
 10
6184.7317425206
 20
5734.9339527923
 30
0.0
 11
6184.4804567888
 21
5734.9339527923
 31
0.0
  0
LINE
  5
183
330
1F
100
AcDbEntity
  8
0
  6
Continuous
 62
     7
100
AcDbLine
 10
6192.0189169839
 20
5735.3126807052
 30
0.0
 11
6190.188152869
 21
5735.3126807052
 31
0.0
  0
LINE
  5
184
330
1F
100
AcDbEntity
  8
0
  6
Continuous
 62
     7
100
AcDbLine
 10
6191.6879919961
 20
5735.1864380676
 30
0.0
 11
6191.9112262919
 21
5735.1406617004
 31
0.0
  0
LINE
  5
185
330
1F
100
AcDbEntity
  8
0
  6
Continuous
 62
     7
100
AcDbLine
 10
6191.4804560736
 20
5736.0842032272
 30
0.0
 11
6190.9425539568
 21
5735.859732135
 31
0.0
  0
LINE
  5
186
330
1F
100
AcDbEntity
  8
0
  6
Continuous
 62
     7
100
AcDbLine
 10
6191.0883916214
 20
5736.0842032272
 30
0.0
 11
6191.4804560736
 21
5736.0842032272
 31
0.0
  0
LINE
  5
187
330
1F
100
AcDbEntity
  8
0
  6
Continuous
 62
     7
100
AcDbLine
 10
6190.690716882
 20
5735.859732135
 30
0.0
 11
6191.0883916214
 21
5736.0842032272
 31
0.0
  0
LINE
  5
188
330
1F
100
AcDbEntity
  8
0
  6
Continuous
 62
     7
100
AcDbLine
 10
6190.9425539568
 20
5735.859732135
 30
0.0
 11
6190.690716882
 21
5735.859732135
 31
0.0
  0
LINE
  5
189
330
1F
100
AcDbEntity
  8
0
  6
Continuous
 62
     7
100
AcDbLine
 10
6195.3983289793
 20
5735.1584238845
 30
0.0
 11
6195.6086588696
 21
5735.1045412857
 31
0.0
  0
LINE
  5
18A
330
1F
100
AcDbEntity
  8
0
  6
Continuous
 62
     7
100
AcDbLine
 10
6195.6086588696
 20
5735.5601591903
 30
0.0
 11
6195.3983289793
 21
5735.5090184051
 31
0.0
  0
LINE
  5
18B
330
1F
100
AcDbEntity
  8
0
  6
Continuous
 62
     7
100
AcDbLine
 10
6194.5872662261
 20
5735.945801242
 30
0.0
 11
6194.8761326864
 21
5736.042122348
 31
0.0
  0
LINE
  5
18C
330
1F
100
AcDbEntity
  8
0
  6
Continuous
 62
     7
100
AcDbLine
 10
6194.2944807604
 20
5736.042122348
 30
0.0
 11
6194.5872662261
 21
5735.945801242
 31
0.0
  0
LINE
  5
18D
330
1F
100
AcDbEntity
  8
0
  6
Continuous
 62
     7
100
AcDbLine
 10
6193.921482344
 20
5736.042122348
 30
0.0
 11
6194.2944807604
 21
5736.042122348
 31
0.0
  0
LINE
  5
18E
330
1F
100
AcDbEntity
  8
0
  6
Continuous
 62
     7
100
AcDbLine
 10
6194.4666785791
 20
5735.859732135
 30
0.0
 11
6193.921482344
 21
5736.042122348
 31
0.0
  0
LINE
  5
18F
330
1F
100
AcDbEntity
  8
0
  6
Continuous
 62
     7
100
AcDbLine
 10
6194.70280983
 20
5735.859732135
 30
0.0
 11
6194.4666785791
 21
5735.859732135
 31
0.0
  0
LINE
  5
190
330
1F
100
AcDbEntity
  8
0
  6
Continuous
 62
     7
100
AcDbLine
 10
6195.2496898964
 20
5736.042122348
 30
0.0
 11
6194.70280983
 21
5735.859732135
 31
0.0
  0
LINE
  5
191
330
1F
100
AcDbEntity
  8
0
  6
Continuous
 62
     7
100
AcDbLine
 10
6194.8761326864
 20
5736.042122348
 30
0.0
 11
6195.2496898964
 21
5736.042122348
 31
0.0
  0
LINE
  5
192
330
1F
100
AcDbEntity
  8
0
  6
Continuous
 62
     7
100
AcDbLine
 10
6196.326611717
 20
5735.7334894973
 30
0.0
 11
6196.326611717
 21
5734.9339527923
 31
0.0
  0
LINE
  5
193
330
1F
100
AcDbEntity
  8
0
  6
Continuous
 62
     7
100
AcDbLine
 10
6196.0753259852
 20
5735.7334894973
 30
0.0
 11
6196.326611717
 21
5735.7334894973
 31
0.0
  0
LINE
  5
194
330
1F
100
AcDbEntity
  8
0
  6
Continuous
 62
     7
100
AcDbLine
 10
6196.0753259852
 20
5734.9339527923
 30
0.0
 11
6196.0753259852
 21
5735.7334894973
 31
0.0
  0
LINE
  5
195
330
1F
100
AcDbEntity
  8
0
  6
Continuous
 62
     7
100
AcDbLine
 10
6196.326611717
 20
5734.9339527923
 30
0.0
 11
6196.0753259852
 21
5734.9339527923
 31
0.0
  0
LINE
  5
196
330
1F
100
AcDbEntity
  8
0
  6
Continuous
 62
     7
100
AcDbLine
 10
6196.7214850381
 20
5736.0842032272
 30
0.0
 11
6196.1835829213
 21
5735.859732135
 31
0.0
  0
LINE
  5
197
330
1F
100
AcDbEntity
  8
0
  6
Continuous
 62
     7
100
AcDbLine
 10
6196.3294131353
 20
5736.0842032272
 30
0.0
 11
6196.7214850381
 21
5736.0842032272
 31
0.0
  0
LINE
  5
198
330
1F
100
AcDbEntity
  8
0
  6
Continuous
 62
     7
100
AcDbLine
 10
6195.931738396
 20
5735.859732135
 30
0.0
 11
6196.3294131353
 21
5736.0842032272
 31
0.0
  0
LINE
  5
199
330
1F
100
AcDbEntity
  8
0
  6
Continuous
 62
     7
100
AcDbLine
 10
6196.1835829213
 20
5735.859732135
 30
0.0
 11
6195.931738396
 21
5735.859732135
 31
0.0
  0
LINE
  5
19A
330
1F
100
AcDbEntity
  8
0
  6
Continuous
 62
     7
100
AcDbLine
 10
6196.7214850381
 20
5735.0282473404
 30
0.0
 11
6196.8880725697
 21
5735.1022763092
 31
0.0
  0
LINE
  5
19B
330
1F
100
AcDbEntity
  8
0
  6
Continuous
 62
     7
100
AcDbLine
 10
6197.8702006534
 20
5735.6338305313
 30
0.0
 11
6197.6996866658
 21
5735.5651659805
 31
0.0
  0
LINE
  5
19C
330
1F
100
AcDbEntity
  8
0
  6
Continuous
 62
     7
100
AcDbLine
 10
6198.6240503982
 20
5736.0560698349
 30
0.0
 11
6198.6240503982
 21
5734.9339527923
 31
0.0
  0
LINE
  5
19D
330
1F
100
AcDbEntity
  8
0
  6
Continuous
 62
     7
100
AcDbLine
 10
6198.3727646664
 20
5736.0560698349
 30
0.0
 11
6198.6240503982
 21
5736.0560698349
 31
0.0
  0
LINE
  5
19E
330
1F
100
AcDbEntity
  8
0
  6
Continuous
 62
     7
100
AcDbLine
 10
6198.3727646664
 20
5734.9339527923
 30
0.0
 11
6198.3727646664
 21
5736.0560698349
 31
0.0
  0
LINE
  5
19F
330
1F
100
AcDbEntity
  8
0
  6
Continuous
 62
     7
100
AcDbLine
 10
6198.6240503982
 20
5734.9339527923
 30
0.0
 11
6198.3727646664
 21
5734.9339527923
 31
0.0
  0
LINE
  5
1A0
330
1F
100
AcDbEntity
  8
0
  6
Continuous
 62
     7
100
AcDbLine
 10
6204.0187550381
 20
5734.1851992446
 30
0.0
 11
6204.0187550381
 21
5736.9203371841
 31
0.0
  0
LINE
  5
1A1
330
1F
100
AcDbEntity
  8
0
  6
Continuous
 62
     7
100
AcDbLine
 10
6178.700966914
 20
5735.0990576583
 30
0.0
 11
6178.9376718596
 21
5735.154489978
 31
0.0
  0
LINE
  5
1A2
330
1F
100
AcDbEntity
  8
0
  6
Continuous
 62
     7
100
AcDbLine
 10
6196.781283398
 20
5735.0088162262
 30
0.0
 11
6196.8880725697
 21
5735.0562615234
 31
0.0
  0
LINE
  5
1A3
330
1F
100
AcDbEntity
  8
0
  6
Continuous
 62
     7
100
AcDbLine
 10
6195.3983289793
 20
5735.1124090988
 30
0.0
 11
6195.6086588696
 21
5735.0585264999
 31
0.0
  0
LINE
  5
1A4
330
1F
100
AcDbEntity
  8
0
  6
Continuous
 62
     7
100
AcDbLine
 10
6191.6879919961
 20
5735.1404232818
 30
0.0
 11
6191.9112262919
 21
5735.0946469146
 31
0.0
  0
LINE
  5
1A5
330
1F
100
AcDbEntity
  8
0
  6
Continuous
 62
     7
100
AcDbLine
 10
6190.2145130232
 20
5735.364894374
 30
0.0
 11
6191.7676387027
 21
5735.364894374
 31
0.0
  0
LINE
  5
1A6
330
1F
100
AcDbEntity
  8
0
  6
Continuous
 62
     7
100
AcDbLine
 10
6182.5341416195
 20
5735.1404232818
 30
0.0
 11
6182.7573833659
 21
5735.0946469146
 31
0.0
  0
LINE
  5
1A7
330
1F
100
AcDbEntity
  8
0
  6
Continuous
 62
     7
100
AcDbLine
 10
6181.0606626466
 20
5735.364894374
 30
0.0
 11
6182.6137883261
 21
5735.364894374
 31
0.0
  0
LINE
  5
1A8
330
1F
100
AcDbEntity
  8
0
  6
Continuous
 62
     7
100
AcDbLine
 10
6196.0753259852
 20
5735.6874747116
 30
0.0
 11
6196.326611717
 21
5735.6874747116
 31
0.0
  0
LINE
  5
1A9
330
1F
100
AcDbEntity
  8
0
  6
Continuous
 62
     7
100
AcDbLine
 10
6198.3727646664
 20
5736.0100550491
 30
0.0
 11
6198.6240503982
 21
5736.0100550491
 31
0.0
  0
LINE
  5
1AA
330
1F
100
AcDbEntity
  8
0
  6
Continuous
 62
     7
100
AcDbLine
 10
6187.7290589407
 20
5735.6874747116
 30
0.0
 11
6187.9473609522
 21
5735.6874747116
 31
0.0
  0
LINE
  5
1AB
330
1F
100
AcDbEntity
  8
0
  6
Continuous
 62
     7
100
AcDbLine
 10
6187.9473609522
 20
5735.6874747116
 30
0.0
 11
6188.6266080335
 21
5735.1053757507
 31
0.0
  0
LINE
  5
1AC
330
1F
100
AcDbEntity
  8
0
  6
Continuous
 62
     7
100
AcDbLine
 10
6188.6266080335
 20
5735.1053757507
 30
0.0
 11
6189.3058551148
 21
5735.6874747116
 31
0.0
  0
LINE
  5
1AD
330
1F
100
AcDbEntity
  8
0
  6
Continuous
 62
     7
100
AcDbLine
 10
6189.3058551148
 20
5735.6874747116
 30
0.0
 11
6189.5241645768
 21
5735.6874747116
 31
0.0
  0
LINE
  5
1AE
330
1F
100
AcDbEntity
  8
0
  6
Continuous
 62
     7
100
AcDbLine
 10
6184.4804567888
 20
5735.6874747116
 30
0.0
 11
6184.7317425206
 21
5735.6874747116
 31
0.0
  0
LINE
  5
1AF
330
1F
100
AcDbEntity
  8
0
  6
Continuous
 62
     7
100
AcDbLine
 10
6183.2958442762
 20
5735.6874747116
 30
0.0
 11
6183.5471225575
 21
5735.6874747116
 31
0.0
  0
LINE
  5
1B0
330
1F
100
AcDbEntity
  8
0
  6
Continuous
 62
     7
100
AcDbLine
 10
6197.6548192695
 20
5735.1007265884
 30
0.0
 11
6197.6548192695
 21
5735.1467413742
 31
0.0
  0
LINE
  5
1B1
330
1F
100
AcDbEntity
  8
0
  6
Continuous
 62
     7
100
AcDbLine
 10
6197.293600221
 20
5734.972099765
 30
0.0
 11
6197.293600221
 21
5735.0181145507
 31
0.0
  0
LINE
  5
1B2
330
1F
100
AcDbEntity
  8
0
  6
Continuous
 62
     7
100
AcDbLine
 10
6200.9932754233
 20
5735.2849049408
 30
0.0
 11
6200.9932754233
 21
5735.3309197265
 31
0.0
  0
LINE
  5
1B3
330
1F
100
AcDbEntity
  8
0
  6
Continuous
 62
     7
100
AcDbLine
 10
6200.1855877832
 20
5734.972099765
 30
0.0
 11
6200.1855877832
 21
5735.0181145507
 31
0.0
  0
LINE
  5
1B4
330
1F
100
AcDbEntity
  8
0
  6
Continuous
 62
     7
100
AcDbLine
 10
6199.3778926924
 20
5735.2849049408
 30
0.0
 11
6199.3778926924
 21
5735.3309197265
 31
0.0
  0
LINE
  5
1B5
330
1F
100
AcDbEntity
  8
0
  6
Continuous
 62
     7
100
AcDbLine
 10
6194.6551335648
 20
5734.972099765
 30
0.0
 11
6194.6551335648
 21
5735.0181145507
 31
0.0
  0
LINE
  5
1B6
330
1F
100
AcDbEntity
  8
0
  6
Continuous
 62
     7
100
AcDbLine
 10
6193.7778947547
 20
5735.2899117309
 30
0.0
 11
6193.7778947547
 21
5735.3359265167
 31
0.0
  0
LINE
  5
1B7
330
1F
100
AcDbEntity
  8
0
  6
Continuous
 62
     7
100
AcDbLine
 10
6195.3983289793
 20
5735.1124090988
 30
0.0
 11
6195.3983289793
 21
5735.1584238845
 31
0.0
  0
LINE
  5
1B8
330
1F
100
AcDbEntity
  8
0
  6
Continuous
 62
     7
100
AcDbLine
 10
6191.6879919961
 20
5735.1404232818
 30
0.0
 11
6191.6879919961
 21
5735.1864380676
 31
0.0
  0
LINE
  5
1B9
330
1F
100
AcDbEntity
  8
0
  6
Continuous
 62
     7
100
AcDbLine
 10
6190.9347010449
 20
5734.972099765
 30
0.0
 11
6190.9347010449
 21
5735.0181145507
 31
0.0
  0
LINE
  5
1BA
330
1F
100
AcDbEntity
  8
0
  6
Continuous
 62
     7
100
AcDbLine
 10
6190.188152869
 20
5735.2666659195
 30
0.0
 11
6190.188152869
 21
5735.3126807052
 31
0.0
  0
LINE
  5
1BB
330
1F
100
AcDbEntity
  8
0
  6
Continuous
 62
     7
100
AcDbLine
 10
6196.8880725697
 20
5735.0562615234
 30
0.0
 11
6196.8880725697
 21
5735.1022763092
 31
0.0
  0
LINE
  5
1BC
330
1F
100
AcDbEntity
  8
0
  6
Continuous
 62
     7
100
AcDbLine
 10
6182.5341416195
 20
5735.1404232818
 30
0.0
 11
6182.5341416195
 21
5735.1864380676
 31
0.0
  0
LINE
  5
1BD
330
1F
100
AcDbEntity
  8
0
  6
Continuous
 62
     7
100
AcDbLine
 10
6181.7808581188
 20
5734.972099765
 30
0.0
 11
6181.7808581188
 21
5735.0181145507
 31
0.0
  0
LINE
  5
1BE
330
1F
100
AcDbEntity
  8
0
  6
Continuous
 62
     7
100
AcDbLine
 10
6180.1009682611
 20
5735.1575894195
 30
0.0
 11
6180.1009682611
 21
5735.2036042053
 31
0.0
  0
LINE
  5
1BF
330
1F
100
AcDbEntity
  8
0
  6
Continuous
 62
     7
100
AcDbLine
 10
6179.552411814
 20
5734.972099765
 30
0.0
 11
6179.552411814
 21
5735.0181145507
 31
0.0
  0
LINE
  5
1C0
330
1F
100
AcDbEntity
  8
0
  6
Continuous
 62
     7
100
AcDbLine
 10
6181.0343024924
 20
5735.2666659195
 30
0.0
 11
6181.0343024924
 21
5735.3126807052
 31
0.0
  0
LINE
  5
1C1
330
1F
100
AcDbEntity
  8
0
  6
Continuous
 62
     7
100
AcDbLine
 10
6178.9376718596
 20
5735.154489978
 30
0.0
 11
6178.9376718596
 21
5735.2005047638
 31
0.0
  0
LINE
  5
1C2
330
1F
100
AcDbEntity
  8
0
  6
Continuous
 62
     7
100
AcDbLine
 10
6186.3291768029
 20
5734.972099765
 30
0.0
 11
6186.3291768029
 21
5735.0181145507
 31
0.0
  0
LINE
  5
1C3
330
1F
100
AcDbEntity
  8
0
  6
Continuous
 62
     7
100
AcDbLine
 10
6185.5214817122
 20
5735.2849049408
 30
0.0
 11
6185.5214817122
 21
5735.3309197265
 31
0.0
  0
LINE
  5
1C4
330
1F
100
AcDbEntity
  8
0
  6
Continuous
 62
     7
100
AcDbLine
 10
6187.1368644431
 20
5735.2849049408
 30
0.0
 11
6187.1368644431
 21
5735.3309197265
 31
0.0
  0
LINE
  5
1C5
330
1F
100
AcDbEntity
  8
0
  6
Continuous
 62
     7
100
AcDbLine
 10
6197.8107450202
 20
5735.2285189468
 30
0.0
 11
6197.8107450202
 21
5735.2745337326
 31
0.0
  0
LINE
  5
1C6
330
1F
100
AcDbEntity
  8
0
  6
Continuous
 62
     7
100
AcDbLine
 10
6188.6266080335
 20
5735.1053757507
 30
0.0
 11
6188.6266080335
 21
5735.1513905365
 31
0.0
  0
LINE
  5
1C7
330
1F
100
AcDbEntity
  8
0
  6
Continuous
 62
     7
100
AcDbLine
 10
6187.9473609522
 20
5735.6874747116
 30
0.0
 11
6187.9473609522
 21
5735.7334894973
 31
0.0
  0
LINE
  5
1C8
330
1F
100
AcDbEntity
  8
0
  6
Continuous
 62
     7
100
AcDbLine
 10
6189.3058551148
 20
5735.6874747116
 30
0.0
 11
6189.3058551148
 21
5735.7334894973
 31
0.0
  0
LINE
  5
1C9
330
1F
100
AcDbEntity
  8
0
  6
Continuous
 62
     7
100
AcDbLine
 10
6179.6926391914
 20
5735.5090184051
 30
0.0
 11
6179.6926391914
 21
5735.5551524002
 31
0.0
  0
LINE
  5
1CA
330
1F
100
AcDbEntity
  8
0
  6
Continuous
 62
     7
100
AcDbLine
 10
6197.4422393039
 20
5735.3408140976
 30
0.0
 11
6197.4422393039
 21
5735.3868288833
 31
0.0
  0
LINE
  5
1CB
330
1F
100
AcDbEntity
  8
0
  6
Continuous
 62
     7
100
AcDbLine
 10
6191.7962414816
 20
5735.5441851455
 30
0.0
 11
6191.7962414816
 21
5735.5901999313
 31
0.0
  0
LINE
  5
1CC
330
1F
100
AcDbEntity
  8
0
  6
Continuous
 62
     7
100
AcDbLine
 10
6182.6423985556
 20
5735.5441851455
 30
0.0
 11
6182.6423985556
 21
5735.5901999313
 31
0.0
  0
LINE
  5
1CD
330
1F
100
AcDbEntity
  8
0
  6
Continuous
 62
     7
100
AcDbLine
 10
6194.6719644263
 20
5735.7015414077
 30
0.0
 11
6194.6719644263
 21
5735.7475561935
 31
0.0
  0
LINE
  5
1CE
330
1F
100
AcDbEntity
  8
0
  6
Continuous
 62
     7
100
AcDbLine
 10
6199.4070617154
 20
5735.569099887
 30
0.0
 11
6199.4070617154
 21
5735.6151146728
 31
0.0
  0
LINE
  5
1CF
330
1F
100
AcDbEntity
  8
0
  6
Continuous
 62
     7
100
AcDbLine
 10
6200.9641138509
 20
5735.5698151428
 30
0.0
 11
6200.9641138509
 21
5735.6158299285
 31
0.0
  0
LINE
  5
1D0
330
1F
100
AcDbEntity
  8
0
  6
Continuous
 62
     7
100
AcDbLine
 10
6190.1724470451
 20
5735.5524105865
 30
0.0
 11
6190.1724470451
 21
5735.5985445816
 31
0.0
  0
LINE
  5
1D1
330
1F
100
AcDbEntity
  8
0
  6
Continuous
 62
     7
100
AcDbLine
 10
6187.1077028707
 20
5735.5698151428
 30
0.0
 11
6187.1077028707
 21
5735.6158299285
 31
0.0
  0
LINE
  5
1D2
330
1F
100
AcDbEntity
  8
0
  6
Continuous
 62
     7
100
AcDbLine
 10
6185.5506507352
 20
5735.569099887
 30
0.0
 11
6185.5506507352
 21
5735.6151146728
 31
0.0
  0
LINE
  5
1D3
330
1F
100
AcDbEntity
  8
0
  6
Continuous
 62
     7
100
AcDbLine
 10
6181.0185966685
 20
5735.5524105865
 30
0.0
 11
6181.0185966685
 21
5735.5985445816
 31
0.0
  0
LINE
  5
1D4
330
1F
100
AcDbEntity
  8
0
  6
Continuous
 62
     7
100
AcDbLine
 10
6197.1500051811
 20
5735.4231877166
 30
0.0
 11
6197.1500051811
 21
5735.4692025024
 31
0.0
  0
LINE
  5
1D5
330
1F
100
AcDbEntity
  8
0
  6
Continuous
 62
     7
100
AcDbLine
 10
6190.2145130232
 20
5735.4109091598
 30
0.0
 11
6191.7676387027
 21
5735.4109091598
 31
0.0
  0
LINE
  5
1D6
330
1F
100
AcDbEntity
  8
0
  6
Continuous
 62
     7
100
AcDbLine
 10
6190.2145130232
 20
5735.364894374
 30
0.0
 11
6190.2145130232
 21
5735.4109091598
 31
0.0
  0
LINE
  5
1D7
330
1F
100
AcDbEntity
  8
0
  6
Continuous
 62
     7
100
AcDbLine
 10
6191.7676387027
 20
5735.364894374
 30
0.0
 11
6191.7676387027
 21
5735.4109091598
 31
0.0
  0
LINE
  5
1D8
330
1F
100
AcDbEntity
  8
0
  6
Continuous
 62
     7
100
AcDbLine
 10
6182.6137883261
 20
5735.364894374
 30
0.0
 11
6182.6137883261
 21
5735.4109091598
 31
0.0
  0
LINE
  5
1D9
330
1F
100
AcDbEntity
  8
0
  6
Continuous
 62
     7
100
AcDbLine
 10
6181.0606626466
 20
5735.364894374
 30
0.0
 11
6181.0606626466
 21
5735.4109091598
 31
0.0
  0
LINE
  5
1DA
330
1F
100
AcDbEntity
  8
0
  6
Continuous
 62
     7
100
AcDbLine
 10
6181.0606626466
 20
5735.4109091598
 30
0.0
 11
6182.6137883261
 21
5735.4109091598
 31
0.0
  0
LINE
  5
1DB
330
1F
100
AcDbEntity
  8
0
  6
Continuous
 62
     7
100
AcDbLine
 10
6197.0804540113
 20
5735.4956669647
 30
0.0
 11
6197.0804540113
 21
5735.5416817504
 31
0.0
  0
LINE
  5
1DC
330
1F
100
AcDbEntity
  8
0
  6
Continuous
 62
     7
100
AcDbLine
 10
6197.3463205293
 20
5735.7015414077
 30
0.0
 11
6197.3463205293
 21
5735.7475561935
 31
0.0
  0
LINE
  5
1DD
330
1F
100
AcDbEntity
  8
0
  6
Continuous
 62
     7
100
AcDbLine
 10
6179.3162731126
 20
5735.6179756958
 30
0.0
 11
6179.3162731126
 21
5735.6639904815
 31
0.0
  0
LINE
  5
1DE
330
1F
100
AcDbEntity
  8
0
  6
Continuous
 62
     7
100
AcDbLine
 10
6190.9722817734
 20
5735.7015414077
 30
0.0
 11
6190.9722817734
 21
5735.7475561935
 31
0.0
  0
LINE
  5
1DF
330
1F
100
AcDbEntity
  8
0
  6
Continuous
 62
     7
100
AcDbLine
 10
6181.8184388474
 20
5735.7015414077
 30
0.0
 11
6181.8184388474
 21
5735.7475561935
 31
0.0
  0
LINE
  5
1E0
330
1F
100
AcDbEntity
  8
0
  6
Continuous
 62
     7
100
AcDbLine
 10
6200.1867053702
 20
5735.7015414077
 30
0.0
 11
6200.1867053702
 21
5735.7475561935
 31
0.0
  0
LINE
  5
1E1
330
1F
100
AcDbEntity
  8
0
  6
Continuous
 62
     7
100
AcDbLine
 10
6186.33029439
 20
5735.7015414077
 30
0.0
 11
6186.33029439
 21
5735.7475561935
 31
0.0
  0
LINE
  5
1E2
330
1F
100
AcDbEntity
  8
0
  6
Continuous
 62
     7
100
AcDbLine
 10
6184.046318908
 20
5735.7015414077
 30
0.0
 11
6184.046318908
 21
5735.7475561935
 31
0.0
  0
LINE
  5
1E3
330
1F
100
AcDbEntity
  8
0
  6
Continuous
 62
     7
100
AcDbLine
 10
6183.5471225575
 20
5735.5698151428
 30
0.0
 11
6183.5471225575
 21
5735.6158299285
 31
0.0
  0
LINE
  5
1E4
330
1F
100
AcDbEntity
  8
0
  6
Continuous
 62
     7
100
AcDbLine
 10
6179.1317371324
 20
5735.7593579132
 30
0.0
 11
6179.1317371324
 21
5735.8053726989
 31
0.0
  0
LINE
  5
1E5
330
1F
100
AcDbEntity
  8
0
  6
Continuous
 62
     7
100
AcDbLine
 10
6179.5703602627
 20
5736.0100550491
 30
0.0
 11
6179.5703602627
 21
5736.0560698349
 31
0.0
  0
LINE
  5
1E6
330
1F
100
AcDbEntity
  8
0
  6
Continuous
 62
     7
100
AcDbLine
 10
6196.3294131353
 20
5736.0380692321
 30
0.0
 11
6196.3294131353
 21
5736.0842032272
 31
0.0
  0
LINE
  5
1E7
330
1F
100
AcDbEntity
  8
0
  6
Continuous
 62
     7
100
AcDbLine
 10
6196.0132999018
 20
5735.859732135
 30
0.0
 11
6196.3294131353
 21
5736.0380692321
 31
0.0
  0
LINE
  5
1E8
330
1F
100
AcDbEntity
  8
0
  6
Continuous
 62
     7
100
AcDbLine
 10
6191.0883916214
 20
5736.0380692321
 30
0.0
 11
6191.0883916214
 21
5736.0842032272
 31
0.0
  0
LINE
  5
1E9
330
1F
100
AcDbEntity
  8
0
  6
Continuous
 62
     7
100
AcDbLine
 10
6190.7722709373
 20
5735.859732135
 30
0.0
 11
6191.0883916214
 21
5736.0380692321
 31
0.0
  0
LINE
  5
1EA
330
1F
100
AcDbEntity
  8
0
  6
Continuous
 62
     7
100
AcDbLine
 10
6181.9345412448
 20
5736.0380692321
 30
0.0
 11
6181.9345412448
 21
5736.0842032272
 31
0.0
  0
LINE
  5
1EB
330
1F
100
AcDbEntity
  8
0
  6
Continuous
 62
     7
100
AcDbLine
 10
6181.6184280112
 20
5735.859732135
 30
0.0
 11
6181.9345412448
 21
5736.0380692321
 31
0.0
  0
LINE
  5
1EC
330
1F
100
AcDbEntity
  8
0
  6
Continuous
 62
     7
100
AcDbLine
 10
6194.0590945676
 20
5735.9959883529
 30
0.0
 11
6194.2944807604
 21
5735.9959883529
 31
0.0
  0
LINE
  5
1ED
330
1F
100
AcDbEntity
  8
0
  6
Continuous
 62
     7
100
AcDbLine
 10
6194.2944807604
 20
5735.9959883529
 30
0.0
 11
6194.5872662261
 21
5735.8997864563
 31
0.0
  0
LINE
  5
1EE
330
1F
100
AcDbEntity
  8
0
  6
Continuous
 62
     7
100
AcDbLine
 10
6194.5872662261
 20
5735.8997864563
 30
0.0
 11
6194.8761326864
 21
5735.9959883529
 31
0.0
  0
LINE
  5
1EF
330
1F
100
AcDbEntity
  8
0
  6
Continuous
 62
     7
100
AcDbLine
 10
6194.8761326864
 20
5735.9959883529
 30
0.0
 11
6195.1116529897
 21
5735.9959883529
 31
0.0
  0
LINE
  5
1F0
330
1F
100
AcDbEntity
  8
0
  6
Continuous
 62
     7
100
AcDbLine
 10
6196.3294131353
 20
5736.0380692321
 30
0.0
 11
6196.6111642912
 21
5736.0380692321
 31
0.0
  0
LINE
  5
1F1
330
1F
100
AcDbEntity
  8
0
  6
Continuous
 62
     7
100
AcDbLine
 10
6191.0883916214
 20
5736.0380692321
 30
0.0
 11
6191.3701427773
 21
5736.0380692321
 31
0.0
  0
LINE
  5
1F2
330
1F
100
AcDbEntity
  8
0
  6
Continuous
 62
     7
100
AcDbLine
 10
6181.9345412448
 20
5736.0380692321
 30
0.0
 11
6182.2162924007
 21
5736.0380692321
 31
0.0
  0
LINE
  5
1F3
330
1F
100
AcDbEntity
  8
0
  6
Continuous
 62
     7
100
AcDbLine
 10
6194.8761326864
 20
5735.9959883529
 30
0.0
 11
6194.8761326864
 21
5736.042122348
 31
0.0
  0
LINE
  5
1F4
330
1F
100
AcDbEntity
  8
0
  6
Continuous
 62
     7
100
AcDbLine
 10
6194.5872662261
 20
5735.8997864563
 30
0.0
 11
6194.5872662261
 21
5735.945801242
 31
0.0
  0
LINE
  5
1F5
330
1F
100
AcDbEntity
  8
0
  6
Continuous
 62
     7
100
AcDbLine
 10
6194.2944807604
 20
5735.9959883529
 30
0.0
 11
6194.2944807604
 21
5736.042122348
 31
0.0
  0
LINE
  5
1F6
330
1F
100
AcDbEntity
  8
0
  6
Continuous
 62
     7
100
AcDbLine
 10
6184.6049783423
 20
5736.0241217453
 30
0.0
 11
6184.6049783423
 21
5736.070136531
 31
0.0
  0
LINE
  5
1F7
330
1F
100
AcDbEntity
  8
0
  6
Continuous
 62
     7
100
AcDbLine
 10
6268.3687551551
 20
5604.403178199
 30
0.0
 11
6268.5462605812
 21
5603.700618251
 31
0.0
  0
LINE
  5
1F8
330
1F
100
AcDbEntity
  8
0
  6
Continuous
 62
     7
100
AcDbLine
 10
6268.5462605812
 20
5603.700618251
 30
0.0
 11
6269.067622409
 21
5603.0422253448
 31
0.0
  0
LINE
  5
1F9
330
1F
100
AcDbEntity
  8
0
  6
Continuous
 62
     7
100
AcDbLine
 10
6269.067622409
 20
5603.0422253448
 30
0.0
 11
6269.900082764
 21
5602.4693054992
 31
0.0
  0
LINE
  5
1FA
330
1F
100
AcDbEntity
  8
0
  6
Continuous
 62
     7
100
AcDbLine
 10
6269.900082764
 20
5602.4693054992
 30
0.0
 11
6270.9913339138
 21
5602.0179195243
 31
0.0
  0
LINE
  5
1FB
330
1F
100
AcDbEntity
  8
0
  6
Continuous
 62
     7
100
AcDbLine
 10
6270.9913339138
 20
5602.0179195243
 30
0.0
 11
6272.2728093293
 21
5601.7164392311
 31
0.0
  0
LINE
  5
1FC
330
1F
100
AcDbEntity
  8
0
  6
Continuous
 62
     7
100
AcDbLine
 10
6272.2728093293
 20
5601.7164392311
 30
0.0
 11
6273.6639888979
 21
5601.5837592918
 31
0.0
  0
LINE
  5
1FD
330
1F
100
AcDbEntity
  8
0
  6
Continuous
 62
     7
100
AcDbLine
 10
6273.6639888979
 20
5601.5837592918
 30
0.0
 11
6275.0774597887
 21
5601.6282243568
 31
0.0
  0
LINE
  5
1FE
330
1F
100
AcDbEntity
  8
0
  6
Continuous
 62
     7
100
AcDbLine
 10
6275.0774597887
 20
5601.6282243568
 30
0.0
 11
6276.4244083453
 21
5601.8470330078
 31
0.0
  0
LINE
  5
1FF
330
1F
100
AcDbEntity
  8
0
  6
Continuous
 62
     7
100
AcDbLine
 10
6276.4244083453
 20
5601.8470330078
 30
0.0
 11
6277.6202009197
 21
5602.2264761764
 31
0.0
  0
LINE
  5
200
330
1F
100
AcDbEntity
  8
0
  6
Continuous
 62
     7
100
AcDbLine
 10
6277.6202009197
 20
5602.2264761764
 30
0.0
 11
6278.5897014335
 21
5602.7426524002
 31
0.0
  0
LINE
  5
201
330
1F
100
AcDbEntity
  8
0
  6
Continuous
 62
     7
100
AcDbLine
 10
6278.5897014335
 20
5602.7426524002
 30
0.0
 11
6279.2719925426
 21
5603.3631963569
 31
0.0
  0
LINE
  5
202
330
1F
100
AcDbEntity
  8
0
  6
Continuous
 62
     7
100
AcDbLine
 10
6279.2719925426
 20
5603.3631963569
 30
0.0
 11
6279.6242033735
 21
5604.049126609
 31
0.0
  0
LINE
  5
203
330
1F
100
AcDbEntity
  8
0
  6
Continuous
 62
     7
100
AcDbLine
 10
6279.6242033735
 20
5604.049126609
 30
0.0
 11
6279.6242033735
 21
5604.7572297889
 31
0.0
  0
LINE
  5
204
330
1F
100
AcDbEntity
  8
0
  6
Continuous
 62
     7
100
AcDbLine
 10
6279.6242033735
 20
5604.7572297889
 30
0.0
 11
6279.2719925426
 21
5605.4431004364
 31
0.0
  0
LINE
  5
205
330
1F
100
AcDbEntity
  8
0
  6
Continuous
 62
     7
100
AcDbLine
 10
6279.2719925426
 20
5605.4431004364
 30
0.0
 11
6278.5897014335
 21
5606.0636443931
 31
0.0
  0
LINE
  5
206
330
1F
100
AcDbEntity
  8
0
  6
Continuous
 62
     7
100
AcDbLine
 10
6278.5897014335
 20
5606.0636443931
 30
0.0
 11
6277.6202009197
 21
5606.5798802215
 31
0.0
  0
LINE
  5
207
330
1F
100
AcDbEntity
  8
0
  6
Continuous
 62
     7
100
AcDbLine
 10
6277.6202009197
 20
5606.5798802215
 30
0.0
 11
6276.4244083453
 21
5606.9593233902
 31
0.0
  0
LINE
  5
208
330
1F
100
AcDbEntity
  8
0
  6
Continuous
 62
     7
100
AcDbLine
 10
6276.4244083453
 20
5606.9593233902
 30
0.0
 11
6275.0774597887
 21
5607.1781320411
 31
0.0
  0
LINE
  5
209
330
1F
100
AcDbEntity
  8
0
  6
Continuous
 62
     7
100
AcDbLine
 10
6275.0774597887
 20
5607.1781320411
 30
0.0
 11
6273.6639888979
 21
5607.2225971061
 31
0.0
  0
LINE
  5
20A
330
1F
100
AcDbEntity
  8
0
  6
Continuous
 62
     7
100
AcDbLine
 10
6273.6639888979
 20
5607.2225971061
 30
0.0
 11
6272.2728093293
 21
5607.0899171669
 31
0.0
  0
LINE
  5
20B
330
1F
100
AcDbEntity
  8
0
  6
Continuous
 62
     7
100
AcDbLine
 10
6272.2728093293
 20
5607.0899171669
 30
0.0
 11
6270.9913339138
 21
5606.7883772689
 31
0.0
  0
LINE
  5
20C
330
1F
100
AcDbEntity
  8
0
  6
Continuous
 62
     7
100
AcDbLine
 10
6270.9913339138
 20
5606.7883772689
 30
0.0
 11
6269.900082764
 21
5606.3369912941
 31
0.0
  0
LINE
  5
20D
330
1F
100
AcDbEntity
  8
0
  6
Continuous
 62
     7
100
AcDbLine
 10
6269.900082764
 20
5606.3369912941
 30
0.0
 11
6269.067622409
 21
5605.7641310531
 31
0.0
  0
LINE
  5
20E
330
1F
100
AcDbEntity
  8
0
  6
Continuous
 62
     7
100
AcDbLine
 10
6269.067622409
 20
5605.7641310531
 30
0.0
 11
6268.5462605812
 21
5605.1057381469
 31
0.0
  0
LINE
  5
20F
330
1F
100
AcDbEntity
  8
0
  6
Continuous
 62
     7
100
AcDbLine
 10
6268.5462605812
 20
5605.1057381469
 30
0.0
 11
6268.3687551551
 21
5604.403178199
 31
0.0
  0
LINE
  5
210
330
1F
100
AcDbEntity
  8
0
  6
Continuous
 62
     7
100
AcDbLine
 10
6274.0187553361
 20
5613.3399410087
 30
0.0
 11
6276.3496289633
 21
5613.2482690651
 31
0.0
  0
LINE
  5
211
330
1F
100
AcDbEntity
  8
0
  6
Continuous
 62
     7
100
AcDbLine
 10
6276.3496289633
 20
5613.2482690651
 30
0.0
 11
6278.6231084399
 21
5612.9753393966
 31
0.0
  0
LINE
  5
212
330
1F
100
AcDbEntity
  8
0
  6
Continuous
 62
     7
100
AcDbLine
 10
6278.6231084399
 20
5612.9753393966
 30
0.0
 11
6280.7832138285
 21
5612.5279469329
 31
0.0
  0
LINE
  5
213
330
1F
100
AcDbEntity
  8
0
  6
Continuous
 62
     7
100
AcDbLine
 10
6280.7832138285
 20
5612.5279469329
 30
0.0
 11
6282.7767554343
 21
5611.9171185333
 31
0.0
  0
LINE
  5
214
330
1F
100
AcDbEntity
  8
0
  6
Continuous
 62
     7
100
AcDbLine
 10
6282.7767554343
 20
5611.9171185333
 30
0.0
 11
6284.5546465039
 21
5611.1579341728
 31
0.0
  0
LINE
  5
215
330
1F
100
AcDbEntity
  8
0
  6
Continuous
 62
     7
100
AcDbLine
 10
6284.5546465039
 20
5611.1579341728
 30
0.0
 11
6286.0731083572
 21
5610.2689905006
 31
0.0
  0
LINE
  5
216
330
1F
100
AcDbEntity
  8
0
  6
Continuous
 62
     7
100
AcDbLine
 10
6286.0731083572
 20
5610.2689905006
 30
0.0
 11
6287.294752118
 21
5609.272222026
 31
0.0
  0
LINE
  5
217
330
1F
100
AcDbEntity
  8
0
  6
Continuous
 62
     7
100
AcDbLine
 10
6287.294752118
 20
5609.272222026
 30
0.0
 11
6288.1894969985
 21
5608.192126258
 31
0.0
  0
LINE
  5
218
330
1F
100
AcDbEntity
  8
0
  6
Continuous
 62
     7
100
AcDbLine
 10
6288.1894969985
 20
5608.192126258
 30
0.0
 11
6288.7353116319
 21
5607.0554060775
 31
0.0
  0
LINE
  5
219
330
1F
100
AcDbEntity
  8
0
  6
Continuous
 62
     7
100
AcDbLine
 10
6288.7353116319
 20
5607.0554060775
 30
0.0
 11
6288.9187551707
 21
5605.8899564582
 31
0.0
  0
LINE
  5
21A
330
1F
100
AcDbEntity
  8
0
  6
Continuous
 62
     7
100
AcDbLine
 10
6288.9187551707
 20
5605.8899564582
 30
0.0
 11
6288.7353116319
 21
5604.7245068389
 31
0.0
  0
LINE
  5
21B
330
1F
100
AcDbEntity
  8
0
  6
Continuous
 62
     7
100
AcDbLine
 10
6288.7353116319
 20
5604.7245068389
 30
0.0
 11
6288.1894969985
 21
5603.5877866584
 31
0.0
  0
LINE
  5
21C
330
1F
100
AcDbEntity
  8
0
  6
Continuous
 62
     7
100
AcDbLine
 10
6288.1894969985
 20
5603.5877866584
 30
0.0
 11
6287.294752118
 21
5602.5077504951
 31
0.0
  0
LINE
  5
21D
330
1F
100
AcDbEntity
  8
0
  6
Continuous
 62
     7
100
AcDbLine
 10
6287.294752118
 20
5602.5077504951
 30
0.0
 11
6286.0731083572
 21
5601.5109820205
 31
0.0
  0
LINE
  5
21E
330
1F
100
AcDbEntity
  8
0
  6
Continuous
 62
     7
100
AcDbLine
 10
6286.0731083572
 20
5601.5109820205
 30
0.0
 11
6284.5546465039
 21
5600.6220383483
 31
0.0
  0
LINE
  5
21F
330
1F
100
AcDbEntity
  8
0
  6
Continuous
 62
     7
100
AcDbLine
 10
6284.5546465039
 20
5600.6220383483
 30
0.0
 11
6282.7767554343
 21
5599.8627943832
 31
0.0
  0
LINE
  5
220
330
1F
100
AcDbEntity
  8
0
  6
Continuous
 62
     7
100
AcDbLine
 10
6282.7767554343
 20
5599.8627943832
 30
0.0
 11
6280.7832138285
 21
5599.2519659835
 31
0.0
  0
LINE
  5
221
330
1F
100
AcDbEntity
  8
0
  6
Continuous
 62
     7
100
AcDbLine
 10
6280.7832138285
 20
5599.2519659835
 30
0.0
 11
6278.6231084399
 21
5598.8045735199
 31
0.0
  0
LINE
  5
222
330
1F
100
AcDbEntity
  8
0
  6
Continuous
 62
     7
100
AcDbLine
 10
6278.6231084399
 20
5598.8045735199
 30
0.0
 11
6276.3496289633
 21
5598.5317034561
 31
0.0
  0
LINE
  5
223
330
1F
100
AcDbEntity
  8
0
  6
Continuous
 62
     7
100
AcDbLine
 10
6276.3496289633
 20
5598.5317034561
 30
0.0
 11
6274.0187553361
 21
5598.4399719078
 31
0.0
  0
LINE
  5
224
330
1F
100
AcDbEntity
  8
0
  6
Continuous
 62
     7
100
AcDbLine
 10
6274.0187553361
 20
5598.4399719078
 30
0.0
 11
6271.6878817089
 21
5598.5317034561
 31
0.0
  0
LINE
  5
225
330
1F
100
AcDbEntity
  8
0
  6
Continuous
 62
     7
100
AcDbLine
 10
6271.6878817089
 20
5598.5317034561
 30
0.0
 11
6269.4144022323
 21
5598.8045735199
 31
0.0
  0
LINE
  5
226
330
1F
100
AcDbEntity
  8
0
  6
Continuous
 62
     7
100
AcDbLine
 10
6269.4144022323
 20
5598.8045735199
 30
0.0
 11
6267.2542968437
 21
5599.2519659835
 31
0.0
  0
LINE
  5
227
330
1F
100
AcDbEntity
  8
0
  6
Continuous
 62
     7
100
AcDbLine
 10
6267.2542968437
 20
5599.2519659835
 30
0.0
 11
6265.2607552379
 21
5599.8627943832
 31
0.0
  0
LINE
  5
228
330
1F
100
AcDbEntity
  8
0
  6
Continuous
 62
     7
100
AcDbLine
 10
6265.2607552379
 20
5599.8627943832
 30
0.0
 11
6263.4828641683
 21
5600.6220383483
 31
0.0
  0
LINE
  5
229
330
1F
100
AcDbEntity
  8
0
  6
Continuous
 62
     7
100
AcDbLine
 10
6263.4828641683
 20
5600.6220383483
 30
0.0
 11
6261.964402315
 21
5601.5109820205
 31
0.0
  0
LINE
  5
22A
330
1F
100
AcDbEntity
  8
0
  6
Continuous
 62
     7
100
AcDbLine
 10
6261.964402315
 20
5601.5109820205
 30
0.0
 11
6260.7427585542
 21
5602.5077504951
 31
0.0
  0
LINE
  5
22B
330
1F
100
AcDbEntity
  8
0
  6
Continuous
 62
     7
100
AcDbLine
 10
6260.7427585542
 20
5602.5077504951
 30
0.0
 11
6259.8480136737
 21
5603.5877866584
 31
0.0
  0
LINE
  5
22C
330
1F
100
AcDbEntity
  8
0
  6
Continuous
 62
     7
100
AcDbLine
 10
6259.8480136737
 20
5603.5877866584
 30
0.0
 11
6259.3021990403
 21
5604.7245068389
 31
0.0
  0
LINE
  5
22D
330
1F
100
AcDbEntity
  8
0
  6
Continuous
 62
     7
100
AcDbLine
 10
6259.3021990403
 20
5604.7245068389
 30
0.0
 11
6259.1187555015
 21
5605.8899564582
 31
0.0
  0
LINE
  5
22E
330
1F
100
AcDbEntity
  8
0
  6
Continuous
 62
     7
100
AcDbLine
 10
6259.1187555015
 20
5605.8899564582
 30
0.0
 11
6259.3021990403
 21
5607.0554060775
 31
0.0
  0
LINE
  5
22F
330
1F
100
AcDbEntity
  8
0
  6
Continuous
 62
     7
100
AcDbLine
 10
6259.3021990403
 20
5607.0554060775
 30
0.0
 11
6259.8480136737
 21
5608.192126258
 31
0.0
  0
LINE
  5
230
330
1F
100
AcDbEntity
  8
0
  6
Continuous
 62
     7
100
AcDbLine
 10
6259.8480136737
 20
5608.192126258
 30
0.0
 11
6260.7427585542
 21
5609.272222026
 31
0.0
  0
LINE
  5
231
330
1F
100
AcDbEntity
  8
0
  6
Continuous
 62
     7
100
AcDbLine
 10
6260.7427585542
 20
5609.272222026
 30
0.0
 11
6261.964402315
 21
5610.2689905006
 31
0.0
  0
LINE
  5
232
330
1F
100
AcDbEntity
  8
0
  6
Continuous
 62
     7
100
AcDbLine
 10
6261.964402315
 20
5610.2689905006
 30
0.0
 11
6263.4828641683
 21
5611.1579341728
 31
0.0
  0
LINE
  5
233
330
1F
100
AcDbEntity
  8
0
  6
Continuous
 62
     7
100
AcDbLine
 10
6263.4828641683
 20
5611.1579341728
 30
0.0
 11
6265.2607552379
 21
5611.9171185333
 31
0.0
  0
LINE
  5
234
330
1F
100
AcDbEntity
  8
0
  6
Continuous
 62
     7
100
AcDbLine
 10
6265.2607552379
 20
5611.9171185333
 30
0.0
 11
6267.2542968437
 21
5612.5279469329
 31
0.0
  0
LINE
  5
235
330
1F
100
AcDbEntity
  8
0
  6
Continuous
 62
     7
100
AcDbLine
 10
6267.2542968437
 20
5612.5279469329
 30
0.0
 11
6269.4144022323
 21
5612.9753393966
 31
0.0
  0
LINE
  5
236
330
1F
100
AcDbEntity
  8
0
  6
Continuous
 62
     7
100
AcDbLine
 10
6269.4144022323
 20
5612.9753393966
 30
0.0
 11
6271.6878817089
 21
5613.2482690651
 31
0.0
  0
LINE
  5
237
330
1F
100
AcDbEntity
  8
0
  6
Continuous
 62
     7
100
AcDbLine
 10
6271.6878817089
 20
5613.2482690651
 30
0.0
 11
6274.0187553361
 21
5613.3399410087
 31
0.0
  0
LINE
  5
238
330
1F
100
AcDbEntity
  8
0
  6
Continuous
 62
     7
100
AcDbLine
 10
6259.1187555015
 20
5633.1697506744
 30
0.0
 11
6259.3021990403
 21
5634.3352002937
 31
0.0
  0
LINE
  5
239
330
1F
100
AcDbEntity
  8
0
  6
Continuous
 62
     7
100
AcDbLine
 10
6259.3021990403
 20
5634.3352002937
 30
0.0
 11
6259.8480136737
 21
5635.4719204742
 31
0.0
  0
LINE
  5
23A
330
1F
100
AcDbEntity
  8
0
  6
Continuous
 62
     7
100
AcDbLine
 10
6259.8480136737
 20
5635.4719204742
 30
0.0
 11
6260.7427585542
 21
5636.5520162422
 31
0.0
  0
LINE
  5
23B
330
1F
100
AcDbEntity
  8
0
  6
Continuous
 62
     7
100
AcDbLine
 10
6260.7427585542
 20
5636.5520162422
 30
0.0
 11
6261.964402315
 21
5637.5487847168
 31
0.0
  0
LINE
  5
23C
330
1F
100
AcDbEntity
  8
0
  6
Continuous
 62
     7
100
AcDbLine
 10
6261.964402315
 20
5637.5487847168
 30
0.0
 11
6263.4828641683
 21
5638.4377283889
 31
0.0
  0
LINE
  5
23D
330
1F
100
AcDbEntity
  8
0
  6
Continuous
 62
     7
100
AcDbLine
 10
6263.4828641683
 20
5638.4377283889
 30
0.0
 11
6265.2607552379
 21
5639.1969723541
 31
0.0
  0
LINE
  5
23E
330
1F
100
AcDbEntity
  8
0
  6
Continuous
 62
     7
100
AcDbLine
 10
6265.2607552379
 20
5639.1969723541
 30
0.0
 11
6267.2542968437
 21
5639.8077411491
 31
0.0
  0
LINE
  5
23F
330
1F
100
AcDbEntity
  8
0
  6
Continuous
 62
     7
100
AcDbLine
 10
6267.2542968437
 20
5639.8077411491
 30
0.0
 11
6269.4144022323
 21
5640.2551336128
 31
0.0
  0
LINE
  5
240
330
1F
100
AcDbEntity
  8
0
  6
Continuous
 62
     7
100
AcDbLine
 10
6269.4144022323
 20
5640.2551336128
 30
0.0
 11
6271.6878817089
 21
5640.5280632812
 31
0.0
  0
LINE
  5
241
330
1F
100
AcDbEntity
  8
0
  6
Continuous
 62
     7
100
AcDbLine
 10
6271.6878817089
 20
5640.5280632812
 30
0.0
 11
6274.0187553361
 21
5640.6197948295
 31
0.0
  0
LINE
  5
242
330
1F
100
AcDbEntity
  8
0
  6
Continuous
 62
     7
100
AcDbLine
 10
6274.0187553361
 20
5640.6197948295
 30
0.0
 11
6276.3496289633
 21
5640.5280632812
 31
0.0
  0
LINE
  5
243
330
1F
100
AcDbEntity
  8
0
  6
Continuous
 62
     7
100
AcDbLine
 10
6276.3496289633
 20
5640.5280632812
 30
0.0
 11
6278.6231084399
 21
5640.2551336128
 31
0.0
  0
LINE
  5
244
330
1F
100
AcDbEntity
  8
0
  6
Continuous
 62
     7
100
AcDbLine
 10
6278.6231084399
 20
5640.2551336128
 30
0.0
 11
6280.7832138285
 21
5639.8077411491
 31
0.0
  0
LINE
  5
245
330
1F
100
AcDbEntity
  8
0
  6
Continuous
 62
     7
100
AcDbLine
 10
6280.7832138285
 20
5639.8077411491
 30
0.0
 11
6282.7767554343
 21
5639.1969723541
 31
0.0
  0
LINE
  5
246
330
1F
100
AcDbEntity
  8
0
  6
Continuous
 62
     7
100
AcDbLine
 10
6282.7767554343
 20
5639.1969723541
 30
0.0
 11
6284.5546465039
 21
5638.4377283889
 31
0.0
  0
LINE
  5
247
330
1F
100
AcDbEntity
  8
0
  6
Continuous
 62
     7
100
AcDbLine
 10
6284.5546465039
 20
5638.4377283889
 30
0.0
 11
6286.0731083572
 21
5637.5487847168
 31
0.0
  0
LINE
  5
248
330
1F
100
AcDbEntity
  8
0
  6
Continuous
 62
     7
100
AcDbLine
 10
6286.0731083572
 20
5637.5487847168
 30
0.0
 11
6287.294752118
 21
5636.5520162422
 31
0.0
  0
LINE
  5
249
330
1F
100
AcDbEntity
  8
0
  6
Continuous
 62
     7
100
AcDbLine
 10
6287.294752118
 20
5636.5520162422
 30
0.0
 11
6288.1894969985
 21
5635.4719204742
 31
0.0
  0
LINE
  5
24A
330
1F
100
AcDbEntity
  8
0
  6
Continuous
 62
     7
100
AcDbLine
 10
6288.1894969985
 20
5635.4719204742
 30
0.0
 11
6288.7353116319
 21
5634.3352002937
 31
0.0
  0
LINE
  5
24B
330
1F
100
AcDbEntity
  8
0
  6
Continuous
 62
     7
100
AcDbLine
 10
6288.7353116319
 20
5634.3352002937
 30
0.0
 11
6288.9187551707
 21
5633.1697506744
 31
0.0
  0
LINE
  5
24C
330
1F
100
AcDbEntity
  8
0
  6
Continuous
 62
     7
100
AcDbLine
 10
6259.1250484481
 20
5633.3862943489
 30
0.0
 11
6259.1187555015
 21
5633.6027784187
 31
0.0
  0
LINE
  5
24D
330
1F
100
AcDbEntity
  8
0
  6
Continuous
 62
     7
100
AcDbLine
 10
6259.1187555015
 20
5633.6027784187
 30
0.0
 11
6259.3021990403
 21
5634.768228038
 31
0.0
  0
LINE
  5
24E
330
1F
100
AcDbEntity
  8
0
  6
Continuous
 62
     7
100
AcDbLine
 10
6259.3021990403
 20
5634.768228038
 30
0.0
 11
6259.8480136737
 21
5635.9049482185
 31
0.0
  0
LINE
  5
24F
330
1F
100
AcDbEntity
  8
0
  6
Continuous
 62
     7
100
AcDbLine
 10
6259.8480136737
 20
5635.9049482185
 30
0.0
 11
6260.7427585542
 21
5636.9849843818
 31
0.0
  0
LINE
  5
250
330
1F
100
AcDbEntity
  8
0
  6
Continuous
 62
     7
100
AcDbLine
 10
6260.7427585542
 20
5636.9849843818
 30
0.0
 11
6261.964402315
 21
5637.9817528564
 31
0.0
  0
LINE
  5
251
330
1F
100
AcDbEntity
  8
0
  6
Continuous
 62
     7
100
AcDbLine
 10
6261.964402315
 20
5637.9817528564
 30
0.0
 11
6263.4828641683
 21
5638.8706965286
 31
0.0
  0
LINE
  5
252
330
1F
100
AcDbEntity
  8
0
  6
Continuous
 62
     7
100
AcDbLine
 10
6263.4828641683
 20
5638.8706965286
 30
0.0
 11
6265.2607552379
 21
5639.6299404937
 31
0.0
  0
LINE
  5
253
330
1F
100
AcDbEntity
  8
0
  6
Continuous
 62
     7
100
AcDbLine
 10
6265.2607552379
 20
5639.6299404937
 30
0.0
 11
6267.2542968437
 21
5640.2407688934
 31
0.0
  0
LINE
  5
254
330
1F
100
AcDbEntity
  8
0
  6
Continuous
 62
     7
100
AcDbLine
 10
6267.2542968437
 20
5640.2407688934
 30
0.0
 11
6269.4144022323
 21
5640.6881613571
 31
0.0
  0
LINE
  5
255
330
1F
100
AcDbEntity
  8
0
  6
Continuous
 62
     7
100
AcDbLine
 10
6269.4144022323
 20
5640.6881613571
 30
0.0
 11
6271.6878817089
 21
5640.9610314209
 31
0.0
  0
LINE
  5
256
330
1F
100
AcDbEntity
  8
0
  6
Continuous
 62
     7
100
AcDbLine
 10
6271.6878817089
 20
5640.9610314209
 30
0.0
 11
6274.0187553361
 21
5641.0527629692
 31
0.0
  0
LINE
  5
257
330
1F
100
AcDbEntity
  8
0
  6
Continuous
 62
     7
100
AcDbLine
 10
6274.0187553361
 20
5641.0527629692
 30
0.0
 11
6276.3496289633
 21
5640.9610314209
 31
0.0
  0
LINE
  5
258
330
1F
100
AcDbEntity
  8
0
  6
Continuous
 62
     7
100
AcDbLine
 10
6276.3496289633
 20
5640.9610314209
 30
0.0
 11
6278.6231084399
 21
5640.6881613571
 31
0.0
  0
LINE
  5
259
330
1F
100
AcDbEntity
  8
0
  6
Continuous
 62
     7
100
AcDbLine
 10
6278.6231084399
 20
5640.6881613571
 30
0.0
 11
6280.7832138285
 21
5640.2407688934
 31
0.0
  0
LINE
  5
25A
330
1F
100
AcDbEntity
  8
0
  6
Continuous
 62
     7
100
AcDbLine
 10
6280.7832138285
 20
5640.2407688934
 30
0.0
 11
6282.7767554343
 21
5639.6299404937
 31
0.0
  0
LINE
  5
25B
330
1F
100
AcDbEntity
  8
0
  6
Continuous
 62
     7
100
AcDbLine
 10
6282.7767554343
 20
5639.6299404937
 30
0.0
 11
6284.5546465039
 21
5638.8706965286
 31
0.0
  0
LINE
  5
25C
330
1F
100
AcDbEntity
  8
0
  6
Continuous
 62
     7
100
AcDbLine
 10
6284.5546465039
 20
5638.8706965286
 30
0.0
 11
6286.0731083572
 21
5637.9817528564
 31
0.0
  0
LINE
  5
25D
330
1F
100
AcDbEntity
  8
0
  6
Continuous
 62
     7
100
AcDbLine
 10
6286.0731083572
 20
5637.9817528564
 30
0.0
 11
6287.294752118
 21
5636.9849843818
 31
0.0
  0
LINE
  5
25E
330
1F
100
AcDbEntity
  8
0
  6
Continuous
 62
     7
100
AcDbLine
 10
6287.294752118
 20
5636.9849843818
 30
0.0
 11
6288.1894969985
 21
5635.9049482185
 31
0.0
  0
LINE
  5
25F
330
1F
100
AcDbEntity
  8
0
  6
Continuous
 62
     7
100
AcDbLine
 10
6288.1894969985
 20
5635.9049482185
 30
0.0
 11
6288.7353116319
 21
5634.768228038
 31
0.0
  0
LINE
  5
260
330
1F
100
AcDbEntity
  8
0
  6
Continuous
 62
     7
100
AcDbLine
 10
6288.7353116319
 20
5634.768228038
 30
0.0
 11
6288.9187551707
 21
5633.6027784187
 31
0.0
  0
LINE
  5
261
330
1F
100
AcDbEntity
  8
0
  6
Continuous
 62
     7
100
AcDbLine
 10
6288.9187551707
 20
5633.6027784187
 30
0.0
 11
6288.9124622241
 21
5633.3862943489
 31
0.0
  0
LINE
  5
262
330
1F
100
AcDbEntity
  8
0
  6
Continuous
 62
     7
100
AcDbLine
 10
6344.9072820738
 20
4693.9898336919
 30
0.0
 11
6344.1904393628
 21
4693.9898336919
 31
0.0
  0
LINE
  5
263
330
1F
100
AcDbEntity
  8
0
  6
Continuous
 62
     7
100
AcDbLine
 10
6203.8470713094
 20
4693.9898336919
 30
0.0
 11
6203.1302285984
 21
4693.9898336919
 31
0.0
  0
LINE
  5
264
330
1F
100
AcDbEntity
  8
0
  6
Continuous
 62
     7
100
AcDbLine
 10
6856.6285114797
 20
4818.9898310143
 30
0.0
 11
6857.1285115034
 21
4818.9898310143
 31
0.0
  0
LINE
  5
265
330
1F
100
AcDbEntity
  8
0
  6
Continuous
 62
     7
100
AcDbLine
 10
6857.1285115034
 20
4846.9898356039
 30
0.0
 11
6856.6285114797
 21
4846.9898356039
 31
0.0
  0
LINE
  5
266
330
1F
100
AcDbEntity
  8
0
  6
Continuous
 62
     7
100
AcDbLine
 10
6857.1285115034
 20
4818.9898310143
 30
0.0
 11
6858.6285115747
 21
4820.4898340541
 31
0.0
  0
LINE
  5
267
330
1F
100
AcDbEntity
  8
0
  6
Continuous
 62
     7
100
AcDbLine
 10
6858.6285115747
 20
4845.4898400146
 30
0.0
 11
6857.1285115034
 21
4846.9898356039
 31
0.0
  0
LINE
  5
268
330
1F
100
AcDbEntity
  8
0
  6
Continuous
 62
     7
100
AcDbLine
 10
6763.5514106663
 20
4716.7526511389
 30
0.0
 11
6763.6285092743
 21
4716.6203660804
 31
0.0
  0
LINE
  5
269
330
1F
100
AcDbEntity
  8
0
  6
Continuous
 62
     7
100
AcDbLine
 10
6227.9455197647
 20
4379.9454098357
 30
0.0
 11
6228.2956001952
 21
4380.1478644623
 31
0.0
  0
LINE
  5
26A
330
1F
100
AcDbEntity
  8
0
  6
Continuous
 62
     7
100
AcDbLine
 10
6209.0187614455
 20
4370.0722878589
 30
0.0
 11
6209.0187614455
 21
4369.0508877649
 31
0.0
  0
LINE
  5
26B
330
1F
100
AcDbEntity
  8
0
  6
Continuous
 62
     7
100
AcDbLine
 10
6209.0187614455
 20
4372.0261281146
 30
0.0
 11
6209.0187614455
 21
4371.7817043676
 31
0.0
  0
LINE
  5
26C
330
1F
100
AcDbEntity
  8
0
  6
Continuous
 62
     7
100
AcDbLine
 10
6209.0187614455
 20
4373.9799758209
 30
0.0
 11
6209.0187614455
 21
4373.7355520739
 31
0.0
  0
LINE
  5
26D
330
1F
100
AcDbEntity
  8
0
  6
Continuous
 62
     7
100
AcDbLine
 10
6209.0187614455
 20
4375.9338235273
 30
0.0
 11
6209.0187614455
 21
4375.6893997802
 31
0.0
  0
LINE
  5
26E
330
1F
100
AcDbEntity
  8
0
  6
Continuous
 62
     7
100
AcDbLine
 10
6209.0187614455
 20
4377.8876712336
 30
0.0
 11
6209.0187614455
 21
4377.6432474865
 31
0.0
  0
LINE
  5
26F
330
1F
100
AcDbEntity
  8
0
  6
Continuous
 62
     7
100
AcDbLine
 10
6229.0187609985
 20
4378.6198993935
 30
0.0
 11
6229.0187609985
 21
4378.8641964807
 31
0.0
  0
LINE
  5
270
330
1F
100
AcDbEntity
  8
0
  6
Continuous
 62
     7
100
AcDbLine
 10
6229.0187609985
 20
4376.6660516872
 30
0.0
 11
6229.0187609985
 21
4376.9103562249
 31
0.0
  0
LINE
  5
271
330
1F
100
AcDbEntity
  8
0
  6
Continuous
 62
     7
100
AcDbLine
 10
6229.0187609985
 20
4374.7122039808
 30
0.0
 11
6229.0187609985
 21
4374.9565085186
 31
0.0
  0
LINE
  5
272
330
1F
100
AcDbEntity
  8
0
  6
Continuous
 62
     7
100
AcDbLine
 10
6229.0187609985
 20
4372.7583637251
 30
0.0
 11
6229.0187609985
 21
4373.0026608123
 31
0.0
  0
LINE
  5
273
330
1F
100
AcDbEntity
  8
0
  6
Continuous
 62
     7
100
AcDbLine
 10
6229.0187609985
 20
4369.0508877649
 30
0.0
 11
6229.0187609985
 21
4371.048813106
 31
0.0
  0
LINE
  5
274
330
1F
100
AcDbEntity
  8
0
  6
Continuous
 62
     7
100
AcDbLine
 10
6208.8187617853
 20
4369.0508877649
 30
0.0
 11
6208.8187617853
 21
4368.695644082
 31
0.0
  0
LINE
  5
275
330
1F
100
AcDbEntity
  8
0
  6
Continuous
 62
     7
100
AcDbLine
 10
6229.2187569335
 20
4368.695644082
 30
0.0
 11
6229.2187569335
 21
4369.0508877649
 31
0.0
  0
LINE
  5
276
330
1F
100
AcDbEntity
  8
0
  6
Continuous
 62
     7
100
AcDbLine
 10
6228.3557263806
 20
4380.2139213099
 30
0.0
 11
6227.5187579587
 21
4381.0508897318
 31
0.0
  0
LINE
  5
277
330
1F
100
AcDbEntity
  8
0
  6
Continuous
 62
     7
100
AcDbLine
 10
6209.7058167353
 20
4380.2379419817
 30
0.0
 11
6209.0879438117
 21
4379.6200727834
 31
0.0
  0
LINE
  5
278
330
1F
100
AcDbEntity
  8
0
  6
Continuous
 62
     7
100
AcDbLine
 10
6210.5187607601
 20
4381.0508897318
 30
0.0
 11
6210.0763117566
 21
4380.6084370031
 31
0.0
  0
LINE
  5
279
330
1F
100
AcDbEntity
  8
0
  6
Continuous
 62
     7
100
AcDbLine
 10
6210.0763117566
 20
4378.9864605083
 30
0.0
 11
6210.0763117566
 21
4378.4980004443
 31
0.0
  0
LINE
  5
27A
330
1F
100
AcDbEntity
  8
0
  6
Continuous
 62
     7
100
AcDbLine
 10
6210.0763117566
 20
4377.0326202525
 30
0.0
 11
6210.0763117566
 21
4376.544152738
 31
0.0
  0
LINE
  5
27B
330
1F
100
AcDbEntity
  8
0
  6
Continuous
 62
     7
100
AcDbLine
 10
6752.3787435206
 20
4771.9165934164
 30
0.0
 11
6752.176288894
 21
4772.2666738469
 31
0.0
  0
LINE
  5
27C
330
1F
100
AcDbEntity
  8
0
  6
Continuous
 62
     7
100
AcDbLine
 10
6762.2518654974
 20
4752.9898350972
 30
0.0
 11
6763.2732655914
 21
4752.9898350972
 31
0.0
  0
LINE
  5
27D
330
1F
100
AcDbEntity
  8
0
  6
Continuous
 62
     7
100
AcDbLine
 10
6760.2980252417
 20
4752.9898350972
 30
0.0
 11
6760.5424489887
 21
4752.9898350972
 31
0.0
  0
LINE
  5
27E
330
1F
100
AcDbEntity
  8
0
  6
Continuous
 62
     7
100
AcDbLine
 10
6758.3441775354
 20
4752.9898350972
 30
0.0
 11
6758.5886012824
 21
4752.9898350972
 31
0.0
  0
LINE
  5
27F
330
1F
100
AcDbEntity
  8
0
  6
Continuous
 62
     7
100
AcDbLine
 10
6756.390329829
 20
4752.9898350972
 30
0.0
 11
6756.6347535761
 21
4752.9898350972
 31
0.0
  0
LINE
  5
280
330
1F
100
AcDbEntity
  8
0
  6
Continuous
 62
     7
100
AcDbLine
 10
6754.4364821227
 20
4752.9898350972
 30
0.0
 11
6754.6809058698
 21
4752.9898350972
 31
0.0
  0
LINE
  5
281
330
1F
100
AcDbEntity
  8
0
  6
Continuous
 62
     7
100
AcDbLine
 10
6753.7042539628
 20
4772.9898346502
 30
0.0
 11
6753.4599568756
 21
4772.9898346502
 31
0.0
  0
LINE
  5
282
330
1F
100
AcDbEntity
  8
0
  6
Continuous
 62
     7
100
AcDbLine
 10
6755.6581016691
 20
4772.9898346502
 30
0.0
 11
6755.4137971314
 21
4772.9898346502
 31
0.0
  0
LINE
  5
283
330
1F
100
AcDbEntity
  8
0
  6
Continuous
 62
     7
100
AcDbLine
 10
6757.6119493755
 20
4772.9898346502
 30
0.0
 11
6757.3676448377
 21
4772.9898346502
 31
0.0
  0
LINE
  5
284
330
1F
100
AcDbEntity
  8
0
  6
Continuous
 62
     7
100
AcDbLine
 10
6759.5657896312
 20
4772.9898346502
 30
0.0
 11
6759.321492544
 21
4772.9898346502
 31
0.0
  0
LINE
  5
285
330
1F
100
AcDbEntity
  8
0
  6
Continuous
 62
     7
100
AcDbLine
 10
6763.2732655914
 20
4772.9898346502
 30
0.0
 11
6761.2753402503
 21
4772.9898346502
 31
0.0
  0
LINE
  5
286
330
1F
100
AcDbEntity
  8
0
  6
Continuous
 62
     7
100
AcDbLine
 10
6763.2732655914
 20
4752.789835437
 30
0.0
 11
6763.6285092743
 21
4752.789835437
 31
0.0
  0
LINE
  5
287
330
1F
100
AcDbEntity
  8
0
  6
Continuous
 62
     7
100
AcDbLine
 10
6763.6285092743
 20
4773.1898305852
 30
0.0
 11
6763.2732655914
 21
4773.1898305852
 31
0.0
  0
LINE
  5
288
330
1F
100
AcDbEntity
  8
0
  6
Continuous
 62
     7
100
AcDbLine
 10
6752.1102320464
 20
4772.3268000323
 30
0.0
 11
6751.2732636245
 21
4771.4898316104
 31
0.0
  0
LINE
  5
289
330
1F
100
AcDbEntity
  8
0
  6
Continuous
 62
     7
100
AcDbLine
 10
6752.0862113746
 20
4753.676890387
 30
0.0
 11
6752.7040805729
 21
4753.0590174634
 31
0.0
  0
LINE
  5
28A
330
1F
100
AcDbEntity
  8
0
  6
Continuous
 62
     7
100
AcDbLine
 10
6751.2732636245
 20
4754.4898344118
 30
0.0
 11
6751.7157163532
 21
4754.0473854083
 31
0.0
  0
LINE
  5
28B
330
1F
100
AcDbEntity
  8
0
  6
Continuous
 62
     7
100
AcDbLine
 10
6753.337692848
 20
4754.0473854083
 30
0.0
 11
6753.826152912
 21
4754.0473854083
 31
0.0
  0
LINE
  5
28C
330
1F
100
AcDbEntity
  8
0
  6
Continuous
 62
     7
100
AcDbLine
 10
6755.2915331038
 20
4754.0473854083
 30
0.0
 11
6755.7800006183
 21
4754.0473854083
 31
0.0
  0
LINE
  5
28D
330
1F
100
AcDbEntity
  8
0
  6
Continuous
 62
     7
100
AcDbLine
 10
6757.2453808101
 20
4754.0473854083
 30
0.0
 11
6757.733840874
 21
4754.0473854083
 31
0.0
  0
LINE
  5
28E
330
1F
100
AcDbEntity
  8
0
  6
Continuous
 62
     7
100
AcDbLine
 10
6759.1992285164
 20
4754.0473854083
 30
0.0
 11
6759.6876885803
 21
4754.0473854083
 31
0.0
  0
LINE
  5
28F
330
1F
100
AcDbEntity
  8
0
  6
Continuous
 62
     7
100
AcDbLine
 10
6761.1530762227
 20
4754.0473854083
 30
0.0
 11
6761.6415362867
 21
4754.0473854083
 31
0.0
  0
LINE
  5
290
330
1F
100
AcDbEntity
  8
0
  6
Continuous
 62
     7
100
AcDbLine
 10
6755.2915331038
 20
4754.0473854083
 30
0.0
 11
6755.7800006183
 21
4754.0473854083
 31
0.0
  0
LINE
  5
291
330
1F
100
AcDbEntity
  8
0
  6
Continuous
 62
     7
100
AcDbLine
 10
6757.2453808101
 20
4754.0473854083
 30
0.0
 11
6757.733840874
 21
4754.0473854083
 31
0.0
  0
LINE
  5
292
330
1F
100
AcDbEntity
  8
0
  6
Continuous
 62
     7
100
AcDbLine
 10
6759.1992285164
 20
4754.0473854083
 30
0.0
 11
6759.6876885803
 21
4754.0473854083
 31
0.0
  0
LINE
  5
293
330
1F
100
AcDbEntity
  8
0
  6
Continuous
 62
     7
100
AcDbLine
 10
6761.1530762227
 20
4754.0473854083
 30
0.0
 11
6761.6415362867
 21
4754.0473854083
 31
0.0
  0
LINE
  5
294
330
1F
100
AcDbEntity
  8
0
  6
Continuous
 62
     7
100
AcDbLine
 10
6754.8030730398
 20
4771.9322843391
 30
0.0
 11
6754.3235164197
 21
4771.9322843391
 31
0.0
  0
LINE
  5
295
330
1F
100
AcDbEntity
  8
0
  6
Continuous
 62
     7
100
AcDbLine
 10
6756.7569207462
 20
4771.9322843391
 30
0.0
 11
6756.2773566755
 21
4771.9322843391
 31
0.0
  0
LINE
  5
296
330
1F
100
AcDbEntity
  8
0
  6
Continuous
 62
     7
100
AcDbLine
 10
6758.7107684525
 20
4771.9322843391
 30
0.0
 11
6758.2312043818
 21
4771.9322843391
 31
0.0
  0
LINE
  5
297
330
1F
100
AcDbEntity
  8
0
  6
Continuous
 62
     7
100
AcDbLine
 10
6760.6646161588
 20
4771.9322843391
 30
0.0
 11
6760.1850520881
 21
4771.9322843391
 31
0.0
  0
LINE
  5
298
330
1F
100
AcDbEntity
  8
0
  6
Continuous
 62
     7
100
AcDbLine
 10
6752.8492253335
 20
4771.9322843391
 30
0.0
 11
6752.3696687134
 21
4771.9322843391
 31
0.0
  0
LINE
  5
299
330
1F
100
AcDbEntity
  8
0
  6
Continuous
 62
     7
100
AcDbLine
 10
6753.337692848
 20
4754.0473854083
 30
0.0
 11
6753.826152912
 21
4754.0473854083
 31
0.0
  0
LINE
  5
29A
330
1F
100
AcDbEntity
  8
0
  6
Continuous
 62
     7
100
AcDbLine
 10
6866.6285112562
 20
5634.2912120658
 30
0.0
 11
6872.0259921687
 21
5634.2912120658
 31
0.0
  0
LINE
  5
29B
330
1F
100
AcDbEntity
  8
0
  6
Continuous
 62
     7
100
AcDbLine
 10
6889.2310302766
 20
5664.0912098724
 30
0.0
 11
6866.6285112562
 21
5664.0912098724
 31
0.0
  0
LINE
  5
29C
330
1F
100
AcDbEntity
  8
0
  6
Continuous
 62
     7
100
AcDbLine
 10
6872.0259921687
 20
5634.2912120658
 30
0.0
 11
6876.7247334184
 21
5626.1527938682
 31
0.0
  0
LINE
  5
29D
330
1F
100
AcDbEntity
  8
0
  6
Continuous
 62
     7
100
AcDbLine
 10
6902.532291046
 20
5641.0527629692
 30
0.0
 11
6889.2310302766
 21
5664.0912098724
 31
0.0
  0
LINE
  5
29E
330
1F
100
AcDbEntity
  8
0
  6
Continuous
 62
     7
100
AcDbLine
 10
6876.9747320624
 20
5625.7197661239
 30
0.0
 11
6892.7247341784
 21
5598.4399719078
 31
0.0
  0
LINE
  5
29F
330
1F
100
AcDbEntity
  8
0
  6
Continuous
 62
     7
100
AcDbLine
 10
6918.5322899433
 20
5613.3399410087
 30
0.0
 11
6902.7822915526
 21
5640.6197948295
 31
0.0
  0
LINE
  5
2A0
330
1F
100
AcDbEntity
  8
0
  6
Continuous
 62
     7
100
AcDbLine
 10
6864.6285118597
 20
5664.0912098724
 30
0.0
 11
6858.6285115747
 21
5664.0912098724
 31
0.0
  0
LINE
  5
2A1
330
1F
100
AcDbEntity
  8
0
  6
Continuous
 62
     7
100
AcDbLine
 10
6858.6285115747
 20
5634.2912120658
 30
0.0
 11
6864.6285118597
 21
5634.2912120658
 31
0.0
  0
LINE
  5
2A2
330
1F
100
AcDbEntity
  8
0
  6
Continuous
 62
     7
100
AcDbLine
 10
6878.4567829283
 20
5627.1527809936
 30
0.0
 11
6878.7067834349
 21
5626.7197532493
 31
0.0
  0
LINE
  5
2A3
330
1F
100
AcDbEntity
  8
0
  6
Continuous
 62
     7
100
AcDbLine
 10
6901.0502401801
 20
5639.6197480995
 30
0.0
 11
6900.8002396734
 21
5640.0527758438
 31
0.0
  0
LINE
  5
2A4
330
1F
100
AcDbEntity
  8
0
  6
Continuous
 62
     7
100
AcDbLine
 10
6856.6285114797
 20
5638.7638254005
 30
0.0
 11
6856.6401038555
 21
5638.7839121658
 31
0.0
  0
LINE
  5
2A5
330
1F
100
AcDbEntity
  8
0
  6
Continuous
 62
     7
100
AcDbLine
 10
6866.6285112562
 20
5658.6912078697
 30
0.0
 11
6864.6285118597
 21
5658.6912078697
 31
0.0
  0
LINE
  5
2A6
330
1F
100
AcDbEntity
  8
0
  6
Continuous
 62
     7
100
AcDbLine
 10
6864.6285118597
 20
5639.6912140686
 30
0.0
 11
6866.6285112562
 21
5639.6912140686
 31
0.0
  0
LINE
  5
2A7
330
1F
100
AcDbEntity
  8
0
  6
Continuous
 62
     7
100
AcDbLine
 10
6857.1285115034
 20
5621.6912073928
 30
0.0
 11
6858.1285114927
 21
5621.6912073928
 31
0.0
  0
LINE
  5
2A8
330
1F
100
AcDbEntity
  8
0
  6
Continuous
 62
     7
100
AcDbLine
 10
6858.1285114927
 20
5676.6912145454
 30
0.0
 11
6857.1285115034
 21
5676.6912145454
 31
0.0
  0
LINE
  5
2A9
330
1F
100
AcDbEntity
  8
0
  6
Continuous
 62
     7
100
AcDbLine
 10
6856.7285114772
 20
4722.9898339051
 30
0.0
 11
6856.6285114797
 21
4722.9898339051
 31
0.0
  0
LINE
  5
2AA
330
1F
100
AcDbEntity
  8
0
  6
Continuous
 62
     7
100
AcDbLine
 10
6856.7285114772
 20
4702.9898334208
 30
0.0
 11
6856.6285114797
 21
4702.9898334208
 31
0.0
  0
LINE
  5
2AB
330
1F
100
AcDbEntity
  8
0
  6
Continuous
 62
     7
100
AcDbLine
 10
6856.7285114772
 20
4722.9898339051
 30
0.0
 11
6856.7285114772
 21
4702.9898334208
 31
0.0
  0
LINE
  5
2AC
330
1F
100
AcDbEntity
  8
0
  6
Continuous
 62
     7
100
AcDbLine
 10
6856.7785114868
 20
4708.0120080996
 30
0.0
 11
6856.7785114868
 21
4718.0120078761
 31
0.0
  0
LINE
  5
2AD
330
1F
100
AcDbEntity
  8
0
  6
Continuous
 62
     7
100
AcDbLine
 10
6856.7785114868
 20
4718.0120078761
 30
0.0
 11
6856.7285114772
 21
4718.0120078761
 31
0.0
  0
LINE
  5
2AE
330
1F
100
AcDbEntity
  8
0
  6
Continuous
 62
     7
100
AcDbLine
 10
6856.7785114868
 20
4708.0120080996
 30
0.0
 11
6856.7285114772
 21
4708.0120080996
 31
0.0
  0
LINE
  5
2AF
330
1F
100
AcDbEntity
  8
0
  6
Continuous
 62
     7
100
AcDbLine
 10
6856.7785114868
 20
4707.8838031653
 30
0.0
 11
6856.7285114772
 21
4707.8838031653
 31
0.0
  0
LINE
  5
2B0
330
1F
100
AcDbEntity
  8
0
  6
Continuous
 62
     7
100
AcDbLine
 10
6856.7785114868
 20
4705.1914948884
 30
0.0
 11
6856.7285114772
 21
4705.1914948884
 31
0.0
  0
LINE
  5
2B1
330
1F
100
AcDbEntity
  8
0
  6
Continuous
 62
     7
100
AcDbLine
 10
6856.7785114868
 20
4707.4991874311
 30
0.0
 11
6856.7285114772
 21
4707.4991874311
 31
0.0
  0
LINE
  5
2B2
330
1F
100
AcDbEntity
  8
0
  6
Continuous
 62
     7
100
AcDbLine
 10
6857.1285115034
 20
4818.9898310143
 30
0.0
 11
6857.1285115034
 21
4846.9898356039
 31
0.0
  0
LINE
  5
2B3
330
1F
100
AcDbEntity
  8
0
  6
Continuous
 62
     7
100
AcDbLine
 10
6858.6285115747
 20
4845.4898400146
 30
0.0
 11
6858.6285115747
 21
4820.4898340541
 31
0.0
  0
LINE
  5
2B4
330
1F
100
AcDbEntity
  8
0
  6
Continuous
 62
     7
100
AcDbLine
 10
6765.8536847742
 20
4694.5898337204
 30
0.0
 11
6765.8536847742
 21
5737.3384041626
 31
0.0
  0
LINE
  5
2B5
330
1F
100
AcDbEntity
  8
0
  6
Continuous
 62
     7
100
AcDbLine
 10
6763.6285092743
 20
4694.5898337204
 30
0.0
 11
6763.6285092743
 21
5736.6019291717
 31
0.0
  0
LINE
  5
2B6
330
1F
100
AcDbEntity
  8
0
  6
Continuous
 62
     7
100
AcDbLine
 10
6765.8536847742
 20
4694.5898337204
 30
0.0
 11
6763.6285092743
 21
4694.5898337204
 31
0.0
  0
LINE
  5
2B7
330
1F
100
AcDbEntity
  8
0
  6
Continuous
 62
     7
100
AcDbLine
 10
6855.6536812979
 20
4694.5898337204
 30
0.0
 11
6855.6536812979
 21
5699.220518573
 31
0.0
  0
LINE
  5
2B8
330
1F
100
AcDbEntity
  8
0
  6
Continuous
 62
     7
100
AcDbLine
 10
6765.8536847742
 20
4694.5898337204
 30
0.0
 11
6855.6536812979
 21
4694.5898337204
 31
0.0
  0
LINE
  5
2B9
330
1F
100
AcDbEntity
  8
0
  6
Continuous
 62
     7
100
AcDbLine
 10
6855.6536812979
 20
5699.220518573
 30
0.0
 11
6765.8536847742
 21
5737.3384041626
 31
0.0
  0
LINE
  5
2BA
330
1F
100
AcDbEntity
  8
0
  6
Continuous
 62
     7
100
AcDbLine
 10
6765.5410956653
 20
4693.7898337406
 30
0.0
 11
6765.5410956653
 21
4692.9898337608
 31
0.0
  0
LINE
  5
2BB
330
1F
100
AcDbEntity
  8
0
  6
Continuous
 62
     7
100
AcDbLine
 10
6765.5410956653
 20
4692.9898337608
 30
0.0
 11
6854.5410962837
 21
4692.9898337608
 31
0.0
  0
LINE
  5
2BC
330
1F
100
AcDbEntity
  8
0
  6
Continuous
 62
     7
100
AcDbLine
 10
6763.6285092743
 20
5737.3090786773
 30
0.0
 11
6764.4285079153
 21
5737.3090786773
 31
0.0
  0
LINE
  5
2BD
330
1F
100
AcDbEntity
  8
0
  6
Continuous
 62
     7
100
AcDbLine
 10
6765.8536847742
 20
5738.7819094497
 30
0.0
 11
6765.5410956653
 21
5738.0454344589
 31
0.0
  0
LINE
  5
2BE
330
1F
100
AcDbEntity
  8
0
  6
Continuous
 62
     7
100
AcDbLine
 10
6765.8536847742
 20
5738.7819094497
 30
0.0
 11
6855.6536812979
 21
5700.6640238601
 31
0.0
  0
LINE
  5
2BF
330
1F
100
AcDbEntity
  8
0
  6
Continuous
 62
     7
100
AcDbLine
 10
6855.6536812979
 20
5700.6640238601
 30
0.0
 11
6855.3410964381
 21
5699.9276680786
 31
0.0
  0
LINE
  5
2C0
330
1F
100
AcDbEntity
  8
0
  6
Continuous
 62
     7
100
AcDbLine
 10
6765.5410956653
 20
5738.0454344589
 30
0.0
 11
6855.3410964381
 21
5699.9276680786
 31
0.0
  0
LINE
  5
2C1
330
1F
100
AcDbEntity
  8
0
  6
Continuous
 62
     7
100
AcDbLine
 10
6764.4285079153
 20
5737.3090786773
 30
0.0
 11
6764.4285079153
 21
5737.2947735626
 31
0.0
  0
LINE
  5
2C2
330
1F
100
AcDbEntity
  8
0
  6
Continuous
 62
     7
100
AcDbLine
 10
6763.6285092743
 20
5737.3090786773
 30
0.0
 11
6763.6285092743
 21
5736.6019291717
 31
0.0
  0
LINE
  5
2C3
330
1F
100
AcDbEntity
  8
0
  6
Continuous
 62
     7
100
AcDbLine
 10
6856.6285114797
 20
4694.5898337204
 30
0.0
 11
6856.6285114797
 21
5699.1911930877
 31
0.0
  0
LINE
  5
2C4
330
1F
100
AcDbEntity
  8
0
  6
Continuous
 62
     7
100
AcDbLine
 10
6855.6536812979
 20
4694.5898337204
 30
0.0
 11
6856.6285114797
 21
4694.5898337204
 31
0.0
  0
LINE
  5
2C5
330
1F
100
AcDbEntity
  8
0
  6
Continuous
 62
     7
100
AcDbLine
 10
6855.0285115201
 20
4693.2465685445
 30
0.0
 11
6855.0285115201
 21
4692.9898337608
 31
0.0
  0
LINE
  5
2C6
330
1F
100
AcDbEntity
  8
0
  6
Continuous
 62
     7
100
AcDbLine
 10
6854.5410962837
 20
4692.9898337608
 30
0.0
 11
6855.0285115201
 21
4692.9898337608
 31
0.0
  0
LINE
  5
2C7
330
1F
100
AcDbEntity
  8
0
  6
Continuous
 62
     7
100
AcDbLine
 10
6775.6285112413
 20
4688.4898338381
 30
0.0
 11
6781.6285084994
 21
4688.4898338381
 31
0.0
  0
LINE
  5
2C8
330
1F
100
AcDbEntity
  8
0
  6
Continuous
 62
     7
100
AcDbLine
 10
6840.6285107197
 20
4688.4898338381
 30
0.0
 11
6846.6285117032
 21
4688.4898338381
 31
0.0
  0
LINE
  5
2C9
330
1F
100
AcDbEntity
  8
0
  6
Continuous
 62
     7
100
AcDbLine
 10
6210.0763117566
 20
4375.0787725462
 30
0.0
 11
6210.0763117566
 21
4374.5903124823
 31
0.0
  0
LINE
  5
2CA
330
1F
100
AcDbEntity
  8
0
  6
Continuous
 62
     7
100
AcDbLine
 10
6210.0763117566
 20
4373.1249248399
 30
0.0
 11
6210.0763117566
 21
4372.636464776
 31
0.0
  0
LINE
  5
2CB
330
1F
100
AcDbEntity
  8
0
  6
Continuous
 62
     7
100
AcDbLine
 10
6210.0763117566
 20
4371.1710771336
 30
0.0
 11
6210.0763117566
 21
4370.6826170696
 31
0.0
  0
LINE
  5
2CC
330
1F
100
AcDbEntity
  8
0
  6
Continuous
 62
     7
100
AcDbLine
 10
6210.0763117566
 20
4377.0326202525
 30
0.0
 11
6210.0763117566
 21
4376.544152738
 31
0.0
  0
LINE
  5
2CD
330
1F
100
AcDbEntity
  8
0
  6
Continuous
 62
     7
100
AcDbLine
 10
6210.0763117566
 20
4375.0787725462
 30
0.0
 11
6210.0763117566
 21
4374.5903124823
 31
0.0
  0
LINE
  5
2CE
330
1F
100
AcDbEntity
  8
0
  6
Continuous
 62
     7
100
AcDbLine
 10
6210.0763117566
 20
4373.1249248399
 30
0.0
 11
6210.0763117566
 21
4372.636464776
 31
0.0
  0
LINE
  5
2CF
330
1F
100
AcDbEntity
  8
0
  6
Continuous
 62
     7
100
AcDbLine
 10
6210.0763117566
 20
4371.1710771336
 30
0.0
 11
6210.0763117566
 21
4370.6826170696
 31
0.0
  0
LINE
  5
2D0
330
1F
100
AcDbEntity
  8
0
  6
Continuous
 62
     7
100
AcDbLine
 10
6227.9612106874
 20
4377.5210803165
 30
0.0
 11
6227.9612106874
 21
4378.0006369366
 31
0.0
  0
LINE
  5
2D1
330
1F
100
AcDbEntity
  8
0
  6
Continuous
 62
     7
100
AcDbLine
 10
6227.9612106874
 20
4375.5672326101
 30
0.0
 11
6227.9612106874
 21
4376.0467966808
 31
0.0
  0
LINE
  5
2D2
330
1F
100
AcDbEntity
  8
0
  6
Continuous
 62
     7
100
AcDbLine
 10
6227.9612106874
 20
4373.6133849038
 30
0.0
 11
6227.9612106874
 21
4374.0929489745
 31
0.0
  0
LINE
  5
2D3
330
1F
100
AcDbEntity
  8
0
  6
Continuous
 62
     7
100
AcDbLine
 10
6227.9612106874
 20
4371.6595371975
 30
0.0
 11
6227.9612106874
 21
4372.1391012682
 31
0.0
  0
LINE
  5
2D4
330
1F
100
AcDbEntity
  8
0
  6
Continuous
 62
     7
100
AcDbLine
 10
6227.9612106874
 20
4379.4749280228
 30
0.0
 11
6227.9612106874
 21
4379.9544846429
 31
0.0
  0
LINE
  5
2D5
330
1F
100
AcDbEntity
  8
0
  6
Continuous
 62
     7
100
AcDbLine
 10
6210.0763117566
 20
4378.9864605083
 30
0.0
 11
6210.0763117566
 21
4378.4980004443
 31
0.0
  0
LINE
  5
2D6
330
1F
100
AcDbEntity
  8
0
  6
Continuous
 62
     7
100
AcDbLine
 10
6219.0187630847
 20
4369.0508877649
 30
0.0
 11
6229.2187569335
 21
4369.0508877649
 31
0.0
  0
LINE
  5
2D7
330
1F
100
AcDbEntity
  8
0
  6
Continuous
 62
     7
100
AcDbLine
 10
6208.8187617853
 20
4369.0508877649
 30
0.0
 11
6219.0187630847
 21
4369.0508877649
 31
0.0
  0
LINE
  5
2D8
330
1F
100
AcDbEntity
  8
0
  6
Continuous
 62
     7
100
AcDbLine
 10
6209.7058167353
 20
4380.2379419817
 30
0.0
 11
6210.0763117566
 21
4380.6084370031
 31
0.0
  0
LINE
  5
2D9
330
1F
100
AcDbEntity
  8
0
  6
Continuous
 62
     7
100
AcDbLine
 10
6210.5187607601
 20
4381.0508897318
 30
0.0
 11
6227.5187579587
 21
4381.0508897318
 31
0.0
  0
LINE
  5
2DA
330
1F
100
AcDbEntity
  8
0
  6
Continuous
 62
     7
100
AcDbLine
 10
6765.1285123141
 20
5737.4003929931
 30
0.0
 11
6765.1285123141
 21
5738.0755944091
 31
0.0
  0
LINE
  5
2DB
330
1F
100
AcDbEntity
  8
0
  6
Continuous
 62
     7
100
AcDbLine
 10
6767.1285089167
 20
5736.797193988
 30
0.0
 11
6767.1285089167
 21
5737.3716635543
 31
0.0
  0
LINE
  5
2DC
330
1F
100
AcDbEntity
  8
0
  6
Continuous
 62
     7
100
AcDbLine
 10
6765.4577013167
 20
5738.0755944091
 30
0.0
 11
6765.1285123141
 21
5738.0755944091
 31
0.0
  0
LINE
  5
2DD
330
1F
100
AcDbEntity
  8
0
  6
Continuous
 62
     7
100
AcDbLine
 10
6766.6285079034
 20
4692.9898337608
 30
0.0
 11
6766.6285079034
 21
4690.9898337822
 31
0.0
  0
LINE
  5
2DE
330
1F
100
AcDbEntity
  8
0
  6
Continuous
 62
     7
100
AcDbLine
 10
6765.6285133274
 20
4693.9898336919
 30
0.0
 11
6763.6285092743
 21
4693.9898336919
 31
0.0
  0
LINE
  5
2DF
330
1F
100
AcDbEntity
  8
0
  6
Continuous
 62
     7
100
AcDbLine
 10
6763.6285092743
 20
4693.9898336919
 30
0.0
 11
6763.6285092743
 21
4694.5898337204
 31
0.0
  0
LINE
  5
2E0
330
1F
100
AcDbEntity
  8
0
  6
Continuous
 62
     7
100
AcDbLine
 10
6777.2043462904
 20
4690.9898337822
 30
0.0
 11
6777.2043462904
 21
4692.9898337608
 31
0.0
  0
LINE
  5
2E1
330
1F
100
AcDbEntity
  8
0
  6
Continuous
 62
     7
100
AcDbLine
 10
6766.6285079034
 20
4690.9898337822
 30
0.0
 11
6777.2043462904
 21
4690.9898337822
 31
0.0
  0
LINE
  5
2E2
330
1F
100
AcDbEntity
  8
0
  6
Continuous
 62
     7
100
AcDbLine
 10
6779.9394618781
 20
4692.9898337608
 30
0.0
 11
6779.9394618781
 21
4690.9898337822
 31
0.0
  0
LINE
  5
2E3
330
1F
100
AcDbEntity
  8
0
  6
Continuous
 62
     7
100
AcDbLine
 10
6779.9394618781
 20
4690.9898337822
 30
0.0
 11
6777.2043462904
 21
4690.9898337822
 31
0.0
  0
LINE
  5
2E4
330
1F
100
AcDbEntity
  8
0
  6
Continuous
 62
     7
100
AcDbLine
 10
6847.3636297571
 20
4690.9898337822
 30
0.0
 11
6847.3636297571
 21
4692.9898337608
 31
0.0
  0
LINE
  5
2E5
330
1F
100
AcDbEntity
  8
0
  6
Continuous
 62
     7
100
AcDbLine
 10
6779.9394618781
 20
4690.9898337822
 30
0.0
 11
6847.3636297571
 21
4690.9898337822
 31
0.0
  0
LINE
  5
2E6
330
1F
100
AcDbEntity
  8
0
  6
Continuous
 62
     7
100
AcDbLine
 10
6851.6285115914
 20
4692.9898337608
 30
0.0
 11
6851.6285115914
 21
4690.9898337822
 31
0.0
  0
LINE
  5
2E7
330
1F
100
AcDbEntity
  8
0
  6
Continuous
 62
     7
100
AcDbLine
 10
6851.6285115914
 20
4690.9898337822
 30
0.0
 11
6847.3636297571
 21
4690.9898337822
 31
0.0
  0
LINE
  5
2E8
330
1F
100
AcDbEntity
  8
0
  6
Continuous
 62
     7
100
AcDbLine
 10
6763.2732655914
 20
4762.9898367364
 30
0.0
 11
6763.2732655914
 21
4773.1898305852
 31
0.0
  0
LINE
  5
2E9
330
1F
100
AcDbEntity
  8
0
  6
Continuous
 62
     7
100
AcDbLine
 10
6763.2732655914
 20
4752.789835437
 30
0.0
 11
6763.2732655914
 21
4762.9898367364
 31
0.0
  0
LINE
  5
2EA
330
1F
100
AcDbEntity
  8
0
  6
Continuous
 62
     7
100
AcDbLine
 10
6752.0862113746
 20
4753.676890387
 30
0.0
 11
6751.7157163532
 21
4754.0473854083
 31
0.0
  0
LINE
  5
2EB
330
1F
100
AcDbEntity
  8
0
  6
Continuous
 62
     7
100
AcDbLine
 10
6751.2732636245
 20
4754.4898344118
 30
0.0
 11
6751.2732636245
 21
4771.4898316104
 31
0.0
  0
LINE
  5
2EC
330
1F
100
AcDbEntity
  8
0
  6
Continuous
 62
     7
100
AcDbLine
 10
6770.4952772768
 20
5736.9203371841
 30
0.0
 11
6770.4562064322
 21
5736.8281884033
 31
0.0
  0
LINE
  5
2ED
330
1F
100
AcDbEntity
  8
0
  6
Continuous
 62
     7
100
AcDbLine
 10
6776.9388150485
 20
5734.1851992446
 30
0.0
 11
6776.8997367533
 21
5734.0930504638
 31
0.0
  0
LINE
  5
2EE
330
1F
100
AcDbEntity
  8
0
  6
Continuous
 62
     7
100
AcDbLine
 10
6770.4952772768
 20
5736.9203371841
 30
0.0
 11
6776.9388150485
 21
5734.1851992446
 31
0.0
  0
LINE
  5
2EF
330
1F
100
AcDbEntity
  8
0
  6
Continuous
 62
     7
100
AcDbLine
 10
6866.6285112562
 20
5649.1912407714
 30
0.0
 11
6866.6285112562
 21
5664.0912098724
 31
0.0
  0
LINE
  5
2F0
330
1F
100
AcDbEntity
  8
0
  6
Continuous
 62
     7
100
AcDbLine
 10
6866.6285112562
 20
5634.2912120658
 30
0.0
 11
6866.6285112562
 21
5649.1912407714
 31
0.0
  0
LINE
  5
2F1
330
1F
100
AcDbEntity
  8
0
  6
Continuous
 62
     7
100
AcDbLine
 10
6889.2310302766
 20
5664.0912098724
 30
0.0
 11
6889.1434710534
 21
5663.9395756561
 31
0.0
  0
LINE
  5
2F2
330
1F
100
AcDbEntity
  8
0
  6
Continuous
 62
     7
100
AcDbLine
 10
6889.1434710534
 20
5663.9395756561
 30
0.0
 11
6888.8825666221
 21
5663.4876532394
 31
0.0
  0
LINE
  5
2F3
330
1F
100
AcDbEntity
  8
0
  6
Continuous
 62
     7
100
AcDbLine
 10
6888.8825666221
 20
5663.4876532394
 30
0.0
 11
6888.4536366971
 21
5662.7447409469
 31
0.0
  0
LINE
  5
2F4
330
1F
100
AcDbEntity
  8
0
  6
Continuous
 62
     7
100
AcDbLine
 10
6888.4536366971
 20
5662.7447409469
 30
0.0
 11
6887.8654114963
 21
5661.7259187538
 31
0.0
  0
LINE
  5
2F5
330
1F
100
AcDbEntity
  8
0
  6
Continuous
 62
     7
100
AcDbLine
 10
6887.8654114963
 20
5661.7259187538
 30
0.0
 11
6887.1298622401
 21
5660.4519290763
 31
0.0
  0
LINE
  5
2F6
330
1F
100
AcDbEntity
  8
0
  6
Continuous
 62
     7
100
AcDbLine
 10
6887.1298622401
 20
5660.4519290763
 30
0.0
 11
6886.2619627329
 21
5658.9486403305
 31
0.0
  0
LINE
  5
2F7
330
1F
100
AcDbEntity
  8
0
  6
Continuous
 62
     7
100
AcDbLine
 10
6886.2619627329
 20
5658.9486403305
 30
0.0
 11
6885.279383889
 21
5657.2468085128
 31
0.0
  0
LINE
  5
2F8
330
1F
100
AcDbEntity
  8
0
  6
Continuous
 62
     7
100
AcDbLine
 10
6885.279383889
 20
5657.2468085128
 30
0.0
 11
6884.2021267923
 21
5655.3809447128
 31
0.0
  0
LINE
  5
2F9
330
1F
100
AcDbEntity
  8
0
  6
Continuous
 62
     7
100
AcDbLine
 10
6884.2021267923
 20
5655.3809447128
 30
0.0
 11
6883.0521203639
 21
5653.3890766937
 31
0.0
  0
LINE
  5
2FA
330
1F
100
AcDbEntity
  8
0
  6
Continuous
 62
     7
100
AcDbLine
 10
6883.0521203639
 20
5653.3890766937
 30
0.0
 11
6881.8527780535
 21
5651.311735614
 31
0.0
  0
LINE
  5
2FB
330
1F
100
AcDbEntity
  8
0
  6
Continuous
 62
     7
100
AcDbLine
 10
6881.8527780535
 20
5651.311735614
 30
0.0
 11
6880.6285116883
 21
5649.1912407714
 31
0.0
  0
LINE
  5
2FC
330
1F
100
AcDbEntity
  8
0
  6
Continuous
 62
     7
100
AcDbLine
 10
6880.6285116883
 20
5649.1912407714
 30
0.0
 11
6879.4042453231
 21
5647.0707459289
 31
0.0
  0
LINE
  5
2FD
330
1F
100
AcDbEntity
  8
0
  6
Continuous
 62
     7
100
AcDbLine
 10
6879.4042453231
 20
5647.0707459289
 30
0.0
 11
6878.2049011501
 21
5644.9934048492
 31
0.0
  0
LINE
  5
2FE
330
1F
100
AcDbEntity
  8
0
  6
Continuous
 62
     7
100
AcDbLine
 10
6878.2049011501
 20
5644.9934048492
 30
0.0
 11
6877.0548965843
 21
5643.0015368301
 31
0.0
  0
LINE
  5
2FF
330
1F
100
AcDbEntity
  8
0
  6
Continuous
 62
     7
100
AcDbLine
 10
6877.0548965843
 20
5643.0015368301
 30
0.0
 11
6875.9776394876
 21
5641.13567303
 31
0.0
  0
LINE
  5
300
330
1F
100
AcDbEntity
  8
0
  6
Continuous
 62
     7
100
AcDbLine
 10
6875.9776394876
 20
5641.13567303
 30
0.0
 11
6874.9950587811
 21
5639.4338412124
 31
0.0
  0
LINE
  5
301
330
1F
100
AcDbEntity
  8
0
  6
Continuous
 62
     7
100
AcDbLine
 10
6874.9950587811
 20
5639.4338412124
 30
0.0
 11
6874.1271611365
 21
5637.9305524665
 31
0.0
  0
LINE
  5
302
330
1F
100
AcDbEntity
  8
0
  6
Continuous
 62
     7
100
AcDbLine
 10
6874.1271611365
 20
5637.9305524665
 30
0.0
 11
6873.3916118802
 21
5636.6565627891
 31
0.0
  0
LINE
  5
303
330
1F
100
AcDbEntity
  8
0
  6
Continuous
 62
     7
100
AcDbLine
 10
6873.3916118802
 20
5636.6565627891
 30
0.0
 11
6872.8033848168
 21
5635.637740596
 31
0.0
  0
LINE
  5
304
330
1F
100
AcDbEntity
  8
0
  6
Continuous
 62
     7
100
AcDbLine
 10
6872.8033848168
 20
5635.637740596
 30
0.0
 11
6872.3744548919
 21
5634.8947686988
 31
0.0
  0
LINE
  5
305
330
1F
100
AcDbEntity
  8
0
  6
Continuous
 62
     7
100
AcDbLine
 10
6872.3744548919
 20
5634.8947686988
 30
0.0
 11
6872.1135532545
 21
5634.4429058868
 31
0.0
  0
LINE
  5
306
330
1F
100
AcDbEntity
  8
0
  6
Continuous
 62
     7
100
AcDbLine
 10
6872.1135532545
 20
5634.4429058868
 30
0.0
 11
6872.0259921687
 21
5634.2912120658
 31
0.0
  0
LINE
  5
307
330
1F
100
AcDbEntity
  8
0
  6
Continuous
 62
     7
100
AcDbLine
 10
6889.6285113009
 20
5633.6027784187
 30
0.0
 11
6891.6471082779
 21
5634.768228038
 31
0.0
  0
LINE
  5
308
330
1F
100
AcDbEntity
  8
0
  6
Continuous
 62
     7
100
AcDbLine
 10
6891.6471082779
 20
5634.768228038
 30
0.0
 11
6893.6159987064
 21
5635.9049482185
 31
0.0
  0
LINE
  5
309
330
1F
100
AcDbEntity
  8
0
  6
Continuous
 62
     7
100
AcDbLine
 10
6893.6159987064
 20
5635.9049482185
 30
0.0
 11
6895.4867053838
 21
5636.9849843818
 31
0.0
  0
LINE
  5
30A
330
1F
100
AcDbEntity
  8
0
  6
Continuous
 62
     7
100
AcDbLine
 10
6895.4867053838
 20
5636.9849843818
 30
0.0
 11
6897.2131613703
 21
5637.9817528564
 31
0.0
  0
LINE
  5
30B
330
1F
100
AcDbEntity
  8
0
  6
Continuous
 62
     7
100
AcDbLine
 10
6897.2131613703
 20
5637.9817528564
 30
0.0
 11
6898.7528611036
 21
5638.8706965286
 31
0.0
  0
LINE
  5
30C
330
1F
100
AcDbEntity
  8
0
  6
Continuous
 62
     7
100
AcDbLine
 10
6898.7528611036
 20
5638.8706965286
 30
0.0
 11
6900.067888579
 21
5639.6299404937
 31
0.0
  0
LINE
  5
30D
330
1F
100
AcDbEntity
  8
0
  6
Continuous
 62
     7
100
AcDbLine
 10
6900.067888579
 20
5639.6299404937
 30
0.0
 11
6901.1258635731
 21
5640.2407688934
 31
0.0
  0
LINE
  5
30E
330
1F
100
AcDbEntity
  8
0
  6
Continuous
 62
     7
100
AcDbLine
 10
6901.1258635731
 20
5640.2407688934
 30
0.0
 11
6901.9007351311
 21
5640.6881613571
 31
0.0
  0
LINE
  5
30F
330
1F
100
AcDbEntity
  8
0
  6
Continuous
 62
     7
100
AcDbLine
 10
6901.9007351311
 20
5640.6881613571
 30
0.0
 11
6902.3734223159
 21
5640.9610314209
 31
0.0
  0
LINE
  5
310
330
1F
100
AcDbEntity
  8
0
  6
Continuous
 62
     7
100
AcDbLine
 10
6902.3734223159
 20
5640.9610314209
 30
0.0
 11
6902.532291046
 21
5641.0527629692
 31
0.0
  0
LINE
  5
311
330
1F
100
AcDbEntity
  8
0
  6
Continuous
 62
     7
100
AcDbLine
 10
6876.7247334184
 20
5626.1527938682
 30
0.0
 11
6876.8836002858
 21
5626.2445254165
 31
0.0
  0
LINE
  5
312
330
1F
100
AcDbEntity
  8
0
  6
Continuous
 62
     7
100
AcDbLine
 10
6876.8836002858
 20
5626.2445254165
 30
0.0
 11
6877.3562893333
 21
5626.5173954803
 31
0.0
  0
LINE
  5
313
330
1F
100
AcDbEntity
  8
0
  6
Continuous
 62
     7
100
AcDbLine
 10
6877.3562893333
 20
5626.5173954803
 30
0.0
 11
6878.1311608912
 21
5626.964787944
 31
0.0
  0
LINE
  5
314
330
1F
100
AcDbEntity
  8
0
  6
Continuous
 62
     7
100
AcDbLine
 10
6878.1311608912
 20
5626.964787944
 30
0.0
 11
6879.1891358854
 21
5627.5756163436
 31
0.0
  0
LINE
  5
315
330
1F
100
AcDbEntity
  8
0
  6
Continuous
 62
     7
100
AcDbLine
 10
6879.1891358854
 20
5627.5756163436
 30
0.0
 11
6880.5041614981
 21
5628.3348603088
 31
0.0
  0
LINE
  5
316
330
1F
100
AcDbEntity
  8
0
  6
Continuous
 62
     7
100
AcDbLine
 10
6880.5041614981
 20
5628.3348603088
 30
0.0
 11
6882.0438612314
 21
5629.223803981
 31
0.0
  0
LINE
  5
317
330
1F
100
AcDbEntity
  8
0
  6
Continuous
 62
     7
100
AcDbLine
 10
6882.0438612314
 20
5629.223803981
 30
0.0
 11
6883.7703190805
 21
5630.2205724556
 31
0.0
  0
LINE
  5
318
330
1F
100
AcDbEntity
  8
0
  6
Continuous
 62
     7
100
AcDbLine
 10
6883.7703190805
 20
5630.2205724556
 30
0.0
 11
6885.6410238953
 21
5631.3006086189
 31
0.0
  0
LINE
  5
319
330
1F
100
AcDbEntity
  8
0
  6
Continuous
 62
     7
100
AcDbLine
 10
6885.6410238953
 20
5631.3006086189
 30
0.0
 11
6887.6099161865
 21
5632.4373287994
 31
0.0
  0
LINE
  5
31A
330
1F
100
AcDbEntity
  8
0
  6
Continuous
 62
     7
100
AcDbLine
 10
6887.6099161865
 20
5632.4373287994
 30
0.0
 11
6889.6285113009
 21
5633.6027784187
 31
0.0
  0
LINE
  5
31B
330
1F
100
AcDbEntity
  8
0
  6
Continuous
 62
     7
100
AcDbLine
 10
6889.8785118075
 20
5633.1697506744
 30
0.0
 11
6891.8971087845
 21
5634.3352002937
 31
0.0
  0
LINE
  5
31C
330
1F
100
AcDbEntity
  8
0
  6
Continuous
 62
     7
100
AcDbLine
 10
6891.8971087845
 20
5634.3352002937
 30
0.0
 11
6893.865999213
 21
5635.4719204742
 31
0.0
  0
LINE
  5
31D
330
1F
100
AcDbEntity
  8
0
  6
Continuous
 62
     7
100
AcDbLine
 10
6893.865999213
 20
5635.4719204742
 30
0.0
 11
6895.7367058905
 21
5636.5520162422
 31
0.0
  0
LINE
  5
31E
330
1F
100
AcDbEntity
  8
0
  6
Continuous
 62
     7
100
AcDbLine
 10
6895.7367058905
 20
5636.5520162422
 30
0.0
 11
6897.463161877
 21
5637.5487847168
 31
0.0
  0
LINE
  5
31F
330
1F
100
AcDbEntity
  8
0
  6
Continuous
 62
     7
100
AcDbLine
 10
6897.463161877
 20
5637.5487847168
 30
0.0
 11
6899.0028616102
 21
5638.4377283889
 31
0.0
  0
LINE
  5
320
330
1F
100
AcDbEntity
  8
0
  6
Continuous
 62
     7
100
AcDbLine
 10
6899.0028616102
 20
5638.4377283889
 30
0.0
 11
6900.3178890856
 21
5639.1969723541
 31
0.0
  0
LINE
  5
321
330
1F
100
AcDbEntity
  8
0
  6
Continuous
 62
     7
100
AcDbLine
 10
6900.3178890856
 20
5639.1969723541
 30
0.0
 11
6901.3758640798
 21
5639.8077411491
 31
0.0
  0
LINE
  5
322
330
1F
100
AcDbEntity
  8
0
  6
Continuous
 62
     7
100
AcDbLine
 10
6901.3758640798
 20
5639.8077411491
 30
0.0
 11
6902.1507356377
 21
5640.2551336128
 31
0.0
  0
LINE
  5
323
330
1F
100
AcDbEntity
  8
0
  6
Continuous
 62
     7
100
AcDbLine
 10
6902.1507356377
 20
5640.2551336128
 30
0.0
 11
6902.6234228225
 21
5640.5280632812
 31
0.0
  0
LINE
  5
324
330
1F
100
AcDbEntity
  8
0
  6
Continuous
 62
     7
100
AcDbLine
 10
6902.6234228225
 20
5640.5280632812
 30
0.0
 11
6902.7822915526
 21
5640.6197948295
 31
0.0
  0
LINE
  5
325
330
1F
100
AcDbEntity
  8
0
  6
Continuous
 62
     7
100
AcDbLine
 10
6876.9747320624
 20
5625.7197661239
 30
0.0
 11
6877.1336007925
 21
5625.8114976722
 31
0.0
  0
LINE
  5
326
330
1F
100
AcDbEntity
  8
0
  6
Continuous
 62
     7
100
AcDbLine
 10
6877.1336007925
 20
5625.8114976722
 30
0.0
 11
6877.6062879773
 21
5626.084367736
 31
0.0
  0
LINE
  5
327
330
1F
100
AcDbEntity
  8
0
  6
Continuous
 62
     7
100
AcDbLine
 10
6877.6062879773
 20
5626.084367736
 30
0.0
 11
6878.3811613979
 21
5626.5317601997
 31
0.0
  0
LINE
  5
328
330
1F
100
AcDbEntity
  8
0
  6
Continuous
 62
     7
100
AcDbLine
 10
6878.3811613979
 20
5626.5317601997
 30
0.0
 11
6879.4391345294
 21
5627.1425885994
 31
0.0
  0
LINE
  5
329
330
1F
100
AcDbEntity
  8
0
  6
Continuous
 62
     7
100
AcDbLine
 10
6879.4391345294
 20
5627.1425885994
 30
0.0
 11
6880.7541620048
 21
5627.9018325645
 31
0.0
  0
LINE
  5
32A
330
1F
100
AcDbEntity
  8
0
  6
Continuous
 62
     7
100
AcDbLine
 10
6880.7541620048
 20
5627.9018325645
 30
0.0
 11
6882.2938598754
 21
5628.7907762367
 31
0.0
  0
LINE
  5
32B
330
1F
100
AcDbEntity
  8
0
  6
Continuous
 62
     7
100
AcDbLine
 10
6882.2938598754
 20
5628.7907762367
 30
0.0
 11
6884.0203177245
 21
5629.7875447113
 31
0.0
  0
LINE
  5
32C
330
1F
100
AcDbEntity
  8
0
  6
Continuous
 62
     7
100
AcDbLine
 10
6884.0203177245
 20
5629.7875447113
 30
0.0
 11
6885.891024402
 21
5630.8675808746
 31
0.0
  0
LINE
  5
32D
330
1F
100
AcDbEntity
  8
0
  6
Continuous
 62
     7
100
AcDbLine
 10
6885.891024402
 20
5630.8675808746
 30
0.0
 11
6887.8599166932
 21
5632.0043010551
 31
0.0
  0
LINE
  5
32E
330
1F
100
AcDbEntity
  8
0
  6
Continuous
 62
     7
100
AcDbLine
 10
6887.8599166932
 20
5632.0043010551
 30
0.0
 11
6889.8785118075
 21
5633.1697506744
 31
0.0
  0
LINE
  5
32F
330
1F
100
AcDbEntity
  8
0
  6
Continuous
 62
     7
100
AcDbLine
 10
6892.7247341784
 20
5598.4399719078
 30
0.0
 11
6892.8835991831
 21
5598.5317034561
 31
0.0
  0
LINE
  5
330
330
1F
100
AcDbEntity
  8
0
  6
Continuous
 62
     7
100
AcDbLine
 10
6892.8835991831
 20
5598.5317034561
 30
0.0
 11
6893.3562900932
 21
5598.8045735199
 31
0.0
  0
LINE
  5
331
330
1F
100
AcDbEntity
  8
0
  6
Continuous
 62
     7
100
AcDbLine
 10
6893.3562900932
 20
5598.8045735199
 30
0.0
 11
6894.1311616512
 21
5599.2519659835
 31
0.0
  0
LINE
  5
332
330
1F
100
AcDbEntity
  8
0
  6
Continuous
 62
     7
100
AcDbLine
 10
6894.1311616512
 20
5599.2519659835
 30
0.0
 11
6895.1891366454
 21
5599.8627943832
 31
0.0
  0
LINE
  5
333
330
1F
100
AcDbEntity
  8
0
  6
Continuous
 62
     7
100
AcDbLine
 10
6895.1891366454
 20
5599.8627943832
 30
0.0
 11
6896.5041603954
 21
5600.6220383483
 31
0.0
  0
LINE
  5
334
330
1F
100
AcDbEntity
  8
0
  6
Continuous
 62
     7
100
AcDbLine
 10
6896.5041603954
 20
5600.6220383483
 30
0.0
 11
6898.0438601287
 21
5601.5109820205
 31
0.0
  0
LINE
  5
335
330
1F
100
AcDbEntity
  8
0
  6
Continuous
 62
     7
100
AcDbLine
 10
6898.0438601287
 20
5601.5109820205
 30
0.0
 11
6899.7703198405
 21
5602.5077504951
 31
0.0
  0
LINE
  5
336
330
1F
100
AcDbEntity
  8
0
  6
Continuous
 62
     7
100
AcDbLine
 10
6899.7703198405
 20
5602.5077504951
 30
0.0
 11
6901.6410227926
 21
5603.5877866584
 31
0.0
  0
LINE
  5
337
330
1F
100
AcDbEntity
  8
0
  6
Continuous
 62
     7
100
AcDbLine
 10
6901.6410227926
 20
5603.5877866584
 30
0.0
 11
6903.6099169465
 21
5604.7245068389
 31
0.0
  0
LINE
  5
338
330
1F
100
AcDbEntity
  8
0
  6
Continuous
 62
     7
100
AcDbLine
 10
6903.6099169465
 20
5604.7245068389
 30
0.0
 11
6905.6285101982
 21
5605.8899564582
 31
0.0
  0
LINE
  5
339
330
1F
100
AcDbEntity
  8
0
  6
Continuous
 62
     7
100
AcDbLine
 10
6905.6285101982
 20
5605.8899564582
 30
0.0
 11
6907.6471071752
 21
5607.0554060775
 31
0.0
  0
LINE
  5
33A
330
1F
100
AcDbEntity
  8
0
  6
Continuous
 62
     7
100
AcDbLine
 10
6907.6471071752
 20
5607.0554060775
 30
0.0
 11
6909.6159976037
 21
5608.192126258
 31
0.0
  0
LINE
  5
33B
330
1F
100
AcDbEntity
  8
0
  6
Continuous
 62
     7
100
AcDbLine
 10
6909.6159976037
 20
5608.192126258
 30
0.0
 11
6911.4867042812
 21
5609.272222026
 31
0.0
  0
LINE
  5
33C
330
1F
100
AcDbEntity
  8
0
  6
Continuous
 62
     7
100
AcDbLine
 10
6911.4867042812
 20
5609.272222026
 30
0.0
 11
6913.2131639929
 21
5610.2689905006
 31
0.0
  0
LINE
  5
33D
330
1F
100
AcDbEntity
  8
0
  6
Continuous
 62
     7
100
AcDbLine
 10
6913.2131639929
 20
5610.2689905006
 30
0.0
 11
6914.7528600009
 21
5611.1579341728
 31
0.0
  0
LINE
  5
33E
330
1F
100
AcDbEntity
  8
0
  6
Continuous
 62
     7
100
AcDbLine
 10
6914.7528600009
 20
5611.1579341728
 30
0.0
 11
6916.0678874763
 21
5611.9171185333
 31
0.0
  0
LINE
  5
33F
330
1F
100
AcDbEntity
  8
0
  6
Continuous
 62
     7
100
AcDbLine
 10
6916.0678874763
 20
5611.9171185333
 30
0.0
 11
6917.1258624705
 21
5612.5279469329
 31
0.0
  0
LINE
  5
340
330
1F
100
AcDbEntity
  8
0
  6
Continuous
 62
     7
100
AcDbLine
 10
6917.1258624705
 20
5612.5279469329
 30
0.0
 11
6917.9007340284
 21
5612.9753393966
 31
0.0
  0
LINE
  5
341
330
1F
100
AcDbEntity
  8
0
  6
Continuous
 62
     7
100
AcDbLine
 10
6917.9007340284
 20
5612.9753393966
 30
0.0
 11
6918.3734212132
 21
5613.2482690651
 31
0.0
  0
LINE
  5
342
330
1F
100
AcDbEntity
  8
0
  6
Continuous
 62
     7
100
AcDbLine
 10
6918.3734212132
 20
5613.2482690651
 30
0.0
 11
6918.5322899433
 21
5613.3399410087
 31
0.0
  0
LINE
  5
343
330
1F
100
AcDbEntity
  8
0
  6
Continuous
 62
     7
100
AcDbLine
 10
6906.4869139405
 20
5604.403178199
 30
0.0
 11
6905.2700627657
 21
5603.700618251
 31
0.0
  0
LINE
  5
344
330
1F
100
AcDbEntity
  8
0
  6
Continuous
 62
     7
100
AcDbLine
 10
6905.2700627657
 20
5603.700618251
 30
0.0
 11
6904.1296694489
 21
5603.0422253448
 31
0.0
  0
LINE
  5
345
330
1F
100
AcDbEntity
  8
0
  6
Continuous
 62
     7
100
AcDbLine
 10
6904.1296694489
 20
5603.0422253448
 30
0.0
 11
6903.1373936744
 21
5602.4693054992
 31
0.0
  0
LINE
  5
346
330
1F
100
AcDbEntity
  8
0
  6
Continuous
 62
     7
100
AcDbLine
 10
6903.1373936744
 20
5602.4693054992
 30
0.0
 11
6902.3555781754
 21
5602.0179195243
 31
0.0
  0
LINE
  5
347
330
1F
100
AcDbEntity
  8
0
  6
Continuous
 62
     7
100
AcDbLine
 10
6902.3555781754
 20
5602.0179195243
 30
0.0
 11
6901.8333520802
 21
5601.7164392311
 31
0.0
  0
LINE
  5
348
330
1F
100
AcDbEntity
  8
0
  6
Continuous
 62
     7
100
AcDbLine
 10
6901.8333520802
 20
5601.7164392311
 30
0.0
 11
6901.6035240205
 21
5601.5837592918
 31
0.0
  0
LINE
  5
349
330
1F
100
AcDbEntity
  8
0
  6
Continuous
 62
     7
100
AcDbLine
 10
6901.6035240205
 20
5601.5837592918
 30
0.0
 11
6901.593868068
 21
5601.5781564552
 31
0.0
  0
LINE
  5
34A
330
1F
100
AcDbEntity
  8
0
  6
Continuous
 62
     7
100
AcDbLine
 10
6911.3799560877
 20
5607.2281999427
 30
0.0
 11
6911.3703001352
 21
5607.2225971061
 31
0.0
  0
LINE
  5
34B
330
1F
100
AcDbEntity
  8
0
  6
Continuous
 62
     7
100
AcDbLine
 10
6911.3703001352
 20
5607.2225971061
 30
0.0
 11
6911.1404720755
 21
5607.0899171669
 31
0.0
  0
LINE
  5
34C
330
1F
100
AcDbEntity
  8
0
  6
Continuous
 62
     7
100
AcDbLine
 10
6911.1404720755
 20
5607.0899171669
 30
0.0
 11
6910.6182459803
 21
5606.7883772689
 31
0.0
  0
LINE
  5
34D
330
1F
100
AcDbEntity
  8
0
  6
Continuous
 62
     7
100
AcDbLine
 10
6910.6182459803
 20
5606.7883772689
 30
0.0
 11
6909.8364304813
 21
5606.3369912941
 31
0.0
  0
LINE
  5
34E
330
1F
100
AcDbEntity
  8
0
  6
Continuous
 62
     7
100
AcDbLine
 10
6909.8364304813
 20
5606.3369912941
 30
0.0
 11
6908.8441547068
 21
5605.7641310531
 31
0.0
  0
LINE
  5
34F
330
1F
100
AcDbEntity
  8
0
  6
Continuous
 62
     7
100
AcDbLine
 10
6908.8441547068
 20
5605.7641310531
 30
0.0
 11
6907.7037651153
 21
5605.1057381469
 31
0.0
  0
LINE
  5
350
330
1F
100
AcDbEntity
  8
0
  6
Continuous
 62
     7
100
AcDbLine
 10
6907.7037651153
 20
5605.1057381469
 30
0.0
 11
6906.4869139405
 21
5604.403178199
 31
0.0
  0
LINE
  5
351
330
1F
100
AcDbEntity
  8
0
  6
Continuous
 62
     7
100
AcDbLine
 10
6858.6285115747
 20
5654.291252597
 30
0.0
 11
6864.6285118597
 21
5654.291252597
 31
0.0
  0
LINE
  5
352
330
1F
100
AcDbEntity
  8
0
  6
Continuous
 62
     7
100
AcDbLine
 10
6864.6285118597
 20
5654.291252597
 30
0.0
 11
6864.6285118597
 21
5664.0912098724
 31
0.0
  0
LINE
  5
353
330
1F
100
AcDbEntity
  8
0
  6
Continuous
 62
     7
100
AcDbLine
 10
6858.6285115747
 20
5644.0912289459
 30
0.0
 11
6864.6285118597
 21
5644.0912289459
 31
0.0
  0
LINE
  5
354
330
1F
100
AcDbEntity
  8
0
  6
Continuous
 62
     7
100
AcDbLine
 10
6864.6285118597
 20
5634.2912120658
 30
0.0
 11
6864.6285118597
 21
5644.0912289459
 31
0.0
  0
LINE
  5
355
330
1F
100
AcDbEntity
  8
0
  6
Continuous
 62
     7
100
AcDbLine
 10
6864.6285118597
 20
5644.0912289459
 30
0.0
 11
6864.6285118597
 21
5654.291252597
 31
0.0
  0
LINE
  5
356
330
1F
100
AcDbEntity
  8
0
  6
Continuous
 62
     7
100
AcDbLine
 10
6858.6285115747
 20
5676.191250785
 30
0.0
 11
6858.6285115747
 21
5622.1912307579
 31
0.0
  0
LINE
  5
357
330
1F
100
AcDbEntity
  8
0
  6
Continuous
 62
     7
100
AcDbLine
 10
6857.1285115034
 20
5676.6912145454
 30
0.0
 11
6857.1285115034
 21
5621.6912073928
 31
0.0
  0
LINE
  5
358
330
1F
100
AcDbEntity
  8
0
  6
Continuous
 62
     7
100
AcDbLine
 10
6858.1285114927
 20
5621.6912073928
 30
0.0
 11
6858.1285114927
 21
5676.6912145454
 31
0.0
  0
LINE
  5
359
330
1F
100
AcDbEntity
  8
0
  6
Continuous
 62
     7
100
AcDbLine
 10
6259.1187555015
 20
4265.6956421001
 30
0.0
 11
6259.1187553361
 21
4251.6956418766
 31
0.0
  0
LINE
  5
35A
330
1F
100
AcDbEntity
  8
0
  6
Continuous
 62
     7
100
AcDbLine
 10
6288.9187553361
 20
4251.6956418766
 30
0.0
 11
6288.9187551707
 21
4265.6956421001
 31
0.0
  0
LINE
  5
35B
330
1F
100
AcDbEntity
  8
0
  6
Continuous
 62
     7
100
AcDbLine
 10
6259.1187553361
 20
4251.6956418766
 30
0.0
 11
6259.1187555015
 21
4242.6956420554
 31
0.0
  0
LINE
  5
35C
330
1F
100
AcDbEntity
  8
0
  6
Continuous
 62
     7
100
AcDbLine
 10
6288.9187551707
 20
4242.6956420554
 30
0.0
 11
6288.9187553361
 21
4251.6956418766
 31
0.0
  0
LINE
  5
35D
330
1F
100
AcDbEntity
  8
0
  6
Continuous
 62
     7
100
AcDbLine
 10
6283.5187550306
 20
4265.6956421001
 30
0.0
 11
6283.5187550306
 21
4267.6956414966
 31
0.0
  0
LINE
  5
35E
330
1F
100
AcDbEntity
  8
0
  6
Continuous
 62
     7
100
AcDbLine
 10
6264.5187556416
 20
4267.6956414966
 30
0.0
 11
6264.5187556416
 21
4265.6956421001
 31
0.0
  0
LINE
  5
35F
330
1F
100
AcDbEntity
  8
0
  6
Continuous
 62
     7
100
AcDbLine
 10
6259.1187555015
 20
4242.4456415488
 30
0.0
 11
6259.1187555015
 21
4226.6956431581
 31
0.0
  0
LINE
  5
360
330
1F
100
AcDbEntity
  8
0
  6
Continuous
 62
     7
100
AcDbLine
 10
6288.9187551707
 20
4226.6956431581
 30
0.0
 11
6288.9187551707
 21
4242.4456415488
 31
0.0
  0
LINE
  5
361
330
1F
100
AcDbEntity
  8
0
  6
Continuous
 62
     7
100
AcDbLine
 10
6246.5187554851
 20
4275.1956418529
 30
0.0
 11
6246.5187554851
 21
4274.1956418636
 31
0.0
  0
LINE
  5
362
330
1F
100
AcDbEntity
  8
0
  6
Continuous
 62
     7
100
AcDbLine
 10
6301.5187551871
 20
4274.1956418636
 30
0.0
 11
6301.5187551871
 21
4275.1956418529
 31
0.0
  0
LINE
  5
363
330
1F
100
AcDbEntity
  8
0
  6
Continuous
 62
     7
100
AcDbLine
 10
6334.3206589714
 20
4275.5956418791
 30
0.0
 11
6301.3187555268
 21
4275.5956418791
 31
0.0
  0
LINE
  5
364
330
1F
100
AcDbEntity
  8
0
  6
Continuous
 62
     7
100
AcDbLine
 10
6334.3206589714
 20
4275.5956418791
 30
0.0
 11
6334.3206589714
 21
4275.6956418766
 31
0.0
  0
LINE
  5
365
330
1F
100
AcDbEntity
  8
0
  6
Continuous
 62
     7
100
AcDbLine
 10
6302.1100574776
 20
4275.5456418695
 30
0.0
 11
6302.1100574776
 21
4275.5956418791
 31
0.0
  0
LINE
  5
366
330
1F
100
AcDbEntity
  8
0
  6
Continuous
 62
     7
100
AcDbLine
 10
6301.3758269742
 20
4275.5456418695
 30
0.0
 11
6302.1100574776
 21
4275.5456418695
 31
0.0
  0
LINE
  5
367
330
1F
100
AcDbEntity
  8
0
  6
Continuous
 62
     7
100
AcDbLine
 10
6318.1557302967
 20
4275.5456418695
 30
0.0
 11
6318.1557302967
 21
4275.5956418791
 31
0.0
  0
LINE
  5
368
330
1F
100
AcDbEntity
  8
0
  6
Continuous
 62
     7
100
AcDbLine
 10
6309.6941915944
 20
4275.5456418695
 30
0.0
 11
6309.6941915944
 21
4275.5956418791
 31
0.0
  0
LINE
  5
369
330
1F
100
AcDbEntity
  8
0
  6
Continuous
 62
     7
100
AcDbLine
 10
6307.1961944595
 20
4275.5456418695
 30
0.0
 11
6307.1961944595
 21
4275.5956418791
 31
0.0
  0
LINE
  5
36A
330
1F
100
AcDbEntity
  8
0
  6
Continuous
 62
     7
100
AcDbLine
 10
6313.5203143254
 20
4275.5456418695
 30
0.0
 11
6313.5203143254
 21
4275.5956418791
 31
0.0
  0
LINE
  5
36B
330
1F
100
AcDbEntity
  8
0
  6
Continuous
 62
     7
100
AcDbLine
 10
6331.4690312043
 20
4275.5456418695
 30
0.0
 11
6331.4690312043
 21
4275.5956418791
 31
0.0
  0
LINE
  5
36C
330
1F
100
AcDbEntity
  8
0
  6
Continuous
 62
     7
100
AcDbLine
 10
6327.6429084733
 20
4275.5456418695
 30
0.0
 11
6327.6429084733
 21
4275.5956418791
 31
0.0
  0
LINE
  5
36D
330
1F
100
AcDbEntity
  8
0
  6
Continuous
 62
     7
100
AcDbLine
 10
6325.1449113384
 20
4275.5456418695
 30
0.0
 11
6325.1449113384
 21
4275.5956418791
 31
0.0
  0
LINE
  5
36E
330
1F
100
AcDbEntity
  8
0
  6
Continuous
 62
     7
100
AcDbLine
 10
6315.8620616093
 20
4275.5456418695
 30
0.0
 11
6315.8620616093
 21
4275.5956418791
 31
0.0
  0
LINE
  5
36F
330
1F
100
AcDbEntity
  8
0
  6
Continuous
 62
     7
100
AcDbLine
 10
6320.4433900908
 20
4275.5456418695
 30
0.0
 11
6320.4433900908
 21
4275.5956418791
 31
0.0
  0
LINE
  5
370
330
1F
100
AcDbEntity
  8
0
  6
Continuous
 62
     7
100
AcDbLine
 10
6322.3664668992
 20
4275.5456418695
 30
0.0
 11
6322.3664668992
 21
4275.5956418791
 31
0.0
  0
LINE
  5
371
330
1F
100
AcDbEntity
  8
0
  6
Continuous
 62
     7
100
AcDbLine
 10
6320.4433900908
 20
4275.5456418695
 30
0.0
 11
6322.3664668992
 21
4275.5456418695
 31
0.0
  0
LINE
  5
372
330
1F
100
AcDbEntity
  8
0
  6
Continuous
 62
     7
100
AcDbLine
 10
6314.802365531
 20
4275.5456418695
 30
0.0
 11
6314.802365531
 21
4275.5956418791
 31
0.0
  0
LINE
  5
373
330
1F
100
AcDbEntity
  8
0
  6
Continuous
 62
     7
100
AcDbLine
 10
6323.9049298361
 20
4275.5456418695
 30
0.0
 11
6323.9049298361
 21
4275.5956418791
 31
0.0
  0
LINE
  5
374
330
1F
100
AcDbEntity
  8
0
  6
Continuous
 62
     7
100
AcDbLine
 10
6305.9562129572
 20
4275.5456418695
 30
0.0
 11
6305.9562129572
 21
4275.5956418791
 31
0.0
  0
LINE
  5
375
330
1F
100
AcDbEntity
  8
0
  6
Continuous
 62
     7
100
AcDbLine
 10
6304.9305697575
 20
4275.5456418695
 30
0.0
 11
6304.9305697575
 21
4275.5956418791
 31
0.0
  0
LINE
  5
376
330
1F
100
AcDbEntity
  8
0
  6
Continuous
 62
     7
100
AcDbLine
 10
6302.1100574776
 20
4275.5456418695
 30
0.0
 11
6304.9305697575
 21
4275.5456418695
 31
0.0
  0
LINE
  5
377
330
1F
100
AcDbEntity
  8
0
  6
Continuous
 62
     7
100
AcDbLine
 10
6314.7943524316
 20
4275.5456418695
 30
0.0
 11
6314.7943524316
 21
4275.5956418791
 31
0.0
  0
LINE
  5
378
330
1F
100
AcDbEntity
  8
0
  6
Continuous
 62
     7
100
AcDbLine
 10
6165.5702164897
 20
4366.470472071
 30
0.0
 11
6382.4672941824
 21
4366.470472071
 31
0.0
  0
LINE
  5
379
330
1F
100
AcDbEntity
  8
0
  6
Continuous
 62
     7
100
AcDbLine
 10
6166.3066203725
 20
4368.6956418766
 30
0.0
 11
6381.7308902996
 21
4368.6956418766
 31
0.0
  0
LINE
  5
37A
330
1F
100
AcDbEntity
  8
0
  6
Continuous
 62
     7
100
AcDbLine
 10
6203.6880549855
 20
4276.670472071
 30
0.0
 11
6344.3494556867
 21
4276.670472071
 31
0.0
  0
LINE
  5
37B
330
1F
100
AcDbEntity
  8
0
  6
Continuous
 62
     7
100
AcDbLine
 10
6344.3494556867
 20
4276.670472071
 30
0.0
 11
6382.4672941824
 21
4366.470472071
 31
0.0
  0
LINE
  5
37C
330
1F
100
AcDbEntity
  8
0
  6
Continuous
 62
     7
100
AcDbLine
 10
6165.5702164897
 20
4366.470472071
 30
0.0
 11
6203.6880549855
 21
4276.670472071
 31
0.0
  0
LINE
  5
37D
330
1F
100
AcDbEntity
  8
0
  6
Continuous
 62
     7
100
AcDbLine
 10
6164.1267103574
 20
4366.4704698398
 30
0.0
 11
6164.8631114948
 21
4366.783057732
 31
0.0
  0
LINE
  5
37E
330
1F
100
AcDbEntity
  8
0
  6
Continuous
 62
     7
100
AcDbLine
 10
6165.5995158151
 20
4368.695644082
 30
0.0
 11
6165.5995158151
 21
4367.895645441
 31
0.0
  0
LINE
  5
37F
330
1F
100
AcDbEntity
  8
0
  6
Continuous
 62
     7
100
AcDbLine
 10
6383.9108003148
 20
4366.4704698398
 30
0.0
 11
6383.1743991774
 21
4366.783057732
 31
0.0
  0
LINE
  5
380
330
1F
100
AcDbEntity
  8
0
  6
Continuous
 62
     7
100
AcDbLine
 10
6382.4379948571
 20
4368.695644082
 30
0.0
 11
6382.4379948571
 21
4367.895645441
 31
0.0
  0
LINE
  5
381
330
1F
100
AcDbEntity
  8
0
  6
Continuous
 62
     7
100
AcDbLine
 10
6202.9809505518
 20
4276.9830576764
 30
0.0
 11
6164.8631114948
 21
4366.783057732
 31
0.0
  0
LINE
  5
382
330
1F
100
AcDbEntity
  8
0
  6
Continuous
 62
     7
100
AcDbLine
 10
6202.244543793
 20
4276.6704733161
 30
0.0
 11
6202.9809505518
 21
4276.9830576764
 31
0.0
  0
LINE
  5
383
330
1F
100
AcDbEntity
  8
0
  6
Continuous
 62
     7
100
AcDbLine
 10
6202.244543793
 20
4276.6704733161
 30
0.0
 11
6164.1267103574
 21
4366.4704698398
 31
0.0
  0
LINE
  5
384
330
1F
100
AcDbEntity
  8
0
  6
Continuous
 62
     7
100
AcDbLine
 10
6383.9108003148
 20
4366.4704698398
 30
0.0
 11
6345.7929668792
 21
4276.6704733161
 31
0.0
  0
LINE
  5
385
330
1F
100
AcDbEntity
  8
0
  6
Continuous
 62
     7
100
AcDbLine
 10
6345.7929668792
 20
4276.6704733161
 30
0.0
 11
6345.0565601204
 21
4276.9830576764
 31
0.0
  0
LINE
  5
386
330
1F
100
AcDbEntity
  8
0
  6
Continuous
 62
     7
100
AcDbLine
 10
6383.1743991774
 20
4366.783057732
 30
0.0
 11
6345.0565601204
 21
4276.9830576764
 31
0.0
  0
LINE
  5
387
330
1F
100
AcDbEntity
  8
0
  6
Continuous
 62
     7
100
AcDbLine
 10
6165.6137985781
 20
4367.895645441
 30
0.0
 11
6165.5995158151
 21
4367.895645441
 31
0.0
  0
LINE
  5
388
330
1F
100
AcDbEntity
  8
0
  6
Continuous
 62
     7
100
AcDbLine
 10
6166.3066203725
 20
4368.6956418766
 30
0.0
 11
6165.5995158151
 21
4368.695644082
 31
0.0
  0
LINE
  5
389
330
1F
100
AcDbEntity
  8
0
  6
Continuous
 62
     7
100
AcDbLine
 10
6382.4379948571
 20
4367.895645441
 30
0.0
 11
6382.4237120941
 21
4367.895645441
 31
0.0
  0
LINE
  5
38A
330
1F
100
AcDbEntity
  8
0
  6
Continuous
 62
     7
100
AcDbLine
 10
6382.4379948571
 20
4368.695644082
 30
0.0
 11
6381.7308902996
 21
4368.6956418766
 31
0.0
  0
LINE
  5
38B
330
1F
100
AcDbEntity
  8
0
  6
Continuous
 62
     7
100
AcDbLine
 10
6203.717352087
 20
4275.6956418766
 30
0.0
 11
6344.3201585852
 21
4275.6956418766
 31
0.0
  0
LINE
  5
38C
330
1F
100
AcDbEntity
  8
0
  6
Continuous
 62
     7
100
AcDbLine
 10
6189.5778907135
 20
4359.0329786553
 30
0.0
 11
6188.6445564821
 21
4357.1494867815
 31
0.0
  0
LINE
  5
38D
330
1F
100
AcDbEntity
  8
0
  6
Continuous
 62
     7
100
AcDbLine
 10
6189.3058551148
 20
4359.0329786553
 30
0.0
 11
6189.5778907135
 21
4359.0329786553
 31
0.0
  0
LINE
  5
38E
330
1F
100
AcDbEntity
  8
0
  6
Continuous
 62
     7
100
AcDbLine
 10
6188.6266080335
 20
4357.6616620435
 30
0.0
 11
6189.3058551148
 21
4359.0329786553
 31
0.0
  0
LINE
  5
38F
330
1F
100
AcDbEntity
  8
0
  6
Continuous
 62
     7
100
AcDbLine
 10
6187.9473609522
 20
4359.0329786553
 30
0.0
 11
6188.6266080335
 21
4357.6616620435
 31
0.0
  0
LINE
  5
390
330
1F
100
AcDbEntity
  8
0
  6
Continuous
 62
     7
100
AcDbLine
 10
6187.6753253534
 20
4359.0329786553
 30
0.0
 11
6187.9473609522
 21
4359.0329786553
 31
0.0
  0
LINE
  5
391
330
1F
100
AcDbEntity
  8
0
  6
Continuous
 62
     7
100
AcDbLine
 10
6188.6086595848
 20
4357.1494867815
 30
0.0
 11
6187.6753253534
 21
4359.0329786553
 31
0.0
  0
LINE
  5
392
330
1F
100
AcDbEntity
  8
0
  6
Continuous
 62
     7
100
AcDbLine
 10
6188.6445564821
 20
4357.1494867815
 30
0.0
 11
6188.6086595848
 21
4357.1494867815
 31
0.0
  0
LINE
  5
393
330
1F
100
AcDbEntity
  8
0
  6
Continuous
 62
     7
100
AcDbLine
 10
6180.3163570955
 20
4359.3567063822
 30
0.0
 11
6180.0891888931
 21
4359.1982027306
 31
0.0
  0
LINE
  5
394
330
1F
100
AcDbEntity
  8
0
  6
Continuous
 62
     7
100
AcDbLine
 10
6178.700966914
 20
4357.6466938271
 30
0.0
 11
6178.9376718596
 21
4357.7773174061
 31
0.0
  0
LINE
  5
395
330
1F
100
AcDbEntity
  8
0
  6
Continuous
 62
     7
100
AcDbLine
 10
6204.0187550381
 20
4361.8288760795
 30
0.0
 11
6176.0187578991
 21
4361.8288760795
 31
0.0
  0
LINE
  5
396
330
1F
100
AcDbEntity
  8
0
  6
Continuous
 62
     7
100
AcDbLine
 10
6204.0187550381
 20
4355.3853383078
 30
0.0
 11
6204.0187550381
 21
4361.8288760795
 31
0.0
  0
LINE
  5
397
330
1F
100
AcDbEntity
  8
0
  6
Continuous
 62
     7
100
AcDbLine
 10
6176.0187578991
 20
4355.3853383078
 30
0.0
 11
6204.0187550381
 21
4355.3853383078
 31
0.0
  0
LINE
  5
398
330
1F
100
AcDbEntity
  8
0
  6
Continuous
 62
     7
100
AcDbLine
 10
6176.0187578991
 20
4361.8288760795
 30
0.0
 11
6176.0187578991
 21
4355.3853383078
 31
0.0
  0
LINE
  5
399
330
1F
100
AcDbEntity
  8
0
  6
Continuous
 62
     7
100
AcDbLine
 10
6182.8650740579
 20
4358.0416640057
 30
0.0
 11
6181.0343024924
 21
4358.0416640057
 31
0.0
  0
LINE
  5
39A
330
1F
100
AcDbEntity
  8
0
  6
Continuous
 62
     7
100
AcDbLine
 10
6182.5341416195
 20
4357.7442740812
 30
0.0
 11
6182.7573833659
 21
4357.6363673224
 31
0.0
  0
LINE
  5
39B
330
1F
100
AcDbEntity
  8
0
  6
Continuous
 62
     7
100
AcDbLine
 10
6182.3266131476
 20
4359.8590766801
 30
0.0
 11
6181.7887110308
 21
4359.3303760304
 31
0.0
  0
LINE
  5
39C
330
1F
100
AcDbEntity
  8
0
  6
Continuous
 62
     7
100
AcDbLine
 10
6181.9345412448
 20
4359.8590766801
 30
0.0
 11
6182.3266131476
 21
4359.8590766801
 31
0.0
  0
LINE
  5
39D
330
1F
100
AcDbEntity
  8
0
  6
Continuous
 62
     7
100
AcDbLine
 10
6181.5368665054
 20
4359.3303760304
 30
0.0
 11
6181.9345412448
 21
4359.8590766801
 31
0.0
  0
LINE
  5
39E
330
1F
100
AcDbEntity
  8
0
  6
Continuous
 62
     7
100
AcDbLine
 10
6181.7887110308
 20
4359.3303760304
 30
0.0
 11
6181.5368665054
 21
4359.3303760304
 31
0.0
  0
LINE
  5
39F
330
1F
100
AcDbEntity
  8
0
  6
Continuous
 62
     7
100
AcDbLine
 10
6183.5471225575
 20
4357.7824806585
 30
0.0
 11
6183.5471225575
 21
4357.1494867815
 31
0.0
  0
LINE
  5
3A0
330
1F
100
AcDbEntity
  8
0
  6
Continuous
 62
     7
100
AcDbLine
 10
6184.2650754049
 20
4359.0014850511
 30
0.0
 11
6184.1270906523
 21
4358.8011612906
 31
0.0
  0
LINE
  5
3A1
330
1F
100
AcDbEntity
  8
0
  6
Continuous
 62
     7
100
AcDbLine
 10
6183.5471225575
 20
4359.0329786553
 30
0.0
 11
6183.5471225575
 21
4358.7557201995
 31
0.0
  0
LINE
  5
3A2
330
1F
100
AcDbEntity
  8
0
  6
Continuous
 62
     7
100
AcDbLine
 10
6183.2958442762
 20
4359.0329786553
 30
0.0
 11
6183.5471225575
 21
4359.0329786553
 31
0.0
  0
LINE
  5
3A3
330
1F
100
AcDbEntity
  8
0
  6
Continuous
 62
     7
100
AcDbLine
 10
6183.2958442762
 20
4357.1494867815
 30
0.0
 11
6183.2958442762
 21
4359.0329786553
 31
0.0
  0
LINE
  5
3A4
330
1F
100
AcDbEntity
  8
0
  6
Continuous
 62
     7
100
AcDbLine
 10
6183.5471225575
 20
4357.1494867815
 30
0.0
 11
6183.2958442762
 21
4357.1494867815
 31
0.0
  0
LINE
  5
3A5
330
1F
100
AcDbEntity
  8
0
  6
Continuous
 62
     7
100
AcDbLine
 10
6184.7317425206
 20
4359.0329786553
 30
0.0
 11
6184.7317425206
 21
4357.1494867815
 31
0.0
  0
LINE
  5
3A6
330
1F
100
AcDbEntity
  8
0
  6
Continuous
 62
     7
100
AcDbLine
 10
6184.4804567888
 20
4359.0329786553
 30
0.0
 11
6184.7317425206
 21
4359.0329786553
 31
0.0
  0
LINE
  5
3A7
330
1F
100
AcDbEntity
  8
0
  6
Continuous
 62
     7
100
AcDbLine
 10
6184.4804567888
 20
4357.1494867815
 30
0.0
 11
6184.4804567888
 21
4359.0329786553
 31
0.0
  0
LINE
  5
3A8
330
1F
100
AcDbEntity
  8
0
  6
Continuous
 62
     7
100
AcDbLine
 10
6184.7317425206
 20
4357.1494867815
 30
0.0
 11
6184.4804567888
 21
4357.1494867815
 31
0.0
  0
LINE
  5
3A9
330
1F
100
AcDbEntity
  8
0
  6
Continuous
 62
     7
100
AcDbLine
 10
6192.0189169839
 20
4358.0416640057
 30
0.0
 11
6190.188152869
 21
4358.0416640057
 31
0.0
  0
LINE
  5
3AA
330
1F
100
AcDbEntity
  8
0
  6
Continuous
 62
     7
100
AcDbLine
 10
6191.6879919961
 20
4357.7442740812
 30
0.0
 11
6191.9112262919
 21
4357.6363673224
 31
0.0
  0
LINE
  5
3AB
330
1F
100
AcDbEntity
  8
0
  6
Continuous
 62
     7
100
AcDbLine
 10
6191.4804560736
 20
4359.8590766801
 30
0.0
 11
6190.9425539568
 21
4359.3303760304
 31
0.0
  0
LINE
  5
3AC
330
1F
100
AcDbEntity
  8
0
  6
Continuous
 62
     7
100
AcDbLine
 10
6191.0883916214
 20
4359.8590766801
 30
0.0
 11
6191.4804560736
 21
4359.8590766801
 31
0.0
  0
LINE
  5
3AD
330
1F
100
AcDbEntity
  8
0
  6
Continuous
 62
     7
100
AcDbLine
 10
6190.690716882
 20
4359.3303760304
 30
0.0
 11
6191.0883916214
 21
4359.8590766801
 31
0.0
  0
LINE
  5
3AE
330
1F
100
AcDbEntity
  8
0
  6
Continuous
 62
     7
100
AcDbLine
 10
6190.9425539568
 20
4359.3303760304
 30
0.0
 11
6190.690716882
 21
4359.3303760304
 31
0.0
  0
LINE
  5
3AF
330
1F
100
AcDbEntity
  8
0
  6
Continuous
 62
     7
100
AcDbLine
 10
6195.3983289793
 20
4357.6781874313
 30
0.0
 11
6195.6086588696
 21
4357.5511773838
 31
0.0
  0
LINE
  5
3B0
330
1F
100
AcDbEntity
  8
0
  6
Continuous
 62
     7
100
AcDbLine
 10
6195.6086588696
 20
4358.6245825304
 30
0.0
 11
6195.3983289793
 21
4358.5042780055
 31
0.0
  0
LINE
  5
3B1
330
1F
100
AcDbEntity
  8
0
  6
Continuous
 62
     7
100
AcDbLine
 10
6194.5872662261
 20
4359.5332851423
 30
0.0
 11
6194.8761326864
 21
4359.7599467053
 31
0.0
  0
LINE
  5
3B2
330
1F
100
AcDbEntity
  8
0
  6
Continuous
 62
     7
100
AcDbLine
 10
6194.2944807604
 20
4359.7599467053
 30
0.0
 11
6194.5872662261
 21
4359.5332851423
 31
0.0
  0
LINE
  5
3B3
330
1F
100
AcDbEntity
  8
0
  6
Continuous
 62
     7
100
AcDbLine
 10
6193.921482344
 20
4359.7599467053
 30
0.0
 11
6194.2944807604
 21
4359.7599467053
 31
0.0
  0
LINE
  5
3B4
330
1F
100
AcDbEntity
  8
0
  6
Continuous
 62
     7
100
AcDbLine
 10
6194.4666785791
 20
4359.3303760304
 30
0.0
 11
6193.921482344
 21
4359.7599467053
 31
0.0
  0
LINE
  5
3B5
330
1F
100
AcDbEntity
  8
0
  6
Continuous
 62
     7
100
AcDbLine
 10
6194.70280983
 20
4359.3303760304
 30
0.0
 11
6194.4666785791
 21
4359.3303760304
 31
0.0
  0
LINE
  5
3B6
330
1F
100
AcDbEntity
  8
0
  6
Continuous
 62
     7
100
AcDbLine
 10
6195.2496898964
 20
4359.7599467053
 30
0.0
 11
6194.70280983
 21
4359.3303760304
 31
0.0
  0
LINE
  5
3B7
330
1F
100
AcDbEntity
  8
0
  6
Continuous
 62
     7
100
AcDbLine
 10
6194.8761326864
 20
4359.7599467053
 30
0.0
 11
6195.2496898964
 21
4359.7599467053
 31
0.0
  0
LINE
  5
3B8
330
1F
100
AcDbEntity
  8
0
  6
Continuous
 62
     7
100
AcDbLine
 10
6196.326611717
 20
4359.0329786553
 30
0.0
 11
6196.326611717
 21
4357.1494867815
 31
0.0
  0
LINE
  5
3B9
330
1F
100
AcDbEntity
  8
0
  6
Continuous
 62
     7
100
AcDbLine
 10
6196.0753259852
 20
4359.0329786553
 30
0.0
 11
6196.326611717
 21
4359.0329786553
 31
0.0
  0
LINE
  5
3BA
330
1F
100
AcDbEntity
  8
0
  6
Continuous
 62
     7
100
AcDbLine
 10
6196.0753259852
 20
4357.1494867815
 30
0.0
 11
6196.0753259852
 21
4359.0329786553
 31
0.0
  0
LINE
  5
3BB
330
1F
100
AcDbEntity
  8
0
  6
Continuous
 62
     7
100
AcDbLine
 10
6196.326611717
 20
4357.1494867815
 30
0.0
 11
6196.0753259852
 21
4357.1494867815
 31
0.0
  0
LINE
  5
3BC
330
1F
100
AcDbEntity
  8
0
  6
Continuous
 62
     7
100
AcDbLine
 10
6196.7214850381
 20
4359.8590766801
 30
0.0
 11
6196.1835829213
 21
4359.3303760304
 31
0.0
  0
LINE
  5
3BD
330
1F
100
AcDbEntity
  8
0
  6
Continuous
 62
     7
100
AcDbLine
 10
6196.3294131353
 20
4359.8590766801
 30
0.0
 11
6196.7214850381
 21
4359.8590766801
 31
0.0
  0
LINE
  5
3BE
330
1F
100
AcDbEntity
  8
0
  6
Continuous
 62
     7
100
AcDbLine
 10
6195.931738396
 20
4359.3303760304
 30
0.0
 11
6196.3294131353
 21
4359.8590766801
 31
0.0
  0
LINE
  5
3BF
330
1F
100
AcDbEntity
  8
0
  6
Continuous
 62
     7
100
AcDbLine
 10
6196.1835829213
 20
4359.3303760304
 30
0.0
 11
6195.931738396
 21
4359.3303760304
 31
0.0
  0
LINE
  5
3C0
330
1F
100
AcDbEntity
  8
0
  6
Continuous
 62
     7
100
AcDbLine
 10
6196.7214850381
 20
4357.3714991821
 30
0.0
 11
6196.8880725697
 21
4357.5460141315
 31
0.0
  0
LINE
  5
3C1
330
1F
100
AcDbEntity
  8
0
  6
Continuous
 62
     7
100
AcDbLine
 10
6197.8702006534
 20
4358.798061849
 30
0.0
 11
6197.6996866658
 21
4358.6364587559
 31
0.0
  0
LINE
  5
3C2
330
1F
100
AcDbEntity
  8
0
  6
Continuous
 62
     7
100
AcDbLine
 10
6198.6240503982
 20
4359.7929900302
 30
0.0
 11
6198.6240503982
 21
4357.1494867815
 31
0.0
  0
LINE
  5
3C3
330
1F
100
AcDbEntity
  8
0
  6
Continuous
 62
     7
100
AcDbLine
 10
6198.3727646664
 20
4359.7929900302
 30
0.0
 11
6198.6240503982
 21
4359.7929900302
 31
0.0
  0
LINE
  5
3C4
330
1F
100
AcDbEntity
  8
0
  6
Continuous
 62
     7
100
AcDbLine
 10
6198.3727646664
 20
4357.1494867815
 30
0.0
 11
6198.3727646664
 21
4359.7929900302
 31
0.0
  0
LINE
  5
3C5
330
1F
100
AcDbEntity
  8
0
  6
Continuous
 62
     7
100
AcDbLine
 10
6198.6240503982
 20
4357.1494867815
 30
0.0
 11
6198.3727646664
 21
4357.1494867815
 31
0.0
  0
LINE
  5
3C6
330
1F
100
AcDbEntity
  8
0
  6
Continuous
 62
     7
100
AcDbLine
 10
6204.0187550381
 20
4361.8288760795
 30
0.0
 11
6204.0187550381
 21
4361.8679469241
 31
0.0
  0
LINE
  5
3C7
330
1F
100
AcDbEntity
  8
0
  6
Continuous
 62
     7
100
AcDbLine
 10
6176.0187578991
 20
4361.8288760795
 30
0.0
 11
6176.0187578991
 21
4361.8679469241
 31
0.0
  0
LINE
  5
3C8
330
1F
100
AcDbEntity
  8
0
  6
Continuous
 62
     7
100
AcDbLine
 10
6204.0187550381
 20
4361.8679469241
 30
0.0
 11
6176.0187578991
 21
4361.8679469241
 31
0.0
  0
LINE
  5
3C9
330
1F
100
AcDbEntity
  8
0
  6
Continuous
 62
     7
100
AcDbLine
 10
6181.7887110308
 20
4359.3499114527
 30
0.0
 11
6181.7887110308
 21
4359.3303760304
 31
0.0
  0
LINE
  5
3CA
330
1F
100
AcDbEntity
  8
0
  6
Continuous
 62
     7
100
AcDbLine
 10
6182.3067349985
 20
4359.8590766801
 30
0.0
 11
6181.7887110308
 21
4359.3499114527
 31
0.0
  0
LINE
  5
3CB
330
1F
100
AcDbEntity
  8
0
  6
Continuous
 62
     7
100
AcDbLine
 10
6190.9425539568
 20
4359.3499114527
 30
0.0
 11
6190.9425539568
 21
4359.3303760304
 31
0.0
  0
LINE
  5
3CC
330
1F
100
AcDbEntity
  8
0
  6
Continuous
 62
     7
100
AcDbLine
 10
6191.4605779245
 20
4359.8590766801
 30
0.0
 11
6190.9425539568
 21
4359.3499114527
 31
0.0
  0
LINE
  5
3CD
330
1F
100
AcDbEntity
  8
0
  6
Continuous
 62
     7
100
AcDbLine
 10
6196.1835829213
 20
4359.3499114527
 30
0.0
 11
6196.1835829213
 21
4359.3303760304
 31
0.0
  0
LINE
  5
3CE
330
1F
100
AcDbEntity
  8
0
  6
Continuous
 62
     7
100
AcDbLine
 10
6196.7016068891
 20
4359.8590766801
 30
0.0
 11
6196.1835829213
 21
4359.3499114527
 31
0.0
  0
LINE
  5
3CF
330
1F
100
AcDbEntity
  8
0
  6
Continuous
 62
     7
100
AcDbLine
 10
6194.70280983
 20
4359.3499114527
 30
0.0
 11
6194.70280983
 21
4359.3303760304
 31
0.0
  0
LINE
  5
3D0
330
1F
100
AcDbEntity
  8
0
  6
Continuous
 62
     7
100
AcDbLine
 10
6195.2248198584
 20
4359.7599467053
 30
0.0
 11
6194.70280983
 21
4359.3499114527
 31
0.0
  0
LINE
  5
3D1
330
1F
100
AcDbEntity
  8
0
  6
Continuous
 62
     7
100
AcDbLine
 10
6194.4666785791
 20
4359.3499114527
 30
0.0
 11
6193.9462778762
 21
4359.7599467053
 31
0.0
  0
LINE
  5
3D2
330
1F
100
AcDbEntity
  8
0
  6
Continuous
 62
     7
100
AcDbLine
 10
6194.4666785791
 20
4359.3499114527
 30
0.0
 11
6194.4666785791
 21
4359.3303760304
 31
0.0
  0
LINE
  5
3D3
330
1F
100
AcDbEntity
  8
0
  6
Continuous
 62
     7
100
AcDbLine
 10
6196.1835829213
 20
4359.3499114527
 30
0.0
 11
6195.9464309409
 21
4359.3499114527
 31
0.0
  0
LINE
  5
3D4
330
1F
100
AcDbEntity
  8
0
  6
Continuous
 62
     7
100
AcDbLine
 10
6181.7887110308
 20
4359.3499114527
 30
0.0
 11
6181.5515590504
 21
4359.3499114527
 31
0.0
  0
LINE
  5
3D5
330
1F
100
AcDbEntity
  8
0
  6
Continuous
 62
     7
100
AcDbLine
 10
6190.9425539568
 20
4359.3499114527
 30
0.0
 11
6190.705409427
 21
4359.3499114527
 31
0.0
  0
LINE
  5
3D6
330
1F
100
AcDbEntity
  8
0
  6
Continuous
 62
     7
100
AcDbLine
 10
6198.6240503982
 20
4357.1690222038
 30
0.0
 11
6198.3727646664
 21
4357.1690222038
 31
0.0
  0
LINE
  5
3D7
330
1F
100
AcDbEntity
  8
0
  6
Continuous
 62
     7
100
AcDbLine
 10
6180.3163570955
 20
4359.3762418045
 30
0.0
 11
6180.0891888931
 21
4359.2177381529
 31
0.0
  0
LINE
  5
3D8
330
1F
100
AcDbEntity
  8
0
  6
Continuous
 62
     7
100
AcDbLine
 10
6194.70280983
 20
4359.3499114527
 30
0.0
 11
6194.4666785791
 21
4359.3499114527
 31
0.0
  0
LINE
  5
3D9
330
1F
100
AcDbEntity
  8
0
  6
Continuous
 62
     7
100
AcDbLine
 10
6184.6049783423
 20
4359.4490414275
 30
0.0
 11
6184.6049783423
 21
4359.4295060052
 31
0.0
  0
LINE
  5
3DA
330
1F
100
AcDbEntity
  8
0
  6
Continuous
 62
     7
100
AcDbLine
 10
6179.5423162773
 20
4359.5481714024
 30
0.0
 11
6179.5423162773
 21
4359.5286359801
 31
0.0
  0
LINE
  5
3DB
330
1F
100
AcDbEntity
  8
0
  6
Continuous
 62
     7
100
AcDbLine
 10
6180.0891888931
 20
4359.2177381529
 30
0.0
 11
6180.0891888931
 21
4359.1982027306
 31
0.0
  0
LINE
  5
3DC
330
1F
100
AcDbEntity
  8
0
  6
Continuous
 62
     7
100
AcDbLine
 10
6179.1317371324
 20
4359.2218657746
 30
0.0
 11
6179.1317371324
 21
4359.2023303522
 31
0.0
  0
LINE
  5
3DD
330
1F
100
AcDbEntity
  8
0
  6
Continuous
 62
     7
100
AcDbLine
 10
6179.036950846
 20
4358.8186329021
 30
0.0
 11
6179.036950846
 21
4358.7990900292
 31
0.0
  0
LINE
  5
3DE
330
1F
100
AcDbEntity
  8
0
  6
Continuous
 62
     7
100
AcDbLine
 10
6188.6445564821
 20
4357.1690222038
 30
0.0
 11
6188.6445564821
 21
4357.1494867815
 31
0.0
  0
LINE
  5
3DF
330
1F
100
AcDbEntity
  8
0
  6
Continuous
 62
     7
100
AcDbLine
 10
6189.5682124093
 20
4359.0329786553
 30
0.0
 11
6188.6445564821
 21
4357.1690222038
 31
0.0
  0
LINE
  5
3E0
330
1F
100
AcDbEntity
  8
0
  6
Continuous
 62
     7
100
AcDbLine
 10
6188.6086595848
 20
4357.1690222038
 30
0.0
 11
6187.6850111082
 21
4359.0329786553
 31
0.0
  0
LINE
  5
3E1
330
1F
100
AcDbEntity
  8
0
  6
Continuous
 62
     7
100
AcDbLine
 10
6188.6086595848
 20
4357.1690222038
 30
0.0
 11
6188.6086595848
 21
4357.1494867815
 31
0.0
  0
LINE
  5
3E2
330
1F
100
AcDbEntity
  8
0
  6
Continuous
 62
     7
100
AcDbLine
 10
6184.1270906523
 20
4358.8206967129
 30
0.0
 11
6184.1270906523
 21
4358.8011612906
 31
0.0
  0
LINE
  5
3E3
330
1F
100
AcDbEntity
  8
0
  6
Continuous
 62
     7
100
AcDbLine
 10
6184.2548383072
 20
4359.0061565651
 30
0.0
 11
6184.1270906523
 21
4358.8206967129
 31
0.0
  0
LINE
  5
3E4
330
1F
100
AcDbEntity
  8
0
  6
Continuous
 62
     7
100
AcDbLine
 10
6197.8702006534
 20
4358.8175972714
 30
0.0
 11
6197.6996866658
 21
4358.6559941782
 31
0.0
  0
LINE
  5
3E5
330
1F
100
AcDbEntity
  8
0
  6
Continuous
 62
     7
100
AcDbLine
 10
6192.0189169839
 20
4358.0612068786
 30
0.0
 11
6190.188152869
 21
4358.0612068786
 31
0.0
  0
LINE
  5
3E6
330
1F
100
AcDbEntity
  8
0
  6
Continuous
 62
     7
100
AcDbLine
 10
6182.8650740579
 20
4358.0612068786
 30
0.0
 11
6181.0343024924
 21
4358.0612068786
 31
0.0
  0
LINE
  5
3E7
330
1F
100
AcDbEntity
  8
0
  6
Continuous
 62
     7
100
AcDbLine
 10
6195.6086588696
 20
4358.6441179527
 30
0.0
 11
6195.3983289793
 21
4358.5238134278
 31
0.0
  0
LINE
  5
3E8
330
1F
100
AcDbEntity
  8
0
  6
Continuous
 62
     7
100
AcDbLine
 10
6183.5471225575
 20
4357.1690222038
 30
0.0
 11
6183.2958442762
 21
4357.1690222038
 31
0.0
  0
LINE
  5
3E9
330
1F
100
AcDbEntity
  8
0
  6
Continuous
 62
     7
100
AcDbLine
 10
6196.326611717
 20
4357.1690222038
 30
0.0
 11
6196.0753259852
 21
4357.1690222038
 31
0.0
  0
LINE
  5
3EA
330
1F
100
AcDbEntity
  8
0
  6
Continuous
 62
     7
100
AcDbLine
 10
6188.6445564821
 20
4357.1690222038
 30
0.0
 11
6188.6086595848
 21
4357.1690222038
 31
0.0
  0
LINE
  5
3EB
330
1F
100
AcDbEntity
  8
0
  6
Continuous
 62
     7
100
AcDbLine
 10
6184.7317425206
 20
4357.1690222038
 30
0.0
 11
6184.4804567888
 21
4357.1690222038
 31
0.0
  0
LINE
  5
3EC
330
1F
100
AcDbEntity
  8
0
  6
Continuous
 62
     7
100
AcDbLine
 10
6190.985186179
 20
4358.8542541279
 30
0.0
 11
6190.985186179
 21
4358.8347187056
 31
0.0
  0
LINE
  5
3ED
330
1F
100
AcDbEntity
  8
0
  6
Continuous
 62
     7
100
AcDbLine
 10
6191.7676387027
 20
4358.2925101532
 30
0.0
 11
6191.7676387027
 21
4358.2729747309
 31
0.0
  0
LINE
  5
3EE
330
1F
100
AcDbEntity
  8
0
  6
Continuous
 62
     7
100
AcDbLine
 10
6197.0804540113
 20
4358.6007481231
 30
0.0
 11
6197.0804540113
 21
4358.5812127008
 31
0.0
  0
LINE
  5
3EF
330
1F
100
AcDbEntity
  8
0
  6
Continuous
 62
     7
100
AcDbLine
 10
6197.3463205293
 20
4358.8542541279
 30
0.0
 11
6197.3463205293
 21
4358.8347187056
 31
0.0
  0
LINE
  5
3F0
330
1F
100
AcDbEntity
  8
0
  6
Continuous
 62
     7
100
AcDbLine
 10
6190.4579383925
 20
4358.6776753678
 30
0.0
 11
6190.4579383925
 21
4358.6581399454
 31
0.0
  0
LINE
  5
3F1
330
1F
100
AcDbEntity
  8
0
  6
Continuous
 62
     7
100
AcDbLine
 10
6183.5919974044
 20
4358.4484359039
 30
0.0
 11
6183.5919974044
 21
4358.4289004816
 31
0.0
  0
LINE
  5
3F2
330
1F
100
AcDbEntity
  8
0
  6
Continuous
 62
     7
100
AcDbLine
 10
6183.9986426428
 20
4358.8542541279
 30
0.0
 11
6183.9986426428
 21
4358.8347187056
 31
0.0
  0
LINE
  5
3F3
330
1F
100
AcDbEntity
  8
0
  6
Continuous
 62
     7
100
AcDbLine
 10
6197.6996866658
 20
4358.6559941782
 30
0.0
 11
6197.6996866658
 21
4358.6364587559
 31
0.0
  0
LINE
  5
3F4
330
1F
100
AcDbEntity
  8
0
  6
Continuous
 62
     7
100
AcDbLine
 10
6200.1855877832
 20
4358.8542541279
 30
0.0
 11
6200.1855877832
 21
4358.8347187056
 31
0.0
  0
LINE
  5
3F5
330
1F
100
AcDbEntity
  8
0
  6
Continuous
 62
     7
100
AcDbLine
 10
6200.9932754233
 20
4358.1040551676
 30
0.0
 11
6200.9932754233
 21
4358.0845197453
 31
0.0
  0
LINE
  5
3F6
330
1F
100
AcDbEntity
  8
0
  6
Continuous
 62
     7
100
AcDbLine
 10
6186.3291768029
 20
4358.8542541279
 30
0.0
 11
6186.3291768029
 21
4358.8347187056
 31
0.0
  0
LINE
  5
3F7
330
1F
100
AcDbEntity
  8
0
  6
Continuous
 62
     7
100
AcDbLine
 10
6187.1368644431
 20
4358.1040551676
 30
0.0
 11
6187.1368644431
 21
4358.0845197453
 31
0.0
  0
LINE
  5
3F8
330
1F
100
AcDbEntity
  8
0
  6
Continuous
 62
     7
100
AcDbLine
 10
6181.8313358024
 20
4358.8542541279
 30
0.0
 11
6181.8313358024
 21
4358.8347187056
 31
0.0
  0
LINE
  5
3F9
330
1F
100
AcDbEntity
  8
0
  6
Continuous
 62
     7
100
AcDbLine
 10
6182.6137883261
 20
4358.2925101532
 30
0.0
 11
6182.6137883261
 21
4358.2729747309
 31
0.0
  0
LINE
  5
3FA
330
1F
100
AcDbEntity
  8
0
  6
Continuous
 62
     7
100
AcDbLine
 10
6181.3040954664
 20
4358.6776753678
 30
0.0
 11
6181.3040954664
 21
4358.6581399454
 31
0.0
  0
LINE
  5
3FB
330
1F
100
AcDbEntity
  8
0
  6
Continuous
 62
     7
100
AcDbLine
 10
6185.5214817122
 20
4358.1040551676
 30
0.0
 11
6185.5214817122
 21
4358.0845197453
 31
0.0
  0
LINE
  5
3FC
330
1F
100
AcDbEntity
  8
0
  6
Continuous
 62
     7
100
AcDbLine
 10
6194.6534571841
 20
4358.8542541279
 30
0.0
 11
6194.6534571841
 21
4358.8347187056
 31
0.0
  0
LINE
  5
3FD
330
1F
100
AcDbEntity
  8
0
  6
Continuous
 62
     7
100
AcDbLine
 10
6195.3983289793
 20
4358.5238134278
 30
0.0
 11
6195.3983289793
 21
4358.5042780055
 31
0.0
  0
LINE
  5
3FE
330
1F
100
AcDbEntity
  8
0
  6
Continuous
 62
     7
100
AcDbLine
 10
6193.7778947547
 20
4358.1159313931
 30
0.0
 11
6193.7778947547
 21
4358.0963959707
 31
0.0
  0
LINE
  5
3FF
330
1F
100
AcDbEntity
  8
0
  6
Continuous
 62
     7
100
AcDbLine
 10
6190.2145130232
 20
4358.2729747309
 30
0.0
 11
6191.7676387027
 21
4358.2729747309
 31
0.0
  0
LINE
  5
400
330
1F
100
AcDbEntity
  8
0
  6
Continuous
 62
     7
100
AcDbLine
 10
6199.3778926924
 20
4358.1040551676
 30
0.0
 11
6199.3778926924
 21
4358.0845197453
 31
0.0
  0
LINE
  5
401
330
1F
100
AcDbEntity
  8
0
  6
Continuous
 62
     7
100
AcDbLine
 10
6181.0606626466
 20
4358.2729747309
 30
0.0
 11
6182.6137883261
 21
4358.2729747309
 31
0.0
  0
LINE
  5
402
330
1F
100
AcDbEntity
  8
0
  6
Continuous
 62
     7
100
AcDbLine
 10
6179.4957650497
 20
4358.4680532827
 30
0.0
 11
6179.4957650497
 21
4358.4485178603
 31
0.0
  0
LINE
  5
403
330
1F
100
AcDbEntity
  8
0
  6
Continuous
 62
     7
100
AcDbLine
 10
6181.0606626466
 20
4358.2925101532
 30
0.0
 11
6181.0606626466
 21
4358.2729747309
 31
0.0
  0
LINE
  5
404
330
1F
100
AcDbEntity
  8
0
  6
Continuous
 62
     7
100
AcDbLine
 10
6190.2145130232
 20
4358.2925101532
 30
0.0
 11
6190.2145130232
 21
4358.2729747309
 31
0.0
  0
LINE
  5
405
330
1F
100
AcDbEntity
  8
0
  6
Continuous
 62
     7
100
AcDbLine
 10
6196.9228444293
 20
4358.3012869372
 30
0.0
 11
6196.9228444293
 21
4358.2817515148
 31
0.0
  0
LINE
  5
406
330
1F
100
AcDbEntity
  8
0
  6
Continuous
 62
     7
100
AcDbLine
 10
6180.0005716875
 20
4358.0570718064
 30
0.0
 11
6180.0005716875
 21
4358.037536384
 31
0.0
  0
LINE
  5
407
330
1F
100
AcDbEntity
  8
0
  6
Continuous
 62
     7
100
AcDbLine
 10
6183.5471225575
 20
4357.8020160808
 30
0.0
 11
6183.5471225575
 21
4357.7824806585
 31
0.0
  0
LINE
  5
408
330
1F
100
AcDbEntity
  8
0
  6
Continuous
 62
     7
100
AcDbLine
 10
6197.2756517723
 20
4358.0441674008
 30
0.0
 11
6197.2756517723
 21
4358.0246319784
 31
0.0
  0
LINE
  5
409
330
1F
100
AcDbEntity
  8
0
  6
Continuous
 62
     7
100
AcDbLine
 10
6200.1867053702
 20
4357.1359788789
 30
0.0
 11
6200.1867053702
 21
4357.1164434566
 31
0.0
  0
LINE
  5
40A
330
1F
100
AcDbEntity
  8
0
  6
Continuous
 62
     7
100
AcDbLine
 10
6186.33029439
 20
4357.1359788789
 30
0.0
 11
6186.33029439
 21
4357.1164434566
 31
0.0
  0
LINE
  5
40B
330
1F
100
AcDbEntity
  8
0
  6
Continuous
 62
     7
100
AcDbLine
 10
6190.9661126926
 20
4357.1359788789
 30
0.0
 11
6190.9661126926
 21
4357.1164434566
 31
0.0
  0
LINE
  5
40C
330
1F
100
AcDbEntity
  8
0
  6
Continuous
 62
     7
100
AcDbLine
 10
6181.8122697666
 20
4357.1359788789
 30
0.0
 11
6181.8122697666
 21
4357.1164434566
 31
0.0
  0
LINE
  5
40D
330
1F
100
AcDbEntity
  8
0
  6
Continuous
 62
     7
100
AcDbLine
 10
6194.6512071088
 20
4357.1359788789
 30
0.0
 11
6194.6512071088
 21
4357.1164434566
 31
0.0
  0
LINE
  5
40E
330
1F
100
AcDbEntity
  8
0
  6
Continuous
 62
     7
100
AcDbLine
 10
6181.0343024924
 20
4358.0612068786
 30
0.0
 11
6181.0343024924
 21
4358.0416640057
 31
0.0
  0
LINE
  5
40F
330
1F
100
AcDbEntity
  8
0
  6
Continuous
 62
     7
100
AcDbLine
 10
6190.188152869
 20
4358.0612068786
 30
0.0
 11
6190.188152869
 21
4358.0416640057
 31
0.0
  0
LINE
  5
410
330
1F
100
AcDbEntity
  8
0
  6
Continuous
 62
     7
100
AcDbLine
 10
6180.1009682611
 20
4357.8040798916
 30
0.0
 11
6180.1009682611
 21
4357.7845444693
 31
0.0
  0
LINE
  5
411
330
1F
100
AcDbEntity
  8
0
  6
Continuous
 62
     7
100
AcDbLine
 10
6197.5858268931
 20
4357.8500350727
 30
0.0
 11
6197.5858268931
 21
4357.8304996504
 31
0.0
  0
LINE
  5
412
330
1F
100
AcDbEntity
  8
0
  6
Continuous
 62
     7
100
AcDbLine
 10
6197.6548192695
 20
4357.670356871
 30
0.0
 11
6197.6548192695
 21
4357.6508214487
 31
0.0
  0
LINE
  5
413
330
1F
100
AcDbEntity
  8
0
  6
Continuous
 62
     7
100
AcDbLine
 10
6179.552411814
 20
4357.1029355539
 30
0.0
 11
6179.552411814
 21
4357.0834001316
 31
0.0
  0
LINE
  5
414
330
1F
100
AcDbEntity
  8
0
  6
Continuous
 62
     7
100
AcDbLine
 10
6197.306497176
 20
4357.1359788789
 30
0.0
 11
6197.306497176
 21
4357.1164434566
 31
0.0
  0
LINE
  5
415
330
1F
100
AcDbEntity
  8
0
  6
Continuous
 62
     7
100
AcDbLine
 10
6259.1187555015
 20
4265.6956421001
 30
0.0
 11
6288.9187551707
 21
4265.6956421001
 31
0.0
  0
LINE
  5
416
330
1F
100
AcDbEntity
  8
0
  6
Continuous
 62
     7
100
AcDbLine
 10
6260.018754904
 20
4273.6956417816
 30
0.0
 11
6260.018754904
 21
4267.6956414966
 31
0.0
  0
LINE
  5
417
330
1F
100
AcDbEntity
  8
0
  6
Continuous
 62
     7
100
AcDbLine
 10
6288.0187557682
 20
4273.6956417816
 30
0.0
 11
6288.0187557682
 21
4267.6956414966
 31
0.0
  0
LINE
  5
418
330
1F
100
AcDbEntity
  8
0
  6
Continuous
 62
     7
100
AcDbLine
 10
6260.018754904
 20
4267.6956414966
 30
0.0
 11
6288.0187557682
 21
4267.6956414966
 31
0.0
  0
LINE
  5
419
330
1F
100
AcDbEntity
  8
0
  6
Continuous
 62
     7
100
AcDbLine
 10
6259.1187555015
 20
4242.6956420554
 30
0.0
 11
6259.3021990403
 21
4240.6770450784
 31
0.0
  0
LINE
  5
41A
330
1F
100
AcDbEntity
  8
0
  6
Continuous
 62
     7
100
AcDbLine
 10
6259.3021990403
 20
4240.6770450784
 30
0.0
 11
6259.8480136737
 21
4238.7081546499
 31
0.0
  0
LINE
  5
41B
330
1F
100
AcDbEntity
  8
0
  6
Continuous
 62
     7
100
AcDbLine
 10
6259.8480136737
 20
4238.7081546499
 30
0.0
 11
6260.7427585542
 21
4236.8374479725
 31
0.0
  0
LINE
  5
41C
330
1F
100
AcDbEntity
  8
0
  6
Continuous
 62
     7
100
AcDbLine
 10
6260.7427585542
 20
4236.8374479725
 30
0.0
 11
6261.964402315
 21
4235.110991986
 31
0.0
  0
LINE
  5
41D
330
1F
100
AcDbEntity
  8
0
  6
Continuous
 62
     7
100
AcDbLine
 10
6261.964402315
 20
4235.110991986
 30
0.0
 11
6263.4828641683
 21
4233.5712922527
 31
0.0
  0
LINE
  5
41E
330
1F
100
AcDbEntity
  8
0
  6
Continuous
 62
     7
100
AcDbLine
 10
6263.4828641683
 20
4233.5712922527
 30
0.0
 11
6265.2607552379
 21
4232.2562647773
 31
0.0
  0
LINE
  5
41F
330
1F
100
AcDbEntity
  8
0
  6
Continuous
 62
     7
100
AcDbLine
 10
6265.2607552379
 20
4232.2562647773
 30
0.0
 11
6267.2542968437
 21
4231.1982897832
 31
0.0
  0
LINE
  5
420
330
1F
100
AcDbEntity
  8
0
  6
Continuous
 62
     7
100
AcDbLine
 10
6267.2542968437
 20
4231.1982897832
 30
0.0
 11
6269.4144022323
 21
4230.4234182252
 31
0.0
  0
LINE
  5
421
330
1F
100
AcDbEntity
  8
0
  6
Continuous
 62
     7
100
AcDbLine
 10
6269.4144022323
 20
4230.4234182252
 30
0.0
 11
6271.6878817089
 21
4229.9507310404
 31
0.0
  0
LINE
  5
422
330
1F
100
AcDbEntity
  8
0
  6
Continuous
 62
     7
100
AcDbLine
 10
6271.6878817089
 20
4229.9507310404
 30
0.0
 11
6274.0187553361
 21
4229.7918623103
 31
0.0
  0
LINE
  5
423
330
1F
100
AcDbEntity
  8
0
  6
Continuous
 62
     7
100
AcDbLine
 10
6274.0187553361
 20
4229.7918623103
 30
0.0
 11
6276.3496289633
 21
4229.9507310404
 31
0.0
  0
LINE
  5
424
330
1F
100
AcDbEntity
  8
0
  6
Continuous
 62
     7
100
AcDbLine
 10
6276.3496289633
 20
4229.9507310404
 30
0.0
 11
6278.6231084399
 21
4230.4234182252
 31
0.0
  0
LINE
  5
425
330
1F
100
AcDbEntity
  8
0
  6
Continuous
 62
     7
100
AcDbLine
 10
6278.6231084399
 20
4230.4234182252
 30
0.0
 11
6280.7832138285
 21
4231.1982897832
 31
0.0
  0
LINE
  5
426
330
1F
100
AcDbEntity
  8
0
  6
Continuous
 62
     7
100
AcDbLine
 10
6280.7832138285
 20
4231.1982897832
 30
0.0
 11
6282.7767554343
 21
4232.2562647773
 31
0.0
  0
LINE
  5
427
330
1F
100
AcDbEntity
  8
0
  6
Continuous
 62
     7
100
AcDbLine
 10
6282.7767554343
 20
4232.2562647773
 30
0.0
 11
6284.5546465039
 21
4233.5712922527
 31
0.0
  0
LINE
  5
428
330
1F
100
AcDbEntity
  8
0
  6
Continuous
 62
     7
100
AcDbLine
 10
6284.5546465039
 20
4233.5712922527
 30
0.0
 11
6286.0731083572
 21
4235.110991986
 31
0.0
  0
LINE
  5
429
330
1F
100
AcDbEntity
  8
0
  6
Continuous
 62
     7
100
AcDbLine
 10
6286.0731083572
 20
4235.110991986
 30
0.0
 11
6287.294752118
 21
4236.8374479725
 31
0.0
  0
LINE
  5
42A
330
1F
100
AcDbEntity
  8
0
  6
Continuous
 62
     7
100
AcDbLine
 10
6287.294752118
 20
4236.8374479725
 30
0.0
 11
6288.1894969985
 21
4238.7081546499
 31
0.0
  0
LINE
  5
42B
330
1F
100
AcDbEntity
  8
0
  6
Continuous
 62
     7
100
AcDbLine
 10
6288.1894969985
 20
4238.7081546499
 30
0.0
 11
6288.7353116319
 21
4240.6770450784
 31
0.0
  0
LINE
  5
42C
330
1F
100
AcDbEntity
  8
0
  6
Continuous
 62
     7
100
AcDbLine
 10
6288.7353116319
 20
4240.6770450784
 30
0.0
 11
6288.9187551707
 21
4242.6956420554
 31
0.0
  0
LINE
  5
42D
330
1F
100
AcDbEntity
  8
0
  6
Continuous
 62
     7
100
AcDbLine
 10
6259.1187555015
 20
4242.4456415488
 30
0.0
 11
6259.3021990403
 21
4240.4270445718
 31
0.0
  0
LINE
  5
42E
330
1F
100
AcDbEntity
  8
0
  6
Continuous
 62
     7
100
AcDbLine
 10
6259.3021990403
 20
4240.4270445718
 30
0.0
 11
6259.8480136737
 21
4238.4581541433
 31
0.0
  0
LINE
  5
42F
330
1F
100
AcDbEntity
  8
0
  6
Continuous
 62
     7
100
AcDbLine
 10
6259.8480136737
 20
4238.4581541433
 30
0.0
 11
6260.7427585542
 21
4236.5874474658
 31
0.0
  0
LINE
  5
430
330
1F
100
AcDbEntity
  8
0
  6
Continuous
 62
     7
100
AcDbLine
 10
6260.7427585542
 20
4236.5874474658
 30
0.0
 11
6261.964402315
 21
4234.8609914793
 31
0.0
  0
LINE
  5
431
330
1F
100
AcDbEntity
  8
0
  6
Continuous
 62
     7
100
AcDbLine
 10
6261.964402315
 20
4234.8609914793
 30
0.0
 11
6263.4828641683
 21
4233.3212917461
 31
0.0
  0
LINE
  5
432
330
1F
100
AcDbEntity
  8
0
  6
Continuous
 62
     7
100
AcDbLine
 10
6263.4828641683
 20
4233.3212917461
 30
0.0
 11
6265.2607552379
 21
4232.0062642707
 31
0.0
  0
LINE
  5
433
330
1F
100
AcDbEntity
  8
0
  6
Continuous
 62
     7
100
AcDbLine
 10
6265.2607552379
 20
4232.0062642707
 30
0.0
 11
6267.2542968437
 21
4230.9482892765
 31
0.0
  0
LINE
  5
434
330
1F
100
AcDbEntity
  8
0
  6
Continuous
 62
     7
100
AcDbLine
 10
6267.2542968437
 20
4230.9482892765
 30
0.0
 11
6269.4144022323
 21
4230.1734177186
 31
0.0
  0
LINE
  5
435
330
1F
100
AcDbEntity
  8
0
  6
Continuous
 62
     7
100
AcDbLine
 10
6269.4144022323
 20
4230.1734177186
 30
0.0
 11
6271.6878817089
 21
4229.7007305338
 31
0.0
  0
LINE
  5
436
330
1F
100
AcDbEntity
  8
0
  6
Continuous
 62
     7
100
AcDbLine
 10
6271.6878817089
 20
4229.7007305338
 30
0.0
 11
6274.0187553361
 21
4229.5418618037
 31
0.0
  0
LINE
  5
437
330
1F
100
AcDbEntity
  8
0
  6
Continuous
 62
     7
100
AcDbLine
 10
6274.0187553361
 20
4229.5418618037
 30
0.0
 11
6276.3496289633
 21
4229.7007305338
 31
0.0
  0
LINE
  5
438
330
1F
100
AcDbEntity
  8
0
  6
Continuous
 62
     7
100
AcDbLine
 10
6276.3496289633
 20
4229.7007305338
 30
0.0
 11
6278.6231084399
 21
4230.1734177186
 31
0.0
  0
LINE
  5
439
330
1F
100
AcDbEntity
  8
0
  6
Continuous
 62
     7
100
AcDbLine
 10
6278.6231084399
 20
4230.1734177186
 30
0.0
 11
6280.7832138285
 21
4230.9482892765
 31
0.0
  0
LINE
  5
43A
330
1F
100
AcDbEntity
  8
0
  6
Continuous
 62
     7
100
AcDbLine
 10
6280.7832138285
 20
4230.9482892765
 30
0.0
 11
6282.7767554343
 21
4232.0062642707
 31
0.0
  0
LINE
  5
43B
330
1F
100
AcDbEntity
  8
0
  6
Continuous
 62
     7
100
AcDbLine
 10
6282.7767554343
 20
4232.0062642707
 30
0.0
 11
6284.5546465039
 21
4233.3212917461
 31
0.0
  0
LINE
  5
43C
330
1F
100
AcDbEntity
  8
0
  6
Continuous
 62
     7
100
AcDbLine
 10
6284.5546465039
 20
4233.3212917461
 30
0.0
 11
6286.0731083572
 21
4234.8609914793
 31
0.0
  0
LINE
  5
43D
330
1F
100
AcDbEntity
  8
0
  6
Continuous
 62
     7
100
AcDbLine
 10
6286.0731083572
 20
4234.8609914793
 30
0.0
 11
6287.294752118
 21
4236.5874474658
 31
0.0
  0
LINE
  5
43E
330
1F
100
AcDbEntity
  8
0
  6
Continuous
 62
     7
100
AcDbLine
 10
6287.294752118
 20
4236.5874474658
 30
0.0
 11
6288.1894969985
 21
4238.4581541433
 31
0.0
  0
LINE
  5
43F
330
1F
100
AcDbEntity
  8
0
  6
Continuous
 62
     7
100
AcDbLine
 10
6288.1894969985
 20
4238.4581541433
 30
0.0
 11
6288.7353116319
 21
4240.4270445718
 31
0.0
  0
LINE
  5
440
330
1F
100
AcDbEntity
  8
0
  6
Continuous
 62
     7
100
AcDbLine
 10
6288.7353116319
 20
4240.4270445718
 30
0.0
 11
6288.9187551707
 21
4242.4456415488
 31
0.0
  0
LINE
  5
441
330
1F
100
AcDbEntity
  8
0
  6
Continuous
 62
     7
100
AcDbLine
 10
6274.0187553361
 20
4213.791863413
 30
0.0
 11
6276.3496289633
 21
4213.9507321431
 31
0.0
  0
LINE
  5
442
330
1F
100
AcDbEntity
  8
0
  6
Continuous
 62
     7
100
AcDbLine
 10
6276.3496289633
 20
4213.9507321431
 30
0.0
 11
6278.6231084399
 21
4214.4234193279
 31
0.0
  0
LINE
  5
443
330
1F
100
AcDbEntity
  8
0
  6
Continuous
 62
     7
100
AcDbLine
 10
6278.6231084399
 20
4214.4234193279
 30
0.0
 11
6280.7832138285
 21
4215.1982908858
 31
0.0
  0
LINE
  5
444
330
1F
100
AcDbEntity
  8
0
  6
Continuous
 62
     7
100
AcDbLine
 10
6280.7832138285
 20
4215.1982908858
 30
0.0
 11
6282.7767554343
 21
4216.25626588
 31
0.0
  0
LINE
  5
445
330
1F
100
AcDbEntity
  8
0
  6
Continuous
 62
     7
100
AcDbLine
 10
6282.7767554343
 20
4216.25626588
 30
0.0
 11
6284.5546465039
 21
4217.5712933554
 31
0.0
  0
LINE
  5
446
330
1F
100
AcDbEntity
  8
0
  6
Continuous
 62
     7
100
AcDbLine
 10
6284.5546465039
 20
4217.5712933554
 30
0.0
 11
6286.0731083572
 21
4219.1109893634
 31
0.0
  0
LINE
  5
447
330
1F
100
AcDbEntity
  8
0
  6
Continuous
 62
     7
100
AcDbLine
 10
6286.0731083572
 20
4219.1109893634
 30
0.0
 11
6287.294752118
 21
4220.8374490751
 31
0.0
  0
LINE
  5
448
330
1F
100
AcDbEntity
  8
0
  6
Continuous
 62
     7
100
AcDbLine
 10
6287.294752118
 20
4220.8374490751
 30
0.0
 11
6288.1894969985
 21
4222.7081557526
 31
0.0
  0
LINE
  5
449
330
1F
100
AcDbEntity
  8
0
  6
Continuous
 62
     7
100
AcDbLine
 10
6288.1894969985
 20
4222.7081557526
 30
0.0
 11
6288.7353116319
 21
4224.6770461811
 31
0.0
  0
LINE
  5
44A
330
1F
100
AcDbEntity
  8
0
  6
Continuous
 62
     7
100
AcDbLine
 10
6288.7353116319
 20
4224.6770461811
 30
0.0
 11
6288.9187551707
 21
4226.6956431581
 31
0.0
  0
LINE
  5
44B
330
1F
100
AcDbEntity
  8
0
  6
Continuous
 62
     7
100
AcDbLine
 10
6259.1187555015
 20
4226.6956431581
 30
0.0
 11
6259.3021990403
 21
4224.6770461811
 31
0.0
  0
LINE
  5
44C
330
1F
100
AcDbEntity
  8
0
  6
Continuous
 62
     7
100
AcDbLine
 10
6259.3021990403
 20
4224.6770461811
 30
0.0
 11
6259.8480136737
 21
4222.7081557526
 31
0.0
  0
LINE
  5
44D
330
1F
100
AcDbEntity
  8
0
  6
Continuous
 62
     7
100
AcDbLine
 10
6259.8480136737
 20
4222.7081557526
 30
0.0
 11
6260.7427585542
 21
4220.8374490751
 31
0.0
  0
LINE
  5
44E
330
1F
100
AcDbEntity
  8
0
  6
Continuous
 62
     7
100
AcDbLine
 10
6260.7427585542
 20
4220.8374490751
 30
0.0
 11
6261.964402315
 21
4219.1109893634
 31
0.0
  0
LINE
  5
44F
330
1F
100
AcDbEntity
  8
0
  6
Continuous
 62
     7
100
AcDbLine
 10
6261.964402315
 20
4219.1109893634
 30
0.0
 11
6263.4828641683
 21
4217.5712933554
 31
0.0
  0
LINE
  5
450
330
1F
100
AcDbEntity
  8
0
  6
Continuous
 62
     7
100
AcDbLine
 10
6263.4828641683
 20
4217.5712933554
 30
0.0
 11
6265.2607552379
 21
4216.25626588
 31
0.0
  0
LINE
  5
451
330
1F
100
AcDbEntity
  8
0
  6
Continuous
 62
     7
100
AcDbLine
 10
6265.2607552379
 20
4216.25626588
 30
0.0
 11
6267.2542968437
 21
4215.1982908858
 31
0.0
  0
LINE
  5
452
330
1F
100
AcDbEntity
  8
0
  6
Continuous
 62
     7
100
AcDbLine
 10
6267.2542968437
 20
4215.1982908858
 30
0.0
 11
6269.4144022323
 21
4214.4234193279
 31
0.0
  0
LINE
  5
453
330
1F
100
AcDbEntity
  8
0
  6
Continuous
 62
     7
100
AcDbLine
 10
6269.4144022323
 20
4214.4234193279
 30
0.0
 11
6271.6878817089
 21
4213.9507321431
 31
0.0
  0
LINE
  5
454
330
1F
100
AcDbEntity
  8
0
  6
Continuous
 62
     7
100
AcDbLine
 10
6271.6878817089
 20
4213.9507321431
 30
0.0
 11
6274.0187553361
 21
4213.791863413
 31
0.0
  0
LINE
  5
455
330
1F
100
AcDbEntity
  8
0
  6
Continuous
 62
     7
100
AcDbLine
 10
6301.0187560365
 20
4273.6956417816
 30
0.0
 11
6247.0187546357
 21
4273.6956417816
 31
0.0
  0
LINE
  5
456
330
1F
100
AcDbEntity
  8
0
  6
Continuous
 62
     7
100
AcDbLine
 10
6246.5187554851
 20
4274.1956418636
 30
0.0
 11
6301.5187551871
 21
4274.1956418636
 31
0.0
  0
LINE
  5
457
330
1F
100
AcDbEntity
  8
0
  6
Continuous
 62
     7
100
AcDbLine
 10
6301.5187551871
 20
4275.1956418529
 30
0.0
 11
6246.5187554851
 21
4275.1956418529
 31
0.0
  0
LWPOLYLINE
  5
458
330
1F
100
AcDbEntity
  8
0
  6
Continuous
 62
     7
100
AcDbPolyline
 90
        3
 70
   128
 43
0.0
 10
6307.7507019043
 20
4711.6758702237
 10
6308.4152691625
 20
4710.033577802
 10
6309.7282481983
 20
4709.5504701051
  0
LWPOLYLINE
  5
459
330
1F
100
AcDbEntity
  8
0
  6
Continuous
 62
     7
100
AcDbPolyline
 90
        3
 70
   128
 43
0.0
 10
6309.7267150879
 20
4709.5504701051
 10
6311.3116962228
 20
4710.3293898404
 10
6311.7254433826
 20
4711.6758702237
  0
LWPOLYLINE
  5
45A
330
1F
100
AcDbEntity
  8
0
  6
Continuous
 62
     7
100
AcDbPolyline
 90
        3
 70
   128
 43
0.0
 10
6311.7218017578
 20
4711.6758702237
 10
6311.0485948455
 20
4713.3077367127
 10
6309.7342570916
 20
4713.7812385249
  0
LWPOLYLINE
  5
45B
330
1F
100
AcDbEntity
  8
0
  6
Continuous
 62
     7
100
AcDbPolyline
 90
        3
 70
   128
 43
0.0
 10
6309.7305297852
 20
4713.7812385249
 10
6308.1637919352
 20
4713.0097155039
 10
6307.7510839
 20
4711.6758702237
  0
LWPOLYLINE
  5
45C
330
1F
100
AcDbEntity
  8
0
  6
Continuous
 62
     7
100
AcDbPolyline
 90
        3
 70
   128
 43
0.0
 10
6309.6923828125
 20
4715.4479054648
 10
6312.6435410307
 20
4714.0894509313
 10
6313.5203143254
 20
4711.671863674
  0
LWPOLYLINE
  5
45D
330
1F
100
AcDbEntity
  8
0
  6
Continuous
 62
     7
100
AcDbPolyline
 90
        3
 70
   128
 43
0.0
 10
6313.5185241699
 20
4711.671863674
 10
6312.1380316328
 20
4708.7291396526
 10
6309.7022046938
 20
4707.8838031653
  0
LWPOLYLINE
  5
45E
330
1F
100
AcDbEntity
  8
0
  6
Continuous
 62
     7
100
AcDbPolyline
 90
        3
 70
   128
 43
0.0
 10
6309.700012207
 20
4707.8838031653
 10
6306.8025615053
 20
4709.2575628959
 10
6305.9562129572
 20
4711.6598440248
  0
LWPOLYLINE
  5
45F
330
1F
100
AcDbEntity
  8
0
  6
Continuous
 62
     7
100
AcDbPolyline
 90
        3
 70
   128
 43
0.0
 10
6305.9539794922
 20
4711.6598440248
 10
6306.348072679
 20
4713.375735685
 10
6307.1961944595
 20
4714.4683385182
  0
LWPOLYLINE
  5
460
330
1F
100
AcDbEntity
  8
0
  6
Continuous
 62
     7
100
AcDbPolyline
 90
        3
 70
   128
 43
0.0
 10
6307.1937561035
 20
4714.4683385182
 10
6308.5076608132
 20
4715.2557176284
 10
6309.6941915944
 20
4715.4479054648
  0
LWPOLYLINE
  5
461
330
1F
100
AcDbEntity
  8
0
  6
Continuous
 62
     7
100
AcDbPolyline
 90
        3
 70
   128
 43
0.0
 10
6318.6149597168
 20
4709.6786750394
 10
6320.1709944256
 20
4710.4222761462
 10
6320.5715959564
 20
4711.7359666068
  0
LWPOLYLINE
  5
462
330
1F
100
AcDbEntity
  8
0
  6
Continuous
 62
     7
100
AcDbPolyline
 90
        3
 70
   128
 43
0.0
 10
6320.5680847168
 20
4711.7359666068
 10
6319.8876805498
 20
4713.3337480531
 10
6318.5844180778
 20
4713.7812385249
  0
LWPOLYLINE
  5
463
330
1F
100
AcDbEntity
  8
0
  6
Continuous
 62
     7
100
AcDbPolyline
 90
        3
 70
   128
 43
0.0
 10
6321.6171264648
 20
4706.3693795267
 10
6320.0529185394
 20
4705.381852509
 10
6318.5944316581
 20
4705.1914948884
  0
LWPOLYLINE
  5
464
330
1F
100
AcDbEntity
  8
0
  6
Continuous
 62
     7
100
AcDbPolyline
 90
        3
 70
   128
 43
0.0
 10
6318.5920715332
 20
4705.1914948884
 10
6316.02918546
 20
4705.8359334031
 10
6314.7943524316
 20
4707.4991874311
  0
LWPOLYLINE
  5
465
330
1F
100
AcDbEntity
  8
0
  6
Continuous
 62
     7
100
AcDbPolyline
 90
        3
 70
   128
 43
0.0
 10
6320.442199707
 20
4708.923466495
 10
6319.3103418602
 20
4708.1753581876
 10
6318.2558921769
 20
4708.0120080996
  0
LWPOLYLINE
  5
466
330
1F
100
AcDbEntity
  8
0
  6
Continuous
 62
     7
100
AcDbPolyline
 90
        3
 70
   128
 43
0.0
 10
6314.8002624512
 20
4711.7299577135
 10
6315.1125511821
 20
4713.3990038278
 10
6315.8620616093
 20
4714.5023932594
  0
LWPOLYLINE
  5
467
330
1F
100
AcDbEntity
  8
0
  6
Continuous
 62
     7
100
AcDbPolyline
 90
        3
 70
   128
 43
0.0
 10
6318.4585571289
 20
4706.8581618283
 10
6320.1538663199
 20
4707.5045402102
 10
6320.4433900908
 20
4708.923466495
  0
LWPOLYLINE
  5
468
330
1F
100
AcDbEntity
  8
0
  6
Continuous
 62
     7
100
AcDbPolyline
 90
        3
 70
   128
 43
0.0
 10
6316.7877197266
 20
4707.4991874311
 10
6317.6557189451
 20
4706.9600199539
 10
6318.4602168992
 20
4706.8581618283
  0
LWPOLYLINE
  5
469
330
1F
100
AcDbEntity
  8
0
  6
Continuous
 62
     7
100
AcDbPolyline
 90
        3
 70
   128
 43
0.0
 10
6318.5806274414
 20
4713.7812385249
 10
6317.0242911693
 20
4713.0520174877
 10
6316.5972364739
 20
4711.7499885995
  0
LWPOLYLINE
  5
46A
330
1F
100
AcDbEntity
  8
0
  6
Continuous
 62
     7
100
AcDbPolyline
 90
        3
 70
   128
 43
0.0
 10
6318.2525634766
 20
4708.0120080996
 10
6315.5233842016
 20
4709.3942458993
 10
6314.802365531
 20
4711.7299577135
  0
LWPOLYLINE
  5
46B
330
1F
100
AcDbEntity
  8
0
  6
Continuous
 62
     7
100
AcDbPolyline
 90
        3
 70
   128
 43
0.0
 10
6322.3648071289
 20
4709.0857261706
 10
6322.1833941639
 20
4707.4943169943
 10
6321.6192705229
 20
4706.3693795267
  0
LWPOLYLINE
  5
46C
330
1F
100
AcDbEntity
  8
0
  6
Continuous
 62
     7
100
AcDbPolyline
 90
        3
 70
   128
 43
0.0
 10
6315.860748291
 20
4714.5023932594
 10
6317.0566554176
 20
4715.2658486303
 10
6318.1557302967
 20
4715.4479054648
  0
LWPOLYLINE
  5
46D
330
1F
100
AcDbEntity
  8
0
  6
Continuous
 62
     7
100
AcDbPolyline
 90
        3
 70
   128
 43
0.0
 10
6318.1533813477
 20
4715.4479054648
 10
6319.5330039577
 20
4715.139856258
 10
6320.4433900908
 20
4714.5063998092
  0
LWPOLYLINE
  5
46E
330
1F
100
AcDbEntity
  8
0
  6
Continuous
 62
     7
100
AcDbPolyline
 90
        3
 70
   128
 43
0.0
 10
6316.5969848633
 20
4711.7499885995
 10
6317.302013664
 20
4710.1387943618
 10
6318.6184709564
 20
4709.6786750394
  0
LWPOLYLINE
  5
46F
330
1F
100
AcDbEntity
  8
0
  6
Continuous
 62
     7
100
AcDbPolyline
 90
        3
 70
   128
 43
0.0
 10
6325.1419067383
 20
4714.4683385182
 10
6326.4563776921
 20
4715.2557176284
 10
6327.6429084733
 20
4715.4479054648
  0
LWPOLYLINE
  5
470
330
1F
100
AcDbEntity
  8
0
  6
Continuous
 62
     7
100
AcDbPolyline
 90
        3
 70
   128
 43
0.0
 10
6327.6481628418
 20
4707.8838031653
 10
6324.7512803975
 20
4709.2575649693
 10
6323.9049298361
 20
4711.6598440248
  0
LWPOLYLINE
  5
471
330
1F
100
AcDbEntity
  8
0
  6
Continuous
 62
     7
100
AcDbPolyline
 90
        3
 70
   128
 43
0.0
 10
6323.902130127
 20
4711.6598440248
 10
6324.2967925579
 20
4713.375734255
 10
6325.1449113384
 20
4714.4683385182
  0
LWPOLYLINE
  5
472
330
1F
100
AcDbEntity
  8
0
  6
Continuous
 62
     7
100
AcDbPolyline
 90
        3
 70
   128
 43
0.0
 10
6331.4666748047
 20
4711.671863674
 10
6330.0867498337
 20
4708.7291376733
 10
6327.6509215727
 20
4707.8838031653
  0
LWPOLYLINE
  5
473
330
1F
100
AcDbEntity
  8
0
  6
Continuous
 62
     7
100
AcDbPolyline
 90
        3
 70
   128
 43
0.0
 10
6327.6405334473
 20
4715.4479054648
 10
6330.5922579096
 20
4714.0894509313
 10
6331.4690312043
 20
4711.671863674
  0
LWPOLYLINE
  5
474
330
1F
100
AcDbEntity
  8
0
  6
Continuous
 62
     7
100
AcDbPolyline
 90
        3
 70
   128
 43
0.0
 10
6327.6748657227
 20
4709.5504701051
 10
6329.2604152769
 20
4710.3293877732
 10
6329.6741602614
 20
4711.6758702237
  0
LWPOLYLINE
  5
475
330
1F
100
AcDbEntity
  8
0
  6
Continuous
 62
     7
100
AcDbPolyline
 90
        3
 70
   128
 43
0.0
 10
6325.6988525391
 20
4711.6758702237
 10
6326.3639865254
 20
4710.0335773573
 10
6327.6769650772
 20
4709.5504701051
  0
LWPOLYLINE
  5
476
330
1F
100
AcDbEntity
  8
0
  6
Continuous
 62
     7
100
AcDbPolyline
 90
        3
 70
   128
 43
0.0
 10
6329.6737670898
 20
4711.6758702237
 10
6328.9973133679
 20
4713.307738562
 10
6327.6829739705
 20
4713.7812385249
  0
LWPOLYLINE
  5
477
330
1F
100
AcDbEntity
  8
0
  6
Continuous
 62
     7
100
AcDbPolyline
 90
        3
 70
   128
 43
0.0
 10
6327.6824951172
 20
4713.7812385249
 10
6326.1125088141
 20
4713.0097155039
 10
6325.6998007789
 20
4711.6758702237
  0
LWPOLYLINE
  5
478
330
1F
100
AcDbEntity
  8
0
  6
Continuous
 62
     7
100
AcDbPolyline
 90
        5
 70
   128
 43
0.0
 10
6344.3183898926
 20
4694.5898337204
 10
6344.0554043607
 20
4693.4584628705
 10
6343.9230272485
 20
4693.1116264683
 10
6343.8568385077
 20
4693.0206742129
 10
6343.7906486586
 20
4692.9898337608
  0
LWPOLYLINE
  5
479
330
1F
100
AcDbEntity
  8
0
  6
Continuous
 62
     7
100
AcDbPolyline
 90
        5
 70
   128
 43
0.0
 10
6204.2465209961
 20
4692.9898337608
 10
6204.1806721645
 20
4693.0206742129
 10
6204.1144834237
 20
4693.1116264683
 10
6203.9821063115
 20
4693.4584628705
 10
6203.7173492506
 20
4694.5898337204
  0
LWPOLYLINE
  5
47A
330
1F
100
AcDbEntity
  8
0
  6
Continuous
 62
     7
100
AcDbPolyline
 90
        3
 70
   128
 43
0.0
 10
6383.9073181152
 20
4694.5898337204
 10
6383.302469089
 20
4693.3570556645
 10
6382.3053149179
 20
4692.9898337608
  0
LWPOLYLINE
  5
47B
330
1F
100
AcDbEntity
  8
0
  6
Continuous
 62
     7
100
AcDbPolyline
 90
        3
 70
   128
 43
0.0
 10
6344.5243835449
 20
4692.9898337608
 10
6345.5459707597
 20
4693.5699854497
 10
6345.7929698422
 20
4694.5898337204
  0
LWPOLYLINE
  5
47C
330
1F
100
AcDbEntity
  8
0
  6
Continuous
 62
     7
100
AcDbPolyline
 90
        3
 70
   128
 43
0.0
 10
6344.5243835449
 20
4693.7898337406
 10
6344.9784857679
 20
4694.0799556671
 10
6345.056562468
 20
4694.5898337204
  0
LWPOLYLINE
  5
47D
330
1F
100
AcDbEntity
  8
0
  6
Continuous
 62
     7
100
AcDbPolyline
 90
        3
 70
   128
 43
0.0
 10
6202.2438049316
 20
4694.5898337204
 10
6202.6627153612
 20
4693.3570556645
 10
6203.510454078
 20
4692.9898337608
  0
LWPOLYLINE
  5
47E
330
1F
100
AcDbEntity
  8
0
  6
Continuous
 62
     7
100
AcDbPolyline
 90
        3
 70
   128
 43
0.0
 10
6165.7295227051
 20
4692.9898337608
 10
6164.5231165521
 20
4693.5699854497
 10
6164.1267073944
 20
4694.5898337204
  0
LWPOLYLINE
  5
47F
330
1F
100
AcDbEntity
  8
0
  6
Continuous
 62
     7
100
AcDbPolyline
 90
        3
 70
   128
 43
0.0
 10
6202.9800415039
 20
4694.5898337204
 10
6203.1321454169
 20
4693.9735488744
 10
6203.510454078
 20
4693.7898337406
  0
LWPOLYLINE
  5
480
330
1F
100
AcDbEntity
  8
0
  6
Continuous
 62
     7
100
AcDbPolyline
 90
        3
 70
   128
 43
0.0
 10
6200.1838684082
 20
5734.9200053054
 10
6199.3679284351
 20
5735.0677616546
 10
6199.1266144112
 20
5735.331515773
  0
LWPOLYLINE
  5
481
330
1F
100
AcDbEntity
  8
0
  6
Continuous
 62
     7
100
AcDbPolyline
 90
        3
 70
   128
 43
0.0
 10
6201.244354248
 20
5735.331515773
 10
6200.8629087198
 20
5735.0115331413
 10
6200.1867053702
 20
5734.9200053054
  0
LWPOLYLINE
  5
482
330
1F
100
AcDbEntity
  8
0
  6
Continuous
 62
     7
100
AcDbPolyline
 90
        3
 70
   128
 43
0.0
 10
6200.9620666504
 20
5735.6158299285
 10
6201.1911803539
 20
5735.4664688213
 10
6201.2445611551
 20
5735.331515773
  0
LWPOLYLINE
  5
483
330
1F
100
AcDbEntity
  8
0
  6
Continuous
 62
     7
100
AcDbPolyline
 90
        3
 70
   128
 43
0.0
 10
6200.1838684082
 20
5735.7475561935
 10
6200.6608810478
 20
5735.7064267649
 10
6200.9641138509
 20
5735.6158299285
  0
LWPOLYLINE
  5
484
330
1F
100
AcDbEntity
  8
0
  6
Continuous
 62
     7
100
AcDbPolyline
 90
        3
 70
   128
 43
0.0
 10
6199.405670166
 20
5735.6151146728
 10
6199.8091377003
 20
5735.7226524715
 10
6200.1867053702
 20
5735.7475561935
  0
LWPOLYLINE
  5
485
330
1F
100
AcDbEntity
  8
0
  6
Continuous
 62
     7
100
AcDbPolyline
 90
        3
 70
   128
 43
0.0
 10
6199.1233825684
 20
5735.331515773
 10
6199.2149143428
 20
5735.50146408
 10
6199.4070617154
 20
5735.6151146728
  0
LWPOLYLINE
  5
486
330
1F
100
AcDbEntity
  8
0
  6
Continuous
 62
     7
100
AcDbPolyline
 90
        3
 70
   128
 43
0.0
 10
6186.3288879395
 20
5734.9200053054
 10
6185.5115174549
 20
5735.0677616546
 10
6185.2702034309
 20
5735.331515773
  0
LWPOLYLINE
  5
487
330
1F
100
AcDbEntity
  8
0
  6
Continuous
 62
     7
100
AcDbPolyline
 90
        3
 70
   128
 43
0.0
 10
6187.385559082
 20
5735.331515773
 10
6187.0064977396
 20
5735.0115331413
 10
6186.33029439
 20
5734.9200053054
  0
LWPOLYLINE
  5
488
330
1F
100
AcDbEntity
  8
0
  6
Continuous
 62
     7
100
AcDbPolyline
 90
        3
 70
   128
 43
0.0
 10
6187.1070861816
 20
5735.6158299285
 10
6187.3347693736
 20
5735.4664688213
 10
6187.3881501749
 20
5735.331515773
  0
LWPOLYLINE
  5
489
330
1F
100
AcDbEntity
  8
0
  6
Continuous
 62
     7
100
AcDbPolyline
 90
        3
 70
   128
 43
0.0
 10
6186.3288879395
 20
5735.7475561935
 10
6186.8044700676
 20
5735.7064267649
 10
6187.1077028707
 20
5735.6158299285
  0
LWPOLYLINE
  5
48A
330
1F
100
AcDbEntity
  8
0
  6
Continuous
 62
     7
100
AcDbPolyline
 90
        3
 70
   128
 43
0.0
 10
6185.546875
 20
5735.6151146728
 10
6185.9527267201
 20
5735.7226524715
 10
6186.33029439
 20
5735.7475561935
  0
LWPOLYLINE
  5
48B
330
1F
100
AcDbEntity
  8
0
  6
Continuous
 62
     7
100
AcDbPolyline
 90
        3
 70
   128
 43
0.0
 10
6185.2684020996
 20
5735.331515773
 10
6185.3585033626
 20
5735.50146408
 10
6185.5506507352
 20
5735.6151146728
  0
LWPOLYLINE
  5
48C
330
1F
100
AcDbEntity
  8
0
  6
Continuous
 62
     7
100
AcDbPolyline
 90
        3
 70
   128
 43
0.0
 10
6179.6913146973
 20
5735.5551524002
 10
6180.1767639331
 20
5735.3862774961
 10
6180.3522539929
 20
5735.2020544845
  0
LWPOLYLINE
  5
48D
330
1F
100
AcDbEntity
  8
0
  6
Continuous
 62
     7
100
AcDbPolyline
 90
        3
 70
   128
 43
0.0
 10
6179.313659668
 20
5735.6639904815
 10
6179.5248817513
 20
5735.6018739403
 10
6179.6926391915
 20
5735.5551524002
  0
LWPOLYLINE
  5
48E
330
1F
100
AcDbEntity
  8
0
  6
Continuous
 62
     7
100
AcDbPolyline
 90
        3
 70
   128
 43
0.0
 10
6179.1305541992
 20
5735.8053726989
 10
6179.19665415
 20
5735.7185519018
 10
6179.3162731126
 20
5735.6639904815
  0
LWPOLYLINE
  5
48F
330
1F
100
AcDbEntity
  8
0
  6
Continuous
 62
     7
100
AcDbPolyline
 90
        3
 70
   128
 43
0.0
 10
6179.5387268066
 20
5735.9438938934
 10
6179.2326104006
 20
5735.8987022246
 10
6179.1317371324
 20
5735.8053726989
  0
LWPOLYLINE
  5
490
330
1F
100
AcDbEntity
  8
0
  6
Continuous
 62
     7
100
AcDbPolyline
 90
        3
 70
   128
 43
0.0
 10
6180.0880432129
 20
5735.8035845596
 10
6179.8255386481
 20
5735.91044485
 10
6179.5423162774
 20
5735.9438938934
  0
LWPOLYLINE
  5
491
330
1F
100
AcDbEntity
  8
0
  6
Continuous
 62
     7
100
AcDbPolyline
 90
        3
 70
   128
 43
0.0
 10
6179.5692443848
 20
5736.0560698349
 10
6180.0468686853
 20
5735.9887209681
 10
6180.3163570955
 20
5735.8709378082
  0
LWPOLYLINE
  5
492
330
1F
100
AcDbEntity
  8
0
  6
Continuous
 62
     7
100
AcDbPolyline
 90
        3
 70
   128
 43
0.0
 10
6178.8787841797
 20
5735.8007235366
 10
6179.1347278016
 20
5736.0015318447
 10
6179.5703602627
 20
5736.0560698349
  0
LWPOLYLINE
  5
493
330
1F
100
AcDbEntity
  8
0
  6
Continuous
 62
     7
100
AcDbPolyline
 90
        3
 70
   128
 43
0.0
 10
6179.0351867676
 20
5735.6341881591
 10
6178.9123907801
 20
5735.7225419507
 10
6178.8804588512
 20
5735.8007235366
  0
LWPOLYLINE
  5
494
330
1F
100
AcDbEntity
  8
0
  6
Continuous
 62
     7
100
AcDbPolyline
 90
        3
 70
   128
 43
0.0
 10
6179.4929504395
 20
5735.4854149658
 10
6179.2286154414
 20
5735.5640266641
 10
6179.036950846
 20
5735.6341881591
  0
LWPOLYLINE
  5
495
330
1F
100
AcDbEntity
  8
0
  6
Continuous
 62
     7
100
AcDbPolyline
 90
        3
 70
   128
 43
0.0
 10
6180.0003051758
 20
5735.3108925659
 10
6179.7323231549
 20
5735.4151630679
 10
6179.4957650498
 20
5735.4854149658
  0
LWPOLYLINE
  5
496
330
1F
100
AcDbEntity
  8
0
  6
Continuous
 62
     7
100
AcDbPolyline
 90
        3
 70
   128
 43
0.0
 10
6180.0994873047
 20
5735.2036042053
 10
6180.0664475989
 20
5735.2670057357
 10
6180.0005716875
 20
5735.3108925659
  0
LWPOLYLINE
  5
497
330
1F
100
AcDbEntity
  8
0
  6
Continuous
 62
     7
100
AcDbPolyline
 90
        3
 70
   128
 43
0.0
 10
6179.5501708984
 20
5735.0181145507
 10
6179.9645169864
 20
5735.0794728961
 10
6180.1009682611
 20
5735.2036042053
  0
LWPOLYLINE
  5
498
330
1F
100
AcDbEntity
  8
0
  6
Continuous
 62
     7
100
AcDbPolyline
 90
        3
 70
   128
 43
0.0
 10
6178.9360046387
 20
5735.2005047638
 10
6179.2232147283
 20
5735.0639995574
 10
6179.552411814
 20
5735.0181145507
  0
LWPOLYLINE
  5
499
330
1F
100
AcDbEntity
  8
0
  6
Continuous
 62
     7
100
AcDbPolyline
 90
        3
 70
   128
 43
0.0
 10
6179.5501708984
 20
5734.9059386093
 10
6178.9874230198
 20
5734.9919910588
 10
6178.700966914
 20
5735.1450724441
  0
LWPOLYLINE
  5
49A
330
1F
100
AcDbEntity
  8
0
  6
Continuous
 62
     7
100
AcDbPolyline
 90
        3
 70
   128
 43
0.0
 10
6180.3512573242
 20
5735.2020544845
 10
6180.0522275264
 20
5734.9713536591
 10
6179.552411814
 20
5734.9059386093
  0
LWPOLYLINE
  5
49B
330
1F
100
AcDbEntity
  8
0
  6
Continuous
 62
     7
100
AcDbPolyline
 90
        3
 70
   128
 43
0.0
 10
6182.6400756836
 20
5735.5901999313
 10
6182.824720163
 20
5735.4413559496
 10
6182.8650740579
 20
5735.3126807052
  0
LWPOLYLINE
  5
49C
330
1F
100
AcDbEntity
  8
0
  6
Continuous
 62
     7
100
AcDbPolyline
 90
        3
 70
   128
 43
0.0
 10
6181.8161010742
 20
5735.7475561935
 10
6182.3319135523
 20
5735.6981315179
 10
6182.6423985556
 20
5735.5901999313
  0
LWPOLYLINE
  5
49D
330
1F
100
AcDbEntity
  8
0
  6
Continuous
 62
     7
100
AcDbPolyline
 90
        3
 70
   128
 43
0.0
 10
6181.0150146484
 20
5735.5985445816
 10
6181.4237519395
 20
5735.7197284171
 10
6181.8184388474
 20
5735.7475561935
  0
LWPOLYLINE
  5
49E
330
1F
100
AcDbEntity
  8
0
  6
Continuous
 62
     7
100
AcDbPolyline
 90
        3
 70
   128
 43
0.0
 10
6180.7823181152
 20
5735.331515773
 10
6180.8571789699
 20
5735.4893774363
 10
6181.0185966685
 20
5735.5985445816
  0
LWPOLYLINE
  5
49F
330
1F
100
AcDbEntity
  8
0
  6
Continuous
 62
     7
100
AcDbPolyline
 90
        3
 70
   128
 43
0.0
 10
6181.8084716797
 20
5734.9200053054
 10
6181.0096977949
 20
5735.0686454796
 10
6180.7830242112
 20
5735.331515773
  0
LWPOLYLINE
  5
4A0
330
1F
100
AcDbEntity
  8
0
  6
Continuous
 62
     7
100
AcDbPolyline
 90
        3
 70
   128
 43
0.0
 10
6182.7545166016
 20
5735.1406617004
 10
6182.3091583397
 20
5734.9625916419
 10
6181.8122697666
 20
5734.9200053054
  0
LWPOLYLINE
  5
4A1
330
1F
100
AcDbEntity
  8
0
  6
Continuous
 62
     7
100
AcDbPolyline
 90
        3
 70
   128
 43
0.0
 10
6181.7779541016
 20
5735.0181145507
 10
6182.2642700505
 20
5735.071802624
 10
6182.5341416195
 20
5735.1864380676
  0
LWPOLYLINE
  5
4A2
330
1F
100
AcDbEntity
  8
0
  6
Continuous
 62
     7
100
AcDbPolyline
 90
        3
 70
   128
 43
0.0
 10
6181.0340881348
 20
5735.3126807052
 10
6181.3007834659
 20
5735.084199638
 10
6181.7808581188
 20
5735.0181145507
  0
LWPOLYLINE
  5
4A3
330
1F
100
AcDbEntity
  8
0
  6
Continuous
 62
     7
100
AcDbPolyline
 90
        3
 70
   128
 43
0.0
 10
6183.5899353027
 20
5735.4770703155
 10
6183.5518763316
 20
5735.3237797276
 10
6183.5471225575
 20
5735.202650531
  0
LWPOLYLINE
  5
4A4
330
1F
100
AcDbEntity
  8
0
  6
Continuous
 62
     7
100
AcDbPolyline
 90
        3
 70
   128
 43
0.0
 10
6183.9981079102
 20
5735.6493277389
 10
6183.70181688
 20
5735.5782549756
 10
6183.5919974044
 20
5735.4770703155
  0
LWPOLYLINE
  5
4A5
330
1F
100
AcDbEntity
  8
0
  6
Continuous
 62
     7
100
AcDbPolyline
 90
        3
 70
   128
 43
0.0
 10
6184.1239929199
 20
5735.6351418335
 10
6184.0570588697
 20
5735.6458658719
 10
6183.9986426428
 20
5735.6493277389
  0
LWPOLYLINE
  5
4A6
330
1F
100
AcDbEntity
  8
0
  6
Continuous
 62
     7
100
AcDbPolyline
 90
        3
 70
   128
 43
0.0
 10
6184.0438842773
 20
5735.7475561935
 10
6184.1737213063
 20
5735.7378766982
 10
6184.2650754049
 20
5735.7201380569
  0
LWPOLYLINE
  5
4A7
330
1F
100
AcDbEntity
  8
0
  6
Continuous
 62
     7
100
AcDbPolyline
 90
        3
 70
   128
 43
0.0
 10
6183.5441589355
 20
5735.6158299285
 10
6183.7852922305
 20
5735.7164905979
 10
6184.046318908
 20
5735.7475561935
  0
LWPOLYLINE
  5
4A8
330
1F
100
AcDbEntity
  8
0
  6
Continuous
 62
     7
100
AcDbPolyline
 90
        3
 70
   128
 43
0.0
 10
6184.8373413086
 20
5735.9854979354
 10
6184.7496786969
 20
5735.9199541786
 10
6184.6049783423
 20
5735.9018130142
  0
LWPOLYLINE
  5
4A9
330
1F
100
AcDbEntity
  8
0
  6
Continuous
 62
     7
100
AcDbPolyline
 90
        3
 70
   128
 43
0.0
 10
6184.6046447754
 20
5736.070136531
 10
6184.7827334067
 20
5736.0406797763
 10
6184.8394332126
 20
5735.9854979354
  0
LWPOLYLINE
  5
4AA
330
1F
100
AcDbEntity
  8
0
  6
Continuous
 62
     7
100
AcDbPolyline
 90
        3
 70
   128
 43
0.0
 10
6184.3719482422
 20
5735.9854979354
 10
6184.4605436321
 20
5736.051632329
 10
6184.6049783423
 20
5736.070136531
  0
LWPOLYLINE
  5
4AB
330
1F
100
AcDbEntity
  8
0
  6
Continuous
 62
     7
100
AcDbPolyline
 90
        3
 70
   128
 43
0.0
 10
6184.6046447754
 20
5735.9018130142
 10
6184.4294605252
 20
5735.9310521415
 10
6184.3727660969
 20
5735.9854979354
  0
LWPOLYLINE
  5
4AC
330
1F
100
AcDbEntity
  8
0
  6
Continuous
 62
     7
100
AcDbPolyline
 90
        3
 70
   128
 43
0.0
 10
6191.7953491211
 20
5735.5901999313
 10
6191.9785700376
 20
5735.441356667
 10
6192.0189169839
 20
5735.3126807052
  0
LWPOLYLINE
  5
4AD
330
1F
100
AcDbEntity
  8
0
  6
Continuous
 62
     7
100
AcDbPolyline
 90
        3
 70
   128
 43
0.0
 10
6190.9713745117
 20
5735.7475561935
 10
6191.4857585959
 20
5735.6981326923
 10
6191.7962414816
 20
5735.5901999313
  0
LWPOLYLINE
  5
4AE
330
1F
100
AcDbEntity
  8
0
  6
Continuous
 62
     7
100
AcDbPolyline
 90
        3
 70
   128
 43
0.0
 10
6190.1702880859
 20
5735.5985445816
 10
6190.5775972051
 20
5735.7197287916
 10
6190.9722817734
 20
5735.7475561935
  0
LWPOLYLINE
  5
4AF
330
1F
100
AcDbEntity
  8
0
  6
Continuous
 62
     7
100
AcDbPolyline
 90
        3
 70
   128
 43
0.0
 10
6189.9337768555
 20
5735.331515773
 10
6190.011029137
 20
5735.4893772239
 10
6190.1724470451
 20
5735.5985445816
  0
LWPOLYLINE
  5
4B0
330
1F
100
AcDbEntity
  8
0
  6
Continuous
 62
     7
100
AcDbPolyline
 90
        3
 70
   128
 43
0.0
 10
6190.9637451172
 20
5734.9200053054
 10
6190.1635453535
 20
5735.0686468981
 10
6189.9368671372
 20
5735.331515773
  0
LWPOLYLINE
  5
4B1
330
1F
100
AcDbEntity
  8
0
  6
Continuous
 62
     7
100
AcDbPolyline
 90
        3
 70
   128
 43
0.0
 10
6191.9097900391
 20
5735.1406617004
 10
6191.4630012657
 20
5734.9625916419
 10
6190.9661126926
 20
5734.9200053054
  0
LWPOLYLINE
  5
4B2
330
1F
100
AcDbEntity
  8
0
  6
Continuous
 62
     7
100
AcDbPolyline
 90
        3
 70
   128
 43
0.0
 10
6190.9332275391
 20
5735.0181145507
 10
6191.4181152816
 20
5735.0718032487
 10
6191.6879919961
 20
5735.1864380676
  0
LWPOLYLINE
  5
4B3
330
1F
100
AcDbEntity
  8
0
  6
Continuous
 62
     7
100
AcDbPolyline
 90
        3
 70
   128
 43
0.0
 10
6190.185546875
 20
5735.3126807052
 10
6190.4546269191
 20
5735.084199465
 10
6190.9347010449
 20
5735.0181145507
  0
LWPOLYLINE
  5
4B4
330
1F
100
AcDbEntity
  8
0
  6
Continuous
 62
     7
100
AcDbPolyline
 90
        3
 70
   128
 43
0.0
 10
6194.6487426758
 20
5734.9200053054
 10
6193.7924352014
 20
5735.0597770784
 10
6193.5266090229
 20
5735.3272242385
  0
LWPOLYLINE
  5
4B5
330
1F
100
AcDbEntity
  8
0
  6
Continuous
 62
     7
100
AcDbPolyline
 90
        3
 70
   128
 43
0.0
 10
6195.6062316895
 20
5735.1045412857
 10
6195.1314553757
 20
5734.9537124735
 10
6194.6512071088
 20
5734.9200053054
  0
LWPOLYLINE
  5
4B6
330
1F
100
AcDbEntity
  8
0
  6
Continuous
 62
     7
100
AcDbPolyline
 90
        3
 70
   128
 43
0.0
 10
6194.652557373
 20
5735.0181145507
 10
6195.1161435921
 20
5735.0628893018
 10
6195.3983289793
 20
5735.1584238845
  0
LWPOLYLINE
  5
4B7
330
1F
100
AcDbEntity
  8
0
  6
Continuous
 62
     7
100
AcDbPolyline
 90
        3
 70
   128
 43
0.0
 10
6193.775177002
 20
5735.3359265167
 10
6194.1050089056
 20
5735.0843708526
 10
6194.6551335648
 20
5735.0181145507
  0
LWPOLYLINE
  5
4B8
330
1F
100
AcDbEntity
  8
0
  6
Continuous
 62
     7
100
AcDbPolyline
 90
        3
 70
   128
 43
0.0
 10
6194.652557373
 20
5735.6493277389
 10
6193.9868772706
 20
5735.5423109664
 10
6193.7778947547
 20
5735.3359265167
  0
LWPOLYLINE
  5
4B9
330
1F
100
AcDbEntity
  8
0
  6
Continuous
 62
     7
100
AcDbPolyline
 90
        3
 70
   128
 43
0.0
 10
6195.3964233398
 20
5735.5090184051
 10
6195.0221997811
 20
5735.6234116614
 10
6194.6534571841
 20
5735.6493277389
  0
LWPOLYLINE
  5
4BA
330
1F
100
AcDbEntity
  8
0
  6
Continuous
 62
     7
100
AcDbPolyline
 90
        3
 70
   128
 43
0.0
 10
6194.6716308594
 20
5735.7475561935
 10
6195.2637687982
 20
5735.6900001017
 10
6195.6086588696
 20
5735.5601591903
  0
LWPOLYLINE
  5
4BB
330
1F
100
AcDbEntity
  8
0
  6
Continuous
 62
     7
100
AcDbPolyline
 90
        3
 70
   128
 43
0.0
 10
6193.5234069824
 20
5735.3272242385
 10
6193.9507736971
 20
5735.6587765389
 10
6194.6719644263
 20
5735.7475561935
  0
LWPOLYLINE
  5
4BC
330
1F
100
AcDbEntity
  8
0
  6
Continuous
 62
     7
100
AcDbPolyline
 90
        3
 70
   128
 43
0.0
 10
6196.9223022461
 20
5735.4146046478
 10
6196.8466202161
 20
5735.4810453085
 10
6196.82917573
 20
5735.5377478439
  0
LWPOLYLINE
  5
4BD
330
1F
100
AcDbEntity
  8
0
  6
Continuous
 62
     7
100
AcDbPolyline
 90
        3
 70
   128
 43
0.0
 10
6197.2732543945
 20
5735.3055281478
 10
6197.0622779106
 20
5735.3589814079
 10
6196.9228444293
 20
5735.4146046478
  0
LWPOLYLINE
  5
4BE
330
1F
100
AcDbEntity
  8
0
  6
Continuous
 62
     7
100
AcDbPolyline
 90
        3
 70
   128
 43
0.0
 10
6197.582244873
 20
5735.2230353195
 10
6197.4197858895
 20
5735.2736575754
 10
6197.2756517723
 20
5735.3055281478
  0
LWPOLYLINE
  5
4BF
330
1F
100
AcDbEntity
  8
0
  6
Continuous
 62
     7
100
AcDbPolyline
 90
        3
 70
   128
 43
0.0
 10
6197.6547241211
 20
5735.1467413742
 10
6197.6330028991
 20
5735.1919517336
 10
6197.5858268931
 20
5735.2230353195
  0
LWPOLYLINE
  5
4C0
330
1F
100
AcDbEntity
  8
0
  6
Continuous
 62
     7
100
AcDbPolyline
 90
        3
 70
   128
 43
0.0
 10
6197.2923278809
 20
5735.0181145507
 10
6197.5658315574
 20
5735.0628522766
 10
6197.6548192695
 20
5735.1467413742
  0
LWPOLYLINE
  5
4C1
330
1F
100
AcDbEntity
  8
0
  6
Continuous
 62
     7
100
AcDbPolyline
 90
        3
 70
   128
 43
0.0
 10
6196.8879699707
 20
5735.1022763092
 10
6197.0927924634
 20
5735.0376064676
 10
6197.293600221
 20
5735.0181145507
  0
LWPOLYLINE
  5
4C2
330
1F
100
AcDbEntity
  8
0
  6
Continuous
 62
     7
100
AcDbPolyline
 90
        3
 70
   128
 43
0.0
 10
6197.3037719727
 20
5734.9200053054
 10
6196.9459691438
 20
5734.9552576863
 10
6196.7214850381
 20
5735.0282473404
  0
LWPOLYLINE
  5
4C3
330
1F
100
AcDbEntity
  8
0
  6
Continuous
 62
     7
100
AcDbPolyline
 90
        3
 70
   128
 43
0.0
 10
6197.9026794434
 20
5735.1509136993
 10
6197.6892256068
 20
5734.9709616418
 10
6197.306497176
 20
5734.9200053054
  0
LWPOLYLINE
  5
4C4
330
1F
100
AcDbEntity
  8
0
  6
Continuous
 62
     7
100
AcDbPolyline
 90
        3
 70
   128
 43
0.0
 10
6197.8073120117
 20
5735.2745337326
 10
6197.8884170447
 20
5735.208056584
 10
6197.9060975507
 20
5735.1509136993
  0
LWPOLYLINE
  5
4C5
330
1F
100
AcDbEntity
  8
0
  6
Continuous
 62
     7
100
AcDbPolyline
 90
        3
 70
   128
 43
0.0
 10
6197.4411010742
 20
5735.3868288833
 10
6197.664202155
 20
5735.3315891936
 10
6197.8107450202
 20
5735.2745337326
  0
LWPOLYLINE
  5
4C6
330
1F
100
AcDbEntity
  8
0
  6
Continuous
 62
     7
100
AcDbPolyline
 90
        3
 70
   128
 43
0.0
 10
6197.1473693848
 20
5735.4692025024
 10
6197.3052985422
 20
5735.418459718
 10
6197.4422393039
 20
5735.3868288833
  0
LWPOLYLINE
  5
4C7
330
1F
100
AcDbEntity
  8
0
  6
Continuous
 62
     7
100
AcDbPolyline
 90
        3
 70
   128
 43
0.0
 10
6197.078704834
 20
5735.5416817504
 10
6197.1040539956
 20
5735.4987005958
 10
6197.1500051811
 20
5735.4692025024
  0
LWPOLYLINE
  5
4C8
330
1F
100
AcDbEntity
  8
0
  6
Continuous
 62
     7
100
AcDbPolyline
 90
        3
 70
   128
 43
0.0
 10
6197.3457336426
 20
5735.6493277389
 10
6197.1410384752
 20
5735.6090349151
 10
6197.0804540113
 20
5735.5416817504
  0
LWPOLYLINE
  5
4C9
330
1F
100
AcDbEntity
  8
0
  6
Continuous
 62
     7
100
AcDbPolyline
 90
        3
 70
   128
 43
0.0
 10
6197.696685791
 20
5735.5651659805
 10
6197.5242298763
 20
5735.6275947796
 10
6197.3463205293
 20
5735.6493277389
  0
LWPOLYLINE
  5
4CA
330
1F
100
AcDbEntity
  8
0
  6
Continuous
 62
     7
100
AcDbPolyline
 90
        3
 70
   128
 43
0.0
 10
6197.3457336426
 20
5735.7475561935
 10
6197.6683129749
 20
5735.704243762
 10
6197.8702006534
 20
5735.6338305313
  0
LWPOLYLINE
  5
4CB
330
1F
100
AcDbEntity
  8
0
  6
Continuous
 62
     7
100
AcDbPolyline
 90
        3
 70
   128
 43
0.0
 10
6196.8269348145
 20
5735.5377478439
 10
6197.0090831123
 20
5735.7001127923
 10
6197.3463205293
 20
5735.7475561935
  0
LWPOLYLINE
  5
4CC
330
1F
100
AcDbEntity
  8
0
  6
Continuous
 62
     7
100
AcDbPolyline
 90
        3
 70
   128
 43
0.0
 10
6178.9360046387
 20
5735.154489978
 10
6179.2232147283
 20
5735.0179847717
 10
6179.552411814
 20
5734.972099765
  0
LWPOLYLINE
  5
4CD
330
1F
100
AcDbEntity
  8
0
  6
Continuous
 62
     7
100
AcDbPolyline
 90
        3
 70
   128
 43
0.0
 10
6179.5501708984
 20
5734.972099765
 10
6179.9645412202
 20
5735.0333480832
 10
6180.1009682611
 20
5735.1575894195
  0
LWPOLYLINE
  5
4CE
330
1F
100
AcDbEntity
  8
0
  6
Continuous
 62
     7
100
AcDbPolyline
 90
        3
 70
   128
 43
0.0
 10
6178.8787841797
 20
5735.7547087509
 10
6179.1347502431
 20
5735.9554046281
 10
6179.5703602627
 20
5736.0100550491
  0
LWPOLYLINE
  5
4CF
330
1F
100
AcDbEntity
  8
0
  6
Continuous
 62
     7
100
AcDbPolyline
 90
        3
 70
   128
 43
0.0
 10
6179.5692443848
 20
5736.0100550491
 10
6180.0052203246
 20
5735.9555720385
 10
6180.2535710528
 20
5735.852341159
  0
LWPOLYLINE
  5
4D0
330
1F
100
AcDbEntity
  8
0
  6
Continuous
 62
     7
100
AcDbPolyline
 90
        3
 70
   128
 43
0.0
 10
6179.1305541992
 20
5735.7593579132
 10
6179.19665415
 20
5735.6725371161
 10
6179.3162731126
 20
5735.6179756958
  0
LWPOLYLINE
  5
4D1
330
1F
100
AcDbEntity
  8
0
  6
Continuous
 62
     7
100
AcDbPolyline
 90
        3
 70
   128
 43
0.0
 10
6179.313659668
 20
5735.6179756958
 10
6179.5248972287
 20
5735.5558546963
 10
6179.6926391914
 20
5735.5090184051
  0
LWPOLYLINE
  5
4D2
330
1F
100
AcDbEntity
  8
0
  6
Continuous
 62
     7
100
AcDbPolyline
 90
        3
 70
   128
 43
0.0
 10
6179.6913146973
 20
5735.5090184051
 10
6180.1767723367
 20
5735.3402584633
 10
6180.3522539928
 20
5735.1560396988
  0
LWPOLYLINE
  5
4D3
330
1F
100
AcDbEntity
  8
0
  6
Continuous
 62
     7
100
AcDbPolyline
 90
        3
 70
   128
 43
0.0
 10
6200.1838684082
 20
5735.7015414077
 10
6200.6608810478
 20
5735.6604119791
 10
6200.9641138509
 20
5735.5698151428
  0
LWPOLYLINE
  5
4D4
330
1F
100
AcDbEntity
  8
0
  6
Continuous
 62
     7
100
AcDbPolyline
 90
        3
 70
   128
 43
0.0
 10
6200.9620666504
 20
5735.5698151428
 10
6201.1911823371
 20
5735.4204517104
 10
6201.2445611551
 20
5735.2855009872
  0
LWPOLYLINE
  5
4D5
330
1F
100
AcDbEntity
  8
0
  6
Continuous
 62
     7
100
AcDbPolyline
 90
        3
 70
   128
 43
0.0
 10
6199.1233825684
 20
5735.2855009872
 10
6199.21491561
 20
5735.4554504179
 10
6199.4070617154
 20
5735.569099887
  0
LWPOLYLINE
  5
4D6
330
1F
100
AcDbEntity
  8
0
  6
Continuous
 62
     7
100
AcDbPolyline
 90
        3
 70
   128
 43
0.0
 10
6199.405670166
 20
5735.569099887
 10
6199.8091371161
 20
5735.6766376004
 10
6200.1867053702
 20
5735.7015414077
  0
LWPOLYLINE
  5
4D7
330
1F
100
AcDbEntity
  8
0
  6
Continuous
 62
     7
100
AcDbPolyline
 90
        3
 70
   128
 43
0.0
 10
6199.3751525879
 20
5735.2849049408
 10
6199.6691977847
 20
5735.0413343094
 10
6200.1855877831
 20
5734.972099765
  0
LWPOLYLINE
  5
4D8
330
1F
100
AcDbEntity
  8
0
  6
Continuous
 62
     7
100
AcDbPolyline
 90
        3
 70
   128
 43
0.0
 10
6200.1838684082
 20
5734.972099765
 10
6200.8107514784
 20
5735.0839070904
 10
6200.9932754233
 20
5735.2849049408
  0
LWPOLYLINE
  5
4D9
330
1F
100
AcDbEntity
  8
0
  6
Continuous
 62
     7
100
AcDbPolyline
 90
        3
 70
   128
 43
0.0
 10
6197.078704834
 20
5735.4956669647
 10
6197.1040539956
 20
5735.45268581
 10
6197.1500051811
 20
5735.4231877166
  0
LWPOLYLINE
  5
4DA
330
1F
100
AcDbEntity
  8
0
  6
Continuous
 62
     7
100
AcDbPolyline
 90
        3
 70
   128
 43
0.0
 10
6197.1473693848
 20
5735.4231877166
 10
6197.3052985422
 20
5735.3724449323
 10
6197.4422393039
 20
5735.3408140976
  0
LWPOLYLINE
  5
4DB
330
1F
100
AcDbEntity
  8
0
  6
Continuous
 62
     7
100
AcDbPolyline
 90
        3
 70
   128
 43
0.0
 10
6197.4411010742
 20
5735.3408140976
 10
6197.664202155
 20
5735.2855744079
 10
6197.8107450202
 20
5735.2285189468
  0
LWPOLYLINE
  5
4DC
330
1F
100
AcDbEntity
  8
0
  6
Continuous
 62
     7
100
AcDbPolyline
 90
        3
 70
   128
 43
0.0
 10
6197.8073120117
 20
5735.2285189468
 10
6197.8884186839
 20
5735.1620393481
 10
6197.9060975507
 20
5735.1048989135
  0
LWPOLYLINE
  5
4DD
330
1F
100
AcDbEntity
  8
0
  6
Continuous
 62
     7
100
AcDbPolyline
 90
        3
 70
   128
 43
0.0
 10
6196.8879699707
 20
5735.0562615234
 10
6197.0927924634
 20
5734.9915916818
 10
6197.293600221
 20
5734.972099765
  0
LWPOLYLINE
  5
4DE
330
1F
100
AcDbEntity
  8
0
  6
Continuous
 62
     7
100
AcDbPolyline
 90
        3
 70
   128
 43
0.0
 10
6197.2923278809
 20
5734.972099765
 10
6197.5658315574
 20
5735.0168374908
 10
6197.6548192695
 20
5735.1007265884
  0
LWPOLYLINE
  5
4DF
330
1F
100
AcDbEntity
  8
0
  6
Continuous
 62
     7
100
AcDbPolyline
 90
        3
 70
   128
 43
0.0
 10
6196.8269348145
 20
5735.4917330581
 10
6197.0090831123
 20
5735.6540980065
 10
6197.3463205293
 20
5735.7015414077
  0
LWPOLYLINE
  5
4E0
330
1F
100
AcDbEntity
  8
0
  6
Continuous
 62
     7
100
AcDbPolyline
 90
        3
 70
   128
 43
0.0
 10
6197.3457336426
 20
5735.7015414077
 10
6197.6300414285
 20
5735.6683759104
 10
6197.8089345291
 20
5735.6091542083
  0
LWPOLYLINE
  5
4E1
330
1F
100
AcDbEntity
  8
0
  6
Continuous
 62
     7
100
AcDbPolyline
 90
        3
 70
   128
 43
0.0
 10
6193.775177002
 20
5735.2899117309
 10
6194.10500796
 20
5735.038356341
 10
6194.6551335648
 20
5734.972099765
  0
LWPOLYLINE
  5
4E2
330
1F
100
AcDbEntity
  8
0
  6
Continuous
 62
     7
100
AcDbPolyline
 90
        3
 70
   128
 43
0.0
 10
6194.652557373
 20
5734.972099765
 10
6195.1161435921
 20
5735.016874516
 10
6195.3983289793
 20
5735.1124090988
  0
LWPOLYLINE
  5
4E3
330
1F
100
AcDbEntity
  8
0
  6
Continuous
 62
     7
100
AcDbPolyline
 90
        3
 70
   128
 43
0.0
 10
6193.5234069824
 20
5735.2810902435
 10
6193.9507584116
 20
5735.6127572306
 10
6194.6719644263
 20
5735.7015414077
  0
LWPOLYLINE
  5
4E4
330
1F
100
AcDbEntity
  8
0
  6
Continuous
 62
     7
100
AcDbPolyline
 90
        3
 70
   128
 43
0.0
 10
6194.6716308594
 20
5735.7015414077
 10
6195.2637687982
 20
5735.643985316
 10
6195.6086588696
 20
5735.5141444046
  0
LWPOLYLINE
  5
4E5
330
1F
100
AcDbEntity
  8
0
  6
Continuous
 62
     7
100
AcDbPolyline
 90
        3
 70
   128
 43
0.0
 10
6186.3288879395
 20
5735.7015414077
 10
6186.8044700676
 20
5735.6604119791
 10
6187.1077028707
 20
5735.5698151428
  0
LWPOLYLINE
  5
4E6
330
1F
100
AcDbEntity
  8
0
  6
Continuous
 62
     7
100
AcDbPolyline
 90
        3
 70
   128
 43
0.0
 10
6187.1070861816
 20
5735.5698151428
 10
6187.3347713568
 20
5735.4204517104
 10
6187.3881501749
 20
5735.2855009872
  0
LWPOLYLINE
  5
4E7
330
1F
100
AcDbEntity
  8
0
  6
Continuous
 62
     7
100
AcDbPolyline
 90
        3
 70
   128
 43
0.0
 10
6185.2684020996
 20
5735.2855009872
 10
6185.3585046298
 20
5735.4554504179
 10
6185.5506507352
 20
5735.569099887
  0
LWPOLYLINE
  5
4E8
330
1F
100
AcDbEntity
  8
0
  6
Continuous
 62
     7
100
AcDbPolyline
 90
        3
 70
   128
 43
0.0
 10
6185.546875
 20
5735.569099887
 10
6185.9527261359
 20
5735.6766376004
 10
6186.33029439
 20
5735.7015414077
  0
LWPOLYLINE
  5
4E9
330
1F
100
AcDbEntity
  8
0
  6
Continuous
 62
     7
100
AcDbPolyline
 90
        3
 70
   128
 43
0.0
 10
6185.5201721191
 20
5735.2849049408
 10
6185.8127868045
 20
5735.0413343094
 10
6186.3291768029
 20
5734.972099765
  0
LWPOLYLINE
  5
4EA
330
1F
100
AcDbEntity
  8
0
  6
Continuous
 62
     7
100
AcDbPolyline
 90
        3
 70
   128
 43
0.0
 10
6186.3288879395
 20
5734.972099765
 10
6186.9543404981
 20
5735.0839070904
 10
6187.1368644431
 20
5735.2849049408
  0
LWPOLYLINE
  5
4EB
330
1F
100
AcDbEntity
  8
0
  6
Continuous
 62
     7
100
AcDbPolyline
 90
        3
 70
   128
 43
0.0
 10
6189.9337768555
 20
5735.2855009872
 10
6190.0110210301
 20
5735.443354269
 10
6190.1724470451
 20
5735.5524105865
  0
LWPOLYLINE
  5
4EC
330
1F
100
AcDbEntity
  8
0
  6
Continuous
 62
     7
100
AcDbPolyline
 90
        3
 70
   128
 43
0.0
 10
6190.1702880859
 20
5735.5524105865
 10
6190.577585948
 20
5735.673712343
 10
6190.9722817734
 20
5735.7015414077
  0
LWPOLYLINE
  5
4ED
330
1F
100
AcDbEntity
  8
0
  6
Continuous
 62
     7
100
AcDbPolyline
 90
        3
 70
   128
 43
0.0
 10
6190.9713745117
 20
5735.7015414077
 10
6191.4857564428
 20
5735.6521183809
 10
6191.7962414816
 20
5735.5441851455
  0
LWPOLYLINE
  5
4EE
330
1F
100
AcDbEntity
  8
0
  6
Continuous
 62
     7
100
AcDbPolyline
 90
        3
 70
   128
 43
0.0
 10
6191.7953491211
 20
5735.5441851455
 10
6191.9785683502
 20
5735.3953443118
 10
6192.0189169839
 20
5735.2666659195
  0
LWPOLYLINE
  5
4EF
330
1F
100
AcDbEntity
  8
0
  6
Continuous
 62
     7
100
AcDbPolyline
 90
        3
 70
   128
 43
0.0
 10
6190.185546875
 20
5735.2666659195
 10
6190.4546246204
 20
5735.038185436
 10
6190.9347010449
 20
5734.972099765
  0
LWPOLYLINE
  5
4F0
330
1F
100
AcDbEntity
  8
0
  6
Continuous
 62
     7
100
AcDbPolyline
 90
        3
 70
   128
 43
0.0
 10
6190.9332275391
 20
5734.972099765
 10
6191.4181152816
 20
5735.025788463
 10
6191.6879919961
 20
5735.1404232818
  0
LWPOLYLINE
  5
4F1
330
1F
100
AcDbEntity
  8
0
  6
Continuous
 62
     7
100
AcDbPolyline
 90
        3
 70
   128
 43
0.0
 10
6180.7823181152
 20
5735.2855009872
 10
6180.8571708632
 20
5735.4433544813
 10
6181.0185966685
 20
5735.5524105865
  0
LWPOLYLINE
  5
4F2
330
1F
100
AcDbEntity
  8
0
  6
Continuous
 62
     7
100
AcDbPolyline
 90
        3
 70
   128
 43
0.0
 10
6181.0150146484
 20
5735.5524105865
 10
6181.4237406825
 20
5735.6737119683
 10
6181.8184388474
 20
5735.7015414077
  0
LWPOLYLINE
  5
4F3
330
1F
100
AcDbEntity
  8
0
  6
Continuous
 62
     7
100
AcDbPolyline
 90
        3
 70
   128
 43
0.0
 10
6181.8161010742
 20
5735.7015414077
 10
6182.3319113993
 20
5735.6521172066
 10
6182.6423985556
 20
5735.5441851455
  0
LWPOLYLINE
  5
4F4
330
1F
100
AcDbEntity
  8
0
  6
Continuous
 62
     7
100
AcDbPolyline
 90
        3
 70
   128
 43
0.0
 10
6182.6400756836
 20
5735.5441851455
 10
6182.8247184756
 20
5735.3953435944
 10
6182.8650740579
 20
5735.2666659195
  0
LWPOLYLINE
  5
4F5
330
1F
100
AcDbEntity
  8
0
  6
Continuous
 62
     7
100
AcDbPolyline
 90
        3
 70
   128
 43
0.0
 10
6181.0340881348
 20
5735.2666659195
 10
6181.3007811672
 20
5735.0381856089
 10
6181.7808581188
 20
5734.972099765
  0
LWPOLYLINE
  5
4F6
330
1F
100
AcDbEntity
  8
0
  6
Continuous
 62
     7
100
AcDbPolyline
 90
        3
 70
   128
 43
0.0
 10
6181.7779541016
 20
5734.972099765
 10
6182.2642700505
 20
5735.0257878382
 10
6182.5341416195
 20
5735.1404232818
  0
LWPOLYLINE
  5
4F7
330
1F
100
AcDbEntity
  8
0
  6
Continuous
 62
     7
100
AcDbPolyline
 90
        3
 70
   128
 43
0.0
 10
6183.5441589355
 20
5735.5698151428
 10
6183.7852863568
 20
5735.6704735281
 10
6184.046318908
 20
5735.7015414077
  0
LWPOLYLINE
  5
4F8
330
1F
100
AcDbEntity
  8
0
  6
Continuous
 62
     7
100
AcDbPolyline
 90
        3
 70
   128
 43
0.0
 10
6184.0438842773
 20
5735.7015414077
 10
6184.1403376626
 20
5735.6962419813
 10
6184.2082498267
 20
5735.6850905258
  0
LWPOLYLINE
  5
4F9
330
1F
100
AcDbEntity
  8
0
  6
Continuous
 62
     7
100
AcDbPolyline
 90
        3
 70
   128
 43
0.0
 10
6199.3751525879
 20
5735.3309197265
 10
6199.669197351
 20
5735.0873492308
 10
6200.1855877832
 20
5735.0181145507
  0
LWPOLYLINE
  5
4FA
330
1F
100
AcDbEntity
  8
0
  6
Continuous
 62
     7
100
AcDbPolyline
 90
        3
 70
   128
 43
0.0
 10
6200.1838684082
 20
5735.6493277389
 10
6199.561530515
 20
5735.5329299687
 10
6199.3778926924
 20
5735.3309197265
  0
LWPOLYLINE
  5
4FB
330
1F
100
AcDbEntity
  8
0
  6
Continuous
 62
     7
100
AcDbPolyline
 90
        3
 70
   128
 43
0.0
 10
6200.9925842285
 20
5735.3309197265
 10
6200.7005200734
 20
5735.5757311735
 10
6200.1855877832
 20
5735.6493277389
  0
LWPOLYLINE
  5
4FC
330
1F
100
AcDbEntity
  8
0
  6
Continuous
 62
     7
100
AcDbPolyline
 90
        3
 70
   128
 43
0.0
 10
6200.1838684082
 20
5735.0181145507
 10
6200.810751773
 20
5735.1299220192
 10
6200.9932754233
 20
5735.3309197265
  0
LWPOLYLINE
  5
4FD
330
1F
100
AcDbEntity
  8
0
  6
Continuous
 62
     7
100
AcDbPolyline
 90
        3
 70
   128
 43
0.0
 10
6185.5201721191
 20
5735.3309197265
 10
6185.8127863707
 20
5735.0873492308
 10
6186.3291768029
 20
5735.0181145507
  0
LWPOLYLINE
  5
4FE
330
1F
100
AcDbEntity
  8
0
  6
Continuous
 62
     7
100
AcDbPolyline
 90
        3
 70
   128
 43
0.0
 10
6186.3288879395
 20
5735.6493277389
 10
6185.7051195348
 20
5735.5329299687
 10
6185.5214817122
 20
5735.3309197265
  0
LWPOLYLINE
  5
4FF
330
1F
100
AcDbEntity
  8
0
  6
Continuous
 62
     7
100
AcDbPolyline
 90
        3
 70
   128
 43
0.0
 10
6187.1337890625
 20
5735.3309197265
 10
6186.8441101246
 20
5735.5757308292
 10
6186.3291768029
 20
5735.6493277389
  0
LWPOLYLINE
  5
500
330
1F
100
AcDbEntity
  8
0
  6
Continuous
 62
     7
100
AcDbPolyline
 90
        3
 70
   128
 43
0.0
 10
6186.3288879395
 20
5735.0181145507
 10
6186.9543407928
 20
5735.1299220192
 10
6187.1368644431
 20
5735.3309197265
  0
LWPOLYLINE
  5
501
330
1F
100
AcDbEntity
  8
0
  6
Continuous
 62
     7
100
AcDbPolyline
 90
        3
 70
   128
 43
0.0
 10
6190.9828186035
 20
5735.6493277389
 10
6190.671112408
 20
5735.626272809
 10
6190.4579383925
 20
5735.5743450958
  0
LWPOLYLINE
  5
502
330
1F
100
AcDbEntity
  8
0
  6
Continuous
 62
     7
100
AcDbPolyline
 90
        3
 70
   128
 43
0.0
 10
6191.764831543
 20
5735.4109091598
 10
6191.435098859
 20
5735.6001577909
 10
6190.985186179
 20
5735.6493277389
  0
LWPOLYLINE
  5
503
330
1F
100
AcDbEntity
  8
0
  6
Continuous
 62
     7
100
AcDbPolyline
 90
        3
 70
   128
 43
0.0
 10
6190.4563903809
 20
5735.5743450958
 10
6190.2927484604
 20
5735.4891465616
 10
6190.2145130232
 20
5735.4109091598
  0
LWPOLYLINE
  5
504
330
1F
100
AcDbEntity
  8
0
  6
Continuous
 62
     7
100
AcDbPolyline
 90
        3
 70
   128
 43
0.0
 10
6181.827545166
 20
5735.6493277389
 10
6181.5172652485
 20
5735.6262733307
 10
6181.3040954664
 20
5735.5743450958
  0
LWPOLYLINE
  5
505
330
1F
100
AcDbEntity
  8
0
  6
Continuous
 62
     7
100
AcDbPolyline
 90
        3
 70
   128
 43
0.0
 10
6182.6133728027
 20
5735.4109091598
 10
6182.2812491621
 20
5735.6001576217
 10
6181.8313358024
 20
5735.6493277389
  0
LWPOLYLINE
  5
506
330
1F
100
AcDbEntity
  8
0
  6
Continuous
 62
     7
100
AcDbPolyline
 90
        3
 70
   128
 43
0.0
 10
6181.3011169434
 20
5735.5743450958
 10
6181.1388990087
 20
5735.4891472377
 10
6181.0606626466
 20
5735.4109091598
  0
LWPOLYLINE
  5
507
330
1F
100
AcDbEntity
  8
0
  6
Continuous
 62
     7
100
AcDbPolyline
 90
        3
 70
   128
 43
0.0
 10
6184.6046447754
 20
5736.0241217453
 10
6184.7827334067
 20
5735.9946649906
 10
6184.8394332126
 20
5735.9394831497
  0
LWPOLYLINE
  5
508
330
1F
100
AcDbEntity
  8
0
  6
Continuous
 62
     7
100
AcDbPolyline
 90
        3
 70
   128
 43
0.0
 10
6184.3719482422
 20
5735.9394831497
 10
6184.4605436321
 20
5736.0056175432
 10
6184.6049783423
 20
5736.0241217453
  0
LWPOLYLINE
  5
509
330
1F
100
AcDbEntity
  8
0
  6
Continuous
 62
     7
100
AcDbPolyline
 90
        3
 70
   128
 43
0.0
 10
6209.0301513672
 20
4377.627161683
 10
6209.617154185
 20
4377.2892543132
 10
6210.0763117566
 20
4377.0237168087
  0
LWPOLYLINE
  5
50A
330
1F
100
AcDbEntity
  8
0
  6
Continuous
 62
     7
100
AcDbPolyline
 90
        3
 70
   128
 43
0.0
 10
6754.695892334
 20
4753.003819837
 10
6755.0348990431
 20
4753.5882278367
 10
6755.3004365476
 20
4754.0473854083
  0
LWPOLYLINE
  5
50B
330
1F
100
AcDbEntity
  8
0
  6
Continuous
 62
     7
100
AcDbPolyline
 90
        3
 70
   128
 43
0.0
 10
6756.649017334
 20
4753.003819837
 10
6756.9887467494
 20
4753.5882278367
 10
6757.2542842539
 20
4754.0473854083
  0
LWPOLYLINE
  5
50C
330
1F
100
AcDbEntity
  8
0
  6
Continuous
 62
     7
100
AcDbPolyline
 90
        3
 70
   128
 43
0.0
 10
6758.602142334
 20
4753.003819837
 10
6758.9425944557
 20
4753.5882278367
 10
6759.2081319602
 20
4754.0473854083
  0
LWPOLYLINE
  5
50D
330
1F
100
AcDbEntity
  8
0
  6
Continuous
 62
     7
100
AcDbPolyline
 90
        3
 70
   128
 43
0.0
 10
6760.555267334
 20
4753.003819837
 10
6760.8964401884
 20
4753.5882246696
 10
6761.161972216
 20
4754.0473854083
  0
LWPOLYLINE
  5
50E
330
1F
100
AcDbEntity
  8
0
  6
Continuous
 62
     7
100
AcDbPolyline
 90
        3
 70
   128
 43
0.0
 10
6754.3296813965
 20
4771.9165934164
 10
6753.9895563479
 20
4772.5097645777
 10
6753.7200715454
 20
4772.9758499104
  0
LWPOLYLINE
  5
50F
330
1F
100
AcDbEntity
  8
0
  6
Continuous
 62
     7
100
AcDbPolyline
 90
        3
 70
   128
 43
0.0
 10
6756.2828063965
 20
4771.9165934164
 10
6755.9434026157
 20
4772.5097661583
 10
6755.6739118012
 20
4772.9758499104
  0
LWPOLYLINE
  5
510
330
1F
100
AcDbEntity
  8
0
  6
Continuous
 62
     7
100
AcDbPolyline
 90
        3
 70
   128
 43
0.0
 10
6758.2397460938
 20
4771.9165934164
 10
6757.8972497777
 20
4772.5097677394
 10
6757.6277595075
 20
4772.9758499104
  0
LWPOLYLINE
  5
511
330
1F
100
AcDbEntity
  8
0
  6
Continuous
 62
     7
100
AcDbPolyline
 90
        3
 70
   128
 43
0.0
 10
6760.1928710938
 20
4771.9165934164
 10
6759.8510920163
 20
4772.5097645777
 10
6759.5816072138
 20
4772.9758499104
  0
LWPOLYLINE
  5
512
330
1F
100
AcDbEntity
  8
0
  6
Continuous
 62
     7
100
AcDbPolyline
 90
        3
 70
   128
 43
0.0
 10
6752.742767334
 20
4753.003819837
 10
6753.0861381796
 20
4753.5970118733
 10
6753.3556636484
 20
4754.0630763311
  0
LWPOLYLINE
  5
513
330
1F
100
AcDbEntity
  8
0
  6
Continuous
 62
     7
100
AcDbPolyline
 90
        3
 70
   128
 43
0.0
 10
6755.7106018066
 20
4754.2619435031
 10
6756.0545707309
 20
4753.6809030603
 10
6756.3235800775
 20
4753.2241335053
  0
LWPOLYLINE
  5
514
330
1F
100
AcDbEntity
  8
0
  6
Continuous
 62
     7
100
AcDbPolyline
 90
        3
 70
   128
 43
0.0
 10
6757.6637268066
 20
4754.2619435031
 10
6758.0084184372
 20
4753.6809030603
 10
6758.2774277838
 20
4753.2241335053
  0
LWPOLYLINE
  5
515
330
1F
100
AcDbEntity
  8
0
  6
Continuous
 62
     7
100
AcDbPolyline
 90
        3
 70
   128
 43
0.0
 10
6759.6168518066
 20
4754.2619435031
 10
6759.9622661435
 20
4753.6809030603
 10
6760.2312754901
 20
4753.2241335053
  0
LWPOLYLINE
  5
516
330
1F
100
AcDbEntity
  8
0
  6
Continuous
 62
     7
100
AcDbPolyline
 90
        3
 70
   128
 43
0.0
 10
6761.5699768066
 20
4754.2619435031
 10
6761.9161133062
 20
4753.680904611
 10
6762.1851231964
 20
4753.2241335053
  0
LWPOLYLINE
  5
517
330
1F
100
AcDbEntity
  8
0
  6
Continuous
 62
     7
100
AcDbPolyline
 90
        3
 70
   128
 43
0.0
 10
6755.3939819336
 20
4772.9761106807
 10
6755.0548028038
 20
4772.3829585356
 10
6754.7852959545
 20
4771.9169286925
  0
LWPOLYLINE
  5
518
330
1F
100
AcDbEntity
  8
0
  6
Continuous
 62
     7
100
AcDbPolyline
 90
        3
 70
   128
 43
0.0
 10
6757.3509216309
 20
4772.9761106807
 10
6757.0086505101
 20
4772.3829585356
 10
6756.7391436608
 20
4771.9169286925
  0
LWPOLYLINE
  5
519
330
1F
100
AcDbEntity
  8
0
  6
Continuous
 62
     7
100
AcDbPolyline
 90
        3
 70
   128
 43
0.0
 10
6759.3040466309
 20
4772.9761106807
 10
6758.9624962337
 20
4772.3829553738
 10
6758.6929839166
 20
4771.9169286925
  0
LWPOLYLINE
  5
51A
330
1F
100
AcDbEntity
  8
0
  6
Continuous
 62
     7
100
AcDbPolyline
 90
        3
 70
   128
 43
0.0
 10
6761.2571716309
 20
4772.9761106807
 10
6760.91634394
 20
4772.3829553738
 10
6760.6468316229
 20
4771.9169286925
  0
LWPOLYLINE
  5
51B
330
1F
100
AcDbEntity
  8
0
  6
Continuous
 62
     7
100
AcDbPolyline
 90
        3
 70
   128
 43
0.0
 10
6753.4408569336
 20
4772.9761106807
 10
6753.1009605653
 20
4772.3829553738
 10
6752.8314482482
 20
4771.9169286925
  0
LWPOLYLINE
  5
51C
330
1F
100
AcDbEntity
  8
0
  6
Continuous
 62
     7
100
AcDbPolyline
 90
        3
 70
   128
 43
0.0
 10
6753.7574768066
 20
4754.2619435031
 10
6754.1007230246
 20
4753.6809030603
 10
6754.3697323712
 20
4753.2241335053
  0
LWPOLYLINE
  5
51D
330
1F
100
AcDbEntity
  8
0
  6
Continuous
 62
     7
100
AcDbPolyline
 90
        3
 70
   128
 43
0.0
 10
6856.8954467773
 20
5659.6888108093
 10
6856.74658361
 20
5659.4286668288
 10
6856.6285114797
 20
5659.2242522079
  0
LWPOLYLINE
  5
51E
330
1F
100
AcDbEntity
  8
0
  6
Continuous
 62
     7
100
AcDbPolyline
 90
        5
 70
   128
 43
0.0
 10
6765.5410766602
 20
4692.9898337608
 10
6765.6239802247
 20
4693.0206742129
 10
6765.7021922838
 20
4693.1116264683
 10
6765.82686574
 20
4693.4584628705
 10
6765.8536847742
 20
4694.5898337204
  0
LWPOLYLINE
  5
51F
330
1F
100
AcDbEntity
  8
0
  6
Continuous
 62
     7
100
AcDbPolyline
 90
        4
 70
   128
 43
0.0
 10
6765.5410766602
 20
4693.7898337406
 10
6765.562945619
 20
4693.8056193675
 10
6765.5824538121
 20
4693.8514549737
 10
6765.5410963825
 20
4694.5898337204
  0
LWPOLYLINE
  5
520
330
1F
100
AcDbEntity
  8
0
  6
Continuous
 62
     7
100
AcDbPolyline
 90
        3
 70
   128
 43
0.0
 10
6855.6518554688
 20
4694.5898337204
 10
6855.1540454909
 20
4693.3570556645
 10
6854.5410962837
 20
4692.9898337608
  0
LWPOLYLINE
  5
521
330
1F
100
AcDbEntity
  8
0
  6
Continuous
 62
     7
100
AcDbPolyline
 90
        3
 70
   128
 43
0.0
 10
6855.0262451172
 20
4692.9898337608
 10
6856.2612895356
 20
4693.5699854498
 10
6856.6285114797
 20
4694.5898337204
  0
LWPOLYLINE
  5
522
330
1F
100
AcDbEntity
  8
0
  6
Continuous
 62
     7
100
AcDbPolyline
 90
        3
 70
   128
 43
0.0
 10
6855.4611206055
 20
4693.937367751
 10
6855.7562480801
 20
4694.2541660881
 10
6855.8285114999
 20
4694.5898337204
  0
LWPOLYLINE
  5
523
330
1F
100
AcDbEntity
  8
0
  6
Continuous
 62
     7
100
AcDbPolyline
 90
        3
 70
   128
 43
0.0
 10
6209.0301513672
 20
4375.6733139767
 10
6209.617154185
 20
4375.3354066069
 10
6210.0763117566
 20
4375.0698691024
  0
LWPOLYLINE
  5
524
330
1F
100
AcDbEntity
  8
0
  6
Continuous
 62
     7
100
AcDbPolyline
 90
        3
 70
   128
 43
0.0
 10
6209.0301513672
 20
4373.7194662704
 10
6209.617154185
 20
4373.3815589006
 10
6210.0763117566
 20
4373.1160213961
  0
LWPOLYLINE
  5
525
330
1F
100
AcDbEntity
  8
0
  6
Continuous
 62
     7
100
AcDbPolyline
 90
        3
 70
   128
 43
0.0
 10
6209.0301513672
 20
4371.7656260146
 10
6209.6171510179
 20
4371.4277131679
 10
6210.0763117566
 20
4371.1621811403
  0
LWPOLYLINE
  5
526
330
1F
100
AcDbEntity
  8
0
  6
Continuous
 62
     7
100
AcDbPolyline
 90
        3
 70
   128
 43
0.0
 10
6227.9434204102
 20
4377.9915621294
 10
6228.538690926
 20
4378.3345970084
 10
6229.0047762587
 20
4378.6040818109
  0
LWPOLYLINE
  5
527
330
1F
100
AcDbEntity
  8
0
  6
Continuous
 62
     7
100
AcDbPolyline
 90
        3
 70
   128
 43
0.0
 10
6227.9434204102
 20
4376.0377144231
 10
6228.5386925066
 20
4376.3807507406
 10
6229.0047762587
 20
4376.6502415551
  0
LWPOLYLINE
  5
528
330
1F
100
AcDbEntity
  8
0
  6
Continuous
 62
     7
100
AcDbPolyline
 90
        3
 70
   128
 43
0.0
 10
6227.9434204102
 20
4374.0838741674
 10
6228.5386940877
 20
4374.4269035786
 10
6229.0047762587
 20
4374.6963938488
  0
LWPOLYLINE
  5
529
330
1F
100
AcDbEntity
  8
0
  6
Continuous
 62
     7
100
AcDbPolyline
 90
        3
 70
   128
 43
0.0
 10
6227.9434204102
 20
4372.130026461
 10
6228.538690926
 20
4372.47306134
 10
6229.0047762587
 20
4372.7425461425
  0
LWPOLYLINE
  5
52A
330
1F
100
AcDbEntity
  8
0
  6
Continuous
 62
     7
100
AcDbPolyline
 90
        3
 70
   128
 43
0.0
 10
6209.0301513672
 20
4379.5810093893
 10
6209.6259382216
 20
4379.2380151767
 10
6210.0920026794
 20
4378.9684897079
  0
LWPOLYLINE
  5
52B
330
1F
100
AcDbEntity
  8
0
  6
Continuous
 62
     7
100
AcDbPolyline
 90
        3
 70
   128
 43
0.0
 10
6210.2890014648
 20
4376.6119679226
 10
6209.7098294086
 20
4376.2695826254
 10
6209.2530598536
 20
4376.0005732788
  0
LWPOLYLINE
  5
52C
330
1F
100
AcDbEntity
  8
0
  6
Continuous
 62
     7
100
AcDbPolyline
 90
        3
 70
   128
 43
0.0
 10
6210.2890014648
 20
4374.6581202163
 10
6209.7098294086
 20
4374.3157349191
 10
6209.2530598536
 20
4374.0467255725
  0
LWPOLYLINE
  5
52D
330
1F
100
AcDbEntity
  8
0
  6
Continuous
 62
     7
100
AcDbPolyline
 90
        3
 70
   128
 43
0.0
 10
6210.2890014648
 20
4372.70427251
 10
6209.7098294086
 20
4372.3618872128
 10
6209.2530598536
 20
4372.0928778662
  0
LWPOLYLINE
  5
52E
330
1F
100
AcDbEntity
  8
0
  6
Continuous
 62
     7
100
AcDbPolyline
 90
        3
 70
   128
 43
0.0
 10
6210.2890014648
 20
4370.7504322542
 10
6209.7098309593
 20
4370.4080400501
 10
6209.2530598536
 20
4370.1390301599
  0
LWPOLYLINE
  5
52F
330
1F
100
AcDbEntity
  8
0
  6
Continuous
 62
     7
100
AcDbPolyline
 90
        3
 70
   128
 43
0.0
 10
6229.00390625
 20
4376.9263824238
 10
6228.4118848839
 20
4377.2693505525
 10
6227.9458550408
 20
4377.5388574018
  0
LWPOLYLINE
  5
530
330
1F
100
AcDbEntity
  8
0
  6
Continuous
 62
     7
100
AcDbPolyline
 90
        3
 70
   128
 43
0.0
 10
6229.00390625
 20
4374.9725347175
 10
6228.4118848839
 20
4375.3155028462
 10
6227.9458550408
 20
4375.5850096955
  0
LWPOLYLINE
  5
531
330
1F
100
AcDbEntity
  8
0
  6
Continuous
 62
     7
100
AcDbPolyline
 90
        3
 70
   128
 43
0.0
 10
6229.00390625
 20
4373.0186944617
 10
6228.4118817221
 20
4373.3616571226
 10
6227.9458550408
 20
4373.6311694397
  0
LWPOLYLINE
  5
532
330
1F
100
AcDbEntity
  8
0
  6
Continuous
 62
     7
100
AcDbPolyline
 90
        3
 70
   128
 43
0.0
 10
6229.00390625
 20
4371.0648467554
 10
6228.4118817221
 20
4371.4078094163
 10
6227.9458550408
 20
4371.6773217334
  0
LWPOLYLINE
  5
533
330
1F
100
AcDbEntity
  8
0
  6
Continuous
 62
     7
100
AcDbPolyline
 90
        3
 70
   128
 43
0.0
 10
6229.00390625
 20
4378.8802301301
 10
6228.4118817221
 20
4379.223192791
 10
6227.9458550408
 20
4379.4927051081
  0
LWPOLYLINE
  5
534
330
1F
100
AcDbEntity
  8
0
  6
Continuous
 62
     7
100
AcDbPolyline
 90
        3
 70
   128
 43
0.0
 10
6210.2890014648
 20
4378.5658156289
 10
6209.7098294086
 20
4378.2234303317
 10
6209.2530598536
 20
4377.9544209851
  0
LWPOLYLINE
  5
535
330
1F
100
AcDbEntity
  8
0
  6
Continuous
 62
     7
100
AcDbPolyline
 90
        8
 70
   128
 43
0.0
 10
6209.1255187988
 20
4379.5801376714
 10
6209.1173878605
 20
4379.5870124685
 10
6209.1144113119
 20
4379.5904579834
 10
6209.1141553077
 20
4379.5939132377
 10
6209.1196133184
 20
4379.5985410052
 10
6209.8227170816
 20
4379.6556817998
 10
6218.7745842356
 20
4379.884611166
 10
6228.3411977484
 20
4380.1993926777
  0
LWPOLYLINE
  5
536
330
1F
100
AcDbEntity
  8
0
  6
Continuous
 62
     7
100
AcDbPolyline
 90
        8
 70
   128
 43
0.0
 10
6227.8213500977
 20
4379.9449777021
 10
6227.8228050558
 20
4379.9302218452
 10
6227.810239899
 20
4379.915422762
 10
6227.1152522928
 20
4379.824865515
 10
6218.7519260026
 20
4379.4657950515
 10
6210.70807302
 20
4379.1060065993
 10
6210.2702882586
 20
4379.0459452255
 10
6210.1667916074
 20
4378.9866169705
  0
LWPOLYLINE
  5
537
330
1F
100
AcDbEntity
  8
0
  6
Continuous
 62
     7
100
AcDbPolyline
 90
        8
 70
   128
 43
0.0
 10
6227.8213500977
 20
4377.9911374463
 10
6227.8228050625
 20
4377.9763788134
 10
6227.8102399149
 20
4377.9615772086
 10
6227.1152523965
 20
4377.8710166217
 10
6218.7519258841
 20
4377.5119544192
 10
6210.7080730342
 20
4377.1521588385
 10
6210.2702882603
 20
4377.0920975327
 10
6210.1667916074
 20
4377.0327692641
  0
LWPOLYLINE
  5
538
330
1F
100
AcDbEntity
  8
0
  6
Continuous
 62
     7
100
AcDbPolyline
 90
        8
 70
   128
 43
0.0
 10
6227.8213500977
 20
4376.03728974
 10
6227.8228050607
 20
4376.0225311762
 10
6227.810239913
 20
4376.0077295917
 10
6227.1152524354
 20
4375.917167996
 10
6218.7519259808
 20
4375.5581077658
 10
6210.7080731332
 20
4375.1983096703
 10
6210.2702882897
 20
4375.1382511977
 10
6210.1667916074
 20
4375.0789290084
  0
LWPOLYLINE
  5
539
330
1F
100
AcDbEntity
  8
0
  6
Continuous
 62
     7
100
AcDbPolyline
 90
        8
 70
   128
 43
0.0
 10
6227.8213500977
 20
4374.0834420337
 10
6227.8228050613
 20
4374.0686834513
 10
6227.8102399138
 20
4374.0538818614
 10
6227.1152524275
 20
4373.963320538
 10
6218.7519260044
 20
4373.6042593349
 10
6210.7080730877
 20
4373.2444675879
 10
6210.2702882448
 20
4373.1844102328
 10
6210.1667916074
 20
4373.1250813021
  0
LWPOLYLINE
  5
53A
330
1F
100
AcDbEntity
  8
0
  6
Continuous
 62
     7
100
AcDbPolyline
 90
        8
 70
   128
 43
0.0
 10
6227.8213500977
 20
4372.1295943274
 10
6227.8228050507
 20
4372.1148387297
 10
6227.8102398924
 20
4372.1000397224
 10
6227.1152524101
 20
4372.0094760834
 10
6218.7519260041
 20
4371.6504117285
 10
6210.7080730203
 20
4371.2906232236
 10
6210.2702882586
 20
4371.2305618511
 10
6210.1667916074
 20
4371.1712335958
  0
LWPOLYLINE
  5
53B
330
1F
100
AcDbEntity
  8
0
  6
Continuous
 62
     7
100
AcDbPolyline
 90
        8
 70
   128
 43
0.0
 10
6228.8856506348
 20
4378.6031430377
 10
6218.7484410437
 20
4378.1229449271
 10
6209.7275694626
 20
4377.7634169645
 10
6209.165999885
 20
4377.6951040186
 10
6209.1400409912
 20
4377.6839062128
 10
6209.1304826506
 20
4377.6727701051
 10
6209.1355192677
 20
4377.657988853
 10
6209.1511582627
 20
4377.6432474865
  0
LWPOLYLINE
  5
53C
330
1F
100
AcDbEntity
  8
0
  6
Continuous
 62
     7
100
AcDbPolyline
 90
        8
 70
   128
 43
0.0
 10
6228.8856506348
 20
4376.6492953314
 10
6218.7484410427
 20
4376.1690972688
 10
6209.7275694625
 20
4375.8095692596
 10
6209.165999885
 20
4375.7412563123
 10
6209.1400409912
 20
4375.7300585063
 10
6209.1304826506
 20
4375.7189223986
 10
6209.1355192677
 20
4375.7041411465
 10
6209.1511582627
 20
4375.6893997802
  0
LWPOLYLINE
  5
53D
330
1F
100
AcDbEntity
  8
0
  6
Continuous
 62
     7
100
AcDbPolyline
 90
        8
 70
   128
 43
0.0
 10
6228.8856506348
 20
4374.6954476251
 10
6218.7484407934
 20
4374.2152574973
 10
6209.7275693752
 20
4373.8557269886
 10
6209.1659998866
 20
4373.7874085085
 10
6209.1400409975
 20
4373.7762104093
 10
6209.130482658
 20
4373.7650742345
 10
6209.1355192726
 20
4373.7502931382
 10
6209.1511582627
 20
4373.7355520739
  0
LWPOLYLINE
  5
53E
330
1F
100
AcDbEntity
  8
0
  6
Continuous
 62
     7
100
AcDbPolyline
 90
        8
 70
   128
 43
0.0
 10
6228.8856506348
 20
4372.7415999188
 10
6218.748440796
 20
4372.2614098028
 10
6209.7275693592
 20
4371.9018830779
 10
6209.1659998621
 20
4371.8335681148
 10
6209.1400409784
 20
4371.8223690732
 10
6209.1304826442
 20
4371.8112315063
 10
6209.1355192658
 20
4371.7964480663
 10
6209.1511582627
 20
4371.7817043676
  0
LWPOLYLINE
  5
53F
330
1F
100
AcDbEntity
  8
0
  6
Continuous
 62
     7
100
AcDbPolyline
 90
        8
 70
   128
 43
0.0
 10
6228.8856506348
 20
4378.8641964807
 10
6228.8939820334
 20
4378.8491750032
 10
6228.8902459134
 20
4378.8341247987
 10
6228.2858271553
 20
4378.7421776686
 10
6219.0183222453
 20
4378.3760110911
 10
6209.7544212538
 20
4378.0093732041
 10
6209.2409870887
 20
4377.9481427298
 10
6209.1201899245
 20
4377.8876712336
  0
LWPOLYLINE
  5
540
330
1F
100
AcDbEntity
  8
0
  6
Continuous
 62
     7
100
AcDbPolyline
 90
        8
 70
   128
 43
0.0
 10
6228.8856506348
 20
4376.9103562249
 10
6228.8939820299
 20
4376.8953349931
 10
6228.8902459074
 20
4376.8802849471
 10
6228.2858272014
 20
4376.7883336253
 10
6219.0183223707
 20
4376.4221630656
 10
6209.7544211999
 20
4376.0555290857
 10
6209.2409871026
 20
4375.9942943711
 10
6209.1201899245
 20
4375.9338235273
  0
LWPOLYLINE
  5
541
330
1F
100
AcDbEntity
  8
0
  6
Continuous
 62
     7
100
AcDbPolyline
 90
        8
 70
   128
 43
0.0
 10
6228.8856506348
 20
4374.9565085186
 10
6228.8939820358
 20
4374.9414869428
 10
6228.8902459171
 20
4374.9264366749
 10
6228.2858271193
 20
4374.8344907247
 10
6219.018322369
 20
4374.4683153329
 10
6209.7544211997
 20
4374.1016813805
 10
6209.2409871026
 20
4374.0404466645
 10
6209.1201899245
 20
4373.9799758209
  0
LWPOLYLINE
  5
542
330
1F
100
AcDbEntity
  8
0
  6
Continuous
 62
     7
100
AcDbPolyline
 90
        8
 70
   128
 43
0.0
 10
6228.8856506348
 20
4373.0026608123
 10
6228.8939820356
 20
4372.9876392431
 10
6228.8902459168
 20
4372.9725889795
 10
6228.2858271214
 20
4372.8806429493
 10
6219.0183221382
 20
4372.5144749987
 10
6209.7544212016
 20
4372.1478336156
 10
6209.2409871022
 20
4372.0865989707
 10
6209.1201899245
 20
4372.0261281146
  0
LWPOLYLINE
  5
543
330
1F
100
AcDbEntity
  8
0
  6
Continuous
 62
     7
100
AcDbPolyline
 90
        8
 70
   128
 43
0.0
 10
6228.8856506348
 20
4371.048813106
 10
6228.8939820334
 20
4371.0337916285
 10
6228.8902459134
 20
4371.018741424
 10
6228.2858271552
 20
4370.9267942942
 10
6219.0183222436
 20
4370.5606277253
 10
6209.7544212926
 20
4370.19398442
 10
6209.2409871295
 20
4370.132752535
 10
6209.1201899245
 20
4370.0722878589
  0
LWPOLYLINE
  5
544
330
1F
100
AcDbEntity
  8
0
  6
Continuous
 62
     7
100
AcDbPolyline
 90
        6
 70
   128
 43
0.0
 10
6227.8442382812
 20
4379.474853517
 10
6227.8476763666
 20
4379.4468940166
 10
6227.7392911915
 20
4379.4045498499
 10
6227.4001959084
 20
4379.3615098932
 10
6220.0013572405
 20
4379.0206793825
 10
6210.3237008348
 20
4378.5661360039
  0
LWPOLYLINE
  5
545
330
1F
100
AcDbEntity
  8
0
  6
Continuous
 62
     7
100
AcDbPolyline
 90
        6
 70
   128
 43
0.0
 10
6227.8442382812
 20
4377.5210058107
 10
6227.8476763767
 20
4377.4930457736
 10
6227.7392911851
 20
4377.4507024809
 10
6227.400195834
 20
4377.4076661211
 10
6220.0013570084
 20
4377.0668382994
 10
6210.3237008348
 20
4376.6122882976
  0
LWPOLYLINE
  5
546
330
1F
100
AcDbEntity
  8
0
  6
Continuous
 62
     7
100
AcDbPolyline
 90
        6
 70
   128
 43
0.0
 10
6227.8442382812
 20
4375.5671581043
 10
6227.8476763769
 20
4375.5391980674
 10
6227.7392911888
 20
4375.4968547754
 10
6227.4001958459
 20
4375.4538184169
 10
6220.0013571376
 20
4375.1129905432
 10
6210.3237008348
 20
4374.6584480418
  0
LWPOLYLINE
  5
547
330
1F
100
AcDbEntity
  8
0
  6
Continuous
 62
     7
100
AcDbPolyline
 90
        6
 70
   128
 43
0.0
 10
6227.8442382812
 20
4373.6133178486
 10
6227.8476763836
 20
4373.5853541402
 10
6227.7392912334
 20
4373.5430066052
 10
6227.4001959483
 20
4373.4999687067
 10
6220.0013573071
 20
4373.159141644
 10
6210.3237008348
 20
4372.7046003355
  0
LWPOLYLINE
  5
548
330
1F
100
AcDbEntity
  8
0
  6
Continuous
 62
     7
100
AcDbPolyline
 90
        6
 70
   128
 43
0.0
 10
6227.8442382812
 20
4371.6594701423
 10
6227.8476763849
 20
4371.6315063948
 10
6227.7392912327
 20
4371.5891589234
 10
6227.4001959409
 20
4371.5461212319
 10
6220.0013572374
 20
4371.2052961215
 10
6210.3237008348
 20
4370.7507526292
  0
LWPOLYLINE
  5
549
330
1F
100
AcDbEntity
  8
0
  6
Continuous
 62
     7
100
AcDbPolyline
 90
        8
 70
   128
 43
0.0
 10
6752.742767334
 20
4753.0989488501
 10
6752.7371408878
 20
4753.0884615122
 10
6752.7336953729
 20
4753.0854849636
 10
6752.7302401186
 20
4753.0852289594
 10
6752.7256123511
 20
4753.0906869701
 10
6752.6684715565
 20
4753.7937907333
 10
6752.4395421903
 20
4762.7456578873
 10
6752.1247606786
 20
4772.3122714001
  0
LWPOLYLINE
  5
54A
330
1F
100
AcDbEntity
  8
0
  6
Continuous
 62
     7
100
AcDbPolyline
 90
        8
 70
   128
 43
0.0
 10
6752.3765563965
 20
4771.7944336969
 10
6752.3939315111
 20
4771.7938787075
 10
6752.4087305943
 20
4771.7813135507
 10
6752.4992878413
 20
4771.0863259445
 10
6752.8583583048
 20
4762.7229996543
 10
6753.218146757
 20
4754.6791466717
 10
6753.2782081308
 20
4754.2413619103
 10
6753.3375363858
 20
4754.1378652591
  0
LWPOLYLINE
  5
54B
330
1F
100
AcDbEntity
  8
0
  6
Continuous
 62
     7
100
AcDbPolyline
 90
        8
 70
   128
 43
0.0
 10
6754.3296813965
 20
4771.7944336969
 10
6754.3477745429
 20
4771.7938787142
 10
6754.3625761477
 20
4771.7813135666
 10
6754.4531367346
 20
4771.0863260482
 10
6754.8121989371
 20
4762.7229995358
 10
6755.1719945178
 20
4754.6791466859
 10
6755.2320558236
 20
4754.241361912
 10
6755.2913840922
 20
4754.1378652591
  0
LWPOLYLINE
  5
54C
330
1F
100
AcDbEntity
  8
0
  6
Continuous
 62
     7
100
AcDbPolyline
 90
        8
 70
   128
 43
0.0
 10
6756.2866210938
 20
4771.7944336969
 10
6756.3016221801
 20
4771.7938787124
 10
6756.3164237646
 20
4771.7813135647
 10
6756.4069853603
 20
4771.0863260871
 10
6756.7660455905
 20
4762.7229996325
 10
6757.125843686
 20
4754.6791467849
 10
6757.1859021586
 20
4754.2413619414
 10
6757.2452243479
 20
4754.1378652591
  0
LWPOLYLINE
  5
54D
330
1F
100
AcDbEntity
  8
0
  6
Continuous
 62
     7
100
AcDbPolyline
 90
        8
 70
   128
 43
0.0
 10
6758.2397460938
 20
4771.7944336969
 10
6758.255469905
 20
4771.793878713
 10
6758.2702714949
 20
4771.7813135655
 10
6758.3608328183
 20
4771.0863260792
 10
6758.7198940214
 20
4762.7229996561
 10
6759.0796857684
 20
4754.6791467394
 10
6759.1397431235
 20
4754.2413618965
 10
6759.1990720542
 20
4754.1378652591
  0
LWPOLYLINE
  5
54E
330
1F
100
AcDbEntity
  8
0
  6
Continuous
 62
     7
100
AcDbPolyline
 90
        8
 70
   128
 43
0.0
 10
6760.1928710938
 20
4771.7944336969
 10
6760.2093146266
 20
4771.7938787024
 10
6760.2241136339
 20
4771.7813135441
 10
6760.3146772729
 20
4771.0863260618
 10
6760.6737416278
 20
4762.7229996558
 10
6761.0335301327
 20
4754.679146672
 10
6761.0935915052
 20
4754.2413619103
 10
6761.1529197605
 20
4754.1378652591
  0
LWPOLYLINE
  5
54F
330
1F
100
AcDbEntity
  8
0
  6
Continuous
 62
     7
100
AcDbPolyline
 90
        8
 70
   128
 43
0.0
 10
6753.719329834
 20
4772.8601945478
 10
6754.2012084292
 20
4762.7195146954
 10
6754.5607363918
 20
4753.6986431143
 10
6754.6290493377
 20
4753.1370735367
 10
6754.6402471435
 20
4753.1111146429
 10
6754.6513832512
 20
4753.1015563023
 10
6754.6661645033
 20
4753.1065929194
 10
6754.6809058698
 20
4753.1222319144
  0
LWPOLYLINE
  5
550
330
1F
100
AcDbEntity
  8
0
  6
Continuous
 62
     7
100
AcDbPolyline
 90
        8
 70
   128
 43
0.0
 10
6755.672454834
 20
4772.8601945478
 10
6756.1550560875
 20
4762.7195146944
 10
6756.5145840967
 20
4753.6986431142
 10
6756.582897044
 20
4753.1370735367
 10
6756.59409485
 20
4753.1111146429
 10
6756.6052309577
 20
4753.1015563023
 10
6756.6200122098
 20
4753.1065929194
 10
6756.6347535761
 20
4753.1222319144
  0
LWPOLYLINE
  5
551
330
1F
100
AcDbEntity
  8
0
  6
Continuous
 62
     7
100
AcDbPolyline
 90
        8
 70
   128
 43
0.0
 10
6757.625579834
 20
4772.8601945478
 10
6758.108895859
 20
4762.7195144451
 10
6758.4684263677
 20
4753.6986430269
 10
6758.5367448478
 20
4753.1370735383
 10
6758.547942947
 20
4753.1111146492
 10
6758.5590791218
 20
4753.1015563097
 10
6758.5738602181
 20
4753.1065929243
 10
6758.5886012824
 20
4753.1222319144
  0
LWPOLYLINE
  5
552
330
1F
100
AcDbEntity
  8
0
  6
Continuous
 62
     7
100
AcDbPolyline
 90
        8
 70
   128
 43
0.0
 10
6759.5825195312
 20
4772.8601945478
 10
6760.0627435535
 20
4762.7195144477
 10
6760.4222702784
 20
4753.6986430109
 10
6760.4905852415
 20
4753.1370735138
 10
6760.5017842831
 20
4753.1111146301
 10
6760.51292185
 20
4753.1015562959
 10
6760.52770529
 20
4753.1065929175
 10
6760.5424489887
 20
4753.1222319144
  0
LWPOLYLINE
  5
553
330
1F
100
AcDbEntity
  8
0
  6
Continuous
 62
     7
100
AcDbPolyline
 90
        8
 70
   128
 43
0.0
 10
6753.4599304199
 20
4772.8598443705
 10
6753.4749783531
 20
4772.8650556851
 10
6753.4900285576
 20
4772.8613195651
 10
6753.5819756877
 20
4772.256900807
 10
6753.9481422652
 20
4762.989395897
 10
6754.3147801522
 20
4753.7254949055
 10
6754.3760106265
 20
4753.2120607404
 10
6754.4364821227
 20
4753.0912635762
  0
LWPOLYLINE
  5
554
330
1F
100
AcDbEntity
  8
0
  6
Continuous
 62
     7
100
AcDbPolyline
 90
        8
 70
   128
 43
0.0
 10
6755.4130554199
 20
4772.8598443705
 10
6755.4288183632
 20
4772.8650556816
 10
6755.4438684092
 20
4772.8613195591
 10
6755.535819731
 20
4772.2569008531
 10
6755.9019902907
 20
4762.9893960224
 10
6756.2686242706
 20
4753.7254948516
 10
6756.3298589852
 20
4753.2120607543
 10
6756.390329829
 20
4753.0912635762
  0
LWPOLYLINE
  5
555
330
1F
100
AcDbEntity
  8
0
  6
Continuous
 62
     7
100
AcDbPolyline
 90
        8
 70
   128
 43
0.0
 10
6757.3661804199
 20
4772.8598443705
 10
6757.3826664135
 20
4772.8650556875
 10
6757.3977166814
 20
4772.8613195688
 10
6757.4896626316
 20
4772.256900771
 10
6757.8558380234
 20
4762.9893960207
 10
6758.2224719758
 20
4753.7254948514
 10
6758.2837066918
 20
4753.2120607543
 10
6758.3441775354
 20
4753.0912635762
  0
LWPOLYLINE
  5
556
330
1F
100
AcDbEntity
  8
0
  6
Continuous
 62
     7
100
AcDbPolyline
 90
        8
 70
   128
 43
0.0
 10
6759.3193054199
 20
4772.8598443705
 10
6759.3365141132
 20
4772.8650556873
 10
6759.3515643768
 20
4772.8613195685
 10
6759.443510407
 20
4772.2569007731
 10
6759.8096783576
 20
4762.9893957899
 10
6760.1763197407
 20
4753.7254948533
 10
6760.2375543856
 20
4753.2120607539
 10
6760.2980252417
 20
4753.0912635762
  0
LWPOLYLINE
  5
557
330
1F
100
AcDbEntity
  8
0
  6
Continuous
 62
     7
100
AcDbPolyline
 90
        8
 70
   128
 43
0.0
 10
6761.2724304199
 20
4772.8598443705
 10
6761.2903617278
 20
4772.8650556851
 10
6761.3054119323
 20
4772.8613195651
 10
6761.3973590621
 20
4772.2569008069
 10
6761.763525631
 20
4762.9893958953
 10
6762.1301689363
 20
4753.7254949443
 10
6762.1914008213
 20
4753.2120607812
 10
6762.2518654974
 20
4753.0912635762
  0
ARC
  5
558
330
1F
100
AcDbEntity
  8
0
  6
Continuous
 62
     7
100
AcDbCircle
 10
6482.530593133
 20
4748.9576950816
 30
0.0
 40
271.2799293447482
100
AcDbArc
 50
1.1272925917
 51
4.8335571254
  0
LWPOLYLINE
  5
559
330
1F
100
AcDbEntity
  8
0
  6
Continuous
 62
     7
100
AcDbPolyline
 90
        6
 70
   128
 43
0.0
 10
6754.8027038574
 20
4771.8161372382
 10
6754.8311075827
 20
4771.8187500284
 10
6754.8734508754
 20
4771.7103648368
 10
6754.9164872352
 20
4771.3712694857
 10
6755.2573150569
 20
4763.9724306601
 10
6755.7118650587
 20
4754.2947744865
  0
LWPOLYLINE
  5
55A
330
1F
100
AcDbEntity
  8
0
  6
Continuous
 62
     7
100
AcDbPolyline
 90
        6
 70
   128
 43
0.0
 10
6756.7558288574
 20
4771.8161372382
 10
6756.7849552889
 20
4771.8187500286
 10
6756.8272985809
 20
4771.7103648405
 10
6756.8703349394
 20
4771.3712694976
 10
6757.2111628131
 20
4763.9724307893
 10
6757.6657053145
 20
4754.2947744865
  0
LWPOLYLINE
  5
55B
330
1F
100
AcDbEntity
  8
0
  6
Continuous
 62
     7
100
AcDbPolyline
 90
        6
 70
   128
 43
0.0
 10
6758.7089538574
 20
4771.8161372382
 10
6758.7387992161
 20
4771.8187500353
 10
6758.7811467511
 20
4771.7103648851
 10
6758.8241846496
 20
4771.3712696
 10
6759.1650117123
 20
4763.9724309588
 10
6759.6195530208
 20
4754.2947744865
  0
LWPOLYLINE
  5
55C
330
1F
100
AcDbEntity
  8
0
  6
Continuous
 62
     7
100
AcDbPolyline
 90
        6
 70
   128
 43
0.0
 10
6760.6620788574
 20
4771.8161372382
 10
6760.6926469615
 20
4771.8187500366
 10
6760.7349944329
 20
4771.7103648844
 10
6760.7780321244
 20
4771.3712695926
 10
6761.1188572348
 20
4763.9724308891
 10
6761.5734007271
 20
4754.2947744865
  0
LWPOLYLINE
  5
55D
330
1F
100
AcDbEntity
  8
0
  6
Continuous
 62
     7
100
AcDbPolyline
 90
        3
 70
   128
 43
0.0
 10
6344.7303771973
 20
4277.5691146418
 10
6345.0244448857
 20
4277.1937325736
 10
6345.0565601204
 20
4276.9830576764
  0
ARC
  5
55E
330
1F
100
AcDbEntity
  8
0
  6
Continuous
 62
     7
100
AcDbCircle
 10
6382.7381962092
 20
4367.6971227929
 30
0.0
 40
1.011387486424352
100
AcDbArc
 50
244.6585778841
 51
295.3414221132
  0
LWPOLYLINE
  5
55F
330
1F
100
AcDbEntity
  8
0
  6
Continuous
 62
     7
100
AcDbPolyline
 90
        3
 70
   128
 43
0.0
 10
6202.9800415039
 20
4276.9830576764
 10
6203.0565373153
 20
4277.2659226295
 10
6203.3066079791
 20
4277.5691146418
  0
ARC
  5
560
330
1F
100
AcDbEntity
  8
0
  6
Continuous
 62
     7
100
AcDbCircle
 10
6165.2963170999
 20
4367.7125683534
 30
0.0
 40
1.025503335778985
100
AcDbArc
 50
245.0117636046
 51
294.9882363979
  0
LWPOLYLINE
  5
561
330
1F
100
AcDbEntity
  8
0
  6
Continuous
 62
     7
100
AcDbPolyline
 90
        3
 70
   128
 43
0.0
 10
6200.1838684082
 20
4357.1164434566
 10
6199.3679284351
 20
4357.4645924126
 10
6199.1266144112
 20
4358.086069466
  0
LWPOLYLINE
  5
562
330
1F
100
AcDbEntity
  8
0
  6
Continuous
 62
     7
100
AcDbPolyline
 90
        3
 70
   128
 43
0.0
 10
6201.244354248
 20
4358.086069466
 10
6200.8629087198
 20
4357.3321434782
 10
6200.1867053702
 20
4357.1164434566
  0
LWPOLYLINE
  5
563
330
1F
100
AcDbEntity
  8
0
  6
Continuous
 62
     7
100
AcDbPolyline
 90
        3
 70
   128
 43
0.0
 10
6200.9620666504
 20
4358.7557201995
 10
6201.1911803539
 20
4358.4038680487
 10
6201.2445611551
 20
4358.086069466
  0
LWPOLYLINE
  5
564
330
1F
100
AcDbEntity
  8
0
  6
Continuous
 62
     7
100
AcDbPolyline
 90
        3
 70
   128
 43
0.0
 10
6200.1838684082
 20
4359.0660219802
 10
6200.6608810478
 20
4358.9691093563
 10
6200.9641138509
 20
4358.7557201995
  0
LWPOLYLINE
  5
565
330
1F
100
AcDbEntity
  8
0
  6
Continuous
 62
     7
100
AcDbPolyline
 90
        3
 70
   128
 43
0.0
 10
6199.405670166
 20
4358.7541704787
 10
6199.8091377003
 20
4359.0074540951
 10
6200.1867053702
 20
4359.0660219802
  0
LWPOLYLINE
  5
566
330
1F
100
AcDbEntity
  8
0
  6
Continuous
 62
     7
100
AcDbPolyline
 90
        3
 70
   128
 43
0.0
 10
6199.1233825684
 20
4358.086069466
 10
6199.2149143428
 20
4358.4863327864
 10
6199.4070617154
 20
4358.7541704787
  0
LWPOLYLINE
  5
567
330
1F
100
AcDbEntity
  8
0
  6
Continuous
 62
     7
100
AcDbPolyline
 90
        3
 70
   128
 43
0.0
 10
6186.3288879395
 20
4357.1164434566
 10
6185.5115174549
 20
4357.4645924126
 10
6185.2702034309
 20
4358.086069466
  0
LWPOLYLINE
  5
568
330
1F
100
AcDbEntity
  8
0
  6
Continuous
 62
     7
100
AcDbPolyline
 90
        3
 70
   128
 43
0.0
 10
6187.385559082
 20
4358.086069466
 10
6187.0064977396
 20
4357.3321434782
 10
6186.33029439
 20
4357.1164434566
  0
LWPOLYLINE
  5
569
330
1F
100
AcDbEntity
  8
0
  6
Continuous
 62
     7
100
AcDbPolyline
 90
        3
 70
   128
 43
0.0
 10
6187.1070861816
 20
4358.7557201995
 10
6187.3347693736
 20
4358.4038680487
 10
6187.3881501749
 20
4358.086069466
  0
LWPOLYLINE
  5
56A
330
1F
100
AcDbEntity
  8
0
  6
Continuous
 62
     7
100
AcDbPolyline
 90
        3
 70
   128
 43
0.0
 10
6186.3288879395
 20
4359.0660219802
 10
6186.8044700676
 20
4358.9691093563
 10
6187.1077028707
 20
4358.7557201995
  0
LWPOLYLINE
  5
56B
330
1F
100
AcDbEntity
  8
0
  6
Continuous
 62
     7
100
AcDbPolyline
 90
        3
 70
   128
 43
0.0
 10
6185.546875
 20
4358.7541704787
 10
6185.9527267201
 20
4359.0074540951
 10
6186.33029439
 20
4359.0660219802
  0
LWPOLYLINE
  5
56C
330
1F
100
AcDbEntity
  8
0
  6
Continuous
 62
     7
100
AcDbPolyline
 90
        3
 70
   128
 43
0.0
 10
6185.2684020996
 20
4358.086069466
 10
6185.3585033626
 20
4358.4863327864
 10
6185.5506507352
 20
4358.7541704787
  0
LWPOLYLINE
  5
56D
330
1F
100
AcDbEntity
  8
0
  6
Continuous
 62
     7
100
AcDbPolyline
 90
        3
 70
   128
 43
0.0
 10
6179.6913146973
 20
4358.6127063049
 10
6180.1767639331
 20
4358.2150101768
 10
6180.3522539928
 20
4357.7809309377
  0
LWPOLYLINE
  5
56E
330
1F
100
AcDbEntity
  8
0
  6
Continuous
 62
     7
100
AcDbPolyline
 90
        3
 70
   128
 43
0.0
 10
6179.313659668
 20
4358.8693117513
 10
6179.5248817513
 20
4358.7229324997
 10
6179.6926391914
 20
4358.6127063049
  0
LWPOLYLINE
  5
56F
330
1F
100
AcDbEntity
  8
0
  6
Continuous
 62
     7
100
AcDbPolyline
 90
        3
 70
   128
 43
0.0
 10
6179.1305541992
 20
4359.2023303522
 10
6179.19665415
 20
4358.9977037682
 10
6179.3162731126
 20
4358.8693117513
  0
LWPOLYLINE
  5
570
330
1F
100
AcDbEntity
  8
0
  6
Continuous
 62
     7
100
AcDbPolyline
 90
        3
 70
   128
 43
0.0
 10
6179.5387268066
 20
4359.5286359801
 10
6179.2326104006
 20
4359.4221553387
 10
6179.1317371324
 20
4359.2023303522
  0
LWPOLYLINE
  5
571
330
1F
100
AcDbEntity
  8
0
  6
Continuous
 62
     7
100
AcDbPolyline
 90
        3
 70
   128
 43
0.0
 10
6180.0880432129
 20
4359.1982027306
 10
6179.825538648
 20
4359.4499631656
 10
6179.5423162773
 20
4359.5286359801
  0
LWPOLYLINE
  5
572
330
1F
100
AcDbEntity
  8
0
  6
Continuous
 62
     7
100
AcDbPolyline
 90
        3
 70
   128
 43
0.0
 10
6179.5692443848
 20
4359.7929900302
 10
6180.0468686853
 20
4359.6341935752
 10
6180.3163570955
 20
4359.3567063822
  0
LWPOLYLINE
  5
573
330
1F
100
AcDbEntity
  8
0
  6
Continuous
 62
     7
100
AcDbPolyline
 90
        3
 70
   128
 43
0.0
 10
6178.8787841797
 20
4359.1914897575
 10
6179.1347278016
 20
4359.6643207255
 10
6179.5703602627
 20
4359.7929900302
  0
LWPOLYLINE
  5
574
330
1F
100
AcDbEntity
  8
0
  6
Continuous
 62
     7
100
AcDbPolyline
 90
        3
 70
   128
 43
0.0
 10
6179.0351867676
 20
4358.7990900292
 10
6178.9123907801
 20
4359.0071343326
 10
6178.8804588512
 20
4359.1914897575
  0
LWPOLYLINE
  5
575
330
1F
100
AcDbEntity
  8
0
  6
Continuous
 62
     7
100
AcDbPolyline
 90
        3
 70
   128
 43
0.0
 10
6179.4929504395
 20
4358.4485178603
 10
6179.2286154414
 20
4358.6336423299
 10
6179.036950846
 20
4358.7990900292
  0
LWPOLYLINE
  5
576
330
1F
100
AcDbEntity
  8
0
  6
Continuous
 62
     7
100
AcDbPolyline
 90
        3
 70
   128
 43
0.0
 10
6180.0003051758
 20
4358.037536384
 10
6179.7323231549
 20
4358.2829345953
 10
6179.4957650497
 20
4358.4485178603
  0
LWPOLYLINE
  5
577
330
1F
100
AcDbEntity
  8
0
  6
Continuous
 62
     7
100
AcDbPolyline
 90
        3
 70
   128
 43
0.0
 10
6180.0994873047
 20
4357.7845444693
 10
6180.0664475989
 20
4357.9339367957
 10
6180.0005716875
 20
4358.037536384
  0
LWPOLYLINE
  5
578
330
1F
100
AcDbEntity
  8
0
  6
Continuous
 62
     7
100
AcDbPolyline
 90
        3
 70
   128
 43
0.0
 10
6179.5501708984
 20
4357.3477467312
 10
6179.9645169864
 20
4357.4920726168
 10
6180.1009682611
 20
4357.7845444693
  0
LWPOLYLINE
  5
579
330
1F
100
AcDbEntity
  8
0
  6
Continuous
 62
     7
100
AcDbPolyline
 90
        3
 70
   128
 43
0.0
 10
6178.9360046387
 20
4357.7773174061
 10
6179.2232147283
 20
4357.4558840082
 10
6179.552411814
 20
4357.3477467312
  0
LWPOLYLINE
  5
57A
330
1F
100
AcDbEntity
  8
0
  6
Continuous
 62
     7
100
AcDbPolyline
 90
        3
 70
   128
 43
0.0
 10
6179.5501708984
 20
4357.0834001316
 10
6178.9874230198
 20
4357.2861336482
 10
6178.700966914
 20
4357.6466938271
  0
LWPOLYLINE
  5
57B
330
1F
100
AcDbEntity
  8
0
  6
Continuous
 62
     7
100
AcDbPolyline
 90
        3
 70
   128
 43
0.0
 10
6180.3512573242
 20
4357.7809309377
 10
6180.0522275264
 20
4357.2375365937
 10
6179.552411814
 20
4357.0834001316
  0
LWPOLYLINE
  5
57C
330
1F
100
AcDbEntity
  8
0
  6
Continuous
 62
     7
100
AcDbPolyline
 90
        3
 70
   128
 43
0.0
 10
6182.6400756836
 20
4358.695310892
 10
6182.824720163
 20
4358.3447927221
 10
6182.8650740579
 20
4358.0416640057
  0
LWPOLYLINE
  5
57D
330
1F
100
AcDbEntity
  8
0
  6
Continuous
 62
     7
100
AcDbPolyline
 90
        3
 70
   128
 43
0.0
 10
6181.8161010742
 20
4359.0660219802
 10
6182.3319135523
 20
4358.9496254886
 10
6182.6423985556
 20
4358.695310892
  0
LWPOLYLINE
  5
57E
330
1F
100
AcDbEntity
  8
0
  6
Continuous
 62
     7
100
AcDbPolyline
 90
        3
 70
   128
 43
0.0
 10
6181.0150146484
 20
4358.7149357213
 10
6181.4237519395
 20
4359.000493707
 10
6181.8184388474
 20
4359.0660219802
  0
LWPOLYLINE
  5
57F
330
1F
100
AcDbEntity
  8
0
  6
Continuous
 62
     7
100
AcDbPolyline
 90
        3
 70
   128
 43
0.0
 10
6180.7823181152
 20
4358.086069466
 10
6180.8571789699
 20
4358.4577916829
 10
6181.0185966685
 20
4358.7149357213
  0
LWPOLYLINE
  5
580
330
1F
100
AcDbEntity
  8
0
  6
Continuous
 62
     7
100
AcDbPolyline
 90
        3
 70
   128
 43
0.0
 10
6181.8084716797
 20
4357.1164434566
 10
6181.0096977949
 20
4357.4666138064
 10
6180.7830242112
 20
4358.086069466
  0
LWPOLYLINE
  5
581
330
1F
100
AcDbEntity
  8
0
  6
Continuous
 62
     7
100
AcDbPolyline
 90
        3
 70
   128
 43
0.0
 10
6182.7545166016
 20
4357.6363673224
 10
6182.3091583397
 20
4357.2168356507
 10
6181.8122697666
 20
4357.1164434566
  0
LWPOLYLINE
  5
582
330
1F
100
AcDbEntity
  8
0
  6
Continuous
 62
     7
100
AcDbPolyline
 90
        3
 70
   128
 43
0.0
 10
6181.7779541016
 20
4357.3477467312
 10
6182.2642700505
 20
4357.4741641428
 10
6182.5341416195
 20
4357.7442740812
  0
LWPOLYLINE
  5
583
330
1F
100
AcDbEntity
  8
0
  6
Continuous
 62
     7
100
AcDbPolyline
 90
        3
 70
   128
 43
0.0
 10
6181.0340881348
 20
4358.0416640057
 10
6181.3007834659
 20
4357.5033463194
 10
6181.7808581188
 20
4357.3477467312
  0
LWPOLYLINE
  5
584
330
1F
100
AcDbEntity
  8
0
  6
Continuous
 62
     7
100
AcDbPolyline
 90
        3
 70
   128
 43
0.0
 10
6183.5899353027
 20
4358.4289004816
 10
6183.5518763316
 20
4358.06769845
 10
6183.5471225575
 20
4357.7824806585
  0
LWPOLYLINE
  5
585
330
1F
100
AcDbEntity
  8
0
  6
Continuous
 62
     7
100
AcDbPolyline
 90
        3
 70
   128
 43
0.0
 10
6183.9981079102
 20
4358.8347187056
 10
6183.70181688
 20
4358.6672077689
 10
6183.5919974044
 20
4358.4289004816
  0
LWPOLYLINE
  5
586
330
1F
100
AcDbEntity
  8
0
  6
Continuous
 62
     7
100
AcDbPolyline
 90
        3
 70
   128
 43
0.0
 10
6184.1239929199
 20
4358.8011612906
 10
6184.0570588697
 20
4358.8264371952
 10
6183.9986426428
 20
4358.8347187056
  0
LWPOLYLINE
  5
587
330
1F
100
AcDbEntity
  8
0
  6
Continuous
 62
     7
100
AcDbPolyline
 90
        3
 70
   128
 43
0.0
 10
6184.0438842773
 20
4359.0660219802
 10
6184.1737213063
 20
4359.0432050538
 10
6184.2650754049
 20
4359.0014850511
  0
LWPOLYLINE
  5
588
330
1F
100
AcDbEntity
  8
0
  6
Continuous
 62
     7
100
AcDbPolyline
 90
        3
 70
   128
 43
0.0
 10
6183.5441589355
 20
4358.7557201995
 10
6183.7852922305
 20
4358.992930263
 10
6184.046318908
 20
4359.0660219802
  0
LWPOLYLINE
  5
589
330
1F
100
AcDbEntity
  8
0
  6
Continuous
 62
     7
100
AcDbPolyline
 90
        3
 70
   128
 43
0.0
 10
6184.8373413086
 20
4359.6267377748
 10
6184.7496786969
 20
4359.4721169933
 10
6184.6049783423
 20
4359.4295060052
  0
LWPOLYLINE
  5
58A
330
1F
100
AcDbEntity
  8
0
  6
Continuous
 62
     7
100
AcDbPolyline
 90
        3
 70
   128
 43
0.0
 10
6184.6046447754
 20
4359.8260333552
 10
6184.7827334067
 20
4359.7567517964
 10
6184.8394332126
 20
4359.6267377748
  0
LWPOLYLINE
  5
58B
330
1F
100
AcDbEntity
  8
0
  6
Continuous
 62
     7
100
AcDbPolyline
 90
        3
 70
   128
 43
0.0
 10
6184.3719482422
 20
4359.6267377748
 10
6184.4605436321
 20
4359.7825017816
 10
6184.6049783423
 20
4359.8260333552
  0
LWPOLYLINE
  5
58C
330
1F
100
AcDbEntity
  8
0
  6
Continuous
 62
     7
100
AcDbPolyline
 90
        3
 70
   128
 43
0.0
 10
6184.6046447754
 20
4359.4295060052
 10
6184.4294605252
 20
4359.4984862554
 10
6184.3727660969
 20
4359.6267377748
  0
LWPOLYLINE
  5
58D
330
1F
100
AcDbEntity
  8
0
  6
Continuous
 62
     7
100
AcDbPolyline
 90
        3
 70
   128
 43
0.0
 10
6191.7953491211
 20
4358.695310892
 10
6191.9785700376
 20
4358.3447944119
 10
6192.0189169839
 20
4358.0416640057
  0
LWPOLYLINE
  5
58E
330
1F
100
AcDbEntity
  8
0
  6
Continuous
 62
     7
100
AcDbPolyline
 90
        3
 70
   128
 43
0.0
 10
6190.9713745117
 20
4359.0660219802
 10
6191.4857585959
 20
4358.9496282553
 10
6191.7962414816
 20
4358.695310892
  0
LWPOLYLINE
  5
58F
330
1F
100
AcDbEntity
  8
0
  6
Continuous
 62
     7
100
AcDbPolyline
 90
        3
 70
   128
 43
0.0
 10
6190.1702880859
 20
4358.7149357213
 10
6190.5775972051
 20
4359.0004945893
 10
6190.9722817734
 20
4359.0660219802
  0
LWPOLYLINE
  5
590
330
1F
100
AcDbEntity
  8
0
  6
Continuous
 62
     7
100
AcDbPolyline
 90
        3
 70
   128
 43
0.0
 10
6189.9337768555
 20
4358.086069466
 10
6190.011029137
 20
4358.4577911828
 10
6190.1724470451
 20
4358.7149357213
  0
LWPOLYLINE
  5
591
330
1F
100
AcDbEntity
  8
0
  6
Continuous
 62
     7
100
AcDbPolyline
 90
        3
 70
   128
 43
0.0
 10
6190.9637451172
 20
4357.1164434566
 10
6190.1635453535
 20
4357.4666171473
 10
6189.9368671372
 20
4358.086069466
  0
LWPOLYLINE
  5
592
330
1F
100
AcDbEntity
  8
0
  6
Continuous
 62
     7
100
AcDbPolyline
 90
        3
 70
   128
 43
0.0
 10
6191.9097900391
 20
4357.6363673224
 10
6191.4630012657
 20
4357.2168356507
 10
6190.9661126926
 20
4357.1164434566
  0
LWPOLYLINE
  5
593
330
1F
100
AcDbEntity
  8
0
  6
Continuous
 62
     7
100
AcDbPolyline
 90
        3
 70
   128
 43
0.0
 10
6190.9332275391
 20
4357.3477467312
 10
6191.4181152816
 20
4357.4741656155
 10
6191.6879919961
 20
4357.7442740812
  0
LWPOLYLINE
  5
594
330
1F
100
AcDbEntity
  8
0
  6
Continuous
 62
     7
100
AcDbPolyline
 90
        3
 70
   128
 43
0.0
 10
6190.185546875
 20
4358.0416640057
 10
6190.4546269191
 20
4357.5033459118
 10
6190.9347010449
 20
4357.3477467312
  0
LWPOLYLINE
  5
595
330
1F
100
AcDbEntity
  8
0
  6
Continuous
 62
     7
100
AcDbPolyline
 90
        3
 70
   128
 43
0.0
 10
6194.6487426758
 20
4357.1164434566
 10
6193.7924352014
 20
4357.4457233742
 10
6193.5266090229
 20
4358.0757429613
  0
LWPOLYLINE
  5
596
330
1F
100
AcDbEntity
  8
0
  6
Continuous
 62
     7
100
AcDbPolyline
 90
        3
 70
   128
 43
0.0
 10
6195.6062316895
 20
4357.5511773838
 10
6195.1314553757
 20
4357.1960418139
 10
6194.6512071088
 20
4357.1164434566
  0
LWPOLYLINE
  5
597
330
1F
100
AcDbEntity
  8
0
  6
Continuous
 62
     7
100
AcDbPolyline
 90
        3
 70
   128
 43
0.0
 10
6194.652557373
 20
4357.3477467312
 10
6195.1161435921
 20
4357.453188906
 10
6195.3983289793
 20
4357.6781874313
  0
LWPOLYLINE
  5
598
330
1F
100
AcDbEntity
  8
0
  6
Continuous
 62
     7
100
AcDbPolyline
 90
        3
 70
   128
 43
0.0
 10
6193.775177002
 20
4358.0963959707
 10
6194.1050089056
 20
4357.503793951
 10
6194.6551335648
 20
4357.3477467312
  0
LWPOLYLINE
  5
599
330
1F
100
AcDbEntity
  8
0
  6
Continuous
 62
     7
100
AcDbPolyline
 90
        3
 70
   128
 43
0.0
 10
6194.652557373
 20
4358.8347187056
 10
6193.9868772706
 20
4358.5826714908
 10
6193.7778947547
 20
4358.0963959707
  0
LWPOLYLINE
  5
59A
330
1F
100
AcDbEntity
  8
0
  6
Continuous
 62
     7
100
AcDbPolyline
 90
        3
 70
   128
 43
0.0
 10
6195.3964233398
 20
4358.5042780055
 10
6195.0221997811
 20
4358.7737825471
 10
6194.6534571841
 20
4358.8347187056
  0
LWPOLYLINE
  5
59B
330
1F
100
AcDbEntity
  8
0
  6
Continuous
 62
     7
100
AcDbPolyline
 90
        3
 70
   128
 43
0.0
 10
6194.6716308594
 20
4359.0660219802
 10
6195.2637687982
 20
4358.9306572531
 10
6195.6086588696
 20
4358.6245825304
  0
LWPOLYLINE
  5
59C
330
1F
100
AcDbEntity
  8
0
  6
Continuous
 62
     7
100
AcDbPolyline
 90
        3
 70
   128
 43
0.0
 10
6193.5234069824
 20
4358.0757429613
 10
6193.9507736971
 20
4358.8570238293
 10
6194.6719644263
 20
4359.0660219802
  0
LWPOLYLINE
  5
59D
330
1F
100
AcDbEntity
  8
0
  6
Continuous
 62
     7
100
AcDbPolyline
 90
        3
 70
   128
 43
0.0
 10
6196.9223022461
 20
4358.2817515148
 10
6196.8466202161
 20
4358.4381466325
 10
6196.82917573
 20
4358.5719143762
  0
LWPOLYLINE
  5
59E
330
1F
100
AcDbEntity
  8
0
  6
Continuous
 62
     7
100
AcDbPolyline
 90
        3
 70
   128
 43
0.0
 10
6197.2732543945
 20
4358.0246319784
 10
6197.0622779106
 20
4358.1507726743
 10
6196.9228444293
 20
4358.2817515148
  0
LWPOLYLINE
  5
59F
330
1F
100
AcDbEntity
  8
0
  6
Continuous
 62
     7
100
AcDbPolyline
 90
        3
 70
   128
 43
0.0
 10
6197.582244873
 20
4357.8304996504
 10
6197.4197858895
 20
4357.9498018756
 10
6197.2756517723
 20
4358.0246319784
  0
LWPOLYLINE
  5
5A0
330
1F
100
AcDbEntity
  8
0
  6
Continuous
 62
     7
100
AcDbPolyline
 90
        3
 70
   128
 43
0.0
 10
6197.6547241211
 20
4357.6508214487
 10
6197.6330028991
 20
4357.7572790358
 10
6197.5858268931
 20
4357.8304996504
  0
LWPOLYLINE
  5
5A1
330
1F
100
AcDbEntity
  8
0
  6
Continuous
 62
     7
100
AcDbPolyline
 90
        3
 70
   128
 43
0.0
 10
6197.2923278809
 20
4357.3477467312
 10
6197.5658315574
 20
4357.4530147054
 10
6197.6548192695
 20
4357.6508214487
  0
LWPOLYLINE
  5
5A2
330
1F
100
AcDbEntity
  8
0
  6
Continuous
 62
     7
100
AcDbPolyline
 90
        3
 70
   128
 43
0.0
 10
6196.8879699707
 20
4357.5460141315
 10
6197.0927924634
 20
4357.3935172667
 10
6197.293600221
 20
4357.3477467312
  0
LWPOLYLINE
  5
5A3
330
1F
100
AcDbEntity
  8
0
  6
Continuous
 62
     7
100
AcDbPolyline
 90
        3
 70
   128
 43
0.0
 10
6197.3037719727
 20
4357.1164434566
 10
6196.9459691438
 20
4357.1995255084
 10
6196.7214850381
 20
4357.3714991821
  0
LWPOLYLINE
  5
5A4
330
1F
100
AcDbEntity
  8
0
  6
Continuous
 62
     7
100
AcDbPolyline
 90
        3
 70
   128
 43
0.0
 10
6197.9026794434
 20
4357.6606338634
 10
6197.6892256068
 20
4357.236559596
 10
6197.306497176
 20
4357.1164434566
  0
LWPOLYLINE
  5
5A5
330
1F
100
AcDbEntity
  8
0
  6
Continuous
 62
     7
100
AcDbPolyline
 90
        3
 70
   128
 43
0.0
 10
6197.8073120117
 20
4357.9518323554
 10
6197.8884170447
 20
4357.7950161335
 10
6197.9060975507
 20
4357.6606338634
  0
LWPOLYLINE
  5
5A6
330
1F
100
AcDbEntity
  8
0
  6
Continuous
 62
     7
100
AcDbPolyline
 90
        3
 70
   128
 43
0.0
 10
6197.4411010742
 20
4358.216178955
 10
6197.664202155
 20
4358.0860634623
 10
6197.8107450202
 20
4357.9518323554
  0
LWPOLYLINE
  5
5A7
330
1F
100
AcDbEntity
  8
0
  6
Continuous
 62
     7
100
AcDbPolyline
 90
        3
 70
   128
 43
0.0
 10
6197.1473693848
 20
4358.410311283
 10
6197.3052985422
 20
4358.2907150364
 10
6197.4422393039
 20
4358.216178955
  0
LWPOLYLINE
  5
5A8
330
1F
100
AcDbEntity
  8
0
  6
Continuous
 62
     7
100
AcDbPolyline
 90
        3
 70
   128
 43
0.0
 10
6197.078704834
 20
4358.5812127008
 10
6197.1040539956
 20
4358.4798935283
 10
6197.1500051811
 20
4358.410311283
  0
LWPOLYLINE
  5
5A9
330
1F
100
AcDbEntity
  8
0
  6
Continuous
 62
     7
100
AcDbPolyline
 90
        3
 70
   128
 43
0.0
 10
6197.3457336426
 20
4358.8347187056
 10
6197.1410384752
 20
4358.7398897536
 10
6197.0804540113
 20
4358.5812127008
  0
LWPOLYLINE
  5
5AA
330
1F
100
AcDbEntity
  8
0
  6
Continuous
 62
     7
100
AcDbPolyline
 90
        3
 70
   128
 43
0.0
 10
6197.696685791
 20
4358.6364587559
 10
6197.5242298763
 20
4358.7835530048
 10
6197.3463205293
 20
4358.8347187056
  0
LWPOLYLINE
  5
5AB
330
1F
100
AcDbEntity
  8
0
  6
Continuous
 62
     7
100
AcDbPolyline
 90
        3
 70
   128
 43
0.0
 10
6197.3457336426
 20
4359.0660219802
 10
6197.6683129749
 20
4358.9640495922
 10
6197.8702006534
 20
4358.798061849
  0
LWPOLYLINE
  5
5AC
330
1F
100
AcDbEntity
  8
0
  6
Continuous
 62
     7
100
AcDbPolyline
 90
        3
 70
   128
 43
0.0
 10
6196.8269348145
 20
4358.5719143762
 10
6197.0090831123
 20
4358.9544594824
 10
6197.3463205293
 20
4359.0660219802
  0
LWPOLYLINE
  5
5AD
330
1F
100
AcDbEntity
  8
0
  6
Continuous
 62
     7
100
AcDbPolyline
 90
        3
 70
   128
 43
0.0
 10
6184.8373413086
 20
4359.6462731971
 10
6184.7496978455
 20
4359.4916728212
 10
6184.6049783423
 20
4359.4490414275
  0
LWPOLYLINE
  5
5AE
330
1F
100
AcDbEntity
  8
0
  6
Continuous
 62
     7
100
AcDbPolyline
 90
        3
 70
   128
 43
0.0
 10
6184.6046447754
 20
4359.4490414275
 10
6184.4294605252
 20
4359.5180216778
 10
6184.3727660969
 20
4359.6462731971
  0
LWPOLYLINE
  5
5AF
330
1F
100
AcDbEntity
  8
0
  6
Continuous
 62
     7
100
AcDbPolyline
 90
        3
 70
   128
 43
0.0
 10
6180.0994873047
 20
4357.8040798916
 10
6180.0664475989
 20
4357.953472218
 10
6180.0005716875
 20
4358.0570718064
  0
LWPOLYLINE
  5
5B0
330
1F
100
AcDbEntity
  8
0
  6
Continuous
 62
     7
100
AcDbPolyline
 90
        3
 70
   128
 43
0.0
 10
6180.0003051758
 20
4358.0570718064
 10
6179.7323231549
 20
4358.3024700176
 10
6179.4957650497
 20
4358.4680532827
  0
LWPOLYLINE
  5
5B1
330
1F
100
AcDbEntity
  8
0
  6
Continuous
 62
     7
100
AcDbPolyline
 90
        3
 70
   128
 43
0.0
 10
6179.4929504395
 20
4358.4680532827
 10
6179.2286134425
 20
4358.6531793163
 10
6179.036950846
 20
4358.8186329021
  0
LWPOLYLINE
  5
5B2
330
1F
100
AcDbEntity
  8
0
  6
Continuous
 62
     7
100
AcDbPolyline
 90
        3
 70
   128
 43
0.0
 10
6179.0351867676
 20
4358.8186329021
 10
6178.91239192
 20
4359.0266739287
 10
6178.8804588512
 20
4359.2110251798
  0
LWPOLYLINE
  5
5B3
330
1F
100
AcDbEntity
  8
0
  6
Continuous
 62
     7
100
AcDbPolyline
 90
        3
 70
   128
 43
0.0
 10
6180.0880432129
 20
4359.2177381529
 10
6179.825538648
 20
4359.469498588
 10
6179.5423162773
 20
4359.5481714024
  0
LWPOLYLINE
  5
5B4
330
1F
100
AcDbEntity
  8
0
  6
Continuous
 62
     7
100
AcDbPolyline
 90
        3
 70
   128
 43
0.0
 10
6179.5387268066
 20
4359.5481714024
 10
6179.2326100023
 20
4359.441697861
 10
6179.1317371324
 20
4359.2218657746
  0
LWPOLYLINE
  5
5B5
330
1F
100
AcDbEntity
  8
0
  6
Continuous
 62
     7
100
AcDbPolyline
 90
        3
 70
   128
 43
0.0
 10
6180.3512573242
 20
4357.80046636
 10
6180.0522275264
 20
4357.257072016
 10
6179.552411814
 20
4357.1029355539
  0
LWPOLYLINE
  5
5B6
330
1F
100
AcDbEntity
  8
0
  6
Continuous
 62
     7
100
AcDbPolyline
 90
        3
 70
   128
 43
0.0
 10
6179.5501708984
 20
4357.1029355539
 10
6178.9874264702
 20
4357.305673544
 10
6178.700966914
 20
4357.6662292494
  0
LWPOLYLINE
  5
5B7
330
1F
100
AcDbEntity
  8
0
  6
Continuous
 62
     7
100
AcDbPolyline
 90
        3
 70
   128
 43
0.0
 10
6197.696685791
 20
4358.6559941782
 10
6197.5242298763
 20
4358.8030884271
 10
6197.3463205293
 20
4358.8542541279
  0
LWPOLYLINE
  5
5B8
330
1F
100
AcDbEntity
  8
0
  6
Continuous
 62
     7
100
AcDbPolyline
 90
        3
 70
   128
 43
0.0
 10
6197.3457336426
 20
4358.8542541279
 10
6197.1410389863
 20
4358.7594257659
 10
6197.0804540113
 20
4358.6007481231
  0
LWPOLYLINE
  5
5B9
330
1F
100
AcDbEntity
  8
0
  6
Continuous
 62
     7
100
AcDbPolyline
 90
        3
 70
   128
 43
0.0
 10
6197.9026794434
 20
4357.6801692857
 10
6197.6892251512
 20
4357.2560946701
 10
6197.306497176
 20
4357.1359788789
  0
LWPOLYLINE
  5
5BA
330
1F
100
AcDbEntity
  8
0
  6
Continuous
 62
     7
100
AcDbPolyline
 90
        3
 70
   128
 43
0.0
 10
6197.3037719727
 20
4357.1359788789
 10
6196.9459691438
 20
4357.2190609307
 10
6196.7214850381
 20
4357.3910346045
  0
LWPOLYLINE
  5
5BB
330
1F
100
AcDbEntity
  8
0
  6
Continuous
 62
     7
100
AcDbPolyline
 90
        3
 70
   128
 43
0.0
 10
6197.6547241211
 20
4357.670356871
 10
6197.6330052001
 20
4357.7768166336
 10
6197.5858268931
 20
4357.8500350727
  0
LWPOLYLINE
  5
5BC
330
1F
100
AcDbEntity
  8
0
  6
Continuous
 62
     7
100
AcDbPolyline
 90
        3
 70
   128
 43
0.0
 10
6197.582244873
 20
4357.8500350727
 10
6197.4197965781
 20
4357.9693308613
 10
6197.2756517723
 20
4358.0441674008
  0
LWPOLYLINE
  5
5BD
330
1F
100
AcDbEntity
  8
0
  6
Continuous
 62
     7
100
AcDbPolyline
 90
        3
 70
   128
 43
0.0
 10
6197.2732543945
 20
4358.0441674008
 10
6197.062286338
 20
4358.1703016037
 10
6196.9228444293
 20
4358.3012869372
  0
LWPOLYLINE
  5
5BE
330
1F
100
AcDbEntity
  8
0
  6
Continuous
 62
     7
100
AcDbPolyline
 90
        3
 70
   128
 43
0.0
 10
6196.9223022461
 20
4358.3012869372
 10
6196.8466202161
 20
4358.4576820548
 10
6196.82917573
 20
4358.5914497985
  0
LWPOLYLINE
  5
5BF
330
1F
100
AcDbEntity
  8
0
  6
Continuous
 62
     7
100
AcDbPolyline
 90
        3
 70
   128
 43
0.0
 10
6191.9097900391
 20
4357.6559027447
 10
6191.4630012657
 20
4357.236371073
 10
6190.9661126926
 20
4357.1359788789
  0
LWPOLYLINE
  5
5C0
330
1F
100
AcDbEntity
  8
0
  6
Continuous
 62
     7
100
AcDbPolyline
 90
        3
 70
   128
 43
0.0
 10
6190.9637451172
 20
4357.1359788789
 10
6190.1635453535
 20
4357.4861525697
 10
6189.9368671372
 20
4358.1056048884
  0
LWPOLYLINE
  5
5C1
330
1F
100
AcDbEntity
  8
0
  6
Continuous
 62
     7
100
AcDbPolyline
 90
        3
 70
   128
 43
0.0
 10
6191.764831543
 20
4358.2925101532
 10
6191.435098859
 20
4358.7383432033
 10
6190.985186179
 20
4358.8542541279
  0
LWPOLYLINE
  5
5C2
330
1F
100
AcDbEntity
  8
0
  6
Continuous
 62
     7
100
AcDbPolyline
 90
        3
 70
   128
 43
0.0
 10
6190.9828186035
 20
4358.8542541279
 10
6190.671112408
 20
4358.7998349342
 10
6190.4579383925
 20
4358.6776753678
  0
LWPOLYLINE
  5
5C3
330
1F
100
AcDbEntity
  8
0
  6
Continuous
 62
     7
100
AcDbPolyline
 90
        3
 70
   128
 43
0.0
 10
6190.4563903809
 20
4358.6776753678
 10
6190.2927484604
 20
4358.4768673897
 10
6190.2145130232
 20
4358.2925101532
  0
LWPOLYLINE
  5
5C4
330
1F
100
AcDbEntity
  8
0
  6
Continuous
 62
     7
100
AcDbPolyline
 90
        3
 70
   128
 43
0.0
 10
6182.7545166016
 20
4357.6559027447
 10
6182.3091583397
 20
4357.236371073
 10
6181.8122697666
 20
4357.1359788789
  0
LWPOLYLINE
  5
5C5
330
1F
100
AcDbEntity
  8
0
  6
Continuous
 62
     7
100
AcDbPolyline
 90
        3
 70
   128
 43
0.0
 10
6181.8084716797
 20
4357.1359788789
 10
6181.0096977949
 20
4357.4861492287
 10
6180.7830242112
 20
4358.1056048884
  0
LWPOLYLINE
  5
5C6
330
1F
100
AcDbEntity
  8
0
  6
Continuous
 62
     7
100
AcDbPolyline
 90
        3
 70
   128
 43
0.0
 10
6182.6133728027
 20
4358.2925101532
 10
6182.2812491621
 20
4358.7383428053
 10
6181.8313358024
 20
4358.8542541279
  0
LWPOLYLINE
  5
5C7
330
1F
100
AcDbEntity
  8
0
  6
Continuous
 62
     7
100
AcDbPolyline
 90
        3
 70
   128
 43
0.0
 10
6181.827545166
 20
4358.8542541279
 10
6181.5172652485
 20
4358.7998361624
 10
6181.3040954664
 20
4358.6776753678
  0
LWPOLYLINE
  5
5C8
330
1F
100
AcDbEntity
  8
0
  6
Continuous
 62
     7
100
AcDbPolyline
 90
        3
 70
   128
 43
0.0
 10
6181.3011169434
 20
4358.6776753678
 10
6181.1388990087
 20
4358.4768689829
 10
6181.0606626466
 20
4358.2925101532
  0
LWPOLYLINE
  5
5C9
330
1F
100
AcDbEntity
  8
0
  6
Continuous
 62
     7
100
AcDbPolyline
 90
        3
 70
   128
 43
0.0
 10
6187.385559082
 20
4358.1056048884
 10
6187.0064987597
 20
4357.3516797026
 10
6186.33029439
 20
4357.1359788789
  0
LWPOLYLINE
  5
5CA
330
1F
100
AcDbEntity
  8
0
  6
Continuous
 62
     7
100
AcDbPolyline
 90
        3
 70
   128
 43
0.0
 10
6186.3288879395
 20
4357.1359788789
 10
6185.5115166273
 20
4357.4841287398
 10
6185.2702034309
 20
4358.1056048884
  0
LWPOLYLINE
  5
5CB
330
1F
100
AcDbEntity
  8
0
  6
Continuous
 62
     7
100
AcDbPolyline
 90
        3
 70
   128
 43
0.0
 10
6187.1337890625
 20
4358.1040551676
 10
6186.8441101245
 20
4358.6807540617
 10
6186.3291768029
 20
4358.8542541279
  0
LWPOLYLINE
  5
5CC
330
1F
100
AcDbEntity
  8
0
  6
Continuous
 62
     7
100
AcDbPolyline
 90
        3
 70
   128
 43
0.0
 10
6186.3288879395
 20
4358.8542541279
 10
6185.7051212918
 20
4358.580036796
 10
6185.5214817122
 20
4358.1040551676
  0
LWPOLYLINE
  5
5CD
330
1F
100
AcDbEntity
  8
0
  6
Continuous
 62
     7
100
AcDbPolyline
 90
        3
 70
   128
 43
0.0
 10
6195.3964233398
 20
4358.5238134278
 10
6195.0221997811
 20
4358.7933179695
 10
6194.6534571841
 20
4358.8542541279
  0
LWPOLYLINE
  5
5CE
330
1F
100
AcDbEntity
  8
0
  6
Continuous
 62
     7
100
AcDbPolyline
 90
        3
 70
   128
 43
0.0
 10
6194.652557373
 20
4358.8542541279
 10
6193.9868772706
 20
4358.6022069131
 10
6193.7778947547
 20
4358.1159313931
  0
LWPOLYLINE
  5
5CF
330
1F
100
AcDbEntity
  8
0
  6
Continuous
 62
     7
100
AcDbPolyline
 90
        3
 70
   128
 43
0.0
 10
6195.6062316895
 20
4357.5707128061
 10
6195.1314553757
 20
4357.2155772362
 10
6194.6512071088
 20
4357.1359788789
  0
LWPOLYLINE
  5
5D0
330
1F
100
AcDbEntity
  8
0
  6
Continuous
 62
     7
100
AcDbPolyline
 90
        3
 70
   128
 43
0.0
 10
6194.6487426758
 20
4357.1359788789
 10
6193.7924529598
 20
4357.4652410869
 10
6193.5266090229
 20
4358.0952783837
  0
LWPOLYLINE
  5
5D1
330
1F
100
AcDbEntity
  8
0
  6
Continuous
 62
     7
100
AcDbPolyline
 90
        3
 70
   128
 43
0.0
 10
6201.244354248
 20
4358.1056048884
 10
6200.86290974
 20
4357.3516797026
 10
6200.1867053702
 20
4357.1359788789
  0
LWPOLYLINE
  5
5D2
330
1F
100
AcDbEntity
  8
0
  6
Continuous
 62
     7
100
AcDbPolyline
 90
        3
 70
   128
 43
0.0
 10
6200.1838684082
 20
4357.1359788789
 10
6199.3679276075
 20
4357.4841287398
 10
6199.1266144112
 20
4358.1056048884
  0
LWPOLYLINE
  5
5D3
330
1F
100
AcDbEntity
  8
0
  6
Continuous
 62
     7
100
AcDbPolyline
 90
        3
 70
   128
 43
0.0
 10
6200.9925842285
 20
4358.1040551676
 10
6200.7005200734
 20
4358.6807548726
 10
6200.1855877831
 20
4358.8542541279
  0
LWPOLYLINE
  5
5D4
330
1F
100
AcDbEntity
  8
0
  6
Continuous
 62
     7
100
AcDbPolyline
 90
        3
 70
   128
 43
0.0
 10
6200.1838684082
 20
4358.8542541279
 10
6199.561532272
 20
4358.580036796
 10
6199.3778926924
 20
4358.1040551676
  0
LWPOLYLINE
  5
5D5
330
1F
100
AcDbEntity
  8
0
  6
Continuous
 62
     7
100
AcDbPolyline
 90
        3
 70
   128
 43
0.0
 10
6184.1239929199
 20
4358.8206967129
 10
6184.0570661043
 20
4358.8459709182
 10
6183.9986426428
 20
4358.8542541279
  0
LWPOLYLINE
  5
5D6
330
1F
100
AcDbEntity
  8
0
  6
Continuous
 62
     7
100
AcDbPolyline
 90
        3
 70
   128
 43
0.0
 10
6183.9981079102
 20
4358.8542541279
 10
6183.70181688
 20
4358.6867431912
 10
6183.5919974044
 20
4358.4484359039
  0
LWPOLYLINE
  5
5D7
330
1F
100
AcDbEntity
  8
0
  6
Continuous
 62
     7
100
AcDbPolyline
 90
        3
 70
   128
 43
0.0
 10
6183.5899353027
 20
4358.4484359039
 10
6183.5518763316
 20
4358.0872338723
 10
6183.5471225575
 20
4357.8020160808
  0
LWPOLYLINE
  5
5D8
330
1F
100
AcDbEntity
  8
0
  6
Continuous
 62
     7
100
AcDbPolyline
 90
        3
 70
   128
 43
0.0
 10
6191.764831543
 20
4358.2729747309
 10
6191.435098859
 20
4358.7188077809
 10
6190.985186179
 20
4358.8347187056
  0
LWPOLYLINE
  5
5D9
330
1F
100
AcDbEntity
  8
0
  6
Continuous
 62
     7
100
AcDbPolyline
 90
        3
 70
   128
 43
0.0
 10
6185.5201721191
 20
4358.0845197453
 10
6185.8127863707
 20
4357.5107463306
 10
6186.3291768029
 20
4357.3477467312
  0
LWPOLYLINE
  5
5DA
330
1F
100
AcDbEntity
  8
0
  6
Continuous
 62
     7
100
AcDbPolyline
 90
        3
 70
   128
 43
0.0
 10
6186.3288879395
 20
4358.8347187056
 10
6185.7051195348
 20
4358.56049934
 10
6185.5214817122
 20
4358.0845197453
  0
LWPOLYLINE
  5
5DB
330
1F
100
AcDbEntity
  8
0
  6
Continuous
 62
     7
100
AcDbPolyline
 90
        3
 70
   128
 43
0.0
 10
6187.1337890625
 20
4358.0845197453
 10
6186.8441101246
 20
4358.6612186394
 10
6186.3291768029
 20
4358.8347187056
  0
LWPOLYLINE
  5
5DC
330
1F
100
AcDbEntity
  8
0
  6
Continuous
 62
     7
100
AcDbPolyline
 90
        3
 70
   128
 43
0.0
 10
6186.3288879395
 20
4357.3477467312
 10
6186.9543407928
 20
4357.611167333
 10
6187.1368644431
 20
4358.0845197453
  0
LWPOLYLINE
  5
5DD
330
1F
100
AcDbEntity
  8
0
  6
Continuous
 62
     7
100
AcDbPolyline
 90
        3
 70
   128
 43
0.0
 10
6190.9828186035
 20
4358.8347187056
 10
6190.671112408
 20
4358.7802995119
 10
6190.4579383925
 20
4358.6581399454
  0
LWPOLYLINE
  5
5DE
330
1F
100
AcDbEntity
  8
0
  6
Continuous
 62
     7
100
AcDbPolyline
 90
        3
 70
   128
 43
0.0
 10
6200.9925842285
 20
4358.0845197453
 10
6200.7005200734
 20
4358.6612194503
 10
6200.1855877832
 20
4358.8347187056
  0
LWPOLYLINE
  5
5DF
330
1F
100
AcDbEntity
  8
0
  6
Continuous
 62
     7
100
AcDbPolyline
 90
        3
 70
   128
 43
0.0
 10
6182.6133728027
 20
4358.2729747309
 10
6182.2812491621
 20
4358.7188073829
 10
6181.8313358024
 20
4358.8347187056
  0
LWPOLYLINE
  5
5E0
330
1F
100
AcDbEntity
  8
0
  6
Continuous
 62
     7
100
AcDbPolyline
 90
        3
 70
   128
 43
0.0
 10
6181.827545166
 20
4358.8347187056
 10
6181.5172652485
 20
4358.7803007401
 10
6181.3040954664
 20
4358.6581399454
  0
LWPOLYLINE
  5
5E1
330
1F
100
AcDbEntity
  8
0
  6
Continuous
 62
     7
100
AcDbPolyline
 90
        3
 70
   128
 43
0.0
 10
6199.3751525879
 20
4358.0845197453
 10
6199.669197351
 20
4357.5107463306
 10
6200.1855877832
 20
4357.3477467312
  0
LWPOLYLINE
  5
5E2
330
1F
100
AcDbEntity
  8
0
  6
Continuous
 62
     7
100
AcDbPolyline
 90
        3
 70
   128
 43
0.0
 10
6200.1838684082
 20
4358.8347187056
 10
6199.561530515
 20
4358.56049934
 10
6199.3778926924
 20
4358.0845197453
  0
LWPOLYLINE
  5
5E3
330
1F
100
AcDbEntity
  8
0
  6
Continuous
 62
     7
100
AcDbPolyline
 90
        3
 70
   128
 43
0.0
 10
6200.1838684082
 20
4357.3477467312
 10
6200.810751773
 20
4357.611167333
 10
6200.9932754233
 20
4358.0845197453
  0
LWPOLYLINE
  5
5E4
330
1F
100
AcDbEntity
  8
0
  6
Continuous
 62
     7
100
AcDbPolyline
 90
        3
 70
   128
 43
0.0
 10
6190.4563903809
 20
4358.6581399454
 10
6190.2927484604
 20
4358.4573319674
 10
6190.2145130232
 20
4358.2729747309
  0
LWPOLYLINE
  5
5E5
330
1F
100
AcDbEntity
  8
0
  6
Continuous
 62
     7
100
AcDbPolyline
 90
        3
 70
   128
 43
0.0
 10
6181.3011169434
 20
4358.6581399454
 10
6181.1388990087
 20
4358.4573335606
 10
6181.0606626466
 20
4358.2729747309
  0
POINT
  5
5E6
330
1F
100
AcDbEntity
  8
0
  6
Continuous
 62
     7
100
AcDbPoint
 10
6229.2187569335
 20
4368.695644082
 30
0.0
  0
ENDSEC
  0
SECTION
  2
OBJECTS
  0
DICTIONARY
  5
C
330
0
100
AcDbDictionary
281
     1
  3
ACAD_GROUP
350
D
  3
ACAD_LAYOUT
350
1A
  3
ACAD_MLINESTYLE
350
17
  3
ACAD_PLOTSETTINGS
350
19
  3
ACAD_PLOTSTYLENAME
350
E
  3
ACAD_SCALELIST
350
47
  3
DWGPROPS
350
5E7
  0
DICTIONARY
  5
D
102
{ACAD_REACTORS
330
C
102
}
330
C
100
AcDbDictionary
281
     1
  0
DICTIONARY
  5
1A
102
{ACAD_REACTORS
330
C
102
}
330
C
100
AcDbDictionary
281
     1
  3
Layout1
350
1E
  3
Layout2
350
26
  3
Model
350
22
  0
DICTIONARY
  5
17
102
{ACAD_REACTORS
330
C
102
}
330
C
100
AcDbDictionary
281
     1
  3
Standard
350
18
  0
DICTIONARY
  5
19
102
{ACAD_REACTORS
330
C
102
}
330
C
100
AcDbDictionary
281
     1
  0
ACDBDICTIONARYWDFLT
  5
E
102
{ACAD_REACTORS
330
C
102
}
330
C
100
AcDbDictionary
281
     1
  3
Normal
350
F
100
AcDbDictionaryWithDefault
340
F
  0
DICTIONARY
  5
47
102
{ACAD_REACTORS
330
C
102
}
330
C
100
AcDbDictionary
281
     1
  3
A0
350
48
  3
A1
350
49
  3
A2
350
4A
  3
A3
350
4B
  3
A4
350
4C
  3
A5
350
4D
  3
A6
350
4E
  3
A7
350
4F
  3
A8
350
50
  3
A9
350
51
  3
B0
350
52
  3
B1
350
53
  3
B2
350
54
  3
B3
350
55
  3
B4
350
56
  3
B5
350
57
  3
B6
350
58
  3
B7
350
59
  3
B8
350
5A
  3
B9
350
5B
  3
C0
350
5C
  3
C1
350
5D
  3
C2
350
5E
  3
C3
350
5F
  3
C4
350
60
  3
C5
350
61
  3
C6
350
62
  3
C7
350
63
  3
C8
350
64
  3
C9
350
65
  3
D0
350
66
  3
D1
350
67
  3
D2
350
68
  0
XRECORD
  5
5E7
102
{ACAD_REACTORS
330
C
102
}
330
C
100
AcDbXrecord
280
     1
  1
DWGPROPS COOKIE
  2

  3

  4

  6

  7

  8
radek.stransky
  9

300
=
301
=
302
=
303
=
304
=
305
=
306
=
307
=
308
=
309
=
 40
0.0
 41
2459103.421222164
 42
2459103.421260475
  1

 90
        0
  0
LAYOUT
  5
1E
102
{ACAD_REACTORS
330
1A
102
}
330
1A
100
AcDbPlotSettings
  1

  2
none_device
  4

  6

 40
0.0
 41
0.0
 42
0.0
 43
0.0
 44
0.0
 45
0.0
 46
0.0
 47
0.0
 48
0.0
 49
0.0
140
0.0
141
0.0
142
1.0
143
1.0
 70
   688
 72
     1
 73
     0
 74
     5
  7

 75
    16
147
1.0
148
0.0
149
0.0
100
AcDbLayout
  1
Layout1
 70
     1
 71
     1
 10
0.0
 20
0.0
 11
420.0
 21
297.0
 12
0.0
 22
0.0
 32
0.0
 14
1.0000000000E+20
 24
1.0000000000E+20
 34
1.0000000000E+20
 15
-1.0000000000E+20
 25
-1.0000000000E+20
 35
-1.0000000000E+20
146
0.0
 13
0.0
 23
0.0
 33
0.0
 16
1.0
 26
0.0
 36
0.0
 17
0.0
 27
1.0
 37
0.0
 76
     0
330
1B
  0
LAYOUT
  5
26
102
{ACAD_REACTORS
330
1A
102
}
330
1A
100
AcDbPlotSettings
  1

  2
none_device
  4

  6

 40
0.0
 41
0.0
 42
0.0
 43
0.0
 44
0.0
 45
0.0
 46
0.0
 47
0.0
 48
0.0
 49
0.0
140
0.0
141
0.0
142
1.0
143
1.0
 70
   688
 72
     1
 73
     0
 74
     5
  7

 75
    16
147
1.0
148
0.0
149
0.0
100
AcDbLayout
  1
Layout2
 70
     1
 71
     2
 10
0.0
 20
0.0
 11
0.0
 21
0.0
 12
0.0
 22
0.0
 32
0.0
 14
0.0
 24
0.0
 34
0.0
 15
0.0
 25
0.0
 35
0.0
146
0.0
 13
0.0
 23
0.0
 33
0.0
 16
1.0
 26
0.0
 36
0.0
 17
0.0
 27
1.0
 37
0.0
 76
     0
330
23
  0
LAYOUT
  5
22
102
{ACAD_REACTORS
330
1A
102
}
330
1A
100
AcDbPlotSettings
  1

  2
none_device
  4
ANSI_A_(11.00_x_8.50_Inches)
  6

 40
6.35
 41
19.05
 42
6.35000508
 43
19.05000254
 44
279.4
 45
215.9
 46
-783.390483874
 47
-608.5218776945
 48
0.0
 49
0.0
140
0.0
141
0.0
142
0.0055176086
143
1.0
 70
  1696
 72
     0
 73
     0
 74
     0
  7

 75
     0
147
0.0179189148
148
-1300.4909072572
149
0.0
100
AcDbLayout
  1
Model
 70
     1
 71
     0
 10
0.0
 20
0.0
 11
420.0
 21
297.0
 12
0.0
 22
0.0
 32
0.0
 14
6163.9995110825
 24
4213.791863413
 34
0.0
 15
6918.5322899433
 25
5738.9091057617
 35
0.0
146
0.0
 13
0.0
 23
0.0
 33
0.0
 16
1.0
 26
0.0
 36
0.0
 17
0.0
 27
1.0
 37
0.0
 76
     0
330
1F
331
29
  0
MLINESTYLE
  5
18
102
{ACAD_REACTORS
330
17
102
}
330
17
100
AcDbMlineStyle
  2
Standard
 70
     0
  3

 62
   256
 51
90.0
 52
90.0
 71
     2
 49
0.5
 62
   256
  6
BYLAYER
 49
-0.5
 62
   256
  6
BYLAYER
  0
ACDBPLACEHOLDER
  5
F
102
{ACAD_REACTORS
330
E
102
}
330
E
  0
SCALE
  5
48
102
{ACAD_REACTORS
330
47
102
}
330
47
100
AcDbScale
 70
     0
300
1:1
140
1.0
141
1.0
290
     1
  0
SCALE
  5
49
102
{ACAD_REACTORS
330
47
102
}
330
47
100
AcDbScale
 70
     0
300
1:2
140
1.0
141
2.0
290
     0
  0
SCALE
  5
4A
102
{ACAD_REACTORS
330
47
102
}
330
47
100
AcDbScale
 70
     0
300
1:4
140
1.0
141
4.0
290
     0
  0
SCALE
  5
4B
102
{ACAD_REACTORS
330
47
102
}
330
47
100
AcDbScale
 70
     0
300
1:5
140
1.0
141
5.0
290
     0
  0
SCALE
  5
4C
102
{ACAD_REACTORS
330
47
102
}
330
47
100
AcDbScale
 70
     0
300
1:8
140
1.0
141
8.0
290
     0
  0
SCALE
  5
4D
102
{ACAD_REACTORS
330
47
102
}
330
47
100
AcDbScale
 70
     0
300
1:10
140
1.0
141
10.0
290
     0
  0
SCALE
  5
4E
102
{ACAD_REACTORS
330
47
102
}
330
47
100
AcDbScale
 70
     0
300
1:16
140
1.0
141
16.0
290
     0
  0
SCALE
  5
4F
102
{ACAD_REACTORS
330
47
102
}
330
47
100
AcDbScale
 70
     0
300
1:20
140
1.0
141
20.0
290
     0
  0
SCALE
  5
50
102
{ACAD_REACTORS
330
47
102
}
330
47
100
AcDbScale
 70
     0
300
1:30
140
1.0
141
30.0
290
     0
  0
SCALE
  5
51
102
{ACAD_REACTORS
330
47
102
}
330
47
100
AcDbScale
 70
     0
300
1:40
140
1.0
141
40.0
290
     0
  0
SCALE
  5
52
102
{ACAD_REACTORS
330
47
102
}
330
47
100
AcDbScale
 70
     0
300
1:50
140
1.0
141
50.0
290
     0
  0
SCALE
  5
53
102
{ACAD_REACTORS
330
47
102
}
330
47
100
AcDbScale
 70
     0
300
1:100
140
1.0
141
100.0
290
     0
  0
SCALE
  5
54
102
{ACAD_REACTORS
330
47
102
}
330
47
100
AcDbScale
 70
     0
300
2:1
140
2.0
141
1.0
290
     0
  0
SCALE
  5
55
102
{ACAD_REACTORS
330
47
102
}
330
47
100
AcDbScale
 70
     0
300
4:1
140
4.0
141
1.0
290
     0
  0
SCALE
  5
56
102
{ACAD_REACTORS
330
47
102
}
330
47
100
AcDbScale
 70
     0
300
8:1
140
8.0
141
1.0
290
     0
  0
SCALE
  5
57
102
{ACAD_REACTORS
330
47
102
}
330
47
100
AcDbScale
 70
     0
300
10:1
140
10.0
141
1.0
290
     0
  0
SCALE
  5
58
102
{ACAD_REACTORS
330
47
102
}
330
47
100
AcDbScale
 70
     0
300
100:1
140
100.0
141
1.0
290
     0
  0
SCALE
  5
59
102
{ACAD_REACTORS
330
47
102
}
330
47
100
AcDbScale
 70
     0
300
1/128" = 1'-0"
140
0.0078125
141
12.0
290
     0
  0
SCALE
  5
5A
102
{ACAD_REACTORS
330
47
102
}
330
47
100
AcDbScale
 70
     0
300
1/64" = 1'-0"
140
0.015625
141
12.0
290
     0
  0
SCALE
  5
5B
102
{ACAD_REACTORS
330
47
102
}
330
47
100
AcDbScale
 70
     0
300
1/32" = 1'-0"
140
0.03125
141
12.0
290
     0
  0
SCALE
  5
5C
102
{ACAD_REACTORS
330
47
102
}
330
47
100
AcDbScale
 70
     0
300
1/16" = 1'-0"
140
0.0625
141
12.0
290
     0
  0
SCALE
  5
5D
102
{ACAD_REACTORS
330
47
102
}
330
47
100
AcDbScale
 70
     0
300
3/32" = 1'-0"
140
0.09375
141
12.0
290
     0
  0
SCALE
  5
5E
102
{ACAD_REACTORS
330
47
102
}
330
47
100
AcDbScale
 70
     0
300
1/8" = 1'-0"
140
0.125
141
12.0
290
     0
  0
SCALE
  5
5F
102
{ACAD_REACTORS
330
47
102
}
330
47
100
AcDbScale
 70
     0
300
3/16" = 1'-0"
140
0.1875
141
12.0
290
     0
  0
SCALE
  5
60
102
{ACAD_REACTORS
330
47
102
}
330
47
100
AcDbScale
 70
     0
300
1/4" = 1'-0"
140
0.25
141
12.0
290
     0
  0
SCALE
  5
61
102
{ACAD_REACTORS
330
47
102
}
330
47
100
AcDbScale
 70
     0
300
3/8" = 1'-0"
140
0.375
141
12.0
290
     0
  0
SCALE
  5
62
102
{ACAD_REACTORS
330
47
102
}
330
47
100
AcDbScale
 70
     0
300
1/2" = 1'-0"
140
0.5
141
12.0
290
     0
  0
SCALE
  5
63
102
{ACAD_REACTORS
330
47
102
}
330
47
100
AcDbScale
 70
     0
300
3/4" = 1'-0"
140
0.75
141
12.0
290
     0
  0
SCALE
  5
64
102
{ACAD_REACTORS
330
47
102
}
330
47
100
AcDbScale
 70
     0
300
1" = 1'-0"
140
1.0
141
12.0
290
     0
  0
SCALE
  5
65
102
{ACAD_REACTORS
330
47
102
}
330
47
100
AcDbScale
 70
     0
300
1-1/2" = 1'-0"
140
1.5
141
12.0
290
     0
  0
SCALE
  5
66
102
{ACAD_REACTORS
330
47
102
}
330
47
100
AcDbScale
 70
     0
300
3" = 1'-0"
140
3.0
141
12.0
290
     0
  0
SCALE
  5
67
102
{ACAD_REACTORS
330
47
102
}
330
47
100
AcDbScale
 70
     0
300
6" = 1'-0"
140
6.0
141
12.0
290
     0
  0
SCALE
  5
68
102
{ACAD_REACTORS
330
47
102
}
330
47
100
AcDbScale
 70
     0
300
1'-0" = 1'-0"
140
12.0
141
12.0
290
     0
  0
ENDSEC
  0
EOF
