  0
SECTION
  2
HEADER
  9
$ACADVER
  1
AC1015
  9
$ACADMAINTVER
 70
     6
  9
$DWGCODEPAGE
  3
ANSI_1250
  9
$INSBASE
 10
0.0
 20
0.0
 30
0.0
  9
$EXTMIN
 10
0.0
 20
0.0
 30
0.0
  9
$EXTMAX
 10
20000.0
 20
10000.0
 30
0.0
  9
$LIMMIN
 10
0.0
 20
0.0
  9
$LIMMAX
 10
20000.0
 20
10000.0
  9
$ORTHOMODE
 70
     0
  9
$REGENMODE
 70
     1
  9
$FILLMODE
 70
     1
  9
$QTEXTMODE
 70
     0
  9
$MIRRTEXT
 70
     1
  9
$LTSCALE
 40
1.0
  9
$ATTMODE
 70
     1
  9
$TEXTSIZE
 40
2.0
  9
$TRACEWID
 40
1.0
  9
$TEXTSTYLE
  7
Standard
  9
$CLAYER
  8
0
  9
$CELTYPE
  6
ByLayer
  9
$CECOLOR
 62
   256
  9
$CELTSCALE
 40
1.0
  9
$DISPSILH
 70
     0
  9
$DIMSCALE
 40
1.0
  9
$DIMASZ
 40
2.0
  9
$DIMEXO
 40
1.0
  9
$DIMDLI
 40
3.75
  9
$DIMRND
 40
0.0
  9
$DIMDLE
 40
0.0
  9
$DIMEXE
 40
1.0
  9
$DIMTP
 40
0.0
  9
$DIMTM
 40
0.0
  9
$DIMTXT
 40
2.0
  9
$DIMCEN
 40
2.5
  9
$DIMTSZ
 40
0.0
  9
$DIMTOL
 70
     0
  9
$DIMLIM
 70
     0
  9
$DIMTIH
 70
     1
  9
$DIMTOH
 70
     1
  9
$DIMSE1
 70
     0
  9
$DIMSE2
 70
     0
  9
$DIMTAD
 70
     1
  9
$DIMZIN
 70
     0
  9
$DIMBLK
  1

  9
$DIMASO
 70
     1
  9
$DIMSHO
 70
     1
  9
$DIMPOST
  1

  9
$DIMAPOST
  1

  9
$DIMALT
 70
     0
  9
$DIMALTD
 70
     3
  9
$DIMALTF
 40
0.0393700787
  9
$DIMLFAC
 40
1.0
  9
$DIMTOFL
 70
     1
  9
$DIMTVP
 40
0.0
  9
$DIMTIX
 70
     0
  9
$DIMSOXD
 70
     0
  9
$DIMSAH
 70
     0
  9
$DIMBLK1
  1

  9
$DIMBLK2
  1

  9
$DIMSTYLE
  2
ISO-25
  9
$DIMCLRD
 70
     0
  9
$DIMCLRE
 70
     0
  9
$DIMCLRT
 70
     0
  9
$DIMTFAC
 40
1.0
  9
$DIMGAP
 40
1.524
  9
$DIMJUST
 70
     0
  9
$DIMSD1
 70
     0
  9
$DIMSD2
 70
     0
  9
$DIMTOLJ
 70
     0
  9
$DIMTZIN
 70
     0
  9
$DIMALTZ
 70
     0
  9
$DIMALTTZ
 70
     0
  9
$DIMUPT
 70
     0
  9
$DIMDEC
 70
     2
  9
$DIMTDEC
 70
     0
  9
$DIMALTU
 70
     2
  9
$DIMALTTD
 70
     3
  9
$DIMTXSTY
  7
Standard
  9
$DIMAUNIT
 70
     0
  9
$DIMADEC
 70
     2
  9
$DIMALTRND
 40
0.0
  9
$DIMAZIN
 70
     0
  9
$DIMDSEP
 70
    44
  9
$DIMATFIT
 70
     3
  9
$DIMFRAC
 70
     0
  9
$DIMLDRBLK
  1

  9
$DIMLUNIT
 70
     2
  9
$DIMLWD
 70
    -2
  9
$DIMLWE
 70
    -2
  9
$DIMTMOVE
 70
     0
  9
$LUNITS
 70
     2
  9
$LUPREC
 70
     3
  9
$SKETCHINC
 40
1.0
  9
$FILLETRAD
 40
10.0
  9
$AUNITS
 70
     0
  9
$AUPREC
 70
     2
  9
$MENU
  1
.
  9
$ELEVATION
 40
0.0
  9
$PELEVATION
 40
0.0
  9
$THICKNESS
 40
0.0
  9
$LIMCHECK
 70
     0
  9
$CHAMFERA
 40
0.0
  9
$CHAMFERB
 40
0.0
  9
$CHAMFERC
 40
0.0
  9
$CHAMFERD
 40
0.0
  9
$SKPOLY
 70
     0
  9
$TDCREATE
 40
2460262.525890197
  9
$TDUCREATE
 40
2460262.48422353
  9
$TDUPDATE
 40
2460262.525892118
  9
$TDUUPDATE
 40
2460262.484225451
  9
$TDINDWG
 40
0.0000000116
  9
$TDUSRTIMER
 40
0.0000000116
  9
$USRTIMER
 70
     1
  9
$ANGBASE
 50
0.0
  9
$ANGDIR
 70
     0
  9
$PDMODE
 70
     0
  9
$PDSIZE
 40
-1.0
  9
$PLINEWID
 40
0.0
  9
$SPLFRAME
 70
     0
  9
$SPLINETYPE
 70
     6
  9
$SPLINESEGS
 70
     8
  9
$HANDSEED
  5
320
  9
$SURFTAB1
 70
     6
  9
$SURFTAB2
 70
     6
  9
$SURFTYPE
 70
     6
  9
$SURFU
 70
     6
  9
$SURFV
 70
     6
  9
$UCSBASE
  2

  9
$UCSNAME
  2

  9
$UCSORG
 10
0.0
 20
0.0
 30
0.0
  9
$UCSXDIR
 10
1.0
 20
0.0
 30
0.0
  9
$UCSYDIR
 10
0.0
 20
1.0
 30
0.0
  9
$UCSORTHOREF
  2

  9
$UCSORTHOVIEW
 70
     0
  9
$UCSORGTOP
 10
0.0
 20
0.0
 30
0.0
  9
$UCSORGBOTTOM
 10
0.0
 20
0.0
 30
0.0
  9
$UCSORGLEFT
 10
0.0
 20
0.0
 30
0.0
  9
$UCSORGRIGHT
 10
0.0
 20
0.0
 30
0.0
  9
$UCSORGFRONT
 10
0.0
 20
0.0
 30
0.0
  9
$UCSORGBACK
 10
0.0
 20
0.0
 30
0.0
  9
$PUCSBASE
  2

  9
$PUCSNAME
  2

  9
$PUCSORG
 10
0.0
 20
0.0
 30
0.0
  9
$PUCSXDIR
 10
1.0
 20
0.0
 30
0.0
  9
$PUCSYDIR
 10
0.0
 20
1.0
 30
0.0
  9
$PUCSORTHOREF
  2

  9
$PUCSORTHOVIEW
 70
     0
  9
$PUCSORGTOP
 10
0.0
 20
0.0
 30
0.0
  9
$PUCSORGBOTTOM
 10
0.0
 20
0.0
 30
0.0
  9
$PUCSORGLEFT
 10
0.0
 20
0.0
 30
0.0
  9
$PUCSORGRIGHT
 10
0.0
 20
0.0
 30
0.0
  9
$PUCSORGFRONT
 10
0.0
 20
0.0
 30
0.0
  9
$PUCSORGBACK
 10
0.0
 20
0.0
 30
0.0
  9
$USERI1
 70
     0
  9
$USERI2
 70
     0
  9
$USERI3
 70
     0
  9
$USERI4
 70
     0
  9
$USERI5
 70
     0
  9
$USERR1
 40
0.0
  9
$USERR2
 40
0.0
  9
$USERR3
 40
0.0
  9
$USERR4
 40
0.0
  9
$USERR5
 40
0.0
  9
$WORLDVIEW
 70
     1
  9
$SHADEDGE
 70
     3
  9
$SHADEDIF
 70
    70
  9
$TILEMODE
 70
     1
  9
$MAXACTVP
 70
    64
  9
$PINSBASE
 10
0.0
 20
0.0
 30
0.0
  9
$PLIMCHECK
 70
     0
  9
$PEXTMIN
 10
1.0000000000E+20
 20
1.0000000000E+20
 30
1.0000000000E+20
  9
$PEXTMAX
 10
-1.0000000000E+20
 20
-1.0000000000E+20
 30
-1.0000000000E+20
  9
$PLIMMIN
 10
0.0
 20
0.0
  9
$PLIMMAX
 10
420.0
 20
297.0
  9
$UNITMODE
 70
     0
  9
$VISRETAIN
 70
     1
  9
$PLINEGEN
 70
     0
  9
$PSLTSCALE
 70
     1
  9
$TREEDEPTH
 70
  3020
  9
$CMLSTYLE
  2
Standard
  9
$CMLJUST
 70
     0
  9
$CMLSCALE
 40
20.0
  9
$PROXYGRAPHICS
 70
     1
  9
$MEASUREMENT
 70
     1
  9
$CELWEIGHT
370
    -1
  9
$ENDCAPS
280
     0
  9
$JOINSTYLE
280
     0
  9
$LWDISPLAY
290
     1
  9
$INSUNITS
 70
     4
  9
$HYPERLINKBASE
  1

  9
$STYLESHEET
  1

  9
$XEDIT
290
     1
  9
$CEPSNTYPE
380
     0
  9
$PSTYLEMODE
290
     1
  9
$FINGERPRINTGUID
  2
{dd67a48f-952e-4b35-9729-10565eeaf2bd}
  9
$VERSIONGUID
  2
{FAEB1C32-E019-11D5-929B-00C0DF256EC4}
  9
$EXTNAMES
290
     1
  9
$PSVPSCALE
 40
0.0
  9
$OLESTARTUP
290
     0
  0
ENDSEC
  0
SECTION
  2
CLASSES
  0
CLASS
  1
ACDBDICTIONARYWDFLT
  2
AcDbDictionaryWithDefault
  3
ObjectDBX Classes
 90
        0
280
     0
281
     0
  0
CLASS
  1
VISUALSTYLE
  2
AcDbVisualStyle
  3
ObjectDBX Classes
 90
     4095
280
     0
281
     0
  0
CLASS
  1
MATERIAL
  2
AcDbMaterial
  3
ObjectDBX Classes
 90
     1153
280
     0
281
     0
  0
CLASS
  1
SCALE
  2
AcDbScale
  3
ObjectDBX Classes
 90
     1153
280
     0
281
     0
  0
CLASS
  1
TABLESTYLE
  2
AcDbTableStyle
  3
ObjectDBX Classes
 90
     4095
280
     0
281
     0
  0
CLASS
  1
MLEADERSTYLE
  2
AcDbMLeaderStyle
  3
ACDB_MLEADERSTYLE_CLASS
 90
     4095
280
     0
281
     0
  0
CLASS
  1
SUN
  2
AcDbSun
  3
SCENEOE
 90
     1153
280
     0
281
     0
  0
CLASS
  1
ACDBPLACEHOLDER
  2
AcDbPlaceHolder
  3
ObjectDBX Classes
 90
        0
280
     0
281
     0
  0
CLASS
  1
LAYOUT
  2
AcDbLayout
  3
ObjectDBX Classes
 90
        0
280
     0
281
     0
  0
ENDSEC
  0
SECTION
  2
TABLES
  0
TABLE
  2
VPORT
  5
8
330
0
100
AcDbSymbolTable
 70
     1
  0
VPORT
  5
29
330
8
100
AcDbSymbolTableRecord
100
AcDbViewportTableRecord
  2
*Active
 70
     0
 10
0.0
 20
0.0
 11
1.0
 21
1.0
 12
10000.0
 22
5000.0
 13
0.0
 23
0.0
 14
10.0
 24
10.0
 15
10.0
 25
10.0
 16
0.0
 26
0.0
 36
1.0
 17
0.0
 27
0.0
 37
0.0
 40
10000.0
 41
2.0
 42
50.0
 43
0.0
 44
0.0
 50
0.0
 51
0.0
 71
     0
 72
  2000
 73
     1
 74
     3
 75
     0
 76
     0
 77
     0
 78
     0
281
     0
 65
     1
110
0.0
120
0.0
130
0.0
111
1.0
121
0.0
131
0.0
112
0.0
122
1.0
132
0.0
 79
     0
146
0.0
  0
ENDTAB
  0
TABLE
  2
LTYPE
  5
5
330
0
100
AcDbSymbolTable
 70
     6
  0
LTYPE
  5
14
330
5
100
AcDbSymbolTableRecord
100
AcDbLinetypeTableRecord
  2
ByBlock
 70
     0
  3

 72
    65
 73
     0
 40
0.0
  0
LTYPE
  5
15
330
5
100
AcDbSymbolTableRecord
100
AcDbLinetypeTableRecord
  2
ByLayer
 70
     0
  3

 72
    65
 73
     0
 40
0.0
  0
LTYPE
  5
16
330
5
100
AcDbSymbolTableRecord
100
AcDbLinetypeTableRecord
  2
Continuous
 70
     0
  3
Solid line
 72
    65
 73
     0
 40
0.0
  0
LTYPE
  5
6E
330
5
100
AcDbSymbolTableRecord
100
AcDbLinetypeTableRecord
  2
HIDDEN
 70
     0
  3
Hidden __ __ __ __ __ __ __ __ __ __ __ __ __ __
 72
    65
 73
     2
 40
1.905
 49
1.27
 74
     0
 49
-0.635
 74
     0
  0
LTYPE
  5
6F
330
5
100
AcDbSymbolTableRecord
100
AcDbLinetypeTableRecord
  2
PHANTOM
 70
     0
  3
Phantom ______  __  __  ______  __  __  ______
 72
    65
 73
     6
 40
12.7
 49
6.35
 74
     0
 49
-1.27
 74
     0
 49
1.27
 74
     0
 49
-1.27
 74
     0
 49
1.27
 74
     0
 49
-1.27
 74
     0
  0
LTYPE
  5
70
330
5
100
AcDbSymbolTableRecord
100
AcDbLinetypeTableRecord
  2
CENTER
 70
     0
  3
Center ____ _ ____ _ ____ _ ____ _ ____ _ ____
 72
    65
 73
     4
 40
10.16
 49
6.35
 74
     0
 49
-1.27
 74
     0
 49
1.27
 74
     0
 49
-1.27
 74
     0
  0
LTYPE
  5
71
330
5
100
AcDbSymbolTableRecord
100
AcDbLinetypeTableRecord
  2
CENTERX2
 70
     0
  3
Center (2x) ________  __  ________  __  _____
 72
    65
 73
     4
 40
20.32
 49
12.7
 74
     0
 49
-2.54
 74
     0
 49
2.54
 74
     0
 49
-2.54
 74
     0
  0
LTYPE
  5
72
330
5
100
AcDbSymbolTableRecord
100
AcDbLinetypeTableRecord
  2
DOT2
 70
     0
  3
Dot (.5x) ........................................
 72
    65
 73
     2
 40
0.635
 49
0.0
 74
     0
 49
-0.635
 74
     0
  0
ENDTAB
  0
TABLE
  2
LAYER
  5
2
330
0
100
AcDbSymbolTable
 70
    13
  0
LAYER
  5
10
330
2
100
AcDbSymbolTableRecord
100
AcDbLayerTableRecord
  2
0
 70
     0
 62
     7
  6
Continuous
370
    -3
390
F
  0
LAYER
  5
73
330
2
100
AcDbSymbolTableRecord
100
AcDbLayerTableRecord
  2
FORMAT
 70
     0
 62
     7
  6
Continuous
370
    -3
390
F
  0
LAYER
  5
74
330
2
100
AcDbSymbolTableRecord
100
AcDbLayerTableRecord
  2
OSA
 70
     0
 62
     7
  6
CENTER
370
    -3
390
F
  0
LAYER
  5
75
330
2
100
AcDbSymbolTableRecord
100
AcDbLayerTableRecord
  2
0_35
 70
     0
 62
     7
  6
Continuous
370
    35
390
F
  0
LAYER
  5
76
330
2
100
AcDbSymbolTableRecord
100
AcDbLayerTableRecord
  2
0_5
 70
     0
 62
     7
  6
Continuous
370
    50
390
F
  0
LAYER
  5
77
330
2
100
AcDbSymbolTableRecord
100
AcDbLayerTableRecord
  2
0_25
 70
     0
 62
     7
  6
Continuous
370
    25
390
F
  0
LAYER
  5
78
330
2
100
AcDbSymbolTableRecord
100
AcDbLayerTableRecord
  2
0_18
 70
     0
 62
     7
  6
Continuous
370
    -3
390
F
  0
LAYER
  5
79
330
2
100
AcDbSymbolTableRecord
100
AcDbLayerTableRecord
  2
SLD-0
 70
     0
 62
   179
  6
Continuous
370
    -3
390
F
  0
LAYER
  5
7A
330
2
100
AcDbSymbolTableRecord
100
AcDbLayerTableRecord
  2
KOTY
 70
     0
 62
     7
  6
Continuous
370
    -3
390
F
  0
LAYER
  5
7B
330
2
100
AcDbSymbolTableRecord
100
AcDbLayerTableRecord
  2
SILNA
 70
     0
 62
   179
  6
Continuous
370
    -3
390
F
  0
LAYER
  5
7C
330
2
100
AcDbSymbolTableRecord
100
AcDbLayerTableRecord
  2
0_18_1
 70
     0
 62
   179
  6
Continuous
370
    -3
390
F
  0
LAYER
  5
7D
330
2
100
AcDbSymbolTableRecord
100
AcDbLayerTableRecord
  2
0_35_1
 70
     0
 62
   179
  6
Continuous
370
    35
390
F
  0
LAYER
  5
7E
330
2
100
AcDbSymbolTableRecord
100
AcDbLayerTableRecord
  2
0_5_1
 70
     0
 62
   179
  6
Continuous
370
    50
390
F
  0
ENDTAB
  0
TABLE
  2
STYLE
  5
3
330
0
100
AcDbSymbolTable
 70
     1
  0
STYLE
  5
11
330
3
100
AcDbSymbolTableRecord
100
AcDbTextStyleTableRecord
  2
Standard
 70
     0
 40
0.0
 41
1.0
 50
0.0
 71
     0
 42
2.0
  3
txt
  4

  0
ENDTAB
  0
TABLE
  2
VIEW
  5
6
330
0
100
AcDbSymbolTable
 70
     0
  0
ENDTAB
  0
TABLE
  2
UCS
  5
7
330
0
100
AcDbSymbolTable
 70
     0
  0
ENDTAB
  0
TABLE
  2
APPID
  5
9
330
0
100
AcDbSymbolTable
 70
     1
  0
APPID
  5
12
330
9
100
AcDbSymbolTableRecord
100
AcDbRegAppTableRecord
  2
ACAD
 70
     0
  0
ENDTAB
  0
TABLE
  2
DIMSTYLE
  5
A
330
0
100
AcDbSymbolTable
 70
     1
100
AcDbDimStyleTable
  0
DIMSTYLE
105
27
330
A
100
AcDbSymbolTableRecord
100
AcDbDimStyleTableRecord
  2
ISO-25
 70
     0
 41
2.5
 42
0.625
 43
3.75
 44
1.25
 73
     0
 74
     0
 77
     1
 78
     8
140
2.5
141
2.5
143
0.0393700787
147
0.625
171
     3
172
     1
178
     0
271
     2
272
     2
274
     3
278
    44
283
     0
284
     8
340
11
  0
ENDTAB
  0
TABLE
  2
BLOCK_RECORD
  5
1
330
0
100
AcDbSymbolTable
 70
     1
  0
BLOCK_RECORD
  5
1F
330
1
100
AcDbSymbolTableRecord
100
AcDbBlockTableRecord
  2
*Model_Space
340
22
  0
BLOCK_RECORD
  5
1B
330
1
100
AcDbSymbolTableRecord
100
AcDbBlockTableRecord
  2
*Paper_Space
340
1E
  0
BLOCK_RECORD
  5
23
330
1
100
AcDbSymbolTableRecord
100
AcDbBlockTableRecord
  2
*Paper_Space0
340
26
  0
ENDTAB
  0
ENDSEC
  0
SECTION
  2
BLOCKS
  0
BLOCK
  5
20
330
1F
100
AcDbEntity
  8
0
100
AcDbBlockBegin
  2
*Model_Space
 70
     0
 10
0.0
 20
0.0
 30
0.0
  3
*Model_Space
  1

  0
ENDBLK
  5
21
330
1F
100
AcDbEntity
  8
0
100
AcDbBlockEnd
  0
BLOCK
  5
1C
330
1B
100
AcDbEntity
 67
     1
  8
0
100
AcDbBlockBegin
  2
*Paper_Space
 70
     0
 10
0.0
 20
0.0
 30
0.0
  3
*Paper_Space
  1

  0
ENDBLK
  5
1D
330
1B
100
AcDbEntity
 67
     1
  8
0
100
AcDbBlockEnd
  0
BLOCK
  5
24
330
23
100
AcDbEntity
  8
0
100
AcDbBlockBegin
  2
*Paper_Space0
 70
     0
 10
0.0
 20
0.0
 30
0.0
  3
*Paper_Space0
  1

  0
ENDBLK
  5
25
330
23
100
AcDbEntity
  8
0
100
AcDbBlockEnd
  0
ENDSEC
  0
SECTION
  2
ENTITIES
  0
CIRCLE
  5
7F
330
1F
100
AcDbEntity
  8
0
  6
Continuous
 62
     7
370
    25
100
AcDbCircle
 10
6326.5187553361
 20
5336.1994545927
 30
0.0
 40
0.75
  0
CIRCLE
  5
80
330
1F
100
AcDbEntity
  8
0
  6
Continuous
 62
     7
370
    25
100
AcDbCircle
 10
6326.5187553361
 20
5336.1994545927
 30
0.0
 40
4.499999999999091
  0
SPLINE
  5
81
330
1F
100
AcDbEntity
  8
0
  6
Continuous
 62
     7
370
    25
100
AcDbSpline
210
0.0
220
0.0
230
1.0
 70
     8
 71
     3
 72
    16
 73
    12
 74
     0
 42
0.00000001
 43
0.00000001
 40
0.0
 40
0.0
 40
0.0
 40
0.0
 40
0.1218585400097466
 40
0.2438549224446628
 40
0.3654874614654278
 40
0.4865512170680328
 40
0.607216829117597
 40
0.7278286333535067
 40
0.8487517277333497
 40
0.970214796334848
 40
1.0
 40
1.0
 40
1.0
 40
1.0
 10
6324.991631293889
 20
5334.623778921507
 30
0.0
 10
6324.924542971003
 20
5334.607082572511
 30
0.0
 10
6324.790290437098
 20
5334.573670988149
 30
0.0
 10
6324.582102158943
 20
5334.611866249579
 30
0.0
 10
6324.398894137758
 20
5334.711991978674
 30
0.0
 10
6324.25948218346
 20
5334.868108933671
 30
0.0
 10
6324.179737283194
 20
5335.060583026706
 30
0.0
 10
6324.167851139799
 20
5335.268528665004
 30
0.0
 10
6324.225351928804
 20
5335.468345907688
 30
0.0
 10
6324.314864668066
 20
5335.59685040882
 30
0.0
 10
6324.378154532265
 20
5335.653590442667
 30
0.0
 10
6324.390618155598
 20
5335.664764213044
 30
0.0
  0
LINE
  5
82
330
1F
100
AcDbEntity
  8
0
  6
Continuous
 62
     7
370
    25
100
AcDbLine
 10
6325.2153869649
 20
5334.7034305868
 30
0.0
 11
6324.9916312939
 21
5334.6237789215
 31
0.0
  0
SPLINE
  5
83
330
1F
100
AcDbEntity
  8
0
  6
Continuous
 62
     7
370
    25
100
AcDbSpline
210
0.0
220
0.0
230
1.0
 70
     8
 71
     3
 72
    13
 73
     9
 74
     0
 42
0.00000001
 43
0.00000001
 40
0.0
 40
0.0
 40
0.0
 40
0.0
 40
0.1945921045771
 40
0.3892164901963702
 40
0.5831042183270193
 40
0.7765337036201375
 40
0.9702718140458698
 40
1.0
 40
1.0
 40
1.0
 40
1.0
 10
6325.874844727939
 20
5334.322692469759
 30
0.0
 10
6325.859321156106
 20
5334.376838184941
 30
0.0
 10
6325.828271437223
 20
5334.485138597584
 30
0.0
 10
6325.716853148076
 20
5334.616680398258
 30
0.0
 10
6325.571998386504
 20
5334.705669071598
 30
0.0
 10
6325.405568071248
 20
5334.741195825474
 30
0.0
 10
6325.284128058549
 20
5334.726648893098
 30
0.0
 10
6325.223458025483
 20
5334.706156705153
 30
0.0
 10
6325.215386964861
 20
5334.703430586791
 30
0.0
  0
LINE
  5
84
330
1F
100
AcDbEntity
  8
0
  6
Continuous
 62
     7
370
    25
100
AcDbLine
 10
6325.9177421978
 20
5334.0890885418
 30
0.0
 11
6325.8748447279
 21
5334.3226924698
 31
0.0
  0
SPLINE
  5
85
330
1F
100
AcDbEntity
  8
0
  6
Continuous
 62
     7
370
    25
100
AcDbSpline
210
0.0
220
0.0
230
1.0
 70
     8
 71
     3
 72
    16
 73
    12
 74
     0
 42
0.00000001
 43
0.00000001
 40
0.0
 40
0.0
 40
0.0
 40
0.0
 40
0.1218637754100744
 40
0.2438601478163014
 40
0.3654926707113217
 40
0.4865564122629626
 40
0.6072220222705131
 40
0.7278338409759595
 40
0.8487569636477629
 40
0.9702200657688181
 40
1.0
 40
1.0
 40
1.0
 40
1.0
 10
6327.119768474417
 20
5334.089088541815
 30
0.0
 10
6327.100682669619
 20
5334.022637343322
 30
0.0
 10
6327.062490293225
 20
5333.88966264241
 30
0.0
 10
6326.925313683075
 20
5333.728463632197
 30
0.0
 10
6326.746996708127
 20
5333.619866314109
 30
0.0
 10
6326.542088883418
 20
5333.577193483076
 30
0.0
 10
6326.335529391327
 20
5333.604372411942
 30
0.0
 10
6326.149501488313
 20
5333.69805422373
 30
0.0
 10
6326.005207178456
 20
5333.847762077702
 30
0.0
 10
6325.938678880801
 20
5333.989532905155
 30
0.0
 10
6325.921186473663
 20
5334.072710729084
 30
0.0
 10
6325.917742197836
 20
5334.089088541815
 30
0.0
  0
LINE
  5
86
330
1F
100
AcDbEntity
  8
0
  6
Continuous
 62
     7
370
    25
100
AcDbLine
 10
6327.1626659443
 20
5334.3226924698
 30
0.0
 11
6327.1197684744
 21
5334.0890885418
 31
0.0
  0
SPLINE
  5
87
330
1F
100
AcDbEntity
  8
0
  6
Continuous
 62
     7
370
    25
100
AcDbSpline
210
0.0
220
0.0
230
1.0
 70
     8
 71
     3
 72
    13
 73
     9
 74
     0
 42
0.00000001
 43
0.00000001
 40
0.0
 40
0.0
 40
0.0
 40
0.0
 40
0.1945921045769151
 40
0.3892164901963227
 40
0.5831042183269197
 40
0.7765337036200858
 40
0.9702718140459271
 40
0.9999999999999999
 40
0.9999999999999999
 40
0.9999999999999999
 40
0.9999999999999999
 10
6327.822123707392
 20
5334.703430586791
 30
0.0
 10
6327.767470356622
 20
5334.717059636818
 30
0.0
 10
6327.658154588591
 20
5334.744319997805
 30
0.0
 10
6327.488526902974
 20
5334.713599829294
 30
0.0
 10
6327.339033070427
 20
5334.632646262584
 30
0.0
 10
6327.225050841427
 20
5334.506276758551
 30
0.0
 10
6327.176928848064
 20
5334.393833156329
 30
0.0
 10
6327.16434058687
 20
5334.331045272474
 30
0.0
 10
6327.162665944315
 20
5334.322692469759
 30
0.0
  0
LINE
  5
88
330
1F
100
AcDbEntity
  8
0
  6
Continuous
 62
     7
370
    25
100
AcDbLine
 10
6328.0458793784
 20
5334.6237789215
 30
0.0
 11
6327.8221237074
 21
5334.7034305868
 31
0.0
  0
SPLINE
  5
89
330
1F
100
AcDbEntity
  8
0
  6
Continuous
 62
     7
370
    25
100
AcDbSpline
210
0.0
220
0.0
230
1.0
 70
     8
 71
     3
 72
    16
 73
    12
 74
     0
 42
0.00000001
 43
0.00000001
 40
0.0
 40
0.0
 40
0.0
 40
0.0
 40
0.1218023084595179
 40
0.2437987986391817
 40
0.3654315109113083
 40
0.4864954175119995
 40
0.6071610515961637
 40
0.7277727005266317
 40
0.8486954911235407
 40
0.970158199768721
 40
1.0
 40
1.0
 40
1.0
 40
1.0
 10
6328.646892516655
 20
5335.664764213044
 30
0.0
 10
6328.694875734721
 20
5335.61503768862
 30
0.0
 10
6328.790918667461
 20
5335.515505363919
 30
0.0
 10
6328.861955565342
 20
5335.316153992988
 30
0.0
 10
6328.866880768489
 20
5335.107428590702
 30
0.0
 10
6328.801416481908
 20
5334.908625356592
 30
0.0
 10
6328.674627094639
 20
5334.743307301957
 30
0.0
 10
6328.500501649886
 20
5334.629013529574
 30
0.0
 10
6328.298712578473
 20
5334.578871266375
 30
0.0
 10
6328.142633192899
 20
5334.592116092446
 30
0.0
 10
6328.061818472123
 20
5334.618562829475
 30
0.0
 10
6328.045879378365
 20
5334.623778921507
 30
0.0
  0
LINE
  5
8A
330
1F
100
AcDbEntity
  8
0
  6
Continuous
 62
     7
370
    25
100
AcDbLine
 10
6328.4660343156
 20
5335.8187164757
 30
0.0
 11
6328.6468925167
 21
5335.664764213
 31
0.0
  0
SPLINE
  5
8B
330
1F
100
AcDbEntity
  8
0
  6
Continuous
 62
     7
370
    25
100
AcDbSpline
210
0.0
220
0.0
230
1.0
 70
     8
 71
     3
 72
    13
 73
     9
 74
     0
 42
0.00000001
 43
0.00000001
 40
0.0
 40
0.0
 40
0.0
 40
0.0
 40
0.1945921045769553
 40
0.3892164901962598
 40
0.5831042183268476
 40
0.7765337036201658
 40
0.9702718140458332
 40
1.0
 40
1.0
 40
1.0
 40
1.0
 10
6328.466034315579
 20
5336.580192709769
 30
0.0
 10
6328.426904536643
 20
5336.539676044614
 30
0.0
 10
6328.348638487496
 20
5336.458635992958
 30
0.0
 10
6328.290429091025
 20
5336.296374023773
 30
0.0
 10
6328.28579002005
 20
5336.126431783724
 30
0.0
 10
6328.338238106307
 20
5335.964535525814
 30
0.0
 10
6328.411556125641
 20
5335.866638855969
 30
0.0
 10
6328.459637897514
 20
5335.824343160057
 30
0.0
 10
6328.466034315579
 20
5335.818716475705
 30
0.0
  0
LINE
  5
8C
330
1F
100
AcDbEntity
  8
0
  6
Continuous
 62
     7
370
    25
100
AcDbLine
 10
6328.6468925167
 20
5336.7341449724
 30
0.0
 11
6328.4660343156
 21
5336.5801927098
 31
0.0
  0
SPLINE
  5
8D
330
1F
100
AcDbEntity
  8
0
  6
Continuous
 62
     7
370
    25
100
AcDbSpline
210
0.0
220
0.0
230
1.0
 70
     8
 71
     3
 72
    16
 73
    12
 74
     0
 42
0.00000001
 43
0.00000001
 40
0.0
 40
0.0
 40
0.0
 40
0.0
 40
0.1218585400097055
 40
0.2438549224446302
 40
0.3654874614654055
 40
0.4865512170680177
 40
0.6072168291173949
 40
0.7278286333533927
 40
0.8487517277332145
 40
0.9702147963347939
 40
1.0
 40
1.0
 40
1.0
 40
1.0
 10
6328.045879378365
 20
5337.775130263966
 30
0.0
 10
6328.11296770125
 20
5337.791826612963
 30
0.0
 10
6328.247220235156
 20
5337.825238197324
 30
0.0
 10
6328.455408513311
 20
5337.787042935894
 30
0.0
 10
6328.638616534496
 20
5337.6869172068
 30
0.0
 10
6328.778028488793
 20
5337.530800251802
 30
0.0
 10
6328.857773389059
 20
5337.338326158769
 30
0.0
 10
6328.869659532455
 20
5337.130380520469
 30
0.0
 10
6328.812158743449
 20
5336.930563277785
 30
0.0
 10
6328.722646004187
 20
5336.802058776654
 30
0.0
 10
6328.659356139988
 20
5336.745318742806
 30
0.0
 10
6328.646892516655
 20
5336.73414497243
 30
0.0
  0
LINE
  5
8E
330
1F
100
AcDbEntity
  8
0
  6
Continuous
 62
     7
370
    25
100
AcDbLine
 10
6327.8221237074
 20
5337.6954785987
 30
0.0
 11
6328.0458793784
 21
5337.775130264
 31
0.0
  0
SPLINE
  5
8F
330
1F
100
AcDbEntity
  8
0
  6
Continuous
 62
     7
370
    25
100
AcDbSpline
210
0.0
220
0.0
230
1.0
 70
     8
 71
     3
 72
    13
 73
     9
 74
     0
 42
0.00000001
 43
0.00000001
 40
0.0
 40
0.0
 40
0.0
 40
0.0
 40
0.1945921045770271
 40
0.3892164901962509
 40
0.5831042183268673
 40
0.7765337036200386
 40
0.9702718140457952
 40
1.0
 40
1.0
 40
1.0
 40
1.0
 10
6327.162665944315
 20
5338.076216715715
 30
0.0
 10
6327.178189516147
 20
5338.022071000532
 30
0.0
 10
6327.209239235031
 20
5337.91377058789
 30
0.0
 10
6327.320657524177
 20
5337.782228787215
 30
0.0
 10
6327.465512285749
 20
5337.693240113876
 30
0.0
 10
6327.631942601006
 20
5337.657713359999
 30
0.0
 10
6327.753382613705
 20
5337.672260292376
 30
0.0
 10
6327.814052646771
 20
5337.69275248032
 30
0.0
 10
6327.822123707392
 20
5337.695478598683
 30
0.0
  0
LINE
  5
90
330
1F
100
AcDbEntity
  8
0
  6
Continuous
 62
     7
370
    25
100
AcDbLine
 10
6327.1197684744
 20
5338.3098206437
 30
0.0
 11
6327.1626659443
 21
5338.0762167157
 31
0.0
  0
SPLINE
  5
91
330
1F
100
AcDbEntity
  8
0
  6
Continuous
 62
     7
370
    25
100
AcDbSpline
210
0.0
220
0.0
230
1.0
 70
     8
 71
     3
 72
    16
 73
    12
 74
     0
 42
0.00000001
 43
0.00000001
 40
0.0
 40
0.0
 40
0.0
 40
0.0
 40
0.1218637754099513
 40
0.2438601478162948
 40
0.3654926707113179
 40
0.4865564122629965
 40
0.6072220222705527
 40
0.7278338409760083
 40
0.8487569636478557
 40
0.970220065768844
 40
0.9999999999999999
 40
0.9999999999999999
 40
0.9999999999999999
 40
0.9999999999999999
 10
6325.917742197836
 20
5338.30982064366
 30
0.0
 10
6325.936828002634
 20
5338.376271842151
 30
0.0
 10
6325.975020379028
 20
5338.509246543063
 30
0.0
 10
6326.112196989178
 20
5338.670445553276
 30
0.0
 10
6326.290513964126
 20
5338.779042871366
 30
0.0
 10
6326.495421788835
 20
5338.821715702396
 30
0.0
 10
6326.701981280926
 20
5338.794536773531
 30
0.0
 10
6326.88800918394
 20
5338.700854961743
 30
0.0
 10
6327.032303493797
 20
5338.551147107771
 30
0.0
 10
6327.098831791453
 20
5338.409376280318
 30
0.0
 10
6327.116324198591
 20
5338.32619845639
 30
0.0
 10
6327.119768474417
 20
5338.30982064366
 30
0.0
  0
LINE
  5
92
330
1F
100
AcDbEntity
  8
0
  6
Continuous
 62
     7
370
    25
100
AcDbLine
 10
6325.8748447279
 20
5338.0762167157
 30
0.0
 11
6325.9177421978
 21
5338.3098206437
 31
0.0
  0
SPLINE
  5
93
330
1F
100
AcDbEntity
  8
0
  6
Continuous
 62
     7
370
    25
100
AcDbSpline
210
0.0
220
0.0
230
1.0
 70
     8
 71
     3
 72
    13
 73
     9
 74
     0
 42
0.00000001
 43
0.00000001
 40
0.0
 40
0.0
 40
0.0
 40
0.0
 40
0.1945921045769649
 40
0.3892164901964043
 40
0.5831042183268592
 40
0.7765337036200425
 40
0.9702718140457667
 40
1.0
 40
1.0
 40
1.0
 40
1.0
 10
6325.215386964861
 20
5337.695478598682
 30
0.0
 10
6325.270040315631
 20
5337.681849548655
 30
0.0
 10
6325.379356083662
 20
5337.654589187669
 30
0.0
 10
6325.548983769279
 20
5337.685309356179
 30
0.0
 10
6325.698477601826
 20
5337.766262922889
 30
0.0
 10
6325.812459830826
 20
5337.892632426922
 30
0.0
 10
6325.86058182419
 20
5338.005076029143
 30
0.0
 10
6325.873170085383
 20
5338.067863913
 30
0.0
 10
6325.874844727939
 20
5338.076216715715
 30
0.0
  0
LINE
  5
94
330
1F
100
AcDbEntity
  8
0
  6
Continuous
 62
     7
370
    25
100
AcDbLine
 10
6324.9916312939
 20
5337.775130264
 30
0.0
 11
6325.2153869649
 21
5337.6954785987
 31
0.0
  0
SPLINE
  5
95
330
1F
100
AcDbEntity
  8
0
  6
Continuous
 62
     7
370
    25
100
AcDbSpline
210
0.0
220
0.0
230
1.0
 70
     8
 71
     3
 72
    16
 73
    12
 74
     0
 42
0.00000001
 43
0.00000001
 40
0.0
 40
0.0
 40
0.0
 40
0.0
 40
0.1218023084594663
 40
0.2437987986392144
 40
0.3654315109112937
 40
0.4864954175120224
 40
0.6071610515960482
 40
0.727772700526611
 40
0.8486954911235384
 40
0.9701581997686872
 40
1.0
 40
1.0
 40
1.0
 40
1.0
 10
6324.390618155598
 20
5336.73414497243
 30
0.0
 10
6324.342634937532
 20
5336.783871496853
 30
0.0
 10
6324.246592004792
 20
5336.883403821555
 30
0.0
 10
6324.175555106911
 20
5337.082755192485
 30
0.0
 10
6324.170629903765
 20
5337.291480594772
 30
0.0
 10
6324.236094190345
 20
5337.490283828881
 30
0.0
 10
6324.362883577615
 20
5337.655601883516
 30
0.0
 10
6324.537009022367
 20
5337.769895655899
 30
0.0
 10
6324.73879809378
 20
5337.820037919098
 30
0.0
 10
6324.894877479354
 20
5337.806793093027
 30
0.0
 10
6324.975692200131
 20
5337.780346355999
 30
0.0
 10
6324.991631293889
 20
5337.775130263966
 30
0.0
  0
LINE
  5
96
330
1F
100
AcDbEntity
  8
0
  6
Continuous
 62
     7
370
    25
100
AcDbLine
 10
6324.5714763567
 20
5336.5801927098
 30
0.0
 11
6324.3906181556
 21
5336.7341449724
 31
0.0
  0
SPLINE
  5
97
330
1F
100
AcDbEntity
  8
0
  6
Continuous
 62
     7
370
    25
100
AcDbSpline
210
0.0
220
0.0
230
1.0
 70
     8
 71
     3
 72
    13
 73
     9
 74
     0
 42
0.00000001
 43
0.00000001
 40
0.0
 40
0.0
 40
0.0
 40
0.0
 40
0.1945921045769902
 40
0.3892164901961346
 40
0.5831042183270414
 40
0.7765337036200353
 40
0.9702718140458453
 40
0.9999999999999999
 40
0.9999999999999999
 40
0.9999999999999999
 40
0.9999999999999999
 10
6324.571476356674
 20
5335.818716475705
 30
0.0
 10
6324.610606135612
 20
5335.859233140861
 30
0.0
 10
6324.688872184757
 20
5335.940273192515
 30
0.0
 10
6324.747081581228
 20
5336.1025351617
 30
0.0
 10
6324.751720652203
 20
5336.272477401751
 30
0.0
 10
6324.699272565947
 20
5336.43437365966
 30
0.0
 10
6324.625954546612
 20
5336.532270329504
 30
0.0
 10
6324.577872774739
 20
5336.574566025416
 30
0.0
 10
6324.571476356674
 20
5336.580192709769
 30
0.0
  0
LINE
  5
98
330
1F
100
AcDbEntity
  8
0
  6
Continuous
 62
     7
370
    25
100
AcDbLine
 10
6324.3906181556
 20
5335.664764213
 30
0.0
 11
6324.5714763567
 21
5335.8187164757
 31
0.0
  0
CIRCLE
  5
99
330
1F
100
AcDbEntity
  8
0
  6
Continuous
 62
     7
370
    25
100
AcDbCircle
 10
6326.5187553361
 20
5091.1994545927
 30
0.0
 40
0.75
  0
CIRCLE
  5
9A
330
1F
100
AcDbEntity
  8
0
  6
Continuous
 62
     7
370
    25
100
AcDbCircle
 10
6326.5187553361
 20
5091.1994545927
 30
0.0
 40
4.5
  0
SPLINE
  5
9B
330
1F
100
AcDbEntity
  8
0
  6
Continuous
 62
     7
370
    25
100
AcDbSpline
210
0.0
220
0.0
230
1.0
 70
     8
 71
     3
 72
    16
 73
    12
 74
     0
 42
0.00000001
 43
0.00000001
 40
0.0
 40
0.0
 40
0.0
 40
0.0
 40
0.1218585400097466
 40
0.2438549224446628
 40
0.3654874614654278
 40
0.4865512170680328
 40
0.607216829117597
 40
0.7278286333535067
 40
0.8487517277333497
 40
0.970214796334848
 40
1.0
 40
1.0
 40
1.0
 40
1.0
 10
6324.991631293889
 20
5089.623778921472
 30
0.0
 10
6324.924542971004
 20
5089.607082572476
 30
0.0
 10
6324.790290437098
 20
5089.573670988114
 30
0.0
 10
6324.582102158943
 20
5089.611866249545
 30
0.0
 10
6324.398894137758
 20
5089.711991978638
 30
0.0
 10
6324.25948218346
 20
5089.868108933635
 30
0.0
 10
6324.179737283194
 20
5090.06058302667
 30
0.0
 10
6324.167851139799
 20
5090.268528664969
 30
0.0
 10
6324.225351928804
 20
5090.468345907653
 30
0.0
 10
6324.314864668066
 20
5090.596850408784
 30
0.0
 10
6324.378154532266
 20
5090.653590442632
 30
0.0
 10
6324.390618155598
 20
5090.664764213007
 30
0.0
  0
LINE
  5
9C
330
1F
100
AcDbEntity
  8
0
  6
Continuous
 62
     7
370
    25
100
AcDbLine
 10
6325.2153869649
 20
5089.7034305868
 30
0.0
 11
6324.9916312939
 21
5089.6237789215
 31
0.0
  0
SPLINE
  5
9D
330
1F
100
AcDbEntity
  8
0
  6
Continuous
 62
     7
370
    25
100
AcDbSpline
210
0.0
220
0.0
230
1.0
 70
     8
 71
     3
 72
    13
 73
     9
 74
     0
 42
0.00000001
 43
0.00000001
 40
0.0
 40
0.0
 40
0.0
 40
0.0
 40
0.1945921045771
 40
0.3892164901963702
 40
0.5831042183270193
 40
0.7765337036201375
 40
0.9702718140458698
 40
1.0
 40
1.0
 40
1.0
 40
1.0
 10
6325.874844727939
 20
5089.322692469724
 30
0.0
 10
6325.859321156106
 20
5089.376838184906
 30
0.0
 10
6325.828271437223
 20
5089.485138597547
 30
0.0
 10
6325.716853148076
 20
5089.616680398222
 30
0.0
 10
6325.571998386504
 20
5089.705669071563
 30
0.0
 10
6325.405568071248
 20
5089.74119582544
 30
0.0
 10
6325.284128058549
 20
5089.726648893063
 30
0.0
 10
6325.223458025483
 20
5089.706156705118
 30
0.0
 10
6325.215386964861
 20
5089.703430586756
 30
0.0
  0
LINE
  5
9E
330
1F
100
AcDbEntity
  8
0
  6
Continuous
 62
     7
370
    25
100
AcDbLine
 10
6325.9177421978
 20
5089.0890885418
 30
0.0
 11
6325.8748447279
 21
5089.3226924697
 31
0.0
  0
SPLINE
  5
9F
330
1F
100
AcDbEntity
  8
0
  6
Continuous
 62
     7
370
    25
100
AcDbSpline
210
0.0
220
0.0
230
1.0
 70
     8
 71
     3
 72
    16
 73
    12
 74
     0
 42
0.00000001
 43
0.00000001
 40
0.0
 40
0.0
 40
0.0
 40
0.0
 40
0.1218637754100744
 40
0.2438601478163014
 40
0.3654926707113217
 40
0.4865564122629626
 40
0.6072220222705131
 40
0.7278338409759595
 40
0.8487569636477629
 40
0.9702200657688181
 40
1.0
 40
1.0
 40
1.0
 40
1.0
 10
6327.119768474418
 20
5089.089088541778
 30
0.0
 10
6327.100682669619
 20
5089.022637343286
 30
0.0
 10
6327.062490293225
 20
5088.889662642376
 30
0.0
 10
6326.925313683076
 20
5088.728463632162
 30
0.0
 10
6326.746996708127
 20
5088.619866314072
 30
0.0
 10
6326.542088883418
 20
5088.577193483042
 30
0.0
 10
6326.335529391327
 20
5088.604372411907
 30
0.0
 10
6326.149501488313
 20
5088.698054223695
 30
0.0
 10
6326.005207178457
 20
5088.847762077668
 30
0.0
 10
6325.938678880801
 20
5088.989532905121
 30
0.0
 10
6325.921186473663
 20
5089.072710729049
 30
0.0
 10
6325.917742197836
 20
5089.089088541778
 30
0.0
  0
LINE
  5
A0
330
1F
100
AcDbEntity
  8
0
  6
Continuous
 62
     7
370
    25
100
AcDbLine
 10
6327.1626659443
 20
5089.3226924697
 30
0.0
 11
6327.1197684744
 21
5089.0890885418
 31
0.0
  0
LINE
  5
A1
330
1F
100
AcDbEntity
  8
0
  6
Continuous
 62
     7
370
    25
100
AcDbLine
 10
6328.0458793784
 20
5089.6237789215
 30
0.0
 11
6327.8221237074
 21
5089.7034305868
 31
0.0
  0
SPLINE
  5
A2
330
1F
100
AcDbEntity
  8
0
  6
Continuous
 62
     7
370
    25
100
AcDbSpline
210
0.0
220
0.0
230
1.0
 70
     8
 71
     3
 72
    16
 73
    12
 74
     0
 42
0.00000001
 43
0.00000001
 40
0.0
 40
0.0
 40
0.0
 40
0.0
 40
0.1218023084595179
 40
0.2437987986391817
 40
0.3654315109113083
 40
0.4864954175119995
 40
0.6071610515961637
 40
0.7277727005266317
 40
0.8486954911235407
 40
0.970158199768721
 40
1.0
 40
1.0
 40
1.0
 40
1.0
 10
6328.646892516655
 20
5090.664764213007
 30
0.0
 10
6328.694875734721
 20
5090.615037688584
 30
0.0
 10
6328.790918667461
 20
5090.515505363884
 30
0.0
 10
6328.861955565342
 20
5090.316153992953
 30
0.0
 10
6328.866880768489
 20
5090.107428590666
 30
0.0
 10
6328.801416481908
 20
5089.908625356557
 30
0.0
 10
6328.674627094639
 20
5089.743307301922
 30
0.0
 10
6328.500501649886
 20
5089.629013529539
 30
0.0
 10
6328.298712578473
 20
5089.578871266341
 30
0.0
 10
6328.142633192899
 20
5089.592116092411
 30
0.0
 10
6328.061818472123
 20
5089.61856282944
 30
0.0
 10
6328.045879378365
 20
5089.623778921472
 30
0.0
  0
LINE
  5
A3
330
1F
100
AcDbEntity
  8
0
  6
Continuous
 62
     7
370
    25
100
AcDbLine
 10
6328.4660343156
 20
5090.8187164757
 30
0.0
 11
6328.6468925167
 21
5090.664764213
 31
0.0
  0
SPLINE
  5
A4
330
1F
100
AcDbEntity
  8
0
  6
Continuous
 62
     7
370
    25
100
AcDbSpline
210
0.0
220
0.0
230
1.0
 70
     8
 71
     3
 72
    13
 73
     9
 74
     0
 42
0.00000001
 43
0.00000001
 40
0.0
 40
0.0
 40
0.0
 40
0.0
 40
0.1945921045769553
 40
0.3892164901962598
 40
0.5831042183268476
 40
0.7765337036201658
 40
0.9702718140458332
 40
1.0
 40
1.0
 40
1.0
 40
1.0
 10
6328.466034315579
 20
5091.580192709734
 30
0.0
 10
6328.426904536643
 20
5091.539676044577
 30
0.0
 10
6328.348638487496
 20
5091.458635992924
 30
0.0
 10
6328.290429091025
 20
5091.296374023738
 30
0.0
 10
6328.28579002005
 20
5091.126431783688
 30
0.0
 10
6328.338238106307
 20
5090.964535525778
 30
0.0
 10
6328.411556125641
 20
5090.866638855933
 30
0.0
 10
6328.459637897514
 20
5090.824343160022
 30
0.0
 10
6328.466034315579
 20
5090.818716475669
 30
0.0
  0
LINE
  5
A5
330
1F
100
AcDbEntity
  8
0
  6
Continuous
 62
     7
370
    25
100
AcDbLine
 10
6328.6468925167
 20
5091.7341449724
 30
0.0
 11
6328.4660343156
 21
5091.5801927097
 31
0.0
  0
SPLINE
  5
A6
330
1F
100
AcDbEntity
  8
0
  6
Continuous
 62
     7
370
    25
100
AcDbSpline
210
0.0
220
0.0
230
1.0
 70
     8
 71
     3
 72
    16
 73
    12
 74
     0
 42
0.00000001
 43
0.00000001
 40
0.0
 40
0.0
 40
0.0
 40
0.0
 40
0.1218585400097055
 40
0.2438549224446302
 40
0.3654874614654055
 40
0.4865512170680177
 40
0.6072168291173949
 40
0.7278286333533927
 40
0.8487517277332145
 40
0.9702147963347939
 40
1.0
 40
1.0
 40
1.0
 40
1.0
 10
6328.045879378365
 20
5092.775130263931
 30
0.0
 10
6328.11296770125
 20
5092.791826612927
 30
0.0
 10
6328.247220235156
 20
5092.825238197289
 30
0.0
 10
6328.455408513311
 20
5092.787042935859
 30
0.0
 10
6328.638616534496
 20
5092.686917206765
 30
0.0
 10
6328.778028488793
 20
5092.530800251767
 30
0.0
 10
6328.857773389059
 20
5092.338326158732
 30
0.0
 10
6328.869659532455
 20
5092.130380520433
 30
0.0
 10
6328.812158743449
 20
5091.93056327775
 30
0.0
 10
6328.722646004187
 20
5091.802058776619
 30
0.0
 10
6328.659356139988
 20
5091.74531874277
 30
0.0
 10
6328.646892516655
 20
5091.734144972394
 30
0.0
  0
LINE
  5
A7
330
1F
100
AcDbEntity
  8
0
  6
Continuous
 62
     7
370
    25
100
AcDbLine
 10
6327.8221237074
 20
5092.6954785986
 30
0.0
 11
6328.0458793784
 21
5092.7751302639
 31
0.0
  0
SPLINE
  5
A8
330
1F
100
AcDbEntity
  8
0
  6
Continuous
 62
     7
370
    25
100
AcDbSpline
210
0.0
220
0.0
230
1.0
 70
     8
 71
     3
 72
    13
 73
     9
 74
     0
 42
0.00000001
 43
0.00000001
 40
0.0
 40
0.0
 40
0.0
 40
0.0
 40
0.1945921045770275
 40
0.3892164901962517
 40
0.5831042183268685
 40
0.7765337036200401
 40
0.9702718140457951
 40
1.0
 40
1.0
 40
1.0
 40
1.0
 10
6327.162665944315
 20
5093.076216715679
 30
0.0
 10
6327.178189516147
 20
5093.022071000497
 30
0.0
 10
6327.209239235031
 20
5092.913770587855
 30
0.0
 10
6327.320657524178
 20
5092.78222878718
 30
0.0
 10
6327.46551228575
 20
5092.69324011384
 30
0.0
 10
6327.631942601006
 20
5092.657713359964
 30
0.0
 10
6327.753382613705
 20
5092.67226029234
 30
0.0
 10
6327.814052646771
 20
5092.692752480285
 30
0.0
 10
6327.822123707392
 20
5092.695478598647
 30
0.0
  0
LINE
  5
A9
330
1F
100
AcDbEntity
  8
0
  6
Continuous
 62
     7
370
    25
100
AcDbLine
 10
6327.1197684744
 20
5093.3098206436
 30
0.0
 11
6327.1626659443
 21
5093.0762167157
 31
0.0
  0
SPLINE
  5
AA
330
1F
100
AcDbEntity
  8
0
  6
Continuous
 62
     7
370
    25
100
AcDbSpline
210
0.0
220
0.0
230
1.0
 70
     8
 71
     3
 72
    16
 73
    12
 74
     0
 42
0.00000001
 43
0.00000001
 40
0.0
 40
0.0
 40
0.0
 40
0.0
 40
0.1218637754099513
 40
0.2438601478162948
 40
0.3654926707113179
 40
0.4865564122629965
 40
0.6072220222705527
 40
0.7278338409760083
 40
0.8487569636478557
 40
0.970220065768844
 40
0.9999999999999999
 40
0.9999999999999999
 40
0.9999999999999999
 40
0.9999999999999999
 10
6325.917742197836
 20
5093.309820643623
 30
0.0
 10
6325.936828002634
 20
5093.376271842117
 30
0.0
 10
6325.975020379028
 20
5093.509246543027
 30
0.0
 10
6326.112196989178
 20
5093.670445553242
 30
0.0
 10
6326.290513964126
 20
5093.77904287133
 30
0.0
 10
6326.495421788835
 20
5093.821715702362
 30
0.0
 10
6326.701981280926
 20
5093.794536773496
 30
0.0
 10
6326.88800918394
 20
5093.700854961709
 30
0.0
 10
6327.032303493797
 20
5093.551147107736
 30
0.0
 10
6327.098831791453
 20
5093.409376280283
 30
0.0
 10
6327.116324198591
 20
5093.326198456354
 30
0.0
 10
6327.119768474418
 20
5093.309820643623
 30
0.0
  0
LINE
  5
AB
330
1F
100
AcDbEntity
  8
0
  6
Continuous
 62
     7
370
    25
100
AcDbLine
 10
6325.8748447279
 20
5093.0762167157
 30
0.0
 11
6325.9177421978
 21
5093.3098206436
 31
0.0
  0
SPLINE
  5
AC
330
1F
100
AcDbEntity
  8
0
  6
Continuous
 62
     7
370
    25
100
AcDbSpline
210
0.0
220
0.0
230
1.0
 70
     8
 71
     3
 72
    13
 73
     9
 74
     0
 42
0.00000001
 43
0.00000001
 40
0.0
 40
0.0
 40
0.0
 40
0.0
 40
0.1945921045769649
 40
0.3892164901964043
 40
0.5831042183268592
 40
0.7765337036200425
 40
0.9702718140457667
 40
1.0
 40
1.0
 40
1.0
 40
1.0
 10
6325.215386964861
 20
5092.695478598647
 30
0.0
 10
6325.270040315631
 20
5092.68184954862
 30
0.0
 10
6325.379356083662
 20
5092.654589187633
 30
0.0
 10
6325.548983769279
 20
5092.685309356144
 30
0.0
 10
6325.698477601826
 20
5092.766262922853
 30
0.0
 10
6325.812459830826
 20
5092.892632426887
 30
0.0
 10
6325.86058182419
 20
5093.005076029108
 30
0.0
 10
6325.873170085383
 20
5093.067863912965
 30
0.0
 10
6325.874844727939
 20
5093.076216715679
 30
0.0
  0
LINE
  5
AD
330
1F
100
AcDbEntity
  8
0
  6
Continuous
 62
     7
370
    25
100
AcDbLine
 10
6324.9916312939
 20
5092.7751302639
 30
0.0
 11
6325.2153869649
 21
5092.6954785986
 31
0.0
  0
SPLINE
  5
AE
330
1F
100
AcDbEntity
  8
0
  6
Continuous
 62
     7
370
    25
100
AcDbSpline
210
0.0
220
0.0
230
1.0
 70
     8
 71
     3
 72
    16
 73
    12
 74
     0
 42
0.00000001
 43
0.00000001
 40
0.0
 40
0.0
 40
0.0
 40
0.0
 40
0.1218023084594663
 40
0.2437987986392144
 40
0.3654315109112937
 40
0.4864954175120224
 40
0.6071610515960482
 40
0.727772700526611
 40
0.8486954911235384
 40
0.9701581997686872
 40
1.0
 40
1.0
 40
1.0
 40
1.0
 10
6324.390618155598
 20
5091.734144972394
 30
0.0
 10
6324.342634937533
 20
5091.783871496818
 30
0.0
 10
6324.246592004792
 20
5091.883403821519
 30
0.0
 10
6324.175555106911
 20
5092.08275519245
 30
0.0
 10
6324.170629903765
 20
5092.291480594737
 30
0.0
 10
6324.236094190345
 20
5092.490283828846
 30
0.0
 10
6324.362883577615
 20
5092.655601883481
 30
0.0
 10
6324.537009022367
 20
5092.769895655863
 30
0.0
 10
6324.73879809378
 20
5092.820037919062
 30
0.0
 10
6324.894877479354
 20
5092.806793092992
 30
0.0
 10
6324.975692200131
 20
5092.780346355963
 30
0.0
 10
6324.991631293889
 20
5092.775130263931
 30
0.0
  0
LINE
  5
AF
330
1F
100
AcDbEntity
  8
0
  6
Continuous
 62
     7
370
    25
100
AcDbLine
 10
6324.5714763567
 20
5091.5801927097
 30
0.0
 11
6324.3906181556
 21
5091.7341449724
 31
0.0
  0
SPLINE
  5
B0
330
1F
100
AcDbEntity
  8
0
  6
Continuous
 62
     7
370
    25
100
AcDbSpline
210
0.0
220
0.0
230
1.0
 70
     8
 71
     3
 72
    13
 73
     9
 74
     0
 42
0.00000001
 43
0.00000001
 40
0.0
 40
0.0
 40
0.0
 40
0.0
 40
0.1945921045769902
 40
0.3892164901961346
 40
0.5831042183270414
 40
0.7765337036200353
 40
0.9702718140458453
 40
0.9999999999999999
 40
0.9999999999999999
 40
0.9999999999999999
 40
0.9999999999999999
 10
6324.571476356674
 20
5090.818716475669
 30
0.0
 10
6324.610606135612
 20
5090.859233140824
 30
0.0
 10
6324.688872184757
 20
5090.94027319248
 30
0.0
 10
6324.747081581228
 20
5091.102535161665
 30
0.0
 10
6324.751720652203
 20
5091.272477401714
 30
0.0
 10
6324.699272565947
 20
5091.434373659625
 30
0.0
 10
6324.625954546613
 20
5091.53227032947
 30
0.0
 10
6324.577872774739
 20
5091.574566025382
 30
0.0
 10
6324.571476356674
 20
5091.580192709734
 30
0.0
  0
LINE
  5
B1
330
1F
100
AcDbEntity
  8
0
  6
Continuous
 62
     7
370
    25
100
AcDbLine
 10
6324.3906181556
 20
5090.664764213
 30
0.0
 11
6324.5714763567
 21
5090.8187164757
 31
0.0
  0
SPLINE
  5
B2
330
1F
100
AcDbEntity
  8
0
  6
Continuous
 62
     7
370
    25
100
AcDbSpline
210
0.0
220
0.0
230
1.0
 70
     8
 71
     3
 72
    13
 73
     9
 74
     0
 42
0.00000001
 43
0.00000001
 40
0.0
 40
0.0
 40
0.0
 40
0.0
 40
0.1945921045769136
 40
0.3892164901963216
 40
0.583104218326919
 40
0.7765337036200856
 40
0.9702718140459272
 40
1.0
 40
1.0
 40
1.0
 40
1.0
 10
6327.822123707392
 20
5089.703430586756
 30
0.0
 10
6327.767470356622
 20
5089.717059636782
 30
0.0
 10
6327.658154588591
 20
5089.744319997769
 30
0.0
 10
6327.488526902975
 20
5089.71359982926
 30
0.0
 10
6327.339033070427
 20
5089.632646262549
 30
0.0
 10
6327.225050841427
 20
5089.506276758516
 30
0.0
 10
6327.176928848064
 20
5089.393833156294
 30
0.0
 10
6327.16434058687
 20
5089.331045272438
 30
0.0
 10
6327.162665944315
 20
5089.322692469724
 30
0.0
  0
CIRCLE
  5
B3
330
1F
100
AcDbEntity
  8
0
  6
Continuous
 62
     7
370
    25
100
AcDbCircle
 10
6221.5187553361
 20
5091.1994545927
 30
0.0
 40
0.75
  0
CIRCLE
  5
B4
330
1F
100
AcDbEntity
  8
0
  6
Continuous
 62
     7
370
    25
100
AcDbCircle
 10
6221.5187553361
 20
5091.1994545927
 30
0.0
 40
4.500000000000909
  0
SPLINE
  5
B5
330
1F
100
AcDbEntity
  8
0
  6
Continuous
 62
     7
370
    25
100
AcDbSpline
210
0.0
220
0.0
230
1.0
 70
     8
 71
     3
 72
    16
 73
    12
 74
     0
 42
0.00000001
 43
0.00000001
 40
0.0
 40
0.0
 40
0.0
 40
0.0
 40
0.121858540009747
 40
0.2438549224446637
 40
0.365487461465429
 40
0.4865512170680345
 40
0.6072168291175976
 40
0.7278286333535077
 40
0.84875172773335
 40
0.970214796334851
 40
1.0
 40
1.0
 40
1.0
 40
1.0
 10
6219.991631293836
 20
5089.623778921472
 30
0.0
 10
6219.92454297095
 20
5089.607082572476
 30
0.0
 10
6219.790290437045
 20
5089.573670988114
 30
0.0
 10
6219.582102158889
 20
5089.611866249545
 30
0.0
 10
6219.398894137706
 20
5089.711991978638
 30
0.0
 10
6219.259482183406
 20
5089.868108933635
 30
0.0
 10
6219.179737283142
 20
5090.06058302667
 30
0.0
 10
6219.167851139746
 20
5090.268528664969
 30
0.0
 10
6219.225351928751
 20
5090.468345907653
 30
0.0
 10
6219.314864668012
 20
5090.596850408784
 30
0.0
 10
6219.378154532213
 20
5090.653590442632
 30
0.0
 10
6219.390618155545
 20
5090.664764213007
 30
0.0
  0
LINE
  5
B6
330
1F
100
AcDbEntity
  8
0
  6
Continuous
 62
     7
370
    25
100
AcDbLine
 10
6220.2153869648
 20
5089.7034305868
 30
0.0
 11
6219.9916312938
 21
5089.6237789215
 31
0.0
  0
SPLINE
  5
B7
330
1F
100
AcDbEntity
  8
0
  6
Continuous
 62
     7
370
    25
100
AcDbSpline
210
0.0
220
0.0
230
1.0
 70
     8
 71
     3
 72
    13
 73
     9
 74
     0
 42
0.00000001
 43
0.00000001
 40
0.0
 40
0.0
 40
0.0
 40
0.0
 40
0.1945921045770989
 40
0.3892164901963731
 40
0.5831042183270142
 40
0.7765337036201313
 40
0.9702718140458623
 40
1.0
 40
1.0
 40
1.0
 40
1.0
 10
6220.874844727886
 20
5089.322692469724
 30
0.0
 10
6220.859321156053
 20
5089.376838184906
 30
0.0
 10
6220.828271437169
 20
5089.485138597547
 30
0.0
 10
6220.716853148022
 20
5089.616680398222
 30
0.0
 10
6220.57199838645
 20
5089.705669071563
 30
0.0
 10
6220.405568071195
 20
5089.74119582544
 30
0.0
 10
6220.284128058495
 20
5089.726648893063
 30
0.0
 10
6220.223458025429
 20
5089.706156705118
 30
0.0
 10
6220.215386964808
 20
5089.703430586756
 30
0.0
  0
LINE
  5
B8
330
1F
100
AcDbEntity
  8
0
  6
Continuous
 62
     7
370
    25
100
AcDbLine
 10
6220.9177421978
 20
5089.0890885418
 30
0.0
 11
6220.8748447279
 21
5089.3226924697
 31
0.0
  0
SPLINE
  5
B9
330
1F
100
AcDbEntity
  8
0
  6
Continuous
 62
     7
370
    25
100
AcDbSpline
210
0.0
220
0.0
230
1.0
 70
     8
 71
     3
 72
    16
 73
    12
 74
     0
 42
0.00000001
 43
0.00000001
 40
0.0
 40
0.0
 40
0.0
 40
0.0
 40
0.1218637754100732
 40
0.2438601478163029
 40
0.36549267071132
 40
0.4865564122629611
 40
0.6072220222705117
 40
0.727833840975962
 40
0.8487569636477627
 40
0.9702200657688181
 40
1.0
 40
1.0
 40
1.0
 40
1.0
 10
6222.119768474365
 20
5089.089088541778
 30
0.0
 10
6222.100682669567
 20
5089.022637343286
 30
0.0
 10
6222.062490293172
 20
5088.889662642376
 30
0.0
 10
6221.925313683022
 20
5088.728463632162
 30
0.0
 10
6221.746996708074
 20
5088.619866314072
 30
0.0
 10
6221.542088883365
 20
5088.577193483042
 30
0.0
 10
6221.335529391275
 20
5088.604372411907
 30
0.0
 10
6221.14950148826
 20
5088.698054223695
 30
0.0
 10
6221.005207178403
 20
5088.847762077668
 30
0.0
 10
6220.938678880748
 20
5088.989532905121
 30
0.0
 10
6220.92118647361
 20
5089.072710729049
 30
0.0
 10
6220.917742197782
 20
5089.089088541778
 30
0.0
  0
LINE
  5
BA
330
1F
100
AcDbEntity
  8
0
  6
Continuous
 62
     7
370
    25
100
AcDbLine
 10
6222.1626659443
 20
5089.3226924697
 30
0.0
 11
6222.1197684744
 21
5089.0890885418
 31
0.0
  0
LINE
  5
BB
330
1F
100
AcDbEntity
  8
0
  6
Continuous
 62
     7
370
    25
100
AcDbLine
 10
6223.0458793783
 20
5089.6237789215
 30
0.0
 11
6222.8221237073
 21
5089.7034305868
 31
0.0
  0
SPLINE
  5
BC
330
1F
100
AcDbEntity
  8
0
  6
Continuous
 62
     7
370
    25
100
AcDbSpline
210
0.0
220
0.0
230
1.0
 70
     8
 71
     3
 72
    16
 73
    12
 74
     0
 42
0.00000001
 43
0.00000001
 40
0.0
 40
0.0
 40
0.0
 40
0.0
 40
0.121802308459518
 40
0.2437987986391833
 40
0.3654315109113099
 40
0.4864954175120013
 40
0.6071610515961631
 40
0.727772700526631
 40
0.8486954911235401
 40
0.9701581997687246
 40
0.9999999999999999
 40
0.9999999999999999
 40
0.9999999999999999
 40
0.9999999999999999
 10
6223.646892516603
 20
5090.664764213007
 30
0.0
 10
6223.694875734667
 20
5090.615037688584
 30
0.0
 10
6223.790918667409
 20
5090.515505363884
 30
0.0
 10
6223.861955565289
 20
5090.316153992953
 30
0.0
 10
6223.866880768435
 20
5090.107428590666
 30
0.0
 10
6223.801416481855
 20
5089.908625356557
 30
0.0
 10
6223.674627094585
 20
5089.743307301922
 30
0.0
 10
6223.500501649833
 20
5089.629013529539
 30
0.0
 10
6223.29871257842
 20
5089.578871266341
 30
0.0
 10
6223.142633192846
 20
5089.592116092411
 30
0.0
 10
6223.06181847207
 20
5089.61856282944
 30
0.0
 10
6223.045879378312
 20
5089.623778921472
 30
0.0
  0
LINE
  5
BD
330
1F
100
AcDbEntity
  8
0
  6
Continuous
 62
     7
370
    25
100
AcDbLine
 10
6223.4660343155
 20
5090.8187164757
 30
0.0
 11
6223.6468925166
 21
5090.664764213
 31
0.0
  0
SPLINE
  5
BE
330
1F
100
AcDbEntity
  8
0
  6
Continuous
 62
     7
370
    25
100
AcDbSpline
210
0.0
220
0.0
230
1.0
 70
     8
 71
     3
 72
    13
 73
     9
 74
     0
 42
0.00000001
 43
0.00000001
 40
0.0
 40
0.0
 40
0.0
 40
0.0
 40
0.1945921045769564
 40
0.3892164901962621
 40
0.583104218326851
 40
0.7765337036201705
 40
0.9702718140458388
 40
0.9999999999999999
 40
0.9999999999999999
 40
0.9999999999999999
 40
0.9999999999999999
 10
6223.466034315526
 20
5091.580192709734
 30
0.0
 10
6223.426904536589
 20
5091.539676044577
 30
0.0
 10
6223.348638487443
 20
5091.458635992923
 30
0.0
 10
6223.290429090972
 20
5091.296374023738
 30
0.0
 10
6223.285790019997
 20
5091.126431783688
 30
0.0
 10
6223.338238106253
 20
5090.964535525778
 30
0.0
 10
6223.411556125588
 20
5090.866638855933
 30
0.0
 10
6223.459637897461
 20
5090.824343160022
 30
0.0
 10
6223.466034315526
 20
5090.818716475669
 30
0.0
  0
LINE
  5
BF
330
1F
100
AcDbEntity
  8
0
  6
Continuous
 62
     7
370
    25
100
AcDbLine
 10
6223.6468925166
 20
5091.7341449724
 30
0.0
 11
6223.4660343155
 21
5091.5801927097
 31
0.0
  0
SPLINE
  5
C0
330
1F
100
AcDbEntity
  8
0
  6
Continuous
 62
     7
370
    25
100
AcDbSpline
210
0.0
220
0.0
230
1.0
 70
     8
 71
     3
 72
    16
 73
    12
 74
     0
 42
0.00000001
 43
0.00000001
 40
0.0
 40
0.0
 40
0.0
 40
0.0
 40
0.1218585400097057
 40
0.2438549224446267
 40
0.3654874614654059
 40
0.4865512170680185
 40
0.6072168291173945
 40
0.7278286333533925
 40
0.8487517277332147
 40
0.9702147963347968
 40
1.0
 40
1.0
 40
1.0
 40
1.0
 10
6223.045879378312
 20
5092.775130263931
 30
0.0
 10
6223.112967701197
 20
5092.791826612927
 30
0.0
 10
6223.247220235102
 20
5092.825238197289
 30
0.0
 10
6223.455408513258
 20
5092.787042935858
 30
0.0
 10
6223.638616534442
 20
5092.686917206765
 30
0.0
 10
6223.77802848874
 20
5092.530800251767
 30
0.0
 10
6223.857773389006
 20
5092.338326158732
 30
0.0
 10
6223.869659532401
 20
5092.130380520433
 30
0.0
 10
6223.812158743396
 20
5091.93056327775
 30
0.0
 10
6223.722646004135
 20
5091.802058776619
 30
0.0
 10
6223.659356139934
 20
5091.74531874277
 30
0.0
 10
6223.646892516603
 20
5091.734144972394
 30
0.0
  0
LINE
  5
C1
330
1F
100
AcDbEntity
  8
0
  6
Continuous
 62
     7
370
    25
100
AcDbLine
 10
6222.8221237073
 20
5092.6954785986
 30
0.0
 11
6223.0458793783
 21
5092.7751302639
 31
0.0
  0
SPLINE
  5
C2
330
1F
100
AcDbEntity
  8
0
  6
Continuous
 62
     7
370
    25
100
AcDbSpline
210
0.0
220
0.0
230
1.0
 70
     8
 71
     3
 72
    13
 73
     9
 74
     0
 42
0.00000001
 43
0.00000001
 40
0.0
 40
0.0
 40
0.0
 40
0.0
 40
0.1945921045770273
 40
0.3892164901962512
 40
0.5831042183268609
 40
0.7765337036200323
 40
0.9702718140457951
 40
0.9999999999999999
 40
0.9999999999999999
 40
0.9999999999999999
 40
0.9999999999999999
 10
6222.162665944261
 20
5093.076216715679
 30
0.0
 10
6222.178189516094
 20
5093.022071000497
 30
0.0
 10
6222.209239234978
 20
5092.913770587855
 30
0.0
 10
6222.320657524125
 20
5092.78222878718
 30
0.0
 10
6222.465512285697
 20
5092.69324011384
 30
0.0
 10
6222.631942600951
 20
5092.657713359964
 30
0.0
 10
6222.753382613651
 20
5092.67226029234
 30
0.0
 10
6222.814052646718
 20
5092.692752480285
 30
0.0
 10
6222.822123707339
 20
5092.695478598647
 30
0.0
  0
LINE
  5
C3
330
1F
100
AcDbEntity
  8
0
  6
Continuous
 62
     7
370
    25
100
AcDbLine
 10
6222.1197684744
 20
5093.3098206436
 30
0.0
 11
6222.1626659443
 21
5093.0762167157
 31
0.0
  0
SPLINE
  5
C4
330
1F
100
AcDbEntity
  8
0
  6
Continuous
 62
     7
370
    25
100
AcDbSpline
210
0.0
220
0.0
230
1.0
 70
     8
 71
     3
 72
    16
 73
    12
 74
     0
 42
0.00000001
 43
0.00000001
 40
0.0
 40
0.0
 40
0.0
 40
0.0
 40
0.1218637754099511
 40
0.2438601478162943
 40
0.3654926707113172
 40
0.4865564122629956
 40
0.6072220222705557
 40
0.727833840976011
 40
0.8487569636478552
 40
0.9702200657688451
 40
1.0
 40
1.0
 40
1.0
 40
1.0
 10
6220.917742197782
 20
5093.309820643623
 30
0.0
 10
6220.936828002581
 20
5093.376271842117
 30
0.0
 10
6220.975020378975
 20
5093.509246543027
 30
0.0
 10
6221.112196989125
 20
5093.670445553242
 30
0.0
 10
6221.290513964072
 20
5093.77904287133
 30
0.0
 10
6221.495421788783
 20
5093.821715702362
 30
0.0
 10
6221.701981280873
 20
5093.794536773496
 30
0.0
 10
6221.888009183887
 20
5093.700854961709
 30
0.0
 10
6222.032303493744
 20
5093.551147107736
 30
0.0
 10
6222.0988317914
 20
5093.409376280283
 30
0.0
 10
6222.116324198537
 20
5093.326198456354
 30
0.0
 10
6222.119768474365
 20
5093.309820643623
 30
0.0
  0
LINE
  5
C5
330
1F
100
AcDbEntity
  8
0
  6
Continuous
 62
     7
370
    25
100
AcDbLine
 10
6220.8748447279
 20
5093.0762167157
 30
0.0
 11
6220.9177421978
 21
5093.3098206436
 31
0.0
  0
SPLINE
  5
C6
330
1F
100
AcDbEntity
  8
0
  6
Continuous
 62
     7
370
    25
100
AcDbSpline
210
0.0
220
0.0
230
1.0
 70
     8
 71
     3
 72
    13
 73
     9
 74
     0
 42
0.00000001
 43
0.00000001
 40
0.0
 40
0.0
 40
0.0
 40
0.0
 40
0.1945921045769725
 40
0.3892164901964037
 40
0.5831042183268583
 40
0.7765337036200415
 40
0.9702718140457685
 40
1.0
 40
1.0
 40
1.0
 40
1.0
 10
6220.215386964808
 20
5092.695478598647
 30
0.0
 10
6220.270040315579
 20
5092.68184954862
 30
0.0
 10
6220.379356083608
 20
5092.654589187633
 30
0.0
 10
6220.548983769226
 20
5092.685309356144
 30
0.0
 10
6220.698477601773
 20
5092.766262922853
 30
0.0
 10
6220.812459830772
 20
5092.892632426887
 30
0.0
 10
6220.860581824137
 20
5093.005076029108
 30
0.0
 10
6220.87317008533
 20
5093.067863912965
 30
0.0
 10
6220.874844727886
 20
5093.076216715679
 30
0.0
  0
LINE
  5
C7
330
1F
100
AcDbEntity
  8
0
  6
Continuous
 62
     7
370
    25
100
AcDbLine
 10
6219.9916312938
 20
5092.7751302639
 30
0.0
 11
6220.2153869648
 21
5092.6954785986
 31
0.0
  0
SPLINE
  5
C8
330
1F
100
AcDbEntity
  8
0
  6
Continuous
 62
     7
370
    25
100
AcDbSpline
210
0.0
220
0.0
230
1.0
 70
     8
 71
     3
 72
    16
 73
    12
 74
     0
 42
0.00000001
 43
0.00000001
 40
0.0
 40
0.0
 40
0.0
 40
0.0
 40
0.1218023084594664
 40
0.2437987986392147
 40
0.3654315109112941
 40
0.4864954175120242
 40
0.6071610515960476
 40
0.7277727005266106
 40
0.8486954911235381
 40
0.9701581997686911
 40
1.0
 40
1.0
 40
1.0
 40
1.0
 10
6219.390618155545
 20
5091.734144972394
 30
0.0
 10
6219.342634937479
 20
5091.783871496818
 30
0.0
 10
6219.246592004738
 20
5091.883403821519
 30
0.0
 10
6219.175555106858
 20
5092.082755192449
 30
0.0
 10
6219.170629903711
 20
5092.291480594737
 30
0.0
 10
6219.236094190293
 20
5092.490283828846
 30
0.0
 10
6219.362883577562
 20
5092.655601883481
 30
0.0
 10
6219.537009022314
 20
5092.769895655863
 30
0.0
 10
6219.738798093727
 20
5092.820037919062
 30
0.0
 10
6219.894877479301
 20
5092.806793092992
 30
0.0
 10
6219.975692200077
 20
5092.780346355963
 30
0.0
 10
6219.991631293836
 20
5092.775130263931
 30
0.0
  0
LINE
  5
C9
330
1F
100
AcDbEntity
  8
0
  6
Continuous
 62
     7
370
    25
100
AcDbLine
 10
6219.5714763566
 20
5091.5801927097
 30
0.0
 11
6219.3906181555
 21
5091.7341449724
 31
0.0
  0
SPLINE
  5
CA
330
1F
100
AcDbEntity
  8
0
  6
Continuous
 62
     7
370
    25
100
AcDbSpline
210
0.0
220
0.0
230
1.0
 70
     8
 71
     3
 72
    13
 73
     9
 74
     0
 42
0.00000001
 43
0.00000001
 40
0.0
 40
0.0
 40
0.0
 40
0.0
 40
0.1945921045769955
 40
0.3892164901961372
 40
0.5831042183270445
 40
0.776533703620041
 40
0.9702718140458512
 40
1.0
 40
1.0
 40
1.0
 40
1.0
 10
6219.571476356621
 20
5090.818716475669
 30
0.0
 10
6219.610606135558
 20
5090.859233140824
 30
0.0
 10
6219.688872184704
 20
5090.94027319248
 30
0.0
 10
6219.747081581176
 20
5091.102535161664
 30
0.0
 10
6219.751720652151
 20
5091.272477401714
 30
0.0
 10
6219.699272565894
 20
5091.434373659625
 30
0.0
 10
6219.625954546559
 20
5091.53227032947
 30
0.0
 10
6219.577872774687
 20
5091.574566025382
 30
0.0
 10
6219.571476356621
 20
5091.580192709734
 30
0.0
  0
LINE
  5
CB
330
1F
100
AcDbEntity
  8
0
  6
Continuous
 62
     7
370
    25
100
AcDbLine
 10
6219.3906181555
 20
5090.664764213
 30
0.0
 11
6219.5714763566
 21
5090.8187164757
 31
0.0
  0
SPLINE
  5
CC
330
1F
100
AcDbEntity
  8
0
  6
Continuous
 62
     7
370
    25
100
AcDbSpline
210
0.0
220
0.0
230
1.0
 70
     8
 71
     3
 72
    13
 73
     9
 74
     0
 42
0.00000001
 43
0.00000001
 40
0.0
 40
0.0
 40
0.0
 40
0.0
 40
0.1945921045769126
 40
0.3892164901963276
 40
0.583104218326917
 40
0.7765337036200879
 40
0.9702718140459256
 40
1.0
 40
1.0
 40
1.0
 40
1.0
 10
6222.822123707339
 20
5089.703430586756
 30
0.0
 10
6222.767470356568
 20
5089.717059636782
 30
0.0
 10
6222.658154588538
 20
5089.744319997769
 30
0.0
 10
6222.488526902921
 20
5089.71359982926
 30
0.0
 10
6222.339033070374
 20
5089.632646262549
 30
0.0
 10
6222.225050841374
 20
5089.506276758516
 30
0.0
 10
6222.17692884801
 20
5089.393833156294
 30
0.0
 10
6222.164340586817
 20
5089.331045272438
 30
0.0
 10
6222.162665944261
 20
5089.322692469724
 30
0.0
  0
CIRCLE
  5
CD
330
1F
100
AcDbEntity
  8
0
  6
Continuous
 62
     7
370
    25
100
AcDbCircle
 10
6221.5187553361
 20
5336.1994545927
 30
0.0
 40
0.75
  0
CIRCLE
  5
CE
330
1F
100
AcDbEntity
  8
0
  6
Continuous
 62
     7
370
    25
100
AcDbCircle
 10
6221.5187553361
 20
5336.1994545927
 30
0.0
 40
4.500000000000909
  0
SPLINE
  5
CF
330
1F
100
AcDbEntity
  8
0
  6
Continuous
 62
     7
370
    25
100
AcDbSpline
210
0.0
220
0.0
230
1.0
 70
     8
 71
     3
 72
    16
 73
    12
 74
     0
 42
0.00000001
 43
0.00000001
 40
0.0
 40
0.0
 40
0.0
 40
0.0
 40
0.121858540009747
 40
0.2438549224446637
 40
0.365487461465429
 40
0.4865512170680345
 40
0.6072168291175976
 40
0.7278286333535077
 40
0.84875172773335
 40
0.970214796334851
 40
1.0
 40
1.0
 40
1.0
 40
1.0
 10
6219.991631293836
 20
5334.623778921507
 30
0.0
 10
6219.92454297095
 20
5334.607082572511
 30
0.0
 10
6219.790290437045
 20
5334.573670988149
 30
0.0
 10
6219.582102158889
 20
5334.611866249579
 30
0.0
 10
6219.398894137706
 20
5334.711991978673
 30
0.0
 10
6219.259482183406
 20
5334.868108933671
 30
0.0
 10
6219.179737283142
 20
5335.060583026706
 30
0.0
 10
6219.167851139746
 20
5335.268528665005
 30
0.0
 10
6219.225351928751
 20
5335.468345907688
 30
0.0
 10
6219.314864668012
 20
5335.59685040882
 30
0.0
 10
6219.378154532213
 20
5335.653590442667
 30
0.0
 10
6219.390618155545
 20
5335.664764213044
 30
0.0
  0
LINE
  5
D0
330
1F
100
AcDbEntity
  8
0
  6
Continuous
 62
     7
370
    25
100
AcDbLine
 10
6220.2153869648
 20
5334.7034305868
 30
0.0
 11
6219.9916312938
 21
5334.6237789215
 31
0.0
  0
SPLINE
  5
D1
330
1F
100
AcDbEntity
  8
0
  6
Continuous
 62
     7
370
    25
100
AcDbSpline
210
0.0
220
0.0
230
1.0
 70
     8
 71
     3
 72
    13
 73
     9
 74
     0
 42
0.00000001
 43
0.00000001
 40
0.0
 40
0.0
 40
0.0
 40
0.0
 40
0.1945921045770989
 40
0.3892164901963731
 40
0.5831042183270142
 40
0.7765337036201313
 40
0.9702718140458623
 40
1.0
 40
1.0
 40
1.0
 40
1.0
 10
6220.874844727886
 20
5334.322692469759
 30
0.0
 10
6220.859321156053
 20
5334.376838184941
 30
0.0
 10
6220.828271437169
 20
5334.485138597584
 30
0.0
 10
6220.716853148022
 20
5334.616680398258
 30
0.0
 10
6220.57199838645
 20
5334.705669071598
 30
0.0
 10
6220.405568071195
 20
5334.741195825474
 30
0.0
 10
6220.284128058495
 20
5334.726648893098
 30
0.0
 10
6220.223458025429
 20
5334.706156705153
 30
0.0
 10
6220.215386964808
 20
5334.703430586791
 30
0.0
  0
LINE
  5
D2
330
1F
100
AcDbEntity
  8
0
  6
Continuous
 62
     7
370
    25
100
AcDbLine
 10
6220.9177421978
 20
5334.0890885418
 30
0.0
 11
6220.8748447279
 21
5334.3226924698
 31
0.0
  0
SPLINE
  5
D3
330
1F
100
AcDbEntity
  8
0
  6
Continuous
 62
     7
370
    25
100
AcDbSpline
210
0.0
220
0.0
230
1.0
 70
     8
 71
     3
 72
    16
 73
    12
 74
     0
 42
0.00000001
 43
0.00000001
 40
0.0
 40
0.0
 40
0.0
 40
0.0
 40
0.1218637754100732
 40
0.2438601478163029
 40
0.36549267071132
 40
0.4865564122629611
 40
0.6072220222705117
 40
0.727833840975962
 40
0.8487569636477627
 40
0.9702200657688181
 40
1.0
 40
1.0
 40
1.0
 40
1.0
 10
6222.119768474365
 20
5334.089088541815
 30
0.0
 10
6222.100682669567
 20
5334.022637343322
 30
0.0
 10
6222.062490293172
 20
5333.88966264241
 30
0.0
 10
6221.925313683022
 20
5333.728463632197
 30
0.0
 10
6221.746996708074
 20
5333.619866314109
 30
0.0
 10
6221.542088883365
 20
5333.577193483076
 30
0.0
 10
6221.335529391275
 20
5333.604372411942
 30
0.0
 10
6221.14950148826
 20
5333.69805422373
 30
0.0
 10
6221.005207178403
 20
5333.847762077702
 30
0.0
 10
6220.938678880748
 20
5333.989532905155
 30
0.0
 10
6220.92118647361
 20
5334.072710729084
 30
0.0
 10
6220.917742197782
 20
5334.089088541815
 30
0.0
  0
LINE
  5
D4
330
1F
100
AcDbEntity
  8
0
  6
Continuous
 62
     7
370
    25
100
AcDbLine
 10
6222.1626659443
 20
5334.3226924698
 30
0.0
 11
6222.1197684744
 21
5334.0890885418
 31
0.0
  0
LINE
  5
D5
330
1F
100
AcDbEntity
  8
0
  6
Continuous
 62
     7
370
    25
100
AcDbLine
 10
6223.0458793783
 20
5334.6237789215
 30
0.0
 11
6222.8221237073
 21
5334.7034305868
 31
0.0
  0
SPLINE
  5
D6
330
1F
100
AcDbEntity
  8
0
  6
Continuous
 62
     7
370
    25
100
AcDbSpline
210
0.0
220
0.0
230
1.0
 70
     8
 71
     3
 72
    16
 73
    12
 74
     0
 42
0.00000001
 43
0.00000001
 40
0.0
 40
0.0
 40
0.0
 40
0.0
 40
0.121802308459518
 40
0.2437987986391833
 40
0.3654315109113099
 40
0.4864954175120013
 40
0.6071610515961631
 40
0.727772700526631
 40
0.8486954911235401
 40
0.9701581997687246
 40
0.9999999999999999
 40
0.9999999999999999
 40
0.9999999999999999
 40
0.9999999999999999
 10
6223.646892516603
 20
5335.664764213044
 30
0.0
 10
6223.694875734667
 20
5335.61503768862
 30
0.0
 10
6223.790918667409
 20
5335.515505363919
 30
0.0
 10
6223.861955565289
 20
5335.316153992988
 30
0.0
 10
6223.866880768435
 20
5335.107428590702
 30
0.0
 10
6223.801416481855
 20
5334.908625356592
 30
0.0
 10
6223.674627094585
 20
5334.743307301957
 30
0.0
 10
6223.500501649833
 20
5334.629013529574
 30
0.0
 10
6223.29871257842
 20
5334.578871266376
 30
0.0
 10
6223.142633192846
 20
5334.592116092446
 30
0.0
 10
6223.06181847207
 20
5334.618562829475
 30
0.0
 10
6223.045879378312
 20
5334.623778921507
 30
0.0
  0
LINE
  5
D7
330
1F
100
AcDbEntity
  8
0
  6
Continuous
 62
     7
370
    25
100
AcDbLine
 10
6223.4660343155
 20
5335.8187164757
 30
0.0
 11
6223.6468925166
 21
5335.664764213
 31
0.0
  0
SPLINE
  5
D8
330
1F
100
AcDbEntity
  8
0
  6
Continuous
 62
     7
370
    25
100
AcDbSpline
210
0.0
220
0.0
230
1.0
 70
     8
 71
     3
 72
    13
 73
     9
 74
     0
 42
0.00000001
 43
0.00000001
 40
0.0
 40
0.0
 40
0.0
 40
0.0
 40
0.1945921045769564
 40
0.3892164901962621
 40
0.583104218326851
 40
0.7765337036201705
 40
0.9702718140458388
 40
0.9999999999999999
 40
0.9999999999999999
 40
0.9999999999999999
 40
0.9999999999999999
 10
6223.466034315526
 20
5336.580192709769
 30
0.0
 10
6223.426904536589
 20
5336.539676044614
 30
0.0
 10
6223.348638487443
 20
5336.458635992958
 30
0.0
 10
6223.290429090972
 20
5336.296374023773
 30
0.0
 10
6223.285790019997
 20
5336.126431783724
 30
0.0
 10
6223.338238106253
 20
5335.964535525814
 30
0.0
 10
6223.411556125588
 20
5335.866638855969
 30
0.0
 10
6223.459637897461
 20
5335.824343160057
 30
0.0
 10
6223.466034315526
 20
5335.818716475705
 30
0.0
  0
LINE
  5
D9
330
1F
100
AcDbEntity
  8
0
  6
Continuous
 62
     7
370
    25
100
AcDbLine
 10
6223.6468925166
 20
5336.7341449724
 30
0.0
 11
6223.4660343155
 21
5336.5801927098
 31
0.0
  0
SPLINE
  5
DA
330
1F
100
AcDbEntity
  8
0
  6
Continuous
 62
     7
370
    25
100
AcDbSpline
210
0.0
220
0.0
230
1.0
 70
     8
 71
     3
 72
    16
 73
    12
 74
     0
 42
0.00000001
 43
0.00000001
 40
0.0
 40
0.0
 40
0.0
 40
0.0
 40
0.1218585400097057
 40
0.2438549224446267
 40
0.3654874614654059
 40
0.4865512170680185
 40
0.6072168291173945
 40
0.7278286333533925
 40
0.8487517277332147
 40
0.9702147963347968
 40
1.0
 40
1.0
 40
1.0
 40
1.0
 10
6223.045879378312
 20
5337.775130263966
 30
0.0
 10
6223.112967701197
 20
5337.791826612963
 30
0.0
 10
6223.247220235102
 20
5337.825238197324
 30
0.0
 10
6223.455408513258
 20
5337.787042935894
 30
0.0
 10
6223.638616534442
 20
5337.6869172068
 30
0.0
 10
6223.77802848874
 20
5337.530800251802
 30
0.0
 10
6223.857773389006
 20
5337.338326158769
 30
0.0
 10
6223.869659532401
 20
5337.130380520469
 30
0.0
 10
6223.812158743396
 20
5336.930563277785
 30
0.0
 10
6223.722646004135
 20
5336.802058776654
 30
0.0
 10
6223.659356139934
 20
5336.745318742806
 30
0.0
 10
6223.646892516603
 20
5336.73414497243
 30
0.0
  0
LINE
  5
DB
330
1F
100
AcDbEntity
  8
0
  6
Continuous
 62
     7
370
    25
100
AcDbLine
 10
6222.8221237073
 20
5337.6954785987
 30
0.0
 11
6223.0458793783
 21
5337.775130264
 31
0.0
  0
SPLINE
  5
DC
330
1F
100
AcDbEntity
  8
0
  6
Continuous
 62
     7
370
    25
100
AcDbSpline
210
0.0
220
0.0
230
1.0
 70
     8
 71
     3
 72
    13
 73
     9
 74
     0
 42
0.00000001
 43
0.00000001
 40
0.0
 40
0.0
 40
0.0
 40
0.0
 40
0.1945921045770273
 40
0.3892164901962512
 40
0.5831042183268609
 40
0.7765337036200323
 40
0.9702718140457951
 40
0.9999999999999999
 40
0.9999999999999999
 40
0.9999999999999999
 40
0.9999999999999999
 10
6222.162665944261
 20
5338.076216715715
 30
0.0
 10
6222.178189516094
 20
5338.022071000532
 30
0.0
 10
6222.209239234978
 20
5337.91377058789
 30
0.0
 10
6222.320657524125
 20
5337.782228787216
 30
0.0
 10
6222.465512285697
 20
5337.693240113876
 30
0.0
 10
6222.631942600951
 20
5337.657713359999
 30
0.0
 10
6222.753382613651
 20
5337.672260292376
 30
0.0
 10
6222.814052646718
 20
5337.69275248032
 30
0.0
 10
6222.822123707339
 20
5337.695478598683
 30
0.0
  0
LINE
  5
DD
330
1F
100
AcDbEntity
  8
0
  6
Continuous
 62
     7
370
    25
100
AcDbLine
 10
6222.1197684744
 20
5338.3098206437
 30
0.0
 11
6222.1626659443
 21
5338.0762167157
 31
0.0
  0
SPLINE
  5
DE
330
1F
100
AcDbEntity
  8
0
  6
Continuous
 62
     7
370
    25
100
AcDbSpline
210
0.0
220
0.0
230
1.0
 70
     8
 71
     3
 72
    16
 73
    12
 74
     0
 42
0.00000001
 43
0.00000001
 40
0.0
 40
0.0
 40
0.0
 40
0.0
 40
0.1218637754099511
 40
0.2438601478162943
 40
0.3654926707113172
 40
0.4865564122629956
 40
0.6072220222705557
 40
0.727833840976011
 40
0.8487569636478552
 40
0.9702200657688451
 40
1.0
 40
1.0
 40
1.0
 40
1.0
 10
6220.917742197782
 20
5338.30982064366
 30
0.0
 10
6220.936828002581
 20
5338.376271842151
 30
0.0
 10
6220.975020378975
 20
5338.509246543063
 30
0.0
 10
6221.112196989125
 20
5338.670445553276
 30
0.0
 10
6221.290513964072
 20
5338.779042871366
 30
0.0
 10
6221.495421788783
 20
5338.821715702396
 30
0.0
 10
6221.701981280873
 20
5338.794536773531
 30
0.0
 10
6221.888009183887
 20
5338.700854961743
 30
0.0
 10
6222.032303493744
 20
5338.551147107771
 30
0.0
 10
6222.0988317914
 20
5338.409376280318
 30
0.0
 10
6222.116324198537
 20
5338.32619845639
 30
0.0
 10
6222.119768474365
 20
5338.30982064366
 30
0.0
  0
LINE
  5
DF
330
1F
100
AcDbEntity
  8
0
  6
Continuous
 62
     7
370
    25
100
AcDbLine
 10
6220.8748447279
 20
5338.0762167157
 30
0.0
 11
6220.9177421978
 21
5338.3098206437
 31
0.0
  0
SPLINE
  5
E0
330
1F
100
AcDbEntity
  8
0
  6
Continuous
 62
     7
370
    25
100
AcDbSpline
210
0.0
220
0.0
230
1.0
 70
     8
 71
     3
 72
    13
 73
     9
 74
     0
 42
0.00000001
 43
0.00000001
 40
0.0
 40
0.0
 40
0.0
 40
0.0
 40
0.1945921045769725
 40
0.3892164901964037
 40
0.5831042183268583
 40
0.7765337036200415
 40
0.9702718140457685
 40
1.0
 40
1.0
 40
1.0
 40
1.0
 10
6220.215386964808
 20
5337.695478598682
 30
0.0
 10
6220.270040315579
 20
5337.681849548655
 30
0.0
 10
6220.379356083608
 20
5337.654589187669
 30
0.0
 10
6220.548983769226
 20
5337.685309356179
 30
0.0
 10
6220.698477601773
 20
5337.766262922889
 30
0.0
 10
6220.812459830772
 20
5337.892632426922
 30
0.0
 10
6220.860581824137
 20
5338.005076029143
 30
0.0
 10
6220.87317008533
 20
5338.067863913
 30
0.0
 10
6220.874844727886
 20
5338.076216715715
 30
0.0
  0
LINE
  5
E1
330
1F
100
AcDbEntity
  8
0
  6
Continuous
 62
     7
370
    25
100
AcDbLine
 10
6219.9916312938
 20
5337.775130264
 30
0.0
 11
6220.2153869648
 21
5337.6954785987
 31
0.0
  0
SPLINE
  5
E2
330
1F
100
AcDbEntity
  8
0
  6
Continuous
 62
     7
370
    25
100
AcDbSpline
210
0.0
220
0.0
230
1.0
 70
     8
 71
     3
 72
    16
 73
    12
 74
     0
 42
0.00000001
 43
0.00000001
 40
0.0
 40
0.0
 40
0.0
 40
0.0
 40
0.1218023084594664
 40
0.2437987986392147
 40
0.3654315109112941
 40
0.4864954175120242
 40
0.6071610515960476
 40
0.7277727005266106
 40
0.8486954911235381
 40
0.9701581997686911
 40
1.0
 40
1.0
 40
1.0
 40
1.0
 10
6219.390618155545
 20
5336.73414497243
 30
0.0
 10
6219.342634937479
 20
5336.783871496853
 30
0.0
 10
6219.246592004738
 20
5336.883403821555
 30
0.0
 10
6219.175555106858
 20
5337.082755192485
 30
0.0
 10
6219.170629903711
 20
5337.291480594771
 30
0.0
 10
6219.236094190293
 20
5337.490283828881
 30
0.0
 10
6219.362883577562
 20
5337.655601883516
 30
0.0
 10
6219.537009022314
 20
5337.769895655899
 30
0.0
 10
6219.738798093727
 20
5337.820037919098
 30
0.0
 10
6219.894877479301
 20
5337.806793093027
 30
0.0
 10
6219.975692200077
 20
5337.780346355999
 30
0.0
 10
6219.991631293836
 20
5337.775130263966
 30
0.0
  0
LINE
  5
E3
330
1F
100
AcDbEntity
  8
0
  6
Continuous
 62
     7
370
    25
100
AcDbLine
 10
6219.5714763566
 20
5336.5801927098
 30
0.0
 11
6219.3906181555
 21
5336.7341449724
 31
0.0
  0
SPLINE
  5
E4
330
1F
100
AcDbEntity
  8
0
  6
Continuous
 62
     7
370
    25
100
AcDbSpline
210
0.0
220
0.0
230
1.0
 70
     8
 71
     3
 72
    13
 73
     9
 74
     0
 42
0.00000001
 43
0.00000001
 40
0.0
 40
0.0
 40
0.0
 40
0.0
 40
0.1945921045769955
 40
0.3892164901961372
 40
0.5831042183270445
 40
0.776533703620041
 40
0.9702718140458512
 40
1.0
 40
1.0
 40
1.0
 40
1.0
 10
6219.571476356621
 20
5335.818716475705
 30
0.0
 10
6219.610606135558
 20
5335.859233140861
 30
0.0
 10
6219.688872184704
 20
5335.940273192515
 30
0.0
 10
6219.747081581176
 20
5336.1025351617
 30
0.0
 10
6219.751720652151
 20
5336.272477401751
 30
0.0
 10
6219.699272565894
 20
5336.43437365966
 30
0.0
 10
6219.625954546559
 20
5336.532270329504
 30
0.0
 10
6219.577872774687
 20
5336.574566025416
 30
0.0
 10
6219.571476356621
 20
5336.580192709769
 30
0.0
  0
LINE
  5
E5
330
1F
100
AcDbEntity
  8
0
  6
Continuous
 62
     7
370
    25
100
AcDbLine
 10
6219.3906181555
 20
5335.664764213
 30
0.0
 11
6219.5714763566
 21
5335.8187164757
 31
0.0
  0
SPLINE
  5
E6
330
1F
100
AcDbEntity
  8
0
  6
Continuous
 62
     7
370
    25
100
AcDbSpline
210
0.0
220
0.0
230
1.0
 70
     8
 71
     3
 72
    13
 73
     9
 74
     0
 42
0.00000001
 43
0.00000001
 40
0.0
 40
0.0
 40
0.0
 40
0.0
 40
0.1945921045769126
 40
0.3892164901963276
 40
0.583104218326917
 40
0.7765337036200879
 40
0.9702718140459256
 40
1.0
 40
1.0
 40
1.0
 40
1.0
 10
6222.822123707339
 20
5334.703430586791
 30
0.0
 10
6222.767470356568
 20
5334.717059636818
 30
0.0
 10
6222.658154588538
 20
5334.744319997805
 30
0.0
 10
6222.488526902921
 20
5334.713599829294
 30
0.0
 10
6222.339033070374
 20
5334.632646262584
 30
0.0
 10
6222.225050841374
 20
5334.506276758551
 30
0.0
 10
6222.17692884801
 20
5334.393833156329
 30
0.0
 10
6222.164340586817
 20
5334.331045272474
 30
0.0
 10
6222.162665944261
 20
5334.322692469759
 30
0.0
  0
LINE
  5
E7
330
1F
100
AcDbEntity
  8
0
  6
Continuous
 62
     7
370
    25
100
AcDbLine
 10
6204.5187553361
 20
5072.1994545927
 30
0.0
 11
6343.5187553361
 21
5072.1994545927
 31
0.0
  0
LINE
  5
E8
330
1F
100
AcDbEntity
  8
0
  6
Continuous
 62
     7
370
    25
100
AcDbLine
 10
6343.5187553361
 20
5071.1994545927
 30
0.0
 11
6343.5187553361
 21
5072.1994545927
 31
0.0
  0
LINE
  5
E9
330
1F
100
AcDbEntity
  8
0
  6
Continuous
 62
     7
370
    25
100
AcDbLine
 10
6343.5187553361
 20
5071.1994545927
 30
0.0
 11
6204.5187553361
 21
5071.1994545927
 31
0.0
  0
LINE
  5
EA
330
1F
100
AcDbEntity
  8
0
  6
Continuous
 62
     7
370
    25
100
AcDbLine
 10
6204.5187553361
 20
5072.1994545927
 30
0.0
 11
6204.5187553361
 21
5071.1994545927
 31
0.0
  0
ARC
  5
EB
330
1F
100
AcDbEntity
  8
0
  6
Continuous
 62
     7
370
    25
100
AcDbCircle
 10
6343.5187553361
 20
5074.1994545927
 30
0.0
 40
3.0
100
AcDbArc
 50
270.0
 51
0.0
  0
ARC
  5
EC
330
1F
100
AcDbEntity
  8
0
  6
Continuous
 62
     7
370
    25
100
AcDbCircle
 10
6343.5187553361
 20
5074.1994545927
 30
0.0
 40
2.000000000000909
100
AcDbArc
 50
270.0
 51
0.0
  0
LINE
  5
ED
330
1F
100
AcDbEntity
  8
0
  6
Continuous
 62
     7
370
    25
100
AcDbLine
 10
6346.5187553361
 20
5074.1994545927
 30
0.0
 11
6345.5187553361
 21
5074.1994545927
 31
0.0
  0
CIRCLE
  5
EE
330
1F
100
AcDbEntity
  8
0
  6
Continuous
 62
     7
370
    25
100
AcDbCircle
 10
6326.5187553361
 20
5336.1994545927
 30
0.0
 40
5.199999999998909
  0
ARC
  5
EF
330
1F
100
AcDbEntity
  8
0
  6
Continuous
 62
     7
370
    25
100
AcDbCircle
 10
6204.5187553361
 20
5074.1994545927
 30
0.0
 40
2.000000000000909
100
AcDbArc
 50
180.0
 51
270.0
  0
ARC
  5
F0
330
1F
100
AcDbEntity
  8
0
  6
Continuous
 62
     7
370
    25
100
AcDbCircle
 10
6204.5187553361
 20
5074.1994545927
 30
0.0
 40
3.0
100
AcDbArc
 50
180.0
 51
270.0
  0
LINE
  5
F1
330
1F
100
AcDbEntity
  8
0
  6
Continuous
 62
     7
370
    25
100
AcDbLine
 10
6202.5187553361
 20
5074.1994545927
 30
0.0
 11
6201.5187553361
 21
5074.1994545927
 31
0.0
  0
LINE
  5
F2
330
1F
100
AcDbEntity
  8
0
  6
Continuous
 62
     7
370
    25
100
AcDbLine
 10
6227.0187553361
 20
5133.6994545927
 30
0.0
 11
6321.0187553361
 21
5133.6994545927
 31
0.0
  0
ARC
  5
F3
330
1F
100
AcDbEntity
  8
0
  6
Continuous
 62
     7
370
    25
100
AcDbCircle
 10
6321.0187553361
 20
5136.6994545927
 30
0.0
 40
3.0
100
AcDbArc
 50
270.0
 51
0.0
  0
LINE
  5
F4
330
1F
100
AcDbEntity
  8
0
  6
Continuous
 62
     7
370
    25
100
AcDbLine
 10
6324.0187553361
 20
5136.6994545927
 30
0.0
 11
6324.0187553361
 21
5205.6994545927
 31
0.0
  0
ARC
  5
F5
330
1F
100
AcDbEntity
  8
0
  6
Continuous
 62
     7
370
    25
100
AcDbCircle
 10
6321.0187553361
 20
5205.6994545927
 30
0.0
 40
3.0
100
AcDbArc
 50
0.0
 51
90.0
  0
LINE
  5
F6
330
1F
100
AcDbEntity
  8
0
  6
Continuous
 62
     7
370
    25
100
AcDbLine
 10
6321.0187553361
 20
5208.6994545927
 30
0.0
 11
6227.0187553361
 21
5208.6994545927
 31
0.0
  0
ARC
  5
F7
330
1F
100
AcDbEntity
  8
0
  6
Continuous
 62
     7
370
    25
100
AcDbCircle
 10
6227.0187553361
 20
5205.6994545927
 30
0.0
 40
3.0
100
AcDbArc
 50
90.0
 51
180.0
  0
LINE
  5
F8
330
1F
100
AcDbEntity
  8
0
  6
Continuous
 62
     7
370
    25
100
AcDbLine
 10
6224.0187553361
 20
5205.6994545927
 30
0.0
 11
6224.0187553361
 21
5136.6994545927
 31
0.0
  0
ARC
  5
F9
330
1F
100
AcDbEntity
  8
0
  6
Continuous
 62
     7
370
    25
100
AcDbCircle
 10
6227.0187553361
 20
5136.6994545927
 30
0.0
 40
3.0
100
AcDbArc
 50
180.0
 51
270.0
  0
CIRCLE
  5
FA
330
1F
100
AcDbEntity
  8
0
  6
Continuous
 62
     7
370
    25
100
AcDbCircle
 10
6221.5187553361
 20
5091.1994545927
 30
0.0
 40
5.200000000000728
  0
CIRCLE
  5
FB
330
1F
100
AcDbEntity
  8
0
  6
Continuous
 62
     7
370
    25
100
AcDbCircle
 10
6326.5187553361
 20
5091.1994545927
 30
0.0
 40
5.199999999998909
  0
CIRCLE
  5
FC
330
1F
100
AcDbEntity
  8
0
  6
Continuous
 62
     7
370
    25
100
AcDbCircle
 10
6221.5187553361
 20
5336.1994545927
 30
0.0
 40
5.200000000000728
  0
ARC
  5
FD
330
1F
100
AcDbEntity
  8
0
  6
Continuous
 62
     7
370
    25
100
AcDbCircle
 10
6304.0399652715
 20
5219.3659579076
 30
0.0
 40
0.9996573249763969
100
AcDbArc
 50
270.0
 51
0.0
  0
LINE
  5
FE
330
1F
100
AcDbEntity
  8
0
  6
Continuous
 62
     7
370
    25
100
AcDbLine
 10
6305.0396225965
 20
5219.3659579076
 30
0.0
 11
6305.0396225965
 21
5258.7705857329
 31
0.0
  0
ARC
  5
FF
330
1F
100
AcDbEntity
  8
0
  6
Continuous
 62
     7
370
    25
100
AcDbCircle
 10
6304.0399652715
 20
5258.7705857329
 30
0.0
 40
0.9996573249763969
100
AcDbArc
 50
0.0
 51
90.0
  0
LINE
  5
100
330
1F
100
AcDbEntity
  8
0
  6
Continuous
 62
     7
370
    25
100
AcDbLine
 10
6304.0399652715
 20
5259.7702430578
 30
0.0
 11
6295.460964604
 21
5259.7702430578
 31
0.0
  0
ARC
  5
101
330
1F
100
AcDbEntity
  8
0
  6
Continuous
 62
     7
370
    25
100
AcDbCircle
 10
6295.460964604
 20
5258.7705857329
 30
0.0
 40
0.9996573249763969
100
AcDbArc
 50
90.0
 51
180.0
  0
LINE
  5
102
330
1F
100
AcDbEntity
  8
0
  6
Continuous
 62
     7
370
    25
100
AcDbLine
 10
6294.461307279
 20
5258.7705857329
 30
0.0
 11
6294.461307279
 21
5219.3659579076
 31
0.0
  0
LINE
  5
103
330
1F
100
AcDbEntity
  8
0
  6
Continuous
 62
     7
370
    25
100
AcDbLine
 10
6295.1013149405
 20
5301.1390958556
 30
0.0
 11
6291.3053187063
 21
5301.1390958556
 31
0.0
  0
LINE
  5
104
330
1F
100
AcDbEntity
  8
0
  6
Continuous
 62
     7
370
    25
100
AcDbLine
 10
6291.3053187063
 20
5301.1390958556
 30
0.0
 11
6291.3053187063
 21
5281.2598148167
 31
0.0
  0
LINE
  5
105
330
1F
100
AcDbEntity
  8
0
  6
Continuous
 62
     7
370
    25
100
AcDbLine
 10
6291.3053187063
 20
5281.2598148167
 30
0.0
 11
6312.6619081608
 21
5281.2598148167
 31
0.0
  0
LINE
  5
106
330
1F
100
AcDbEntity
  8
0
  6
Continuous
 62
     7
370
    25
100
AcDbLine
 10
6312.6619081608
 20
5281.2598148167
 30
0.0
 11
6312.6619081608
 21
5301.1390958556
 31
0.0
  0
LINE
  5
107
330
1F
100
AcDbEntity
  8
0
  6
Continuous
 62
     7
370
    25
100
AcDbLine
 10
6312.6619081608
 20
5301.1390958556
 30
0.0
 11
6303.2258434282
 21
5301.1390958556
 31
0.0
  0
ARC
  5
108
330
1F
100
AcDbEntity
  8
0
  6
Continuous
 62
     7
370
    25
100
AcDbCircle
 10
6302.2258434282
 20
5333.17325219
 30
0.0
 40
1.0
100
AcDbArc
 50
0.0
 51
90.0
  0
LINE
  5
109
330
1F
100
AcDbEntity
  8
0
  6
Continuous
 62
     7
370
    25
100
AcDbLine
 10
6302.2258434282
 20
5334.17325219
 30
0.0
 11
6296.1013149405
 21
5334.17325219
 31
0.0
  0
LINE
  5
10A
330
1F
100
AcDbEntity
  8
0
  6
Continuous
 62
     7
370
    25
100
AcDbLine
 10
6295.1013149405
 20
5333.17325219
 30
0.0
 11
6295.1013149405
 21
5301.1390958556
 31
0.0
  0
LINE
  5
10B
330
1F
100
AcDbEntity
  8
0
  6
Continuous
 62
     7
370
    25
100
AcDbLine
 10
6202.5187553361
 20
5353.1994545927
 30
0.0
 11
6202.5187553361
 21
5074.1994545927
 31
0.0
  0
ARC
  5
10C
330
1F
100
AcDbEntity
  8
0
  6
Continuous
 62
     7
370
    25
100
AcDbCircle
 10
6204.5187553361
 20
5353.1994545927
 30
0.0
 40
2.000000000000909
100
AcDbArc
 50
90.0
 51
180.0
  0
LINE
  5
10D
330
1F
100
AcDbEntity
  8
0
  6
Continuous
 62
     7
370
    25
100
AcDbLine
 10
6343.5187553361
 20
5355.1994545927
 30
0.0
 11
6204.5187553361
 21
5355.1994545927
 31
0.0
  0
ARC
  5
10E
330
1F
100
AcDbEntity
  8
0
  6
Continuous
 62
     7
370
    25
100
AcDbCircle
 10
6343.5187553361
 20
5353.1994545927
 30
0.0
 40
2.000000000000909
100
AcDbArc
 50
0.0
 51
90.0
  0
LINE
  5
10F
330
1F
100
AcDbEntity
  8
0
  6
Continuous
 62
     7
370
    25
100
AcDbLine
 10
6345.5187553361
 20
5074.1994545927
 30
0.0
 11
6345.5187553361
 21
5353.1994545927
 31
0.0
  0
LINE
  5
110
330
1F
100
AcDbEntity
  8
0
  6
Continuous
 62
     7
370
    25
100
AcDbLine
 10
6303.2258434282
 20
5301.1390958556
 30
0.0
 11
6303.2258434282
 21
5333.17325219
 31
0.0
  0
LINE
  5
111
330
1F
100
AcDbEntity
  8
0
  6
Continuous
 62
     7
370
    25
100
AcDbLine
 10
6295.460964604
 20
5218.3663005826
 30
0.0
 11
6304.0399652715
 21
5218.3663005826
 31
0.0
  0
ARC
  5
112
330
1F
100
AcDbEntity
  8
0
  6
Continuous
 62
     7
370
    25
100
AcDbCircle
 10
6296.1013149405
 20
5333.17325219
 30
0.0
 40
1.0
100
AcDbArc
 50
90.0
 51
180.0
  0
ARC
  5
113
330
1F
100
AcDbEntity
  8
0
  6
Continuous
 62
     7
370
    25
100
AcDbCircle
 10
6295.460964604
 20
5219.3659579076
 30
0.0
 40
0.9996573249754874
100
AcDbArc
 50
180.0
 51
270.0
  0
LINE
  5
114
330
1F
100
AcDbEntity
  8
0
  6
Continuous
 62
     7
370
    25
100
AcDbLine
 10
6204.5187553361
 20
5355.1994545927
 30
0.0
 11
6204.5187553361
 21
5356.1994545927
 31
0.0
  0
LINE
  5
115
330
1F
100
AcDbEntity
  8
0
  6
Continuous
 62
     7
370
    25
100
AcDbLine
 10
6204.5187553361
 20
5356.1994545927
 30
0.0
 11
6343.5187553361
 21
5356.1994545927
 31
0.0
  0
LINE
  5
116
330
1F
100
AcDbEntity
  8
0
  6
Continuous
 62
     7
370
    25
100
AcDbLine
 10
6343.5187553361
 20
5356.1994545927
 30
0.0
 11
6343.5187553361
 21
5355.1994545927
 31
0.0
  0
LINE
  5
117
330
1F
100
AcDbEntity
  8
0
  6
Continuous
 62
     7
370
    25
100
AcDbLine
 10
6346.5187553361
 20
5353.1994545927
 30
0.0
 11
6346.5187553361
 21
5074.1994545927
 31
0.0
  0
LINE
  5
118
330
1F
100
AcDbEntity
  8
0
  6
Continuous
 62
     7
370
    25
100
AcDbLine
 10
6346.5187553361
 20
5353.1994545927
 30
0.0
 11
6345.5187553361
 21
5353.1994545927
 31
0.0
  0
ARC
  5
119
330
1F
100
AcDbEntity
  8
0
  6
Continuous
 62
     7
370
    25
100
AcDbCircle
 10
6343.5187553361
 20
5353.1994545927
 30
0.0
 40
3.000000000000909
100
AcDbArc
 50
0.0
 51
90.0
  0
LINE
  5
11A
330
1F
100
AcDbEntity
  8
0
  6
Continuous
 62
     7
370
    25
100
AcDbLine
 10
6202.5187553361
 20
5353.1994545927
 30
0.0
 11
6201.5187553361
 21
5353.1994545927
 31
0.0
  0
ARC
  5
11B
330
1F
100
AcDbEntity
  8
0
  6
Continuous
 62
     7
370
    25
100
AcDbCircle
 10
6204.5187553361
 20
5353.1994545927
 30
0.0
 40
3.000000000000909
100
AcDbArc
 50
90.0
 51
180.0
  0
LINE
  5
11C
330
1F
100
AcDbEntity
  8
0
  6
Continuous
 62
     7
370
    25
100
AcDbLine
 10
6201.5187553361
 20
5074.1994545927
 30
0.0
 11
6201.5187553361
 21
5353.1994545927
 31
0.0
  0
LINE
  5
11D
330
1F
100
AcDbEntity
  8
0
  6
Continuous
 62
     7
370
    25
100
AcDbLine
 10
6296.5832629378
 20
5225.6326846274
 30
0.0
 11
6296.0054458166
 21
5225.6326846274
 31
0.0
  0
ELLIPSE
  5
11E
330
1F
100
AcDbEntity
  8
0
  6
Continuous
 62
     7
370
    25
100
AcDbEllipse
 10
6296.7054483923
 20
5225.6326846274
 30
0.0
 11
0.0
 21
7.000000000003637
 31
0.0
210
0.0
220
0.0
230
1.0
 40
0.0174550649
 41
1.570796327061379
 42
3.124139361063815
  0
LINE
  5
11F
330
1F
100
AcDbEntity
  8
0
  6
Continuous
 62
     7
370
    25
100
AcDbLine
 10
6295.8510723307
 20
5218.6337507613
 30
0.0
 11
6296.7033159621
 21
5218.6337507613
 31
0.0
  0
SPLINE
  5
120
330
1F
100
AcDbEntity
  8
0
  6
Continuous
 62
     7
370
    25
100
AcDbSpline
210
0.0
220
0.0
230
1.0
 70
     8
 71
     3
 72
    14
 73
    10
 74
     0
 42
0.00000001
 43
0.00000001
 40
0.0
 40
0.0
 40
0.0
 40
0.0
 40
0.1540158125240108
 40
0.2997728222656003
 40
0.4372655327179669
 40
0.5664888930523373
 40
0.6874383268687849
 40
0.8001097714309228
 40
1.0
 40
1.0
 40
1.0
 40
1.0
 10
6295.851072331217
 20
5218.633750761315
 30
0.0
 10
6295.863346312037
 20
5218.682070154724
 30
0.0
 10
6295.887236104975
 20
5218.776117906675
 30
0.0
 10
6295.918542866272
 20
5219.373751593281
 30
0.0
 10
6295.945193871027
 20
5220.204528715974
 30
0.0
 10
6295.967045060164
 20
5221.215036493104
 30
0.0
 10
6295.983914945297
 20
5222.319216325478
 30
0.0
 10
6296.000174215254
 20
5223.770446485532
 30
0.0
 10
6296.003389542424
 20
5224.906288244462
 30
0.0
 10
6296.005445816555
 20
5225.63268462741
 30
0.0
  0
LINE
  5
121
330
1F
100
AcDbEntity
  8
0
  6
Continuous
 62
     7
370
    25
100
AcDbLine
 10
6296.0054458166
 20
5225.6326846274
 30
0.0
 11
6296.0054458166
 21
5228.6504339913
 31
0.0
  0
SPLINE
  5
122
330
1F
100
AcDbEntity
  8
0
  6
Continuous
 62
     7
370
    25
100
AcDbSpline
210
0.0
220
0.0
230
1.0
 70
    24
 71
     3
 72
    11
 73
     7
 74
     0
 42
0.00000001
 43
0.00000001
 40
0.0
 40
0.0
 40
0.0
 40
0.0
 40
0.2499999999999999
 40
0.4999999999999993
 40
0.7499999999999973
 40
1.0
 40
1.0
 40
1.0
 40
1.0
 10
6295.00578849158
 20
5225.63268462741
 30
0.0
 10
6295.023681074668
 20
5225.63268462741
 30
0.0
 10
6295.059466240844
 20
5225.63268462741
 30
0.0
 10
6295.291893701676
 20
5225.63268462741
 30
0.0
 10
6295.618891092736
 20
5225.63268462741
 30
0.0
 10
6295.876594241949
 20
5225.63268462741
 30
0.0
 10
6296.005445816556
 20
5225.63268462741
 30
0.0
  0
LINE
  5
123
330
1F
100
AcDbEntity
  8
0
  6
Continuous
 62
     7
370
    25
100
AcDbLine
 10
6295.0057884916
 20
5228.7356324686
 30
0.0
 11
6295.0057884916
 21
5225.6326846274
 31
0.0
  0
ELLIPSE
  5
124
330
1F
100
AcDbEntity
  8
0
  6
Continuous
 62
     7
370
    25
100
AcDbEllipse
 10
6296.0054458166
 20
5228.7379226548
 30
0.0
 11
1.0
 21
0.0
 31
0.0
210
0.0
220
0.0
230
1.0
 40
0.0874886635
 41
3.167772592364053
 42
4.712388980384691
  0
LINE
  5
125
330
1F
100
AcDbEntity
  8
0
  6
Continuous
 62
     7
370
    25
100
AcDbLine
 10
6303.4727924746
 20
5225.6326846274
 30
0.0
 11
6302.8949753533
 21
5225.6326846274
 31
0.0
  0
LINE
  5
126
330
1F
100
AcDbEntity
  8
0
  6
Continuous
 62
     7
370
    25
100
AcDbLine
 10
6302.8949753533
 20
5225.7985505152
 30
0.0
 11
6302.8949753533
 21
5225.6326846274
 31
0.0
  0
LINE
  5
127
330
1F
100
AcDbEntity
  8
0
  6
Continuous
 62
     7
370
    25
100
AcDbLine
 10
6296.5832629378
 20
5225.7985505152
 30
0.0
 11
6302.8949753533
 21
5225.7985505152
 31
0.0
  0
LINE
  5
128
330
1F
100
AcDbEntity
  8
0
  6
Continuous
 62
     7
370
    25
100
AcDbLine
 10
6296.5832629378
 20
5225.6326846255
 30
0.0
 11
6296.5832629378
 21
5225.7985505152
 31
0.0
  0
LINE
  5
129
330
1F
100
AcDbEntity
  8
0
  6
Continuous
 62
     7
370
    25
100
AcDbLine
 10
6296.0054458166
 20
5228.6504339913
 30
0.0
 11
6303.4727924746
 21
5228.6504339913
 31
0.0
  0
LINE
  5
12A
330
1F
100
AcDbEntity
  8
0
  6
Continuous
 62
     7
370
    25
100
AcDbLine
 10
6303.4727924746
 20
5228.6504339913
 30
0.0
 11
6303.4727924746
 21
5225.6326846274
 31
0.0
  0
LINE
  5
12B
330
1F
100
AcDbEntity
  8
0
  6
Continuous
 62
     7
370
    25
100
AcDbLine
 10
6302.774922329
 20
5218.6337507613
 30
0.0
 11
6303.6271659605
 21
5218.6337507613
 31
0.0
  0
ELLIPSE
  5
12C
330
1F
100
AcDbEntity
  8
0
  6
Continuous
 62
     7
370
    25
100
AcDbEllipse
 10
6302.7727898988
 20
5225.6326846274
 30
0.0
 11
0.0
 21
7.000000000004547
 31
0.0
210
0.0
220
0.0
230
1.0
 40
0.0174550649
 41
3.159045946116598
 42
4.712388980384819
  0
SPLINE
  5
12D
330
1F
100
AcDbEntity
  8
0
  6
Continuous
 62
     7
370
    25
100
AcDbSpline
210
0.0
220
0.0
230
1.0
 70
     8
 71
     3
 72
    14
 73
    10
 74
     0
 42
0.00000001
 43
0.00000001
 40
0.0
 40
0.0
 40
0.0
 40
0.0
 40
0.1998902285693628
 40
0.3125616731315733
 40
0.4335111069480437
 40
0.5627344672823897
 40
0.7002271777346853
 40
0.8459841874761548
 40
1.0
 40
1.0
 40
1.0
 40
1.0
 10
6303.47279247455
 20
5225.63268462741
 30
0.0
 10
6303.47484874868
 20
5224.906288244461
 30
0.0
 10
6303.478064075852
 20
5223.770446485531
 30
0.0
 10
6303.494323345809
 20
5222.319216325477
 30
0.0
 10
6303.51119323094
 20
5221.215036493105
 30
0.0
 10
6303.533044420078
 20
5220.204528715975
 30
0.0
 10
6303.559695424833
 20
5219.373751593283
 30
0.0
 10
6303.59100218613
 20
5218.776117906677
 30
0.0
 10
6303.614891979068
 20
5218.682070154725
 30
0.0
 10
6303.627165959888
 20
5218.633750761315
 30
0.0
  0
LINE
  5
12E
330
1F
100
AcDbEntity
  8
0
  6
Continuous
 62
     7
370
    25
100
AcDbLine
 10
6304.4724497995
 20
5225.6326846274
 30
0.0
 11
6304.4724497995
 21
5228.7356324686
 31
0.0
  0
SPLINE
  5
12F
330
1F
100
AcDbEntity
  8
0
  6
Continuous
 62
     7
370
    25
100
AcDbSpline
210
0.0
220
0.0
230
1.0
 70
    24
 71
     3
 72
    11
 73
     7
 74
     0
 42
0.00000001
 43
0.00000001
 40
0.0
 40
0.0
 40
0.0
 40
0.0
 40
0.2499999999999988
 40
0.5000000000000036
 40
0.7500000000000023
 40
1.0
 40
1.0
 40
1.0
 40
1.0
 10
6303.47279247455
 20
5225.63268462741
 30
0.0
 10
6303.601644049157
 20
5225.63268462741
 30
0.0
 10
6303.85934719837
 20
5225.63268462741
 30
0.0
 10
6304.18634458943
 20
5225.63268462741
 30
0.0
 10
6304.418772050262
 20
5225.63268462741
 30
0.0
 10
6304.454557216437
 20
5225.63268462741
 30
0.0
 10
6304.472449799525
 20
5225.63268462741
 30
0.0
  0
ELLIPSE
  5
130
330
1F
100
AcDbEntity
  8
0
  6
Continuous
 62
     7
370
    25
100
AcDbEllipse
 10
6303.4727924746
 20
5228.7379226548
 30
0.0
 11
0.9999999999990905
 21
0.0
 31
0.0
210
0.0
220
0.0
230
1.0
 40
0.0874886635
 41
4.712388980384691
 42
6.257005368405641
  0
ELLIPSE
  5
131
330
1F
100
AcDbEntity
  8
0
  6
Continuous
 62
     7
370
    25
100
AcDbEllipse
 10
6304.6295653289
 20
5225.6326846274
 30
0.0
 11
-9.094947017729282E-13
 21
6.0
 31
0.0
210
0.0
220
0.0
230
1.0
 40
0.0261859216
 41
1.570796326794893
 42
3.12413936106041
  0
SPLINE
  5
132
330
1F
100
AcDbEntity
  8
0
  6
Continuous
 62
     7
370
    25
100
AcDbSpline
210
0.0
220
0.0
230
1.0
 70
     8
 71
     3
 72
    11
 73
     7
 74
     0
 42
0.00000001
 43
0.00000001
 40
0.0
 40
0.0
 40
0.0
 40
0.0
 40
0.2499999999999944
 40
0.4999999999999948
 40
0.7499999999999942
 40
0.9999999999999999
 40
0.9999999999999999
 40
0.9999999999999999
 40
0.9999999999999999
 10
6303.627165960451
 20
5218.633750761316
 30
0.0
 10
6303.758119991428
 20
5218.648830958971
 30
0.0
 10
6304.020028053384
 20
5218.678991354282
 30
0.0
 10
6304.350398694733
 20
5218.910227993068
 30
0.0
 10
6304.581591305986
 20
5219.240661548881
 30
0.0
 10
6304.611745958571
 20
5219.502619487438
 30
0.0
 10
6304.626823284863
 20
5219.633598456715
 30
0.0
  0
ELLIPSE
  5
133
330
1F
100
AcDbEntity
  8
0
  6
Continuous
 62
     7
370
    25
100
AcDbEllipse
 10
6294.8486729622
 20
5225.6326846274
 30
0.0
 11
0.0
 21
5.999999999996362
 31
0.0
210
0.0
220
0.0
230
1.0
 40
0.0261859216
 41
3.159045946108137
 42
4.712388980385296
  0
SPLINE
  5
134
330
1F
100
AcDbEntity
  8
0
  6
Continuous
 62
     7
370
    25
100
AcDbSpline
210
0.0
220
0.0
230
1.0
 70
     8
 71
     3
 72
    11
 73
     7
 74
     0
 42
0.00000001
 43
0.00000001
 40
0.0
 40
0.0
 40
0.0
 40
0.0
 40
0.249999999999994
 40
0.4999999999999935
 40
0.7499999999999951
 40
1.0
 40
1.0
 40
1.0
 40
1.0
 10
6294.851415006241
 20
5219.633598456716
 30
0.0
 10
6294.866492332534
 20
5219.502619487438
 30
0.0
 10
6294.896646985118
 20
5219.240661548881
 30
0.0
 10
6295.127839596373
 20
5218.910227993068
 30
0.0
 10
6295.458210237721
 20
5218.678991354281
 30
0.0
 10
6295.720118299676
 20
5218.64883095897
 30
0.0
 10
6295.851072330654
 20
5218.633750761315
 30
0.0
  0
LINE
  5
135
330
1F
100
AcDbEntity
  8
0
  6
Continuous
 62
     7
370
    25
100
AcDbLine
 10
6296.5832629378
 20
5225.7985505152
 30
0.0
 11
6296.7694502945
 21
5225.2395342105
 31
0.0
  0
LINE
  5
136
330
1F
100
AcDbEntity
  8
0
  6
Continuous
 62
     7
370
    25
100
AcDbLine
 10
6296.7694502945
 20
5225.2395342105
 30
0.0
 11
6297.1069148856
 21
5224.2263171368
 31
0.0
  0
LINE
  5
137
330
1F
100
AcDbEntity
  8
0
  6
Continuous
 62
     7
370
    25
100
AcDbLine
 10
6297.1069148856
 20
5220.2207838937
 30
0.0
 11
6297.1069148856
 21
5224.2263171368
 31
0.0
  0
LINE
  5
138
330
1F
100
AcDbEntity
  8
0
  6
Continuous
 62
     7
370
    25
100
AcDbLine
 10
6296.7575884787
 20
5219.52191815
 30
0.0
 11
6297.1069148856
 21
5220.2207838937
 31
0.0
  0
LINE
  5
139
330
1F
100
AcDbEntity
  8
0
  6
Continuous
 62
     7
370
    25
100
AcDbLine
 10
6296.7575884787
 20
5219.52191815
 30
0.0
 11
6296.7575884787
 21
5218.5794782447
 31
0.0
  0
LINE
  5
13A
330
1F
100
AcDbEntity
  8
0
  6
Continuous
 62
     7
370
    25
100
AcDbLine
 10
6296.7575884787
 20
5218.5794782447
 30
0.0
 11
6296.7033159621
 21
5218.6337507613
 31
0.0
  0
LINE
  5
13B
330
1F
100
AcDbEntity
  8
0
  6
Continuous
 62
     7
370
    25
100
AcDbLine
 10
6294.5599423574
 20
5230.2252299347
 30
0.0
 11
6295.0057884916
 21
5228.7356324686
 31
0.0
  0
LINE
  5
13C
330
1F
100
AcDbEntity
  8
0
  6
Continuous
 62
     7
370
    25
100
AcDbLine
 10
6294.5599423574
 20
5230.2252299347
 30
0.0
 11
6296.6414464825
 21
5230.2252299347
 31
0.0
  0
LINE
  5
13D
330
1F
100
AcDbEntity
  8
0
  6
Continuous
 62
     7
370
    25
100
AcDbLine
 10
6296.9151788769
 20
5228.8532223572
 30
0.0
 11
6296.6414464825
 21
5230.2252299347
 31
0.0
  0
LINE
  5
13E
330
1F
100
AcDbEntity
  8
0
  6
Continuous
 62
     7
370
    25
100
AcDbLine
 10
6296.9151788769
 20
5228.8532223572
 30
0.0
 11
6302.5630594142
 21
5228.8532223572
 31
0.0
  0
LINE
  5
13F
330
1F
100
AcDbEntity
  8
0
  6
Continuous
 62
     7
370
    25
100
AcDbLine
 10
6302.8367918086
 20
5230.2252299347
 30
0.0
 11
6302.5630594142
 21
5228.8532223572
 31
0.0
  0
LINE
  5
140
330
1F
100
AcDbEntity
  8
0
  6
Continuous
 62
     7
370
    25
100
AcDbLine
 10
6302.8367918086
 20
5230.2252299347
 30
0.0
 11
6304.9182959337
 21
5230.2252299347
 31
0.0
  0
LINE
  5
141
330
1F
100
AcDbEntity
  8
0
  6
Continuous
 62
     7
370
    25
100
AcDbLine
 10
6304.9182959337
 20
5230.2252299347
 30
0.0
 11
6304.4724497995
 21
5228.7356324686
 31
0.0
  0
LINE
  5
142
330
1F
100
AcDbEntity
  8
0
  6
Continuous
 62
     7
370
    25
100
AcDbLine
 10
6302.774922329
 20
5218.6337507613
 30
0.0
 11
6302.7206498124
 21
5218.5794782447
 31
0.0
  0
LINE
  5
143
330
1F
100
AcDbEntity
  8
0
  6
Continuous
 62
     7
370
    25
100
AcDbLine
 10
6302.7206498124
 20
5219.52191815
 30
0.0
 11
6302.7206498124
 21
5218.5794782447
 31
0.0
  0
LINE
  5
144
330
1F
100
AcDbEntity
  8
0
  6
Continuous
 62
     7
370
    25
100
AcDbLine
 10
6302.3713234055
 20
5220.2207838937
 30
0.0
 11
6302.7206498124
 21
5219.52191815
 31
0.0
  0
LINE
  5
145
330
1F
100
AcDbEntity
  8
0
  6
Continuous
 62
     7
370
    25
100
AcDbLine
 10
6302.3713234055
 20
5220.2207838937
 30
0.0
 11
6302.3713234055
 21
5224.2263171368
 31
0.0
  0
LINE
  5
146
330
1F
100
AcDbEntity
  8
0
  6
Continuous
 62
     7
370
    25
100
AcDbLine
 10
6302.7087879966
 20
5225.2395342105
 30
0.0
 11
6302.3713234055
 21
5224.2263171368
 31
0.0
  0
LINE
  5
147
330
1F
100
AcDbEntity
  8
0
  6
Continuous
 62
     7
370
    25
100
AcDbLine
 10
6302.8949753533
 20
5225.7985505152
 30
0.0
 11
6302.7087879966
 21
5225.2395342105
 31
0.0
  0
LINE
  5
148
330
1F
100
AcDbEntity
  8
0
  6
Continuous
 62
     7
370
    25
100
AcDbLine
 10
6302.5630594142
 20
5225.6770754864
 30
0.0
 11
6302.7087879966
 21
5225.2395342105
 31
0.0
  0
LINE
  5
149
330
1F
100
AcDbEntity
  8
0
  6
Continuous
 62
     7
370
    25
100
AcDbLine
 10
6296.9151788769
 20
5225.6770754864
 30
0.0
 11
6302.5630594142
 21
5225.6770754864
 31
0.0
  0
LINE
  5
14A
330
1F
100
AcDbEntity
  8
0
  6
Continuous
 62
     7
370
    25
100
AcDbLine
 10
6296.7694502945
 20
5225.2395342105
 30
0.0
 11
6296.9151788769
 21
5225.6770754864
 31
0.0
  0
LINE
  5
14B
330
1F
100
AcDbEntity
  8
0
  6
Continuous
 62
     7
370
    25
100
AcDbLine
 10
6304.9182959337
 20
5230.2252299347
 30
0.0
 11
6304.9182959337
 21
5258.6606056057
 31
0.0
  0
LINE
  5
14C
330
1F
100
AcDbEntity
  8
0
  6
Continuous
 62
     7
370
    25
100
AcDbLine
 10
6304.9182959337
 20
5258.6606056057
 30
0.0
 11
6304.9706677769
 21
5258.7129774488
 31
0.0
  0
LINE
  5
14D
330
1F
100
AcDbEntity
  8
0
  6
Continuous
 62
     7
370
    25
100
AcDbLine
 10
6304.9706677769
 20
5219.4043978947
 30
0.0
 11
6304.9706677769
 21
5258.7129774488
 31
0.0
  0
LINE
  5
14E
330
1F
100
AcDbEntity
  8
0
  6
Continuous
 62
     7
370
    25
100
AcDbLine
 10
6304.9706677769
 20
5219.4043978947
 30
0.0
 11
6304.6268232849
 21
5219.6335984565
 31
0.0
  0
LINE
  5
14F
330
1F
100
AcDbEntity
  8
0
  6
Continuous
 62
     7
370
    25
100
AcDbLine
 10
6294.5599423574
 20
5258.6606056057
 30
0.0
 11
6294.5599423574
 21
5230.2252299347
 31
0.0
  0
LINE
  5
150
330
1F
100
AcDbEntity
  8
0
  6
Continuous
 62
     7
370
    25
100
AcDbLine
 10
6294.8514150062
 20
5219.6335984565
 30
0.0
 11
6294.5075705143
 21
5219.4043978947
 31
0.0
  0
LINE
  5
151
330
1F
100
AcDbEntity
  8
0
  6
Continuous
 62
     7
370
    25
100
AcDbLine
 10
6294.5075705143
 20
5258.7129774488
 30
0.0
 11
6294.5075705143
 21
5219.4043978947
 31
0.0
  0
LINE
  5
152
330
1F
100
AcDbEntity
  8
0
  6
Continuous
 62
     7
370
    25
100
AcDbLine
 10
6294.5075705143
 20
5258.7129774488
 30
0.0
 11
6294.5599423574
 21
5258.6606056057
 31
0.0
  0
ELLIPSE
  5
153
330
1F
100
AcDbEntity
  8
0
  6
Continuous
 62
     7
370
    25
100
AcDbEllipse
 10
6303.9703249844
 20
5219.4048548151
 30
0.0
 11
-0.8324947319633793
 21
0.5549260338384556
 31
0.0
210
0.0
220
0.0
230
1.0
 40
0.9995051766
 41
2.158968785091217
 42
3.729308261127444
  0
LINE
  5
154
330
1F
100
AcDbEntity
  8
0
  6
Continuous
 62
     7
370
    25
100
AcDbLine
 10
6303.6271659599
 20
5218.6337507613
 30
0.0
 11
6303.9707819917
 21
5218.404702487
 31
0.0
  0
LINE
  5
155
330
1F
100
AcDbEntity
  8
0
  6
Continuous
 62
     7
370
    25
100
AcDbLine
 10
6295.5074562994
 20
5218.404702487
 30
0.0
 11
6295.8510723312
 21
5218.6337507613
 31
0.0
  0
ELLIPSE
  5
156
330
1F
100
AcDbEntity
  8
0
  6
Continuous
 62
     7
370
    25
100
AcDbEllipse
 10
6295.5079133067
 20
5219.4048548151
 30
0.0
 11
0.8324947319642887
 21
0.5549260338384556
 31
0.0
210
0.0
220
0.0
230
1.0
 40
0.9995051766
 41
2.553877046051963
 42
4.124216522089585
  0
LINE
  5
157
330
1F
100
AcDbEntity
  8
0
  6
Continuous
 62
     7
370
    25
100
AcDbLine
 10
6302.7206498124
 20
5218.5794782447
 30
0.0
 11
6296.7575884787
 21
5218.5794782447
 31
0.0
  0
LINE
  5
158
330
1F
100
AcDbEntity
  8
0
  6
Continuous
 62
     7
370
    25
100
AcDbLine
 10
6295.5074562994
 20
5218.404702487
 30
0.0
 11
6303.9707819917
 21
5218.404702487
 31
0.0
  0
LINE
  5
159
330
1F
100
AcDbEntity
  8
0
  6
Continuous
 62
     7
370
    25
100
AcDbLine
 10
6293.306831373
 20
5296.1479784087
 30
0.0
 11
6293.306831373
 21
5286.3052904985
 31
0.0
  0
SPLINE
  5
15A
330
1F
100
AcDbEntity
  8
0
  6
Continuous
 62
     7
370
    25
100
AcDbSpline
210
0.0
220
0.0
230
1.0
 70
    24
 71
     3
 72
    11
 73
     7
 74
     0
 42
0.00000001
 43
0.00000001
 40
0.0
 40
0.0
 40
0.0
 40
0.0
 40
0.2499999999999936
 40
0.4999999999999956
 40
0.7499999999999974
 40
0.9999999999999999
 40
0.9999999999999999
 40
0.9999999999999999
 40
0.9999999999999999
 10
6293.306831373045
 20
5296.147978408666
 30
0.0
 10
6293.314830447031
 20
5296.147978408666
 30
0.0
 10
6293.330828595002
 20
5296.147978408666
 30
0.0
 10
6293.446662938079
 20
5296.147978408666
 30
0.0
 10
6293.611349485048
 20
5296.147978408666
 30
0.0
 10
6293.741658050968
 20
5296.147978408666
 30
0.0
 10
6293.806812333928
 20
5296.147978408666
 30
0.0
  0
LINE
  5
15B
330
1F
100
AcDbEntity
  8
0
  6
Continuous
 62
     7
370
    25
100
AcDbLine
 10
6293.8068123346
 20
5286.3052904992
 30
0.0
 11
6293.8068123346
 21
5296.1479784093
 31
0.0
  0
SPLINE
  5
15C
330
1F
100
AcDbEntity
  8
0
  6
Continuous
 62
     7
370
    25
100
AcDbSpline
210
0.0
220
0.0
230
1.0
 70
    24
 71
     3
 72
    11
 73
     7
 74
     0
 42
0.00000001
 43
0.00000001
 40
0.0
 40
0.0
 40
0.0
 40
0.0
 40
0.2500000000000063
 40
0.500000000000001
 40
0.7499999999999994
 40
1.0
 40
1.0
 40
1.0
 40
1.0
 10
6293.306831373046
 20
5286.305290498469
 30
0.0
 10
6293.314830447063
 20
5286.305290498469
 30
0.0
 10
6293.330828595098
 20
5286.305290498469
 30
0.0
 10
6293.446662938364
 20
5286.305290498469
 30
0.0
 10
6293.611349485547
 20
5286.305290498469
 30
0.0
 10
6293.741658051568
 20
5286.305290498469
 30
0.0
 10
6293.806812334578
 20
5286.305290498469
 30
0.0
  0
LINE
  5
15D
330
1F
100
AcDbEntity
  8
0
  6
Continuous
 62
     7
370
    25
100
AcDbLine
 10
6293.8068123339
 20
5296.1479784087
 30
0.0
 11
6310.1060562977
 21
5296.1479784087
 31
0.0
  0
SPLINE
  5
15E
330
1F
100
AcDbEntity
  8
0
  6
Continuous
 62
     7
370
    25
100
AcDbSpline
210
0.0
220
0.0
230
1.0
 70
     8
 71
     3
 72
    13
 73
     9
 74
     0
 42
0.00000001
 43
0.00000001
 40
0.0
 40
0.0
 40
0.0
 40
0.0
 40
0.1993624729093081
 40
0.4320079366433519
 40
0.5614183591822913
 40
0.6992244946358045
 40
0.8454204602180136
 40
1.0
 40
1.0
 40
1.0
 40
1.0
 10
6293.806812334578
 20
5296.147978409265
 30
0.0
 10
6293.806511081522
 20
5296.459486582738
 30
0.0
 10
6293.805858282079
 20
5297.134508322312
 30
0.0
 10
6293.802276636127
 20
5297.922665109833
 30
0.0
 10
6293.798377498213
 20
5298.48121227344
 30
0.0
 10
6293.794634124415
 20
5298.837700265949
 30
0.0
 10
6293.790250798081
 20
5299.092111154309
 30
0.0
 10
6293.786905053827
 20
5299.128937679042
 30
0.0
 10
6293.78518555341
 20
5299.147864177852
 30
0.0
  0
LINE
  5
15F
330
1F
100
AcDbEntity
  8
0
  6
Continuous
 62
     7
370
    25
100
AcDbLine
 10
6310.1276830782
 20
5299.1478641779
 30
0.0
 11
6293.7851855534
 21
5299.1478641779
 31
0.0
  0
SPLINE
  5
160
330
1F
100
AcDbEntity
  8
0
  6
Continuous
 62
     7
370
    25
100
AcDbSpline
210
0.0
220
0.0
230
1.0
 70
     8
 71
     3
 72
    13
 73
     9
 74
     0
 42
0.00000001
 43
0.00000001
 40
0.0
 40
0.0
 40
0.0
 40
0.0
 40
0.1545795397755738
 40
0.3007755053532377
 40
0.4385816408040725
 40
0.5679920633421968
 40
0.8006375270796716
 40
0.9999999999999999
 40
0.9999999999999999
 40
0.9999999999999999
 40
0.9999999999999999
 10
6310.127683078179
 20
5299.147864177858
 30
0.0
 10
6310.125963577761
 20
5299.128937679086
 30
0.0
 10
6310.122617833506
 20
5299.092111154431
 30
0.0
 10
6310.118234507171
 20
5298.837700266089
 30
0.0
 10
6310.114491133372
 20
5298.481212273534
 30
0.0
 10
6310.110591995457
 20
5297.922665109797
 30
0.0
 10
6310.107010349505
 20
5297.134508322021
 30
0.0
 10
6310.106357550062
 20
5296.45948658224
 30
0.0
 10
6310.106056297005
 20
5296.147978408666
 30
0.0
  0
LINE
  5
161
330
1F
100
AcDbEntity
  8
0
  6
Continuous
 62
     7
370
    25
100
AcDbLine
 10
6310.106056297
 20
5286.3052904992
 30
0.0
 11
6293.8068123346
 21
5286.3052904992
 31
0.0
  0
LINE
  5
162
330
1F
100
AcDbEntity
  8
0
  6
Continuous
 62
     7
370
    25
100
AcDbLine
 10
6310.106056297
 20
5296.1479784087
 30
0.0
 11
6310.106056297
 21
5286.3052904984
 31
0.0
  0
SPLINE
  5
163
330
1F
100
AcDbEntity
  8
0
  6
Continuous
 62
     7
370
    25
100
AcDbSpline
210
0.0
220
0.0
230
1.0
 70
    24
 71
     3
 72
    11
 73
     7
 74
     0
 42
0.00000001
 43
0.00000001
 40
0.0
 40
0.0
 40
0.0
 40
0.0
 40
0.2499999999999864
 40
0.4999999999999941
 40
0.7499999999999933
 40
1.0
 40
1.0
 40
1.0
 40
1.0
 10
6310.106056297655
 20
5296.147978408666
 30
0.0
 10
6310.171210580615
 20
5296.147978408666
 30
0.0
 10
6310.301519146535
 20
5296.147978408666
 30
0.0
 10
6310.466205693505
 20
5296.147978408666
 30
0.0
 10
6310.582040036581
 20
5296.147978408666
 30
0.0
 10
6310.598038184553
 20
5296.147978408666
 30
0.0
 10
6310.606037258538
 20
5296.147978408666
 30
0.0
  0
LINE
  5
164
330
1F
100
AcDbEntity
  8
0
  6
Continuous
 62
     7
370
    25
100
AcDbLine
 10
6310.6060372585
 20
5286.3052904992
 30
0.0
 11
6310.6060372585
 21
5296.1479784087
 31
0.0
  0
SPLINE
  5
165
330
1F
100
AcDbEntity
  8
0
  6
Continuous
 62
     7
370
    25
100
AcDbSpline
210
0.0
220
0.0
230
1.0
 70
    24
 71
     3
 72
    11
 73
     7
 74
     0
 42
0.00000001
 43
0.00000001
 40
0.0
 40
0.0
 40
0.0
 40
0.0
 40
0.2499999999999802
 40
0.4999999999999874
 40
0.7499999999999861
 40
1.0
 40
1.0
 40
1.0
 40
1.0
 10
6310.106056297005
 20
5286.305290499214
 30
0.0
 10
6310.171210580015
 20
5286.305290499214
 30
0.0
 10
6310.301519146035
 20
5286.305290499214
 30
0.0
 10
6310.466205693219
 20
5286.305290499214
 30
0.0
 10
6310.582040036486
 20
5286.305290499214
 30
0.0
 10
6310.59803818452
 20
5286.305290499214
 30
0.0
 10
6310.606037258538
 20
5286.305290499214
 30
0.0
  0
LINE
  5
166
330
1F
100
AcDbEntity
  8
0
  6
Continuous
 62
     7
370
    25
100
AcDbLine
 10
6293.7851855525
 20
5283.30540473
 30
0.0
 11
6310.1276830786
 21
5283.30540473
 31
0.0
  0
SPLINE
  5
167
330
1F
100
AcDbEntity
  8
0
  6
Continuous
 62
     7
370
    25
100
AcDbSpline
210
0.0
220
0.0
230
1.0
 70
     8
 71
     3
 72
    13
 73
     9
 74
     0
 42
0.00000001
 43
0.00000001
 40
0.0
 40
0.0
 40
0.0
 40
0.0
 40
0.1545795397826491
 40
0.3007755053653737
 40
0.4385816408192604
 40
0.5679920633584196
 40
0.8006375270917723
 40
1.0
 40
1.0
 40
1.0
 40
1.0
 10
6293.785185553403
 20
5283.305404730017
 30
0.0
 10
6293.78690505382
 20
5283.324331228759
 30
0.0
 10
6293.790250798075
 20
5283.361157753354
 30
0.0
 10
6293.794634124411
 20
5283.615568641668
 30
0.0
 10
6293.798377498209
 20
5283.972056634226
 30
0.0
 10
6293.802276636125
 20
5284.53060379799
 30
0.0
 10
6293.805858282079
 20
5285.318760585809
 30
0.0
 10
6293.806511081522
 20
5285.99378232563
 30
0.0
 10
6293.806812334578
 20
5286.305290499214
 30
0.0
  0
SPLINE
  5
168
330
1F
100
AcDbEntity
  8
0
  6
Continuous
 62
     7
370
    25
100
AcDbSpline
210
0.0
220
0.0
230
1.0
 70
     8
 71
     3
 72
    13
 73
     9
 74
     0
 42
0.00000001
 43
0.00000001
 40
0.0
 40
0.0
 40
0.0
 40
0.0
 40
0.1993624728936734
 40
0.4320079366225301
 40
0.5614183591627486
 40
0.6992244946201636
 40
0.8454204602088858
 40
1.0
 40
1.0
 40
1.0
 40
1.0
 10
6310.106056297005
 20
5286.305290498378
 30
0.0
 10
6310.106357550062
 20
5285.99378232494
 30
0.0
 10
6310.107010349505
 20
5285.318760585421
 30
0.0
 10
6310.110591995456
 20
5284.530603797964
 30
0.0
 10
6310.114491133371
 20
5283.972056634388
 30
0.0
 10
6310.118234507169
 20
5283.615568641892
 30
0.0
 10
6310.122617833505
 20
5283.361157753544
 30
0.0
 10
6310.125963577757
 20
5283.324331228829
 30
0.0
 10
6310.127683078175
 20
5283.305404730025
 30
0.0
  0
ELLIPSE
  5
169
330
1F
100
AcDbEntity
  8
0
  6
Continuous
 62
     7
370
    25
100
AcDbEllipse
 10
6310.627854428
 20
5286.3052904992
 30
0.0
 11
8.185452315956354E-12
 21
2.499999999996362
 31
0.0
210
0.0
220
0.0
230
1.0
 40
0.0087268678
 41
1.570796326794925
 42
3.132866007743896
  0
SPLINE
  5
16A
330
1F
100
AcDbEntity
  8
0
  6
Continuous
 62
     7
370
    25
100
AcDbSpline
210
0.0
220
0.0
230
1.0
 70
     8
 71
     3
 72
    11
 73
     7
 74
     0
 42
0.00000001
 43
0.00000001
 40
0.0
 40
0.0
 40
0.0
 40
0.0
 40
0.2499999999999943
 40
0.5000000000000031
 40
0.750000000000006
 40
1.0
 40
1.0
 40
1.0
 40
1.0
 10
6310.127683078608
 20
5283.305404730021
 30
0.0
 10
6310.193195927573
 20
5283.312924475326
 30
0.0
 10
6310.324221625501
 20
5283.327963965936
 30
0.0
 10
6310.489482711705
 20
5283.443586058454
 30
0.0
 10
6310.605104804027
 20
5283.608847144794
 30
0.0
 10
6310.620144294482
 20
5283.739872842739
 30
0.0
 10
6310.627664039711
 20
5283.805385691712
 30
0.0
  0
ELLIPSE
  5
16B
330
1F
100
AcDbEntity
  8
0
  6
Continuous
 62
     7
370
    25
100
AcDbEllipse
 10
6293.2850142036
 20
5286.3052904992
 30
0.0
 11
0.0
 21
2.500000000002728
 31
0.0
210
0.0
220
0.0
230
1.0
 40
0.0087268678
 41
3.150319299937187
 42
4.71238898008674
  0
SPLINE
  5
16C
330
1F
100
AcDbEntity
  8
0
  6
Continuous
 62
     7
370
    25
100
AcDbSpline
210
0.0
220
0.0
230
1.0
 70
     8
 71
     3
 72
    11
 73
     7
 74
     0
 42
0.00000001
 43
0.00000001
 40
0.0
 40
0.0
 40
0.0
 40
0.0
 40
0.250000000000007
 40
0.5000000000000197
 40
0.7500000000000296
 40
0.9999999999999999
 40
0.9999999999999999
 40
0.9999999999999999
 40
0.9999999999999999
 10
6293.285204591874
 20
5283.805385691714
 30
0.0
 10
6293.292724337093
 20
5283.739872842776
 30
0.0
 10
6293.307763827533
 20
5283.608847144902
 30
0.0
 10
6293.423385919733
 20
5283.443586058619
 30
0.0
 10
6293.58864700578
 20
5283.327963966081
 30
0.0
 10
6293.719672703623
 20
5283.312924475375
 30
0.0
 10
6293.785185552546
 20
5283.305404730022
 30
0.0
  0
ELLIPSE
  5
16D
330
1F
100
AcDbEntity
  8
0
  6
Continuous
 62
     7
370
    25
100
AcDbEllipse
 10
6293.2850142036
 20
5296.1479784087
 30
0.0
 11
8.185452315956354E-12
 21
2.499999999995453
 31
0.0
210
0.0
220
0.0
230
1.0
 40
0.0087268678
 41
4.712388980384718
 42
6.274458661252831
  0
SPLINE
  5
16E
330
1F
100
AcDbEntity
  8
0
  6
Continuous
 62
     7
370
    25
100
AcDbSpline
210
0.0
220
0.0
230
1.0
 70
     8
 71
     3
 72
    11
 73
     7
 74
     0
 42
0.00000001
 43
0.00000001
 40
0.0
 40
0.0
 40
0.0
 40
0.0
 40
0.2500000000001203
 40
0.5000000000000819
 40
0.7500000000000465
 40
1.0
 40
1.0
 40
1.0
 40
1.0
 10
6293.285204591873
 20
5298.647883216326
 30
0.0
 10
6293.292724337127
 20
5298.713396065319
 30
0.0
 10
6293.307763827635
 20
5298.844421763306
 30
0.0
 10
6293.423385920086
 20
5299.009682849645
 30
0.0
 10
6293.588647006425
 20
5299.125304942096
 30
0.0
 10
6293.719672704412
 20
5299.140344432603
 30
0.0
 10
6293.785185553405
 20
5299.147864177858
 30
0.0
  0
SPLINE
  5
16F
330
1F
100
AcDbEntity
  8
0
  6
Continuous
 62
     7
370
    25
100
AcDbSpline
210
0.0
220
0.0
230
1.0
 70
     8
 71
     3
 72
    11
 73
     7
 74
     0
 42
0.00000001
 43
0.00000001
 40
0.0
 40
0.0
 40
0.0
 40
0.0
 40
0.2499999999999916
 40
0.5000000000000119
 40
0.7500000000000259
 40
1.0
 40
1.0
 40
1.0
 40
1.0
 10
6310.127683078179
 20
5299.147864177858
 30
0.0
 10
6310.193195927171
 20
5299.140344432603
 30
0.0
 10
6310.324221625157
 20
5299.125304942097
 30
0.0
 10
6310.489482711498
 20
5299.009682849645
 30
0.0
 10
6310.605104803948
 20
5298.844421763306
 30
0.0
 10
6310.620144294457
 20
5298.713396065319
 30
0.0
 10
6310.627664039711
 20
5298.647883216326
 30
0.0
  0
ELLIPSE
  5
170
330
1F
100
AcDbEntity
  8
0
  6
Continuous
 62
     7
370
    25
100
AcDbEllipse
 10
6310.627854428
 20
5296.1479784087
 30
0.0
 11
0.0
 21
2.499999999995453
 31
0.0
210
0.0
220
0.0
230
1.0
 40
0.0087268678
 41
0.0087266462205185
 42
1.570796326794897
  0
LINE
  5
171
330
1F
100
AcDbEntity
  8
0
  6
Continuous
 62
     7
370
    25
100
AcDbLine
 10
6293.2169065571
 20
5298.7161812511
 30
0.0
 11
6293.2852045919
 21
5298.6478832163
 31
0.0
  0
LINE
  5
172
330
1F
100
AcDbEntity
  8
0
  6
Continuous
 62
     7
370
    25
100
AcDbLine
 10
6293.2852045919
 20
5283.8053856916
 30
0.0
 11
6293.2169065571
 21
5283.7370876568
 31
0.0
  0
LINE
  5
173
330
1F
100
AcDbEntity
  8
0
  6
Continuous
 62
     7
370
    25
100
AcDbLine
 10
6293.2169065571
 20
5283.7370876568
 30
0.0
 11
6293.2169065571
 21
5298.7161812511
 31
0.0
  0
LINE
  5
174
330
1F
100
AcDbEntity
  8
0
  6
Continuous
 62
     7
370
    25
100
AcDbLine
 10
6310.6276640397
 20
5298.6478832163
 30
0.0
 11
6310.6627999769
 21
5298.6830191535
 31
0.0
  0
LINE
  5
175
330
1F
100
AcDbEntity
  8
0
  6
Continuous
 62
     7
370
    25
100
AcDbLine
 10
6310.6627999768
 20
5295.9214436329
 30
0.0
 11
6310.6628004315
 21
5298.6830191535
 31
0.0
  0
ELLIPSE
  5
176
330
1F
100
AcDbEntity
  8
0
  6
Continuous
 62
     7
370
    25
100
AcDbEllipse
 10
6310.6654180372
 20
5295.9214436329
 30
0.0
 11
0.0
 21
0.3000000000001819
 31
0.0
210
0.0
220
0.0
230
1.0
 40
0.0087268678
 41
1.570796326794897
 42
3.124139361053909
  0
LINE
  5
177
330
1F
100
AcDbEntity
  8
0
  6
Continuous
 62
     7
370
    25
100
AcDbLine
 10
6310.6959620744
 20
5295.5603052072
 30
0.0
 11
6310.6653723457
 21
5295.6214893243
 31
0.0
  0
LINE
  5
178
330
1F
100
AcDbEntity
  8
0
  6
Continuous
 62
     7
370
    25
100
AcDbLine
 10
6310.6959620744
 20
5283.7370876568
 30
0.0
 11
6310.6959620744
 21
5295.5603052072
 31
0.0
  0
LINE
  5
179
330
1F
100
AcDbEntity
  8
0
  6
Continuous
 62
     7
370
    25
100
AcDbLine
 10
6310.6959620744
 20
5283.7370876568
 30
0.0
 11
6310.6276640397
 21
5283.8053856916
 31
0.0
  0
LINE
  5
17A
330
1F
100
AcDbEntity
  8
0
  6
Continuous
 62
     7
370
    25
100
AcDbLine
 10
6296.7575884787
 20
5219.52191815
 30
0.0
 11
6302.7206498124
 21
5219.52191815
 31
0.0
  0
LINE
  5
17B
330
1F
100
AcDbEntity
  8
0
  6
Continuous
 62
     7
370
    25
100
AcDbLine
 10
6297.1069148856
 20
5220.2207838937
 30
0.0
 11
6302.3713234055
 21
5220.2207838937
 31
0.0
  0
ELLIPSE
  5
17C
330
1F
100
AcDbEntity
  8
0
  6
Continuous
 62
     7
370
    25
100
AcDbEllipse
 10
6310.1959430352
 20
5283.7371257345
 30
0.0
 11
-0.353580315565523
 21
0.353580315565523
 31
0.0
210
0.0
220
0.0
230
1.0
 40
0.9999238505
 41
2.356232566402998
 42
3.926952740778421
  0
LINE
  5
17D
330
1F
100
AcDbEntity
  8
0
  6
Continuous
 62
     7
370
    25
100
AcDbLine
 10
6310.1276830782
 20
5283.30540473
 30
0.0
 11
6310.1959811129
 21
5283.2371066953
 31
0.0
  0
LINE
  5
17E
330
1F
100
AcDbEntity
  8
0
  6
Continuous
 62
     7
370
    25
100
AcDbLine
 10
6293.7168875187
 20
5283.2371066953
 30
0.0
 11
6293.7851855534
 21
5283.30540473
 31
0.0
  0
ELLIPSE
  5
17F
330
1F
100
AcDbEntity
  8
0
  6
Continuous
 62
     7
370
    25
100
AcDbEllipse
 10
6293.7169255963
 20
5283.7371257345
 30
0.0
 11
0.353580315565523
 21
0.353580315565523
 31
0.0
210
0.0
220
0.0
230
1.0
 40
0.9999238505
 41
2.356232566401179
 42
3.926952740776603
  0
LINE
  5
180
330
1F
100
AcDbEntity
  8
0
  6
Continuous
 62
     7
370
    25
100
AcDbLine
 10
6303.4727635625
 20
5283.2371066953
 30
0.0
 11
6310.1959811129
 21
5283.2371066953
 31
0.0
  0
LINE
  5
181
330
1F
100
AcDbEntity
  8
0
  6
Continuous
 62
     7
370
    25
100
AcDbLine
 10
6303.4115794454
 20
5283.267696424
 30
0.0
 11
6303.4727635625
 21
5283.2371066953
 31
0.0
  0
ELLIPSE
  5
182
330
1F
100
AcDbEntity
  8
0
  6
Continuous
 62
     7
370
    25
100
AcDbEllipse
 10
6303.1116251369
 20
5283.2676507326
 30
0.0
 11
0.3000000000001819
 21
0.0
 31
0.0
210
0.0
220
0.0
230
1.0
 40
0.0087268678
 41
0.0174532928770917
 42
1.570796326794897
  0
LINE
  5
183
330
1F
100
AcDbEntity
  8
0
  6
Continuous
 62
     7
370
    25
100
AcDbLine
 10
6302.2012434947
 20
5283.2702687929
 30
0.0
 11
6303.1116251369
 21
5283.2702687929
 31
0.0
  0
ELLIPSE
  5
184
330
1F
100
AcDbEntity
  8
0
  6
Continuous
 62
     7
370
    25
100
AcDbEllipse
 10
6302.2012434947
 20
5283.2676507326
 30
0.0
 11
0.3000000000001819
 21
0.0
 31
0.0
210
0.0
220
0.0
230
1.0
 40
0.0087268678
 41
1.570796326794897
 42
3.124139360712668
  0
LINE
  5
185
330
1F
100
AcDbEntity
  8
0
  6
Continuous
 62
     7
370
    25
100
AcDbLine
 10
6301.8401050691
 20
5283.2371066953
 30
0.0
 11
6301.9012891862
 21
5283.267696424
 31
0.0
  0
LINE
  5
186
330
1F
100
AcDbEntity
  8
0
  6
Continuous
 62
     7
370
    25
100
AcDbLine
 10
6296.9727635625
 20
5283.2371066953
 30
0.0
 11
6301.8401050691
 21
5283.2371066953
 31
0.0
  0
LINE
  5
187
330
1F
100
AcDbEntity
  8
0
  6
Continuous
 62
     7
370
    25
100
AcDbLine
 10
6296.9115794454
 20
5283.267696424
 30
0.0
 11
6296.9727635625
 21
5283.2371066953
 31
0.0
  0
ELLIPSE
  5
188
330
1F
100
AcDbEntity
  8
0
  6
Continuous
 62
     7
370
    25
100
AcDbEllipse
 10
6296.6116251369
 20
5283.2676507326
 30
0.0
 11
0.3000000000001819
 21
0.0
 31
0.0
210
0.0
220
0.0
230
1.0
 40
0.0087268678
 41
0.0174532928770917
 42
1.570796326794897
  0
LINE
  5
189
330
1F
100
AcDbEntity
  8
0
  6
Continuous
 62
     7
370
    25
100
AcDbLine
 10
6295.7012434947
 20
5283.2702687929
 30
0.0
 11
6296.6116251369
 21
5283.2702687929
 31
0.0
  0
ELLIPSE
  5
18A
330
1F
100
AcDbEntity
  8
0
  6
Continuous
 62
     7
370
    25
100
AcDbEllipse
 10
6295.7012434947
 20
5283.2676507326
 30
0.0
 11
0.2999999999992724
 21
0.0
 31
0.0
210
0.0
220
0.0
230
1.0
 40
0.0087268678
 41
1.570796326794897
 42
3.124139360712721
  0
LINE
  5
18B
330
1F
100
AcDbEntity
  8
0
  6
Continuous
 62
     7
370
    25
100
AcDbLine
 10
6295.3401050691
 20
5283.2371066953
 30
0.0
 11
6295.4012891862
 21
5283.267696424
 31
0.0
  0
LINE
  5
18C
330
1F
100
AcDbEntity
  8
0
  6
Continuous
 62
     7
370
    25
100
AcDbLine
 10
6293.7168875187
 20
5283.2371066953
 30
0.0
 11
6295.3401050691
 21
5283.2371066953
 31
0.0
  0
LINE
  5
18D
330
1F
100
AcDbEntity
  8
0
  6
Continuous
 62
     7
370
    25
100
AcDbLine
 10
6302.8512891862
 20
5299.1855724839
 30
0.0
 11
6302.7901050691
 21
5299.2161622126
 31
0.0
  0
ELLIPSE
  5
18E
330
1F
100
AcDbEntity
  8
0
  6
Continuous
 62
     7
370
    25
100
AcDbEllipse
 10
6303.1512434947
 20
5299.1856181753
 30
0.0
 11
0.3000000000001819
 21
0.0
 31
0.0
210
0.0
220
0.0
230
1.0
 40
0.0087268678
 41
3.159045946127226
 42
4.71238898038469
  0
LINE
  5
18F
330
1F
100
AcDbEntity
  8
0
  6
Continuous
 62
     7
370
    25
100
AcDbLine
 10
6304.5616251369
 20
5299.183000115
 30
0.0
 11
6303.1512434947
 21
5299.183000115
 31
0.0
  0
ELLIPSE
  5
190
330
1F
100
AcDbEntity
  8
0
  6
Continuous
 62
     7
370
    25
100
AcDbEllipse
 10
6304.5616251369
 20
5299.1856181753
 30
0.0
 11
0.2999999999992724
 21
0.0
 31
0.0
210
0.0
220
0.0
230
1.0
 40
0.0087268678
 41
4.71238898038469
 42
6.265732014645471
  0
LINE
  5
191
330
1F
100
AcDbEntity
  8
0
  6
Continuous
 62
     7
370
    25
100
AcDbLine
 10
6304.9227635625
 20
5299.2161622126
 30
0.0
 11
6304.8615794454
 21
5299.1855724839
 31
0.0
  0
LINE
  5
192
330
1F
100
AcDbEntity
  8
0
  6
Continuous
 62
     7
370
    25
100
AcDbLine
 10
6309.7901050691
 20
5299.2161622126
 30
0.0
 11
6304.9227635625
 21
5299.2161622126
 31
0.0
  0
LINE
  5
193
330
1F
100
AcDbEntity
  8
0
  6
Continuous
 62
     7
370
    25
100
AcDbLine
 10
6309.8512891862
 20
5299.1855724839
 30
0.0
 11
6309.7901050691
 21
5299.2161622126
 31
0.0
  0
ELLIPSE
  5
194
330
1F
100
AcDbEntity
  8
0
  6
Continuous
 62
     7
370
    25
100
AcDbEllipse
 10
6310.1512434947
 20
5299.1856181753
 30
0.0
 11
0.2999999999992724
 21
0.0
 31
0.0
210
0.0
220
0.0
230
1.0
 40
0.0087268678
 41
3.159045946127173
 42
4.71238898038469
  0
LINE
  5
195
330
1F
100
AcDbEntity
  8
0
  6
Continuous
 62
     7
370
    25
100
AcDbLine
 10
6310.1628190153
 20
5299.1830005697
 30
0.0
 11
6310.1512434947
 21
5299.183000115
 31
0.0
  0
LINE
  5
196
330
1F
100
AcDbEntity
  8
0
  6
Continuous
 62
     7
370
    25
100
AcDbLine
 10
6310.1628190154
 20
5299.183000115
 30
0.0
 11
6310.1276830782
 21
5299.1478641779
 31
0.0
  0
LINE
  5
197
330
1F
100
AcDbEntity
  8
0
  6
Continuous
 62
     7
370
    25
100
AcDbLine
 10
6293.7851855534
 20
5299.1478641779
 30
0.0
 11
6293.7168875187
 21
5299.2161622126
 31
0.0
  0
LINE
  5
198
330
1F
100
AcDbEntity
  8
0
  6
Continuous
 62
     7
370
    25
100
AcDbLine
 10
6302.7901050691
 20
5299.2161622126
 30
0.0
 11
6293.7168875187
 21
5299.2161622126
 31
0.0
  0
ARC
  5
199
330
1F
100
AcDbEntity
  8
0
  6
Continuous
 62
     7
370
    25
100
AcDbCircle
 10
6310.1628253537
 20
5298.6830254918
 30
0.0
 40
0.4999750778880983
100
AcDbArc
 50
359.9992736378
 51
90.0007263622
  0
ELLIPSE
  5
19A
330
1F
100
AcDbEntity
  8
0
  6
Continuous
 62
     7
370
    25
100
AcDbEllipse
 10
6293.7169255963
 20
5298.7161431734
 30
0.0
 11
0.353580315565523
 21
-0.353580315565523
 31
0.0
210
0.0
220
0.0
230
1.0
 40
0.9999238505
 41
2.356232566402998
 42
3.926952740776603
  0
ARC
  5
19B
330
1F
100
AcDbEntity
  8
0
  6
Continuous
 62
     7
370
    25
100
AcDbCircle
 10
6310.4975654084
 20
5298.963407311
 30
0.0
 40
0.5999700934662636
100
AcDbArc
 50
359.9992736378
 51
90.0007263622
  0
LINE
  5
19C
330
1F
100
AcDbEntity
  8
0
  6
Continuous
 62
     7
370
    25
100
AcDbLine
 10
6311.046919123
 20
5298.9127838718
 30
0.0
 11
6311.0975355018
 21
5298.963399705
 31
0.0
  0
SPLINE
  5
19D
330
1F
100
AcDbEntity
  8
0
  6
Continuous
 62
     7
370
    25
100
AcDbSpline
210
0.0
220
0.0
230
1.0
 70
     8
 71
     3
 72
    16
 73
    12
 74
     0
 42
0.00000001
 43
0.00000001
 40
0.0
 40
0.0
 40
0.0
 40
0.0
 40
0.1058718599445556
 40
0.2117436430096021
 40
0.3176122907895795
 40
0.4234787778427865
 40
0.5293443152934159
 40
0.6352098517258479
 40
0.7410753780949039
 40
0.8469408864588814
 40
1.0
 40
1.0
 40
1.0
 40
1.0
 10
6310.44694196917
 20
5299.512761025608
 30
0.0
 10
6310.480194844607
 20
5299.51116137199
 30
0.0
 10
6310.546700571332
 20
5299.507962065918
 30
0.0
 10
6310.643707379592
 20
5299.482313511309
 30
0.0
 10
6310.735283789868
 20
5299.442144986181
 30
0.0
 10
6310.818913103625
 20
5299.387058967033
 30
0.0
 10
6310.892255708849
 20
5299.318977193288
 30
0.0
 10
6310.953416503715
 20
5299.23967315542
 30
0.0
 10
6311.000234430053
 20
5299.151347669944
 30
0.0
 10
6311.038086441436
 20
5299.04239056753
 30
0.0
 10
6311.043637628387
 20
5298.960935010407
 30
0.0
 10
6311.046919123008
 20
5298.91278387177
 30
0.0
  0
LINE
  5
19E
330
1F
100
AcDbEntity
  8
0
  6
Continuous
 62
     7
370
    25
100
AcDbLine
 10
6310.4975578024
 20
5299.5633774044
 30
0.0
 11
6310.4469419692
 21
5299.5127610256
 31
0.0
  0
ARC
  5
19F
330
1F
100
AcDbEntity
  8
0
  6
Continuous
 62
     7
370
    25
100
AcDbCircle
 10
6310.4975654084
 20
5283.4355033613
 30
0.0
 40
0.5999700934662636
100
AcDbArc
 50
269.9992736378
 51
0.0007263622
  0
LINE
  5
1A0
330
1F
100
AcDbEntity
  8
0
  6
Continuous
 62
     7
370
    25
100
AcDbLine
 10
6310.4469419692
 20
5282.8861496467
 30
0.0
 11
6310.4975578024
 21
5282.8355332679
 31
0.0
  0
SPLINE
  5
1A1
330
1F
100
AcDbEntity
  8
0
  6
Continuous
 62
     7
370
    25
100
AcDbSpline
210
0.0
220
0.0
230
1.0
 70
     8
 71
     3
 72
    16
 73
    12
 74
     0
 42
0.00000001
 43
0.00000001
 40
0.0
 40
0.0
 40
0.0
 40
0.0
 40
0.1058718599444965
 40
0.2117436430095388
 40
0.3176122907895154
 40
0.4234787778427258
 40
0.5293443152933508
 40
0.6352098517257839
 40
0.741075378094839
 40
0.8469408864587972
 40
0.9999999999999999
 40
0.9999999999999999
 40
0.9999999999999999
 40
0.9999999999999999
 10
6311.046919123008
 20
5283.486126800562
 30
0.0
 10
6311.045319469391
 20
5283.452873925125
 30
0.0
 10
6311.042120163318
 20
5283.3863681984
 30
0.0
 10
6311.01647160871
 20
5283.289361390139
 30
0.0
 10
6310.976303083581
 20
5283.197784979864
 30
0.0
 10
6310.921217064433
 20
5283.114155666106
 30
0.0
 10
6310.853135290688
 20
5283.040813060882
 30
0.0
 10
6310.773831252821
 20
5282.979652266017
 30
0.0
 10
6310.685505767344
 20
5282.932834339678
 30
0.0
 10
6310.57654866493
 20
5282.894982328296
 30
0.0
 10
6310.495093107807
 20
5282.889431141344
 30
0.0
 10
6310.44694196917
 20
5282.886149646723
 30
0.0
  0
LINE
  5
1A2
330
1F
100
AcDbEntity
  8
0
  6
Continuous
 62
     7
370
    25
100
AcDbLine
 10
6311.0975355018
 20
5283.4355109674
 30
0.0
 11
6311.046919123
 21
5283.4861268006
 31
0.0
  0
LINE
  5
1A3
330
1F
100
AcDbEntity
  8
0
  6
Continuous
 62
     7
370
    25
100
AcDbLine
 10
6292.8696913653
 20
5298.963399705
 30
0.0
 11
6292.9203077441
 21
5298.9127838718
 31
0.0
  0
ARC
  5
1A4
330
1F
100
AcDbEntity
  8
0
  6
Continuous
 62
     7
370
    25
100
AcDbCircle
 10
6293.4696614587
 20
5298.963407311
 30
0.0
 40
0.5999700934662636
100
AcDbArc
 50
89.9992736378
 51
180.0007263622
  0
LINE
  5
1A5
330
1F
100
AcDbEntity
  8
0
  6
Continuous
 62
     7
370
    25
100
AcDbLine
 10
6293.520284898
 20
5299.5127610256
 30
0.0
 11
6293.4696690648
 21
5299.5633774044
 31
0.0
  0
SPLINE
  5
1A6
330
1F
100
AcDbEntity
  8
0
  6
Continuous
 62
     7
370
    25
100
AcDbSpline
210
0.0
220
0.0
230
1.0
 70
     8
 71
     3
 72
    16
 73
    12
 74
     0
 42
0.00000001
 43
0.00000001
 40
0.0
 40
0.0
 40
0.0
 40
0.0
 40
0.1058718599445012
 40
0.2117436430095456
 40
0.3176122907895322
 40
0.4234787778427361
 40
0.5293443152933766
 40
0.6352098517258103
 40
0.741075378094879
 40
0.8469408864588482
 40
1.0
 40
1.0
 40
1.0
 40
1.0
 10
6293.520284897962
 20
5299.512761025608
 30
0.0
 10
6293.487032022525
 20
5299.51116137199
 30
0.0
 10
6293.4205262958
 20
5299.507962065918
 30
0.0
 10
6293.32351948754
 20
5299.482313511309
 30
0.0
 10
6293.231943077264
 20
5299.442144986181
 30
0.0
 10
6293.148313763506
 20
5299.387058967033
 30
0.0
 10
6293.074971158282
 20
5299.318977193288
 30
0.0
 10
6293.013810363417
 20
5299.23967315542
 30
0.0
 10
6292.966992437078
 20
5299.151347669944
 30
0.0
 10
6292.929140425696
 20
5299.04239056753
 30
0.0
 10
6292.923589238744
 20
5298.960935010407
 30
0.0
 10
6292.920307744123
 20
5298.91278387177
 30
0.0
  0
LINE
  5
1A7
330
1F
100
AcDbEntity
  8
0
  6
Continuous
 62
     7
370
    25
100
AcDbLine
 10
6293.4696690648
 20
5282.8355332679
 30
0.0
 11
6293.520284898
 21
5282.8861496467
 31
0.0
  0
ARC
  5
1A8
330
1F
100
AcDbEntity
  8
0
  6
Continuous
 62
     7
370
    25
100
AcDbCircle
 10
6293.4696614587
 20
5283.4355033613
 30
0.0
 40
0.5999700934662636
100
AcDbArc
 50
179.9992736378
 51
270.0007263622
  0
LINE
  5
1A9
330
1F
100
AcDbEntity
  8
0
  6
Continuous
 62
     7
370
    25
100
AcDbLine
 10
6292.9203077441
 20
5283.4861268006
 30
0.0
 11
6292.8696913653
 21
5283.4355109674
 31
0.0
  0
SPLINE
  5
1AA
330
1F
100
AcDbEntity
  8
0
  6
Continuous
 62
     7
370
    25
100
AcDbSpline
210
0.0
220
0.0
230
1.0
 70
     8
 71
     3
 72
    16
 73
    12
 74
     0
 42
0.00000001
 43
0.00000001
 40
0.0
 40
0.0
 40
0.0
 40
0.0
 40
0.1058718599444906
 40
0.2117436430095323
 40
0.317612290789513
 40
0.423478777842718
 40
0.5293443152933429
 40
0.6352098517257789
 40
0.741075378094833
 40
0.8469408864587953
 40
1.0
 40
1.0
 40
1.0
 40
1.0
 10
6292.920307744123
 20
5283.486126800562
 30
0.0
 10
6292.921907397741
 20
5283.452873925125
 30
0.0
 10
6292.925106703814
 20
5283.3863681984
 30
0.0
 10
6292.950755258422
 20
5283.289361390139
 30
0.0
 10
6292.99092378355
 20
5283.197784979864
 30
0.0
 10
6293.046009802698
 20
5283.114155666106
 30
0.0
 10
6293.114091576444
 20
5283.040813060882
 30
0.0
 10
6293.193395614311
 20
5282.979652266017
 30
0.0
 10
6293.281721099787
 20
5282.932834339678
 30
0.0
 10
6293.390678202202
 20
5282.894982328296
 30
0.0
 10
6293.472133759324
 20
5282.889431141344
 30
0.0
 10
6293.520284897962
 20
5282.886149646723
 30
0.0
  0
LINE
  5
1AB
330
1F
100
AcDbEntity
  8
0
  6
Continuous
 62
     7
370
    25
100
AcDbLine
 10
6292.8696913653
 20
5298.963399705
 30
0.0
 11
6292.8696913653
 21
5283.4355109674
 31
0.0
  0
LINE
  5
1AC
330
1F
100
AcDbEntity
  8
0
  6
Continuous
 62
     7
370
    25
100
AcDbLine
 10
6292.9203077441
 20
5298.9127838718
 30
0.0
 11
6292.9203077441
 21
5283.4861268006
 31
0.0
  0
LINE
  5
1AD
330
1F
100
AcDbEntity
  8
0
  6
Continuous
 62
     7
370
    25
100
AcDbLine
 10
6291.4336134336
 20
5281.8908039677
 30
0.0
 11
6291.4336134336
 21
5300.5081067046
 31
0.0
  0
LINE
  5
1AE
330
1F
100
AcDbEntity
  8
0
  6
Continuous
 62
     7
370
    25
100
AcDbLine
 10
6291.4336134336
 20
5300.5081067046
 30
0.0
 11
6312.5336134336
 21
5300.5081067046
 31
0.0
  0
LINE
  5
1AF
330
1F
100
AcDbEntity
  8
0
  6
Continuous
 62
     7
370
    25
100
AcDbLine
 10
6312.5336134336
 20
5300.5081067046
 30
0.0
 11
6312.5336134336
 21
5281.8908039677
 31
0.0
  0
LINE
  5
1B0
330
1F
100
AcDbEntity
  8
0
  6
Continuous
 62
     7
370
    25
100
AcDbLine
 10
6312.5336134336
 20
5281.8908039677
 30
0.0
 11
6291.4336134336
 21
5281.8908039677
 31
0.0
  0
LINE
  5
1B1
330
1F
100
AcDbEntity
  8
0
  6
Continuous
 62
     7
370
    25
100
AcDbLine
 10
6293.4696690648
 20
5282.8355332679
 30
0.0
 11
6310.4975578024
 21
5282.8355332679
 31
0.0
  0
LINE
  5
1B2
330
1F
100
AcDbEntity
  8
0
  6
Continuous
 62
     7
370
    25
100
AcDbLine
 10
6311.0975355018
 20
5283.4355109674
 30
0.0
 11
6311.0975355018
 21
5298.963399705
 31
0.0
  0
LINE
  5
1B3
330
1F
100
AcDbEntity
  8
0
  6
Continuous
 62
     7
370
    25
100
AcDbLine
 10
6310.4975578024
 20
5299.5633774044
 30
0.0
 11
6293.4696690648
 21
5299.5633774044
 31
0.0
  0
LINE
  5
1B4
330
1F
100
AcDbEntity
  8
0
  6
Continuous
 62
     7
370
    25
100
AcDbLine
 10
6293.520284898
 20
5299.5127610256
 30
0.0
 11
6310.4469419692
 21
5299.5127610256
 31
0.0
  0
LINE
  5
1B5
330
1F
100
AcDbEntity
  8
0
  6
Continuous
 62
     7
370
    25
100
AcDbLine
 10
6311.046919123
 20
5298.9127838718
 30
0.0
 11
6311.046919123
 21
5283.4861268006
 31
0.0
  0
LINE
  5
1B6
330
1F
100
AcDbEntity
  8
0
  6
Continuous
 62
     7
370
    25
100
AcDbLine
 10
6310.4469419692
 20
5282.8861496467
 30
0.0
 11
6293.520284898
 21
5282.8861496467
 31
0.0
  0
ELLIPSE
  5
1B7
330
1F
100
AcDbEntity
  8
0
  6
Continuous
 62
     7
370
    25
100
AcDbEllipse
 10
6312.542340966
 20
5281.8908039677
 30
0.0
 11
0.0
 21
0.4999999999990905
 31
0.0
210
0.0
220
0.0
230
1.0
 40
0.0174550649
 41
1.570796326794897
 42
3.124139361071153
  0
ELLIPSE
  5
1B8
330
1F
100
AcDbEntity
  8
0
  6
Continuous
 62
     7
370
    25
100
AcDbEllipse
 10
6312.542340966
 20
5300.5081067046
 30
0.0
 11
0.0
 21
0.5
 31
0.0
210
0.0
220
0.0
230
1.0
 40
0.0174550649
 41
0.0174532925186592
 42
1.570796326794897
  0
LINE
  5
1B9
330
1F
100
AcDbEntity
  8
0
  6
Continuous
 62
     7
370
    25
100
AcDbLine
 10
6312.6348528101
 20
5301.1006947127
 30
0.0
 11
6312.5421886496
 21
5301.0080305522
 31
0.0
  0
LINE
  5
1BA
330
1F
100
AcDbEntity
  8
0
  6
Continuous
 62
     7
370
    25
100
AcDbLine
 10
6312.6348528101
 20
5281.2982159596
 30
0.0
 11
6312.6348528101
 21
5301.1006947127
 31
0.0
  0
LINE
  5
1BB
330
1F
100
AcDbEntity
  8
0
  6
Continuous
 62
     7
370
    25
100
AcDbLine
 10
6312.6348528101
 20
5281.2982159596
 30
0.0
 11
6312.5421886496
 21
5281.3908801201
 31
0.0
  0
ELLIPSE
  5
1BC
330
1F
100
AcDbEntity
  8
0
  6
Continuous
 62
     7
370
    25
100
AcDbEllipse
 10
6291.4248859011
 20
5300.5081067046
 30
0.0
 11
0.0
 21
0.5
 31
0.0
210
0.0
220
0.0
230
1.0
 40
0.0174550649
 41
4.71238898038469
 42
6.265732014659902
  0
LINE
  5
1BD
330
1F
100
AcDbEntity
  8
0
  6
Continuous
 62
     7
370
    25
100
AcDbLine
 10
6312.5421886496
 20
5301.0080305522
 30
0.0
 11
6291.4250382175
 21
5301.0080305522
 31
0.0
  0
ELLIPSE
  5
1BE
330
1F
100
AcDbEntity
  8
0
  6
Continuous
 62
     7
370
    25
100
AcDbEllipse
 10
6291.4248859011
 20
5281.8908039677
 30
0.0
 11
0.0
 21
0.4999999999990905
 31
0.0
210
0.0
220
0.0
230
1.0
 40
0.0174550649
 41
3.159045946111052
 42
4.71238898038469
  0
LINE
  5
1BF
330
1F
100
AcDbEntity
  8
0
  6
Continuous
 62
     7
370
    25
100
AcDbLine
 10
6291.332374057
 20
5281.2982159596
 30
0.0
 11
6291.4250382175
 21
5281.3908801201
 31
0.0
  0
LINE
  5
1C0
330
1F
100
AcDbEntity
  8
0
  6
Continuous
 62
     7
370
    25
100
AcDbLine
 10
6291.332374057
 20
5301.1006947127
 30
0.0
 11
6291.332374057
 21
5281.2982159596
 31
0.0
  0
LINE
  5
1C1
330
1F
100
AcDbEntity
  8
0
  6
Continuous
 62
     7
370
    25
100
AcDbLine
 10
6291.332374057
 20
5301.1006947127
 30
0.0
 11
6291.4250382175
 21
5301.0080305522
 31
0.0
  0
LINE
  5
1C2
330
1F
100
AcDbEntity
  8
0
  6
Continuous
 62
     7
370
    25
100
AcDbLine
 10
6291.4250382175
 20
5281.3908801201
 30
0.0
 11
6312.5421886496
 21
5281.3908801201
 31
0.0
  0
LINE
  5
1C3
330
1F
100
AcDbEntity
  8
0
  6
Continuous
 62
     7
370
    25
100
AcDbLine
 10
6291.332374057
 20
5281.2982159596
 30
0.0
 11
6312.6348528101
 21
5281.2982159596
 31
0.0
  0
LINE
  5
1C4
330
1F
100
AcDbEntity
  8
0
  6
Continuous
 62
     7
370
    25
100
AcDbLine
 10
6295.1283702912
 20
5301.1006947127
 30
0.0
 11
6291.332374057
 21
5301.1006947127
 31
0.0
  0
LINE
  5
1C5
330
1F
100
AcDbEntity
  8
0
  6
Continuous
 62
     7
370
    25
100
AcDbLine
 10
6295.1283702912
 20
5301.1006947127
 30
0.0
 11
6295.163280421
 21
5301.0657845829
 31
0.0
  0
LINE
  5
1C6
330
1F
100
AcDbEntity
  8
0
  6
Continuous
 62
     7
370
    25
100
AcDbLine
 10
6295.163280421
 20
5301.0657845829
 30
0.0
 11
6303.1411863633
 21
5301.0657845829
 31
0.0
  0
LINE
  5
1C7
330
1F
100
AcDbEntity
  8
0
  6
Continuous
 62
     7
370
    25
100
AcDbLine
 10
6303.1411863633
 20
5301.0657845829
 30
0.0
 11
6303.1760964932
 21
5301.1006947127
 31
0.0
  0
LINE
  5
1C8
330
1F
100
AcDbEntity
  8
0
  6
Continuous
 62
     7
370
    25
100
AcDbLine
 10
6312.6348528101
 20
5301.1006947127
 30
0.0
 11
6303.1760964932
 21
5301.1006947127
 31
0.0
  0
LINE
  5
1C9
330
1F
100
AcDbEntity
  8
0
  6
Continuous
 62
     7
370
    25
100
AcDbLine
 10
6303.1411863633
 20
5301.0657845829
 30
0.0
 11
6303.1411863633
 21
5332.9526810694
 31
0.0
  0
LINE
  5
1CA
330
1F
100
AcDbEntity
  8
0
  6
Continuous
 62
     7
370
    25
100
AcDbLine
 10
6295.163280421
 20
5332.9526810694
 30
0.0
 11
6295.163280421
 21
5301.0657845829
 31
0.0
  0
ELLIPSE
  5
1CB
330
1F
100
AcDbEntity
  8
0
  6
Continuous
 62
     7
370
    25
100
AcDbEllipse
 10
6296.1634327491
 20
5332.9517664275
 30
0.0
 11
-0.316478204725172
 21
0.9502067146449916
 31
0.0
210
0.0
220
0.0
230
1.0
 40
0.9984778551
 41
5.962134956623016
 42
7.532017894912468
  0
LINE
  5
1CC
330
1F
100
AcDbEntity
  8
0
  6
Continuous
 62
     7
370
    25
100
AcDbLine
 10
6302.1419475628
 20
5333.9531387735
 30
0.0
 11
6296.1625192215
 21
5333.9531387735
 31
0.0
  0
ELLIPSE
  5
1CD
330
1F
100
AcDbEntity
  8
0
  6
Continuous
 62
     7
370
    25
100
AcDbEllipse
 10
6302.1410340353
 20
5332.9517664275
 30
0.0
 11
0.3164782046906112
 21
0.9502067146549963
 31
0.0
210
0.0
220
0.0
230
1.0
 40
0.9984778551
 41
5.034352719411296
 42
6.6042356576998
  0
LINE
  5
1CE
330
1F
100
AcDbEntity
  8
0
  6
Continuous
 62
     7
370
    25
100
AcDbLine
 10
6296.9053825822
 20
5303.4078644384
 30
0.0
 11
6296.9053825822
 21
5301.4078644384
 31
0.0
  0
LINE
  5
1CF
330
1F
100
AcDbEntity
  8
0
  6
Continuous
 62
     7
370
    25
100
AcDbLine
 10
6301.3989928053
 20
5301.4078644384
 30
0.0
 11
6296.9053825822
 21
5301.4078644384
 31
0.0
  0
LINE
  5
1D0
330
1F
100
AcDbEntity
  8
0
  6
Continuous
 62
     7
370
    25
100
AcDbLine
 10
6301.3989928053
 20
5303.4078644384
 30
0.0
 11
6301.3989928053
 21
5301.4078644384
 31
0.0
  0
LINE
  5
1D1
330
1F
100
AcDbEntity
  8
0
  6
Continuous
 62
     7
370
    25
100
AcDbLine
 10
6301.3989928053
 20
5303.4078644384
 30
0.0
 11
6301.3989928053
 21
5332.9105854535
 31
0.0
  0
LINE
  5
1D2
330
1F
100
AcDbEntity
  8
0
  6
Continuous
 62
     7
370
    25
100
AcDbLine
 10
6301.3989928053
 20
5332.9105854535
 30
0.0
 11
6296.9053825822
 21
5332.9105854535
 31
0.0
  0
LINE
  5
1D3
330
1F
100
AcDbEntity
  8
0
  6
Continuous
 62
     7
370
    25
100
AcDbLine
 10
6296.9053825822
 20
5332.9105854535
 30
0.0
 11
6296.9053825822
 21
5303.4078644384
 31
0.0
  0
LINE
  5
1D4
330
1F
100
AcDbEntity
  8
0
  6
Continuous
 62
     7
370
    25
100
AcDbLine
 10
6302.1768576927
 20
5334.0579543321
 30
0.0
 11
6302.1419475628
 21
5333.9531387735
 31
0.0
  0
ELLIPSE
  5
1D5
330
1F
100
AcDbEntity
  8
0
  6
Continuous
 62
     7
370
    25
100
AcDbEllipse
 10
6302.1759441651
 20
5333.0565819861
 30
0.0
 11
-0.3164782046942491
 21
-0.9502067146549962
 31
0.0
210
0.0
220
0.0
230
1.0
 40
0.9984778551
 41
1.892760065824673
 42
3.462643004113728
  0
LINE
  5
1D6
330
1F
100
AcDbEntity
  8
0
  6
Continuous
 62
     7
370
    25
100
AcDbLine
 10
6303.1411863633
 20
5332.9526810694
 30
0.0
 11
6303.1760964932
 21
5333.057496628
 31
0.0
  0
LINE
  5
1D7
330
1F
100
AcDbEntity
  8
0
  6
Continuous
 62
     7
370
    25
100
AcDbLine
 10
6296.1625192215
 20
5333.9531387735
 30
0.0
 11
6296.1276090917
 21
5334.0579543321
 31
0.0
  0
LINE
  5
1D8
330
1F
100
AcDbEntity
  8
0
  6
Continuous
 62
     7
370
    25
100
AcDbLine
 10
6302.1768576927
 20
5334.0579543321
 30
0.0
 11
6296.1276090917
 21
5334.0579543321
 31
0.0
  0
LINE
  5
1D9
330
1F
100
AcDbEntity
  8
0
  6
Continuous
 62
     7
370
    25
100
AcDbLine
 10
6303.1760964932
 20
5301.1006947127
 30
0.0
 11
6303.1760964932
 21
5333.057496628
 31
0.0
  0
LINE
  5
1DA
330
1F
100
AcDbEntity
  8
0
  6
Continuous
 62
     7
370
    25
100
AcDbLine
 10
6295.1283702912
 20
5333.057496628
 30
0.0
 11
6295.1283702912
 21
5301.1006947127
 31
0.0
  0
LINE
  5
1DB
330
1F
100
AcDbEntity
  8
0
  6
Continuous
 62
     7
370
    25
100
AcDbLine
 10
6295.1283702912
 20
5333.057496628
 30
0.0
 11
6295.163280421
 21
5332.9526810694
 31
0.0
  0
ELLIPSE
  5
1DC
330
1F
100
AcDbEntity
  8
0
  6
Continuous
 62
     7
370
    25
100
AcDbEllipse
 10
6303.9179531412
 20
5258.6599201382
 30
0.0
 11
0.7075914799515886
 21
0.7075914799352176
 31
0.0
210
0.0
220
0.0
230
1.0
 40
0.999315002
 41
5.498129760131442
 42
7.06824085424997
  0
LINE
  5
1DD
330
1F
100
AcDbEntity
  8
0
  6
Continuous
 62
     7
370
    25
100
AcDbLine
 10
6303.9710104519
 20
5259.7126347738
 30
0.0
 11
6303.9186386087
 21
5259.6602629307
 31
0.0
  0
ELLIPSE
  5
1DE
330
1F
100
AcDbEntity
  8
0
  6
Continuous
 62
     7
370
    25
100
AcDbEllipse
 10
6303.9703249844
 20
5258.7122919813
 30
0.0
 11
-0.707591479943403
 21
-0.707591479943403
 31
0.0
210
0.0
220
0.0
230
1.0
 40
0.999315002
 41
2.356537106529745
 42
3.926648200648945
  0
ELLIPSE
  5
1DF
330
1F
100
AcDbEntity
  8
0
  6
Continuous
 62
     7
370
    25
100
AcDbEllipse
 10
6296.1285226192
 20
5333.0565819861
 30
0.0
 11
-0.3164782046951586
 21
0.9502067146531772
 31
0.0
210
0.0
220
0.0
230
1.0
 40
0.9984778551
 41
5.96213495665584
 42
7.532017894942583
  0
LINE
  5
1E0
330
1F
100
AcDbEntity
  8
0
  6
Continuous
 62
     7
370
    25
100
AcDbLine
 10
6296.934388756
 20
5230.2252299347
 30
0.0
 11
6296.934388756
 21
5257.1591371125
 31
0.0
  0
LINE
  5
1E1
330
1F
100
AcDbEntity
  8
0
  6
Continuous
 62
     7
370
    25
100
AcDbLine
 10
6296.934388756
 20
5257.1591371125
 30
0.0
 11
6297.1438495351
 21
5256.9496763333
 31
0.0
  0
LINE
  5
1E2
330
1F
100
AcDbEntity
  8
0
  6
Continuous
 62
     7
370
    25
100
AcDbLine
 10
6297.1438495351
 20
5256.9496763333
 30
0.0
 11
6297.1438495351
 21
5231.2750938971
 31
0.0
  0
LINE
  5
1E3
330
1F
100
AcDbEntity
  8
0
  6
Continuous
 62
     7
370
    25
100
AcDbLine
 10
6297.1438495351
 20
5231.2750938971
 30
0.0
 11
6296.934388756
 21
5230.2252299347
 31
0.0
  0
LINE
  5
1E4
330
1F
100
AcDbEntity
  8
0
  6
Continuous
 62
     7
370
    25
100
AcDbLine
 10
6302.5438495351
 20
5230.2252299347
 30
0.0
 11
6302.5438495351
 21
5257.1591371125
 31
0.0
  0
LINE
  5
1E5
330
1F
100
AcDbEntity
  8
0
  6
Continuous
 62
     7
370
    25
100
AcDbLine
 10
6296.934388756
 20
5257.1591371125
 30
0.0
 11
6302.5438495351
 21
5257.1591371125
 31
0.0
  0
ELLIPSE
  5
1E6
330
1F
100
AcDbEntity
  8
0
  6
Continuous
 62
     7
370
    25
100
AcDbEllipse
 10
6295.5602851499
 20
5258.6599201382
 30
0.0
 11
-0.7075914799743259
 21
0.7075914799124802
 31
0.0
210
0.0
220
0.0
230
1.0
 40
0.999315002
 41
5.49812976007676
 42
7.068240854195022
  0
LINE
  5
1E7
330
1F
100
AcDbEntity
  8
0
  6
Continuous
 62
     7
370
    25
100
AcDbLine
 10
6303.9186386087
 20
5259.6602629307
 30
0.0
 11
6295.5595996824
 21
5259.6602629307
 31
0.0
  0
LINE
  5
1E8
330
1F
100
AcDbEntity
  8
0
  6
Continuous
 62
     7
370
    25
100
AcDbLine
 10
6296.6414464825
 20
5230.2252299347
 30
0.0
 11
6296.934388756
 21
5230.2252299347
 31
0.0
  0
LINE
  5
1E9
330
1F
100
AcDbEntity
  8
0
  6
Continuous
 62
     7
370
    25
100
AcDbLine
 10
6302.8367918086
 20
5230.2252299347
 30
0.0
 11
6302.5438495351
 21
5230.2252299347
 31
0.0
  0
LINE
  5
1EA
330
1F
100
AcDbEntity
  8
0
  6
Continuous
 62
     7
370
    25
100
AcDbLine
 10
6302.334388756
 20
5231.2750938971
 30
0.0
 11
6302.334388756
 21
5256.9496763333
 31
0.0
  0
LINE
  5
1EB
330
1F
100
AcDbEntity
  8
0
  6
Continuous
 62
     7
370
    25
100
AcDbLine
 10
6302.334388756
 20
5256.9496763333
 30
0.0
 11
6302.5438495351
 21
5257.1591371125
 31
0.0
  0
LINE
  5
1EC
330
1F
100
AcDbEntity
  8
0
  6
Continuous
 62
     7
370
    25
100
AcDbLine
 10
6302.334388756
 20
5231.2750938971
 30
0.0
 11
6302.5438495351
 21
5230.2252299347
 31
0.0
  0
LINE
  5
1ED
330
1F
100
AcDbEntity
  8
0
  6
Continuous
 62
     7
370
    25
100
AcDbLine
 10
6302.334388756
 20
5256.9496763333
 30
0.0
 11
6297.1438495351
 21
5256.9496763333
 31
0.0
  0
LINE
  5
1EE
330
1F
100
AcDbEntity
  8
0
  6
Continuous
 62
     7
370
    25
100
AcDbLine
 10
6296.9394242776
 20
5332.8424968772
 30
0.0
 11
6296.9053825822
 21
5332.9105854535
 31
0.0
  0
LINE
  5
1EF
330
1F
100
AcDbEntity
  8
0
  6
Continuous
 62
     7
370
    25
100
AcDbLine
 10
6297.0101049957
 20
5332.559666299
 30
0.0
 11
6296.9394242776
 21
5332.8424968772
 31
0.0
  0
LINE
  5
1F0
330
1F
100
AcDbEntity
  8
0
  6
Continuous
 62
     7
370
    25
100
AcDbLine
 10
6297.0101049957
 20
5303.6173252175
 30
0.0
 11
6297.0101049957
 21
5332.559666299
 31
0.0
  0
LINE
  5
1F1
330
1F
100
AcDbEntity
  8
0
  6
Continuous
 62
     7
370
    25
100
AcDbLine
 10
6296.9053825822
 20
5303.4078644384
 30
0.0
 11
6297.0101049957
 21
5303.6173252175
 31
0.0
  0
LINE
  5
1F2
330
1F
100
AcDbEntity
  8
0
  6
Continuous
 62
     7
370
    25
100
AcDbLine
 10
6301.3649511099
 20
5332.8424968772
 30
0.0
 11
6301.3989928053
 21
5332.9105854535
 31
0.0
  0
LINE
  5
1F3
330
1F
100
AcDbEntity
  8
0
  6
Continuous
 62
     7
370
    25
100
AcDbLine
 10
6301.2942703918
 20
5332.559666299
 30
0.0
 11
6301.2942703918
 21
5303.6173252175
 31
0.0
  0
LINE
  5
1F4
330
1F
100
AcDbEntity
  8
0
  6
Continuous
 62
     7
370
    25
100
AcDbLine
 10
6301.3649511099
 20
5332.8424968772
 30
0.0
 11
6301.2942703918
 21
5332.559666299
 31
0.0
  0
LINE
  5
1F5
330
1F
100
AcDbEntity
  8
0
  6
Continuous
 62
     7
370
    25
100
AcDbLine
 10
6301.2942703918
 20
5303.6173252175
 30
0.0
 11
6301.3989928053
 21
5303.4078644384
 31
0.0
  0
LINE
  5
1F6
330
1F
100
AcDbEntity
  8
0
  6
Continuous
 62
     7
370
    25
100
AcDbLine
 10
6295.5595996824
 20
5259.6602629307
 30
0.0
 11
6295.5072278392
 21
5259.7126347738
 31
0.0
  0
LINE
  5
1F7
330
1F
100
AcDbEntity
  8
0
  6
Continuous
 62
     7
370
    25
100
AcDbLine
 10
6303.9710104519
 20
5259.7126347738
 30
0.0
 11
6295.5072278392
 21
5259.7126347738
 31
0.0
  0
LINE
  5
1F8
330
1F
100
AcDbEntity
  8
0
  6
Continuous
 62
     7
370
    25
100
AcDbLine
 10
6296.9394242776
 20
5332.8424968772
 30
0.0
 11
6301.3649511099
 21
5332.8424968772
 31
0.0
  0
ELLIPSE
  5
1F9
330
1F
100
AcDbEntity
  8
0
  6
Continuous
 62
     7
370
    25
100
AcDbEllipse
 10
6295.5079133067
 20
5258.7122919813
 30
0.0
 11
0.707591479943403
 21
-0.707591479943403
 31
0.0
210
0.0
220
0.0
230
1.0
 40
0.999315002
 41
2.356537106529746
 42
3.926648200649854
  0
LINE
  5
1FA
330
1F
100
AcDbEntity
  8
0
  6
Continuous
 62
     7
370
    25
100
AcDbLine
 10
6302.8002350291
 20
5230.2252299347
 30
0.0
 11
6302.8002350291
 21
5230.0419992337
 31
0.0
  0
LINE
  5
1FB
330
1F
100
AcDbEntity
  8
0
  6
Continuous
 62
     7
370
    25
100
AcDbLine
 10
6297.0101049957
 20
5332.559666299
 30
0.0
 11
6301.2942703918
 21
5332.559666299
 31
0.0
  0
ARC
  5
1FC
330
1F
100
AcDbEntity
  8
0
  6
Continuous
 62
     7
370
    25
100
AcDbCircle
 10
6249.0187553361
 20
5230.6994545927
 30
0.0
 40
5.599999999999954
100
AcDbArc
 50
94.4980126049
 51
84.2523695851
  0
SPLINE
  5
1FD
330
1F
100
AcDbEntity
  8
0
  6
Continuous
 62
     7
370
    25
100
AcDbSpline
210
0.0
220
0.0
230
1.0
 70
    24
 71
     3
 72
    13
 73
     9
 74
     0
 42
0.00000001
 43
0.00000001
 40
0.0
 40
0.0
 40
0.0
 40
0.0
 40
0.0254342784918754
 40
0.2391405405228544
 40
0.4528843033372459
 40
0.6670512278740727
 40
0.8818628295039127
 40
1.0
 40
1.0
 40
1.0
 40
1.0
 10
6248.579578046397
 20
5236.282206898499
 30
0.0
 10
6248.579578046397
 20
5236.282172886215
 30
0.0
 10
6248.579578046397
 20
5236.281853092755
 30
0.0
 10
6248.579578046397
 20
5236.271664496242
 30
0.0
 10
6248.579578046397
 20
5236.236280243194
 30
0.0
 10
6248.579578046397
 20
5236.183459486288
 30
0.0
 10
6248.579578046397
 20
5236.128720310472
 30
0.0
 10
6248.579578046397
 20
5236.093915487335
 30
0.0
 10
6248.579578046397
 20
5236.08156600997
 30
0.0
  0
ARC
  5
1FE
330
1F
100
AcDbEntity
  8
0
  6
Continuous
 62
     7
370
    25
100
AcDbCircle
 10
6249.0187553361
 20
5230.6994545927
 30
0.0
 40
5.399999999999644
100
AcDbArc
 50
94.6649681226
 51
84.0387368535
  0
SPLINE
  5
1FF
330
1F
100
AcDbEntity
  8
0
  6
Continuous
 62
     7
370
    25
100
AcDbSpline
210
0.0
220
0.0
230
1.0
 70
    24
 71
     3
 72
    13
 73
     9
 74
     0
 42
0.00000001
 43
0.00000001
 40
0.0
 40
0.0
 40
0.0
 40
0.0
 40
0.0078315083444661
 40
0.2242134010656637
 40
0.4405065274113952
 40
0.656034453051666
 40
0.870478551742464
 40
1.0
 40
1.0
 40
1.0
 40
1.0
 10
6249.579578046397
 20
5236.070253219284
 30
0.0
 10
6249.579578046397
 20
5236.071071858087
 30
0.0
 10
6249.579578046397
 20
5236.094509206544
 30
0.0
 10
6249.579578046397
 20
5236.140812713288
 30
0.0
 10
6249.579578046397
 20
5236.200814926146
 30
0.0
 10
6249.579578046397
 20
5236.245629808265
 30
0.0
 10
6249.579578046397
 20
5236.268275692385
 30
0.0
 10
6249.579578046397
 20
5236.270473791568
 30
0.0
 10
6249.579578046397
 20
5236.271301493622
 30
0.0
  0
ARC
  5
200
330
1F
100
AcDbEntity
  8
0
  6
Continuous
 62
     7
370
    25
100
AcDbCircle
 10
6248.5795780464
 20
5232.4847829442
 30
0.0
 40
0.5331629282969021
100
AcDbArc
 50
310.7111856769
 51
90.0
  0
ARC
  5
201
330
1F
100
AcDbEntity
  8
0
  6
Continuous
 62
     7
370
    25
100
AcDbCircle
 10
6249.5795780464
 20
5231.32263469
 30
0.0
 40
1.0
100
AcDbArc
 50
130.7111856769
 51
180.0
  0
ARC
  5
202
330
1F
100
AcDbEntity
  8
0
  6
Continuous
 62
     7
370
    25
100
AcDbCircle
 10
6249.2658047081
 20
5228.0760594806
 30
0.0
 40
0.5000000000009095
100
AcDbArc
 50
180.0
 51
0.0
  0
LINE
  5
203
330
1F
100
AcDbEntity
  8
0
  6
Continuous
 62
     7
370
    25
100
AcDbLine
 10
6249.7658047081
 20
5230.9910854709
 30
0.0
 11
6249.5795780464
 21
5231.1732984684
 31
0.0
  0
LINE
  5
204
330
1F
100
AcDbEntity
  8
0
  6
Continuous
 62
     7
370
    25
100
AcDbLine
 10
6249.5795780464
 20
5231.1732984684
 30
0.0
 11
6249.5795780464
 21
5231.32263469
 31
0.0
  0
ARC
  5
205
330
1F
100
AcDbEntity
  8
0
  6
Continuous
 62
     7
370
    25
100
AcDbCircle
 10
6248.5795780464
 20
5232.4847829442
 30
0.0
 40
1.53316292829665
100
AcDbArc
 50
310.7111856769
 51
49.2888143231
  0
LINE
  5
206
330
1F
100
AcDbEntity
  8
0
  6
Continuous
 62
     7
370
    25
100
AcDbLine
 10
6248.5795780464
 20
5231.32263469
 30
0.0
 11
6248.5795780464
 21
5230.7526892957
 31
0.0
  0
LINE
  5
207
330
1F
100
AcDbEntity
  8
0
  6
Continuous
 62
     7
370
    25
100
AcDbLine
 10
6249.7658047081
 20
5228.0760594806
 30
0.0
 11
6249.7658047081
 21
5230.9910854709
 31
0.0
  0
LINE
  5
208
330
1F
100
AcDbEntity
  8
0
  6
Continuous
 62
     7
370
    25
100
AcDbLine
 10
6248.5795780464
 20
5230.7526892957
 30
0.0
 11
6248.7658047081
 21
5230.5704762981
 31
0.0
  0
LINE
  5
209
330
1F
100
AcDbEntity
  8
0
  6
Continuous
 62
     7
370
    25
100
AcDbLine
 10
6248.7658047081
 20
5230.5704762981
 30
0.0
 11
6248.7658047081
 21
5228.0760594806
 31
0.0
  0
LINE
  5
20A
330
1F
100
AcDbEntity
  8
0
  6
Continuous
 62
     7
370
    25
100
AcDbLine
 10
6248.5795780464
 20
5236.08156601
 30
0.0
 11
6248.5795780464
 21
5233.0179458725
 31
0.0
  0
LINE
  5
20B
330
1F
100
AcDbEntity
  8
0
  6
Continuous
 62
     7
370
    25
100
AcDbLine
 10
6249.5795780464
 20
5233.6469311984
 30
0.0
 11
6249.5795780464
 21
5236.0702532193
 31
0.0
  0
ARC
  5
20C
330
1F
100
AcDbEntity
  8
0
  6
Continuous
 62
     7
370
    25
100
AcDbCircle
 10
6249.0187553361
 20
5230.6994545927
 30
0.0
 40
5.599999999999954
100
AcDbArc
 50
84.2523695851
 51
94.4980126049
  0
CIRCLE
  5
20D
330
1F
100
AcDbEntity
  8
0
  6
Continuous
 62
     7
370
    25
100
AcDbCircle
 10
6249.0187553361
 20
5226.6994545927
 30
0.0
 40
11.0
  0
CIRCLE
  5
20E
330
1F
100
AcDbEntity
  8
0
  6
Continuous
 62
     7
370
    25
100
AcDbCircle
 10
6249.0187553361
 20
5226.6994545927
 30
0.0
 40
12.0
  0
ARC
  5
20F
330
1F
100
AcDbEntity
  8
0
  6
Continuous
 62
     7
370
    25
100
AcDbCircle
 10
6227.0187553361
 20
5205.6994545927
 30
0.0
 40
2.75
100
AcDbArc
 50
90.0
 51
180.0
  0
ARC
  5
210
330
1F
100
AcDbEntity
  8
0
  6
Continuous
 62
     7
370
    25
100
AcDbCircle
 10
6321.0187553361
 20
5205.6994545927
 30
0.0
 40
2.75
100
AcDbArc
 50
0.0
 51
90.0
  0
LINE
  5
211
330
1F
100
AcDbEntity
  8
0
  6
Continuous
 62
     7
370
    25
100
AcDbLine
 10
6323.7687553361
 20
5136.6994545927
 30
0.0
 11
6323.7687553361
 21
5205.6994545927
 31
0.0
  0
ARC
  5
212
330
1F
100
AcDbEntity
  8
0
  6
Continuous
 62
     7
370
    25
100
AcDbCircle
 10
6321.0187553361
 20
5136.6994545927
 30
0.0
 40
2.750000000000909
100
AcDbArc
 50
270.0
 51
0.0
  0
ARC
  5
213
330
1F
100
AcDbEntity
  8
0
  6
Continuous
 62
     7
370
    25
100
AcDbCircle
 10
6227.0187553361
 20
5136.6994545927
 30
0.0
 40
2.750000000000909
100
AcDbArc
 50
180.0
 51
270.0
  0
LINE
  5
214
330
1F
100
AcDbEntity
  8
0
  6
Continuous
 62
     7
370
    25
100
AcDbLine
 10
6227.0187553361
 20
5133.9494545927
 30
0.0
 11
6321.0187553361
 21
5133.9494545927
 31
0.0
  0
LINE
  5
215
330
1F
100
AcDbEntity
  8
0
  6
Continuous
 62
     7
370
    25
100
AcDbLine
 10
6224.2687553361
 20
5205.6994545927
 30
0.0
 11
6224.2687553361
 21
5136.6994545927
 31
0.0
  0
LINE
  5
216
330
1F
100
AcDbEntity
  8
0
  6
Continuous
 62
     7
370
    25
100
AcDbLine
 10
6321.0187553361
 20
5208.4494545927
 30
0.0
 11
6227.0187553361
 21
5208.4494545927
 31
0.0
  0
ARC
  5
217
330
1F
100
AcDbEntity
  8
0
  6
Continuous
 62
     7
370
    25
100
AcDbCircle
 10
6542.8427702113
 20
5313.9494545927
 30
0.0
 40
2.250000000000909
100
AcDbArc
 50
90.0
 51
180.0
  0
ARC
  5
218
330
1F
100
AcDbEntity
  8
0
  6
Continuous
 62
     7
370
    25
100
AcDbCircle
 10
6542.8427702113
 20
5296.4494545927
 30
0.0
 40
2.25
100
AcDbArc
 50
180.0
 51
270.0
  0
LINE
  5
219
330
1F
100
AcDbEntity
  8
0
  6
Continuous
 62
     7
370
    25
100
AcDbLine
 10
6573.8332181087
 20
5343.4923478116
 30
0.0
 11
6573.8427702113
 21
5343.6994545927
 31
0.0
  0
LINE
  5
21A
330
1F
100
AcDbEntity
  8
0
  6
Continuous
 62
     7
370
    25
100
AcDbLine
 10
6551.8427702113
 20
5343.6994545927
 30
0.0
 11
6551.8523223138
 21
5343.4923478116
 31
0.0
  0
ARC
  5
21B
330
1F
100
AcDbEntity
  8
0
  6
Continuous
 62
     7
370
    25
100
AcDbCircle
 10
6571.5927702113
 20
5345.1994545927
 30
0.0
 40
2.250000000000909
100
AcDbArc
 50
0.0
 51
90.0
  0
ARC
  5
21C
330
1F
100
AcDbEntity
  8
0
  6
Continuous
 62
     7
370
    25
100
AcDbCircle
 10
6554.0927702113
 20
5345.1994545927
 30
0.0
 40
2.250000000000909
100
AcDbArc
 50
90.0
 51
180.0
  0
LINE
  5
21D
330
1F
100
AcDbEntity
  8
0
  6
Continuous
 62
     7
370
    25
100
AcDbLine
 10
6572.3427702113
 20
5343.6994545927
 30
0.0
 11
6572.3427702113
 21
5344.1994545927
 31
0.0
  0
LINE
  5
21E
330
1F
100
AcDbEntity
  8
0
  6
Continuous
 62
     7
370
    25
100
AcDbLine
 10
6553.3427702113
 20
5344.1994545927
 30
0.0
 11
6553.3427702113
 21
5343.6994545927
 31
0.0
  0
LINE
  5
21F
330
1F
100
AcDbEntity
  8
0
  6
Continuous
 62
     7
370
    25
100
AcDbLine
 10
6667.8427702113
 20
5092.6665233859
 30
0.0
 11
6667.8585973259
 21
5092.6665233859
 31
0.0
  0
LINE
  5
220
330
1F
100
AcDbEntity
  8
0
  6
Continuous
 62
     7
370
    25
100
AcDbLine
 10
6667.8583595078
 20
5089.7323857995
 30
0.0
 11
6667.8427702113
 21
5089.7323857995
 31
0.0
  0
LINE
  5
221
330
1F
100
AcDbEntity
  8
0
  6
Continuous
 62
     7
370
    25
100
AcDbLine
 10
6667.8427702113
 20
5090.4494545927
 30
0.0
 11
6667.9290461051
 21
5090.4494545927
 31
0.0
  0
LINE
  5
222
330
1F
100
AcDbEntity
  8
0
  6
Continuous
 62
     7
370
    25
100
AcDbLine
 10
6667.9290461051
 20
5091.9494545927
 30
0.0
 11
6667.8427702113
 21
5091.9494545927
 31
0.0
  0
ARC
  5
223
330
1F
100
AcDbEntity
  8
0
  6
Continuous
 62
     7
370
    25
100
AcDbCircle
 10
6647.4427702113
 20
5091.1994545927
 30
0.0
 40
20.50000000000031
100
AcDbArc
 50
357.9033450422
 51
0.0
  0
ARC
  5
224
330
1F
100
AcDbEntity
  8
0
  6
Continuous
 62
     7
370
    25
100
AcDbCircle
 10
6647.4427702113
 20
5091.1994545927
 30
0.0
 40
20.50000000000027
100
AcDbArc
 50
0.0
 51
2.0966549578
  0
LINE
  5
225
330
1F
100
AcDbEntity
  8
0
  6
Continuous
 62
     7
370
    25
100
AcDbLine
 10
6667.8427702113
 20
5337.6665233859
 30
0.0
 11
6667.8585973259
 21
5337.6665233859
 31
0.0
  0
LINE
  5
226
330
1F
100
AcDbEntity
  8
0
  6
Continuous
 62
     7
370
    25
100
AcDbLine
 10
6667.8583595078
 20
5334.7323857996
 30
0.0
 11
6667.8427702113
 21
5334.7323857996
 31
0.0
  0
ARC
  5
227
330
1F
100
AcDbEntity
  8
0
  6
Continuous
 62
     7
370
    25
100
AcDbCircle
 10
6647.4427702113
 20
5336.1994545927
 30
0.0
 40
20.50000000000031
100
AcDbArc
 50
357.9033450422
 51
0.0
  0
ARC
  5
228
330
1F
100
AcDbEntity
  8
0
  6
Continuous
 62
     7
370
    25
100
AcDbCircle
 10
6647.4427702113
 20
5336.1994545927
 30
0.0
 40
20.50000000000031
100
AcDbArc
 50
0.0
 51
2.0966549578
  0
LINE
  5
229
330
1F
100
AcDbEntity
  8
0
  6
Continuous
 62
     7
370
    25
100
AcDbLine
 10
6667.8427702113
 20
5335.4494545927
 30
0.0
 11
6667.9290461051
 21
5335.4494545927
 31
0.0
  0
LINE
  5
22A
330
1F
100
AcDbEntity
  8
0
  6
Continuous
 62
     7
370
    25
100
AcDbLine
 10
6667.9290461051
 20
5336.9494545927
 30
0.0
 11
6667.8427702113
 21
5336.9494545927
 31
0.0
  0
LINE
  5
22B
330
1F
100
AcDbEntity
  8
0
  6
Continuous
 62
     7
370
    25
100
AcDbLine
 10
6667.8427702113
 20
5214.6994545927
 30
0.0
 11
6668.9427702113
 21
5214.6994545927
 31
0.0
  0
LINE
  5
22C
330
1F
100
AcDbEntity
  8
0
  6
Continuous
 62
     7
370
    25
100
AcDbLine
 10
6668.9427702113
 20
5238.6994545927
 30
0.0
 11
6667.8427702113
 21
5238.6994545927
 31
0.0
  0
LINE
  5
22D
330
1F
100
AcDbEntity
  8
0
  6
Continuous
 62
     7
370
    25
100
AcDbLine
 10
6668.9427702113
 20
5214.6994545927
 30
0.0
 11
6669.9427702113
 21
5215.6994545927
 31
0.0
  0
LINE
  5
22E
330
1F
100
AcDbEntity
  8
0
  6
Continuous
 62
     7
370
    25
100
AcDbLine
 10
6669.9427702113
 20
5237.6994545927
 30
0.0
 11
6668.9427702113
 21
5238.6994545927
 31
0.0
  0
LINE
  5
22F
330
1F
100
AcDbEntity
  8
0
  6
Continuous
 62
     7
370
    25
100
AcDbLine
 10
6664.8427702113
 20
5237.6994545927
 30
0.0
 11
6662.8427702113
 21
5237.6994545927
 31
0.0
  0
LINE
  5
230
330
1F
100
AcDbEntity
  8
0
  6
Continuous
 62
     7
370
    25
100
AcDbLine
 10
6662.8427702113
 20
5215.6994545927
 30
0.0
 11
6664.8427702113
 21
5215.6994545927
 31
0.0
  0
ARC
  5
231
330
1F
100
AcDbEntity
  8
0
  6
Continuous
 62
     7
370
    25
100
AcDbCircle
 10
6669.9427702113
 20
5225.2994545927
 30
0.0
 40
0.1999999999998181
100
AcDbArc
 50
270.0
 51
0.0
  0
LINE
  5
232
330
1F
100
AcDbEntity
  8
0
  6
Continuous
 62
     7
370
    25
100
AcDbLine
 10
6540.5927702113
 20
5313.9494545927
 30
0.0
 11
6540.5927702113
 21
5296.449454595
 31
0.0
  0
LINE
  5
233
330
1F
100
AcDbEntity
  8
0
  6
Continuous
 62
     7
370
    25
100
AcDbLine
 10
6573.8427702113
 20
5343.6994545927
 30
0.0
 11
6551.8427702113
 21
5343.6994545927
 31
0.0
  0
LINE
  5
234
330
1F
100
AcDbEntity
  8
0
  6
Continuous
 62
     7
370
    25
100
AcDbLine
 10
6571.5927702113
 20
5347.4494545927
 30
0.0
 11
6554.0927702113
 21
5347.4494545927
 31
0.0
  0
SPLINE
  5
235
330
1F
100
AcDbEntity
  8
0
  6
Continuous
 62
     7
370
    25
100
AcDbSpline
210
0.0
220
0.0
230
1.0
 70
     8
 71
     3
 72
    13
 73
     9
 74
     0
 42
0.00000001
 43
0.00000001
 40
0.0
 40
0.0
 40
0.0
 40
0.0
 40
0.1945921045770989
 40
0.3892164901963731
 40
0.5831042183270142
 40
0.7765337036201313
 40
0.9702718140458623
 40
1.0
 40
1.0
 40
1.0
 40
1.0
 10
6667.846523372436
 20
5089.322692469724
 30
0.0
 10
6667.850878391056
 20
5089.376838184906
 30
0.0
 10
6667.859589150754
 20
5089.485138597547
 30
0.0
 10
6667.866062530283
 20
5089.616680398222
 30
0.0
 10
6667.866578634662
 20
5089.705669071563
 30
0.0
 10
6667.860745416456
 20
5089.74119582544
 30
0.0
 10
6667.852587755307
 20
5089.726648893063
 30
0.0
 10
6667.84723540652
 20
5089.706156705118
 30
0.0
 10
6667.846523372436
 20
5089.703430586756
 30
0.0
  0
SPLINE
  5
236
330
1F
100
AcDbEntity
  8
0
  6
Continuous
 62
     7
370
    25
100
AcDbSpline
210
0.0
220
0.0
230
1.0
 70
     8
 71
     3
 72
    13
 73
     9
 74
     0
 42
0.00000001
 43
0.00000001
 40
0.0
 40
0.0
 40
0.0
 40
0.0
 40
0.1945921045769725
 40
0.3892164901964037
 40
0.5831042183268583
 40
0.7765337036200415
 40
0.9702718140457685
 40
1.0
 40
1.0
 40
1.0
 40
1.0
 10
6667.846523372436
 20
5092.695478598647
 30
0.0
 10
6667.850878391056
 20
5092.68184954862
 30
0.0
 10
6667.859589150754
 20
5092.654589187633
 30
0.0
 10
6667.866062530283
 20
5092.685309356144
 30
0.0
 10
6667.866578634662
 20
5092.766262922853
 30
0.0
 10
6667.860745416456
 20
5092.892632426887
 30
0.0
 10
6667.852587755307
 20
5093.005076029108
 30
0.0
 10
6667.84723540652
 20
5093.067863912965
 30
0.0
 10
6667.846523372436
 20
5093.076216715679
 30
0.0
  0
SPLINE
  5
237
330
1F
100
AcDbEntity
  8
0
  6
Continuous
 62
     7
370
    25
100
AcDbSpline
210
0.0
220
0.0
230
1.0
 70
     8
 71
     3
 72
    13
 73
     9
 74
     0
 42
0.00000001
 43
0.00000001
 40
0.0
 40
0.0
 40
0.0
 40
0.0
 40
0.1945921045769955
 40
0.3892164901961372
 40
0.5831042183270445
 40
0.776533703620041
 40
0.9702718140458512
 40
1.0
 40
1.0
 40
1.0
 40
1.0
 10
6667.846523372436
 20
5090.818716475669
 30
0.0
 10
6667.850878391056
 20
5090.859233140824
 30
0.0
 10
6667.859589150754
 20
5090.94027319248
 30
0.0
 10
6667.866062530283
 20
5091.102535161664
 30
0.0
 10
6667.866578634662
 20
5091.272477401714
 30
0.0
 10
6667.860745416456
 20
5091.434373659625
 30
0.0
 10
6667.852587755307
 20
5091.53227032947
 30
0.0
 10
6667.84723540652
 20
5091.574566025382
 30
0.0
 10
6667.846523372436
 20
5091.580192709734
 30
0.0
  0
LINE
  5
238
330
1F
100
AcDbEntity
  8
0
  6
Continuous
 62
     7
370
    25
100
AcDbLine
 10
6667.9290461051
 20
5091.1994545927
 30
0.0
 11
6667.9290461051
 21
5091.9494545927
 31
0.0
  0
LINE
  5
239
330
1F
100
AcDbEntity
  8
0
  6
Continuous
 62
     7
370
    25
100
AcDbLine
 10
6667.9290461051
 20
5090.4494545927
 30
0.0
 11
6667.9290461051
 21
5091.1994545927
 31
0.0
  0
SPLINE
  5
23A
330
1F
100
AcDbEntity
  8
0
  6
Continuous
 62
     7
370
    25
100
AcDbSpline
210
0.0
220
0.0
230
1.0
 70
     8
 71
     3
 72
    13
 73
     9
 74
     0
 42
0.00000001
 43
0.00000001
 40
0.0
 40
0.0
 40
0.0
 40
0.0
 40
0.1945921045770989
 40
0.3892164901963731
 40
0.5831042183270142
 40
0.7765337036201313
 40
0.9702718140458623
 40
1.0
 40
1.0
 40
1.0
 40
1.0
 10
6667.846523372436
 20
5334.322692469759
 30
0.0
 10
6667.850878391056
 20
5334.376838184941
 30
0.0
 10
6667.859589150754
 20
5334.485138597584
 30
0.0
 10
6667.866062530283
 20
5334.616680398258
 30
0.0
 10
6667.866578634662
 20
5334.705669071598
 30
0.0
 10
6667.860745416455
 20
5334.741195825474
 30
0.0
 10
6667.852587755307
 20
5334.726648893098
 30
0.0
 10
6667.84723540652
 20
5334.706156705153
 30
0.0
 10
6667.846523372436
 20
5334.703430586791
 30
0.0
  0
SPLINE
  5
23B
330
1F
100
AcDbEntity
  8
0
  6
Continuous
 62
     7
370
    25
100
AcDbSpline
210
0.0
220
0.0
230
1.0
 70
     8
 71
     3
 72
    13
 73
     9
 74
     0
 42
0.00000001
 43
0.00000001
 40
0.0
 40
0.0
 40
0.0
 40
0.0
 40
0.1945921045769725
 40
0.3892164901964037
 40
0.5831042183268583
 40
0.7765337036200415
 40
0.9702718140457685
 40
1.0
 40
1.0
 40
1.0
 40
1.0
 10
6667.846523372436
 20
5337.695478598682
 30
0.0
 10
6667.850878391056
 20
5337.681849548655
 30
0.0
 10
6667.859589150754
 20
5337.654589187669
 30
0.0
 10
6667.866062530283
 20
5337.685309356179
 30
0.0
 10
6667.866578634662
 20
5337.766262922889
 30
0.0
 10
6667.860745416456
 20
5337.892632426922
 30
0.0
 10
6667.852587755307
 20
5338.005076029143
 30
0.0
 10
6667.84723540652
 20
5338.067863913
 30
0.0
 10
6667.846523372436
 20
5338.076216715715
 30
0.0
  0
SPLINE
  5
23C
330
1F
100
AcDbEntity
  8
0
  6
Continuous
 62
     7
370
    25
100
AcDbSpline
210
0.0
220
0.0
230
1.0
 70
     8
 71
     3
 72
    13
 73
     9
 74
     0
 42
0.00000001
 43
0.00000001
 40
0.0
 40
0.0
 40
0.0
 40
0.0
 40
0.1945921045769955
 40
0.3892164901961372
 40
0.5831042183270445
 40
0.776533703620041
 40
0.9702718140458512
 40
1.0
 40
1.0
 40
1.0
 40
1.0
 10
6667.846523372436
 20
5335.818716475705
 30
0.0
 10
6667.850878391056
 20
5335.859233140861
 30
0.0
 10
6667.859589150754
 20
5335.940273192515
 30
0.0
 10
6667.866062530283
 20
5336.1025351617
 30
0.0
 10
6667.866578634662
 20
5336.272477401751
 30
0.0
 10
6667.860745416455
 20
5336.43437365966
 30
0.0
 10
6667.852587755307
 20
5336.532270329504
 30
0.0
 10
6667.84723540652
 20
5336.574566025416
 30
0.0
 10
6667.846523372436
 20
5336.580192709769
 30
0.0
  0
LINE
  5
23D
330
1F
100
AcDbEntity
  8
0
  6
Continuous
 62
     7
370
    25
100
AcDbLine
 10
6667.9290461051
 20
5336.1994545927
 30
0.0
 11
6667.9290461051
 21
5336.9494545927
 31
0.0
  0
LINE
  5
23E
330
1F
100
AcDbEntity
  8
0
  6
Continuous
 62
     7
370
    25
100
AcDbLine
 10
6667.9290461051
 20
5335.4494545927
 30
0.0
 11
6667.9290461051
 21
5336.1994545927
 31
0.0
  0
LINE
  5
23F
330
1F
100
AcDbEntity
  8
0
  6
Continuous
 62
     7
370
    25
100
AcDbLine
 10
6544.8427702113
 20
5343.4923478116
 30
0.0
 11
6662.8427702113
 21
5343.4923478116
 31
0.0
  0
LINE
  5
240
330
1F
100
AcDbEntity
  8
0
  6
Continuous
 62
     7
370
    25
100
AcDbLine
 10
6662.8427702113
 20
5343.4923478116
 30
0.0
 11
6662.8427702113
 21
5341.4923478116
 31
0.0
  0
LINE
  5
241
330
1F
100
AcDbEntity
  8
0
  6
Continuous
 62
     7
370
    25
100
AcDbLine
 10
6662.8427702113
 20
5330.1994545927
 30
0.0
 11
6662.8427702113
 21
5341.4923478116
 31
0.0
  0
LINE
  5
242
330
1F
100
AcDbEntity
  8
0
  6
Continuous
 62
     7
370
    25
100
AcDbLine
 10
6662.8427702113
 20
5097.1994545927
 30
0.0
 11
6662.8427702113
 21
5330.1994545927
 31
0.0
  0
LINE
  5
243
330
1F
100
AcDbEntity
  8
0
  6
Continuous
 62
     7
370
    25
100
AcDbLine
 10
6662.8427702113
 20
5085.9065613739
 30
0.0
 11
6662.8427702113
 21
5097.1994545927
 31
0.0
  0
LINE
  5
244
330
1F
100
AcDbEntity
  8
0
  6
Continuous
 62
     7
370
    25
100
AcDbLine
 10
6662.8427702113
 20
5085.9065613739
 30
0.0
 11
6662.8427702113
 21
5083.9065613739
 31
0.0
  0
LINE
  5
245
330
1F
100
AcDbEntity
  8
0
  6
Continuous
 62
     7
370
    25
100
AcDbLine
 10
6544.8427702113
 20
5083.9065613739
 30
0.0
 11
6662.8427702113
 21
5083.9065613739
 31
0.0
  0
LINE
  5
246
330
1F
100
AcDbEntity
  8
0
  6
Continuous
 62
     7
370
    25
100
AcDbLine
 10
6544.8427702113
 20
5083.9065613739
 30
0.0
 11
6544.8427702113
 21
5343.4923478116
 31
0.0
  0
SPLINE
  5
247
330
1F
100
AcDbEntity
  8
0
  6
Continuous
 62
     7
370
    25
100
AcDbSpline
210
0.0
220
0.0
230
1.0
 70
     8
 71
     3
 72
    11
 73
     7
 74
     0
 42
0.00000001
 43
0.00000001
 40
0.0
 40
0.0
 40
0.0
 40
0.0
 40
0.2500000000000047
 40
0.5000000000000011
 40
0.7499999999999996
 40
0.9999999999999999
 40
0.9999999999999999
 40
0.9999999999999999
 40
0.9999999999999999
 10
6542.842770211253
 20
5343.199454592737
 30
0.0
 10
6542.872833356828
 20
5343.223862360971
 30
0.0
 10
6542.932959647977
 20
5343.27267789744
 30
0.0
 10
6543.395458074222
 20
5343.345901202143
 30
0.0
 10
6544.056547948416
 20
5343.419124506847
 30
0.0
 10
6544.580696123641
 20
5343.467940043316
 30
0.0
 10
6544.842770211253
 20
5343.492347811551
 30
0.0
  0
SPLINE
  5
248
330
1F
100
AcDbEntity
  8
0
  6
Continuous
 62
     7
370
    25
100
AcDbSpline
210
0.0
220
0.0
230
1.0
 70
     8
 71
     3
 72
    11
 73
     7
 74
     0
 42
0.00000001
 43
0.00000001
 40
0.0
 40
0.0
 40
0.0
 40
0.0
 40
0.2499999999999981
 40
0.4999999999999992
 40
0.7499999999999987
 40
1.0
 40
1.0
 40
1.0
 40
1.0
 10
6544.842770211253
 20
5083.906561373923
 30
0.0
 10
6544.580696123641
 20
5083.930969142159
 30
0.0
 10
6544.056547948416
 20
5083.979784678626
 30
0.0
 10
6543.395458074222
 20
5084.053007983331
 30
0.0
 10
6542.932959647977
 20
5084.126231288034
 30
0.0
 10
6542.872833356828
 20
5084.175046824503
 30
0.0
 10
6542.842770211253
 20
5084.199454592736
 30
0.0
  0
LINE
  5
249
330
1F
100
AcDbEntity
  8
0
  6
Continuous
 62
     7
370
    25
100
AcDbLine
 10
6542.8427702113
 20
5084.1994545927
 30
0.0
 11
6542.8427702113
 21
5343.1994545927
 31
0.0
  0
LINE
  5
24A
330
1F
100
AcDbEntity
  8
0
  6
Continuous
 62
     7
370
    25
100
AcDbLine
 10
6664.8427702113
 20
5085.9065613739
 30
0.0
 11
6662.8427702113
 21
5085.9065613739
 31
0.0
  0
LINE
  5
24B
330
1F
100
AcDbEntity
  8
0
  6
Continuous
 62
     7
370
    25
100
AcDbLine
 10
6662.8427702113
 20
5097.1994545927
 30
0.0
 11
6664.8427702113
 21
5097.1994545927
 31
0.0
  0
LINE
  5
24C
330
1F
100
AcDbEntity
  8
0
  6
Continuous
 62
     7
370
    25
100
AcDbLine
 10
6662.8427702113
 20
5341.4923478116
 30
0.0
 11
6664.8427702113
 21
5341.4923478116
 31
0.0
  0
LINE
  5
24D
330
1F
100
AcDbEntity
  8
0
  6
Continuous
 62
     7
370
    25
100
AcDbLine
 10
6664.8427702113
 20
5330.1994545927
 30
0.0
 11
6662.8427702113
 21
5330.1994545927
 31
0.0
  0
LINE
  5
24E
330
1F
100
AcDbEntity
  8
0
  6
Continuous
 62
     7
370
    25
100
AcDbLine
 10
6544.8427702113
 20
5082.1994545927
 30
0.0
 11
6544.8427702113
 21
5083.1994545927
 31
0.0
  0
SPLINE
  5
24F
330
1F
100
AcDbEntity
  8
0
  6
Continuous
 62
     7
370
    25
100
AcDbSpline
210
0.0
220
0.0
230
1.0
 70
     8
 71
     3
 72
    11
 73
     7
 74
     0
 42
0.00000001
 43
0.00000001
 40
0.0
 40
0.0
 40
0.0
 40
0.0
 40
0.2499999999999955
 40
0.4999999999999978
 40
0.7500000000000027
 40
0.9999999999999999
 40
0.9999999999999999
 40
0.9999999999999999
 40
0.9999999999999999
 10
6542.842770211253
 20
5084.199454592736
 30
0.0
 10
6542.872833356828
 20
5083.937380505124
 30
0.0
 10
6542.932959647977
 20
5083.413232329899
 30
0.0
 10
6543.395458074222
 20
5082.752142455705
 30
0.0
 10
6544.056547948416
 20
5082.28964402946
 30
0.0
 10
6544.580696123641
 20
5082.229517738312
 30
0.0
 10
6544.842770211253
 20
5082.199454592737
 30
0.0
  0
SPLINE
  5
250
330
1F
100
AcDbEntity
  8
0
  6
Continuous
 62
     7
370
    25
100
AcDbSpline
210
0.0
220
0.0
230
1.0
 70
     8
 71
     3
 72
    11
 73
     7
 74
     0
 42
0.00000001
 43
0.00000001
 40
0.0
 40
0.0
 40
0.0
 40
0.0
 40
0.1388156110511858
 40
0.4258770740341418
 40
0.712938537017067
 40
1.0
 40
1.0
 40
1.0
 40
1.0
 10
6543.882080759716
 20
5084.001827119994
 30
0.0
 10
6543.891007371732
 20
5083.939018102441
 30
0.0
 10
6543.918393624454
 20
5083.746324208609
 30
0.0
 10
6544.122278513126
 20
5083.476862063476
 30
0.0
 10
6544.448867987237
 20
5083.244283426285
 30
0.0
 10
6544.711469469915
 20
5083.214397537253
 30
0.0
 10
6544.842770211253
 20
5083.199454592736
 30
0.0
  0
LINE
  5
251
330
1F
100
AcDbEntity
  8
0
  6
Continuous
 62
     7
370
    25
100
AcDbLine
 10
6662.8427702113
 20
5083.1994545927
 30
0.0
 11
6662.8427702113
 21
5082.1994545927
 31
0.0
  0
LINE
  5
252
330
1F
100
AcDbEntity
  8
0
  6
Continuous
 62
     7
370
    25
100
AcDbLine
 10
6544.8427702113
 20
5082.1994545927
 30
0.0
 11
6662.8427702113
 21
5082.1994545927
 31
0.0
  0
LINE
  5
253
330
1F
100
AcDbEntity
  8
0
  6
Continuous
 62
     7
370
    25
100
AcDbLine
 10
6544.8427702113
 20
5083.1994545927
 30
0.0
 11
6662.8427702113
 21
5083.1994545927
 31
0.0
  0
SPLINE
  5
254
330
1F
100
AcDbEntity
  8
0
  6
Continuous
 62
     7
370
    25
100
AcDbSpline
210
0.0
220
0.0
230
1.0
 70
     8
 71
     3
 72
    11
 73
     7
 74
     0
 42
0.00000001
 43
0.00000001
 40
0.0
 40
0.0
 40
0.0
 40
0.0
 40
0.2500000000000002
 40
0.4999999999999999
 40
0.7500000000000038
 40
1.0
 40
1.0
 40
1.0
 40
1.0
 10
6544.842770211253
 20
5345.199454592736
 30
0.0
 10
6544.580696123641
 20
5345.169391447163
 30
0.0
 10
6544.056547948416
 20
5345.109265156013
 30
0.0
 10
6543.395458074222
 20
5344.646766729767
 30
0.0
 10
6542.932959647977
 20
5343.985676855575
 30
0.0
 10
6542.872833356828
 20
5343.461528680349
 30
0.0
 10
6542.842770211253
 20
5343.199454592737
 30
0.0
  0
LINE
  5
255
330
1F
100
AcDbEntity
  8
0
  6
Continuous
 62
     7
370
    25
100
AcDbLine
 10
6544.8427702113
 20
5345.1994545927
 30
0.0
 11
6544.8427702113
 21
5344.1994545927
 31
0.0
  0
SPLINE
  5
256
330
1F
100
AcDbEntity
  8
0
  6
Continuous
 62
     7
370
    25
100
AcDbSpline
210
0.0
220
0.0
230
1.0
 70
     8
 71
     3
 72
    11
 73
     7
 74
     0
 42
0.00000001
 43
0.00000001
 40
0.0
 40
0.0
 40
0.0
 40
0.0
 40
0.2870614629829402
 40
0.5741229259658814
 40
0.8611843889488321
 40
1.0
 40
1.0
 40
1.0
 40
1.0
 10
6544.842770211253
 20
5344.199454592736
 30
0.0
 10
6544.711469469915
 20
5344.184511648221
 30
0.0
 10
6544.448867987237
 20
5344.154625759188
 30
0.0
 10
6544.122278513126
 20
5343.922047121998
 30
0.0
 10
6543.918393624454
 20
5343.652584976865
 30
0.0
 10
6543.891007371732
 20
5343.459891083033
 30
0.0
 10
6543.882080759716
 20
5343.397082065479
 30
0.0
  0
LINE
  5
257
330
1F
100
AcDbEntity
  8
0
  6
Continuous
 62
     7
370
    25
100
AcDbLine
 10
6662.8427702113
 20
5344.1994545927
 30
0.0
 11
6662.8427702113
 21
5345.1994545927
 31
0.0
  0
LINE
  5
258
330
1F
100
AcDbEntity
  8
0
  6
Continuous
 62
     7
370
    25
100
AcDbLine
 10
6544.8427702113
 20
5345.1994545927
 30
0.0
 11
6662.8427702113
 21
5345.1994545927
 31
0.0
  0
LINE
  5
259
330
1F
100
AcDbEntity
  8
0
  6
Continuous
 62
     7
370
    25
100
AcDbLine
 10
6544.8427702113
 20
5344.1994545927
 30
0.0
 11
6662.8427702113
 21
5344.1994545927
 31
0.0
  0
LINE
  5
25A
330
1F
100
AcDbEntity
  8
0
  6
Continuous
 62
     7
370
    25
100
AcDbLine
 10
6638.8427702113
 20
5083.2065613739
 30
0.0
 11
6638.8427702113
 21
5083.9065613739
 31
0.0
  0
LINE
  5
25B
330
1F
100
AcDbEntity
  8
0
  6
Continuous
 62
     7
370
    25
100
AcDbLine
 10
6638.8427702113
 20
5083.2065613739
 30
0.0
 11
6662.8427702113
 21
5083.2065613739
 31
0.0
  0
LINE
  5
25C
330
1F
100
AcDbEntity
  8
0
  6
Continuous
 62
     7
370
    25
100
AcDbLine
 10
6638.8427702113
 20
5344.1923478116
 30
0.0
 11
6638.8427702113
 21
5343.4923478116
 31
0.0
  0
LINE
  5
25D
330
1F
100
AcDbEntity
  8
0
  6
Continuous
 62
     7
370
    25
100
AcDbLine
 10
6662.8427702113
 20
5344.1923478116
 30
0.0
 11
6638.8427702113
 21
5344.1923478116
 31
0.0
  0
LINE
  5
25E
330
1F
100
AcDbEntity
  8
0
  6
Continuous
 62
     7
370
    25
100
AcDbLine
 10
6663.8427702113
 20
5085.2065613739
 30
0.0
 11
6664.8427702113
 21
5085.2065613739
 31
0.0
  0
ARC
  5
25F
330
1F
100
AcDbEntity
  8
0
  6
Continuous
 62
     7
370
    25
100
AcDbCircle
 10
6662.8427702113
 20
5085.2065613739
 30
0.0
 40
2.0
100
AcDbArc
 50
270.0
 51
0.0
  0
ARC
  5
260
330
1F
100
AcDbEntity
  8
0
  6
Continuous
 62
     7
370
    25
100
AcDbCircle
 10
6662.8427702113
 20
5085.2065613739
 30
0.0
 40
1.000000000000909
100
AcDbArc
 50
270.0
 51
0.0
  0
LINE
  5
261
330
1F
100
AcDbEntity
  8
0
  6
Continuous
 62
     7
370
    25
100
AcDbLine
 10
6663.8427702113
 20
5085.2065613739
 30
0.0
 11
6663.8427702113
 21
5085.9065613739
 31
0.0
  0
LINE
  5
262
330
1F
100
AcDbEntity
  8
0
  6
Continuous
 62
     7
370
    25
100
AcDbLine
 10
6663.8427702113
 20
5342.1923478116
 30
0.0
 11
6664.8427702113
 21
5342.1923478116
 31
0.0
  0
LINE
  5
263
330
1F
100
AcDbEntity
  8
0
  6
Continuous
 62
     7
370
    25
100
AcDbLine
 10
6663.8427702113
 20
5342.1923478116
 30
0.0
 11
6663.8427702113
 21
5341.4923478116
 31
0.0
  0
ARC
  5
264
330
1F
100
AcDbEntity
  8
0
  6
Continuous
 62
     7
370
    25
100
AcDbCircle
 10
6662.8427702113
 20
5342.1923478116
 30
0.0
 40
1.000000000000909
100
AcDbArc
 50
0.0
 51
90.0
  0
ARC
  5
265
330
1F
100
AcDbEntity
  8
0
  6
Continuous
 62
     7
370
    25
100
AcDbCircle
 10
6662.8427702113
 20
5342.1923478116
 30
0.0
 40
2.0
100
AcDbArc
 50
0.0
 51
90.0
  0
LINE
  5
266
330
1F
100
AcDbEntity
  8
0
  6
Continuous
 62
     7
370
    25
100
AcDbLine
 10
6664.8427702113
 20
5353.1994545927
 30
0.0
 11
6664.8427702113
 21
5074.1994545927
 31
0.0
  0
LINE
  5
267
330
1F
100
AcDbEntity
  8
0
  6
Continuous
 62
     7
370
    25
100
AcDbLine
 10
6666.8427702113
 20
5353.1994545927
 30
0.0
 11
6664.8427702113
 21
5353.1994545927
 31
0.0
  0
LINE
  5
268
330
1F
100
AcDbEntity
  8
0
  6
Continuous
 62
     7
370
    25
100
AcDbLine
 10
6666.8427702113
 20
5074.1994545927
 30
0.0
 11
6666.8427702113
 21
5353.1994545927
 31
0.0
  0
LINE
  5
269
330
1F
100
AcDbEntity
  8
0
  6
Continuous
 62
     7
370
    25
100
AcDbLine
 10
6664.8427702113
 20
5074.1994545927
 30
0.0
 11
6666.8427702113
 21
5074.1994545927
 31
0.0
  0
LINE
  5
26A
330
1F
100
AcDbEntity
  8
0
  6
Continuous
 62
     7
370
    25
100
AcDbLine
 10
6664.8427702113
 20
5356.1994545927
 30
0.0
 11
6666.8427702113
 21
5356.1994545927
 31
0.0
  0
LINE
  5
26B
330
1F
100
AcDbEntity
  8
0
  6
Continuous
 62
     7
370
    25
100
AcDbLine
 10
6666.8427702113
 20
5353.1994545927
 30
0.0
 11
6666.8427702113
 21
5356.1994545927
 31
0.0
  0
LINE
  5
26C
330
1F
100
AcDbEntity
  8
0
  6
Continuous
 62
     7
370
    25
100
AcDbLine
 10
6664.8427702113
 20
5353.1994545927
 30
0.0
 11
6664.8427702113
 21
5356.1994545927
 31
0.0
  0
LINE
  5
26D
330
1F
100
AcDbEntity
  8
0
  6
Continuous
 62
     7
370
    25
100
AcDbLine
 10
6666.8427702113
 20
5071.1994545927
 30
0.0
 11
6666.8427702113
 21
5074.1994545927
 31
0.0
  0
LINE
  5
26E
330
1F
100
AcDbEntity
  8
0
  6
Continuous
 62
     7
370
    25
100
AcDbLine
 10
6666.8427702113
 20
5071.1994545927
 30
0.0
 11
6664.8427702113
 21
5071.1994545927
 31
0.0
  0
LINE
  5
26F
330
1F
100
AcDbEntity
  8
0
  6
Continuous
 62
     7
370
    25
100
AcDbLine
 10
6664.8427702113
 20
5071.1994545927
 30
0.0
 11
6664.8427702113
 21
5074.1994545927
 31
0.0
  0
LINE
  5
270
330
1F
100
AcDbEntity
  8
0
  6
Continuous
 62
     7
370
    25
100
AcDbLine
 10
6667.8427702113
 20
5074.1994545927
 30
0.0
 11
6667.8427702113
 21
5072.1994545927
 31
0.0
  0
LINE
  5
271
330
1F
100
AcDbEntity
  8
0
  6
Continuous
 62
     7
370
    25
100
AcDbLine
 10
6667.8427702113
 20
5072.1994545927
 30
0.0
 11
6666.8427702113
 21
5071.1994545927
 31
0.0
  0
LINE
  5
272
330
1F
100
AcDbEntity
  8
0
  6
Continuous
 62
     7
370
    25
100
AcDbLine
 10
6667.8427702113
 20
5074.1994545927
 30
0.0
 11
6666.8427702113
 21
5074.1994545927
 31
0.0
  0
LINE
  5
273
330
1F
100
AcDbEntity
  8
0
  6
Continuous
 62
     7
370
    25
100
AcDbLine
 10
6667.8427702113
 20
5353.1994545927
 30
0.0
 11
6667.8427702113
 21
5074.1994545927
 31
0.0
  0
LINE
  5
274
330
1F
100
AcDbEntity
  8
0
  6
Continuous
 62
     7
370
    25
100
AcDbLine
 10
6667.8427702113
 20
5353.1994545927
 30
0.0
 11
6666.8427702113
 21
5353.1994545927
 31
0.0
  0
LINE
  5
275
330
1F
100
AcDbEntity
  8
0
  6
Continuous
 62
     7
370
    25
100
AcDbLine
 10
6667.8427702113
 20
5355.1994545927
 30
0.0
 11
6667.8427702113
 21
5353.1994545927
 31
0.0
  0
LINE
  5
276
330
1F
100
AcDbEntity
  8
0
  6
Continuous
 62
     7
370
    25
100
AcDbLine
 10
6667.8427702113
 20
5355.1994545927
 30
0.0
 11
6666.8427702113
 21
5356.1994545927
 31
0.0
  0
ARC
  5
277
330
1F
100
AcDbEntity
  8
0
  6
Continuous
 62
     7
370
    25
100
AcDbCircle
 10
6670.1427702113
 20
5300.5081067046
 30
0.0
 40
0.5000000000002301
100
AcDbArc
 50
0.0
 51
89.0
  0
LINE
  5
278
330
1F
100
AcDbEntity
  8
0
  6
Continuous
 62
     7
370
    25
100
AcDbLine
 10
6670.6427702113
 20
5281.8908039677
 30
0.0
 11
6670.6427702113
 21
5300.5081067046
 31
0.0
  0
ARC
  5
279
330
1F
100
AcDbEntity
  8
0
  6
Continuous
 62
     7
370
    25
100
AcDbCircle
 10
6670.1427702113
 20
5281.8908039677
 30
0.0
 40
0.5000000000002301
100
AcDbArc
 50
271.0
 51
0.0
  0
LINE
  5
27A
330
1F
100
AcDbEntity
  8
0
  6
Continuous
 62
     7
370
    25
100
AcDbLine
 10
6667.8427702113
 20
5281.3505811544
 30
0.0
 11
6670.1514964145
 21
5281.3908801201
 31
0.0
  0
LINE
  5
27B
330
1F
100
AcDbEntity
  8
0
  6
Continuous
 62
     7
370
    25
100
AcDbLine
 10
6667.8427702113
 20
5301.048329518
 30
0.0
 11
6670.1514964145
 21
5301.0080305522
 31
0.0
  0
ARC
  5
27C
330
1F
100
AcDbEntity
  8
0
  6
Continuous
 62
     7
370
    25
100
AcDbCircle
 10
6672.647133479
 20
5296.1479784087
 30
0.0
 40
2.499999999999306
100
AcDbArc
 50
0.0
 51
89.5
  0
LINE
  5
27D
330
1F
100
AcDbEntity
  8
0
  6
Continuous
 62
     7
370
    25
100
AcDbLine
 10
6675.147133479
 20
5296.1479784087
 30
0.0
 11
6675.147133479
 21
5286.3052904985
 31
0.0
  0
ARC
  5
27E
330
1F
100
AcDbEntity
  8
0
  6
Continuous
 62
     7
370
    25
100
AcDbCircle
 10
6672.647133479
 20
5286.3052904992
 30
0.0
 40
2.5
100
AcDbArc
 50
270.5000000023
 51
359.9999999829
  0
SPLINE
  5
27F
330
1F
100
AcDbEntity
  8
0
  6
Continuous
 62
     7
370
    25
100
AcDbSpline
210
0.0
220
0.0
230
1.0
 70
     8
 71
     3
 72
    11
 73
     7
 74
     0
 42
0.00000001
 43
0.00000001
 40
0.0
 40
0.0
 40
0.0
 40
0.0
 40
0.250000000000007
 40
0.5000000000000197
 40
0.7500000000000296
 40
0.9999999999999999
 40
0.9999999999999999
 40
0.9999999999999999
 40
0.9999999999999999
 10
6672.668949817848
 20
5283.805385691714
 30
0.0
 10
6672.669455915996
 20
5283.739872842776
 30
0.0
 10
6672.670468112294
 20
5283.608847144902
 30
0.0
 10
6672.670901305232
 20
5283.443586058619
 30
0.0
 10
6672.670468112298
 20
5283.327963966081
 30
0.0
 10
6672.669455916003
 20
5283.312924475375
 30
0.0
 10
6672.668949817857
 20
5283.305404730022
 30
0.0
  0
LINE
  5
280
330
1F
100
AcDbEntity
  8
0
  6
Continuous
 62
     7
370
    25
100
AcDbLine
 10
6670.6427702113
 20
5283.2877225285
 30
0.0
 11
6672.6689498173
 21
5283.30540473
 31
0.0
  0
LINE
  5
281
330
1F
100
AcDbEntity
  8
0
  6
Continuous
 62
     7
370
    25
100
AcDbLine
 10
6672.6689498183
 20
5299.1478641779
 30
0.0
 11
6670.6427702113
 21
5299.1655463794
 31
0.0
  0
SPLINE
  5
282
330
1F
100
AcDbEntity
  8
0
  6
Continuous
 62
     7
370
    25
100
AcDbSpline
210
0.0
220
0.0
230
1.0
 70
     8
 71
     3
 72
    11
 73
     7
 74
     0
 42
0.00000001
 43
0.00000001
 40
0.0
 40
0.0
 40
0.0
 40
0.0
 40
0.2500000000001203
 40
0.5000000000000819
 40
0.7500000000000465
 40
1.0
 40
1.0
 40
1.0
 40
1.0
 10
6672.668949817748
 20
5298.647883216326
 30
0.0
 10
6672.669455915898
 20
5298.713396065319
 30
0.0
 10
6672.670468112196
 20
5298.844421763306
 30
0.0
 10
6672.670901305133
 20
5299.009682849645
 30
0.0
 10
6672.670468112196
 20
5299.125304942096
 30
0.0
 10
6672.669455915898
 20
5299.140344432603
 30
0.0
 10
6672.668949817748
 20
5299.147864177858
 30
0.0
  0
SPLINE
  5
283
330
1F
100
AcDbEntity
  8
0
  6
Continuous
 62
     7
370
    25
100
AcDbSpline
210
0.0
220
0.0
230
1.0
 70
    24
 71
     3
 72
    11
 73
     7
 74
     0
 42
0.00000001
 43
0.00000001
 40
0.0
 40
0.0
 40
0.0
 40
0.0
 40
0.2500000000000063
 40
0.500000000000001
 40
0.7499999999999994
 40
1.0
 40
1.0
 40
1.0
 40
1.0
 10
6675.147133479002
 20
5286.305290498469
 30
0.0
 10
6675.21222043612
 20
5286.305290498469
 30
0.0
 10
6675.342394350359
 20
5286.305290498469
 30
0.0
 10
6675.50607629754
 20
5286.305290498469
 30
0.0
 10
6675.620477853868
 20
5286.305290498469
 30
0.0
 10
6675.635339425458
 20
5286.305290498469
 30
0.0
 10
6675.642770211254
 20
5286.305290498469
 30
0.0
  0
SPLINE
  5
284
330
1F
100
AcDbEntity
  8
0
  6
Continuous
 62
     7
370
    25
100
AcDbSpline
210
0.0
220
0.0
230
1.0
 70
     8
 71
     3
 72
    13
 73
     9
 74
     0
 42
0.00000001
 43
0.00000001
 40
0.0
 40
0.0
 40
0.0
 40
0.0
 40
0.1545795397826491
 40
0.3007755053653737
 40
0.4385816408192604
 40
0.5679920633584196
 40
0.8006375270917723
 40
1.0
 40
1.0
 40
1.0
 40
1.0
 10
6672.668949817309
 20
5283.305404730017
 30
0.0
 10
6672.910073024565
 20
5283.324331228759
 30
0.0
 10
6673.379242195463
 20
5283.361157753354
 30
0.0
 10
6674.022595719794
 20
5283.615568641668
 30
0.0
 10
6674.563880991349
 20
5283.972056634226
 30
0.0
 10
6675.110051966909
 20
5284.53060379799
 30
0.0
 10
6675.553028813268
 20
5285.318760585809
 30
0.0
 10
6675.614433332055
 20
5285.99378232563
 30
0.0
 10
6675.642770211254
 20
5286.305290499214
 30
0.0
  0
SPLINE
  5
285
330
1F
100
AcDbEntity
  8
0
  6
Continuous
 62
     7
370
    25
100
AcDbSpline
210
0.0
220
0.0
230
1.0
 70
     8
 71
     3
 72
    13
 73
     9
 74
     0
 42
0.00000001
 43
0.00000001
 40
0.0
 40
0.0
 40
0.0
 40
0.0
 40
0.1993624729093081
 40
0.4320079366433519
 40
0.5614183591822913
 40
0.6992244946358045
 40
0.8454204602180136
 40
1.0
 40
1.0
 40
1.0
 40
1.0
 10
6675.642770211254
 20
5296.147978409265
 30
0.0
 10
6675.614433332013
 20
5296.459486582738
 30
0.0
 10
6675.553028813132
 20
5297.134508322312
 30
0.0
 10
6675.110051966915
 20
5297.922665109833
 30
0.0
 10
6674.563880991583
 20
5298.48121227344
 30
0.0
 10
6674.022595720269
 20
5298.837700265949
 30
0.0
 10
6673.379242196223
 20
5299.092111154309
 30
0.0
 10
6672.910073025502
 20
5299.128937679042
 30
0.0
 10
6672.668949818337
 20
5299.147864177852
 30
0.0
  0
SPLINE
  5
286
330
1F
100
AcDbEntity
  8
0
  6
Continuous
 62
     7
370
    25
100
AcDbSpline
210
0.0
220
0.0
230
1.0
 70
    24
 71
     3
 72
    11
 73
     7
 74
     0
 42
0.00000001
 43
0.00000001
 40
0.0
 40
0.0
 40
0.0
 40
0.0
 40
0.2499999999999936
 40
0.4999999999999956
 40
0.7499999999999974
 40
0.9999999999999999
 40
0.9999999999999999
 40
0.9999999999999999
 40
0.9999999999999999
 10
6675.147133478838
 20
5296.147978408666
 30
0.0
 10
6675.212220435918
 20
5296.147978408666
 30
0.0
 10
6675.34239435008
 20
5296.147978408666
 30
0.0
 10
6675.506076297236
 20
5296.147978408666
 30
0.0
 10
6675.620477853642
 20
5296.147978408666
 30
0.0
 10
6675.635339425383
 20
5296.147978408666
 30
0.0
 10
6675.642770211254
 20
5296.147978408666
 30
0.0
  0
LINE
  5
287
330
1F
100
AcDbEntity
  8
0
  6
Continuous
 62
     7
370
    25
100
AcDbLine
 10
6675.6427702113
 20
5286.3052904992
 30
0.0
 11
6675.6427702113
 21
5296.1479784093
 31
0.0
  0
SPLINE
  5
288
330
1F
100
AcDbEntity
  8
0
  6
Continuous
 62
     7
370
    25
100
AcDbSpline
210
0.0
220
0.0
230
1.0
 70
     8
 71
     3
 72
    11
 73
     7
 74
     0
 42
0.00000001
 43
0.00000001
 40
0.0
 40
0.0
 40
0.0
 40
0.0
 40
0.249999999999994
 40
0.4999999999999935
 40
0.7499999999999951
 40
1.0
 40
1.0
 40
1.0
 40
1.0
 10
6677.97366159818
 20
5219.633598456716
 30
0.0
 10
6677.97555303091
 20
5219.502619487438
 30
0.0
 10
6677.979335896368
 20
5219.240661548881
 30
0.0
 10
6677.979049643954
 20
5218.910227993068
 30
0.0
 10
6677.974434834795
 20
5218.678991354281
 30
0.0
 10
6677.968102982485
 20
5218.64883095897
 30
0.0
 10
6677.964937056328
 20
5218.633750761315
 30
0.0
  0
LINE
  5
289
330
1F
100
AcDbEntity
  8
0
  6
Continuous
 62
     7
370
    25
100
AcDbLine
 10
6669.9427702113
 20
5218.4937233182
 30
0.0
 11
6677.9649370563
 21
5218.6337507613
 31
0.0
  0
LINE
  5
28A
330
1F
100
AcDbEntity
  8
0
  6
Continuous
 62
     7
370
    25
100
AcDbLine
 10
6670.1427702113
 20
5229.9365173451
 30
0.0
 11
6683.8689471596
 21
5228.7356324686
 31
0.0
  0
LINE
  5
28B
330
1F
100
AcDbEntity
  8
0
  6
Continuous
 62
     7
370
    25
100
AcDbLine
 10
6683.8689471596
 20
5228.7356324686
 30
0.0
 11
6683.8689471596
 21
5225.6326846274
 31
0.0
  0
ARC
  5
28C
330
1F
100
AcDbEntity
  8
0
  6
Continuous
 62
     7
370
    25
100
AcDbCircle
 10
6677.8689471596
 20
5225.6326846274
 30
0.0
 40
5.999999999996362
100
AcDbArc
 50
271.0
 51
0.0
  0
SPLINE
  5
28D
330
1F
100
AcDbEntity
  8
0
  6
Continuous
 62
     7
370
    25
100
AcDbSpline
210
0.0
220
0.0
230
1.0
 70
    24
 71
     3
 72
    11
 73
     7
 74
     0
 42
0.00000001
 43
0.00000001
 40
0.0
 40
0.0
 40
0.0
 40
0.0
 40
0.2499999999999999
 40
0.4999999999999993
 40
0.7499999999999973
 40
1.0
 40
1.0
 40
1.0
 40
1.0
 10
6683.868947159561
 20
5225.63268462741
 30
0.0
 10
6683.997374369743
 20
5225.63268462741
 30
0.0
 10
6684.254228790105
 20
5225.63268462741
 30
0.0
 10
6684.575251946155
 20
5225.63268462741
 30
0.0
 10
6684.79919635334
 20
5225.63268462741
 30
0.0
 10
6684.828245591949
 20
5225.63268462741
 30
0.0
 10
6684.842770211254
 20
5225.63268462741
 30
0.0
  0
SPLINE
  5
28E
330
1F
100
AcDbEntity
  8
0
  6
Continuous
 62
     7
370
    25
100
AcDbSpline
210
0.0
220
0.0
230
1.0
 70
     8
 71
     3
 72
    14
 73
    10
 74
     0
 42
0.00000001
 43
0.00000001
 40
0.0
 40
0.0
 40
0.0
 40
0.0
 40
0.1540158125240108
 40
0.2997728222656003
 40
0.4372655327179669
 40
0.5664888930523373
 40
0.6874383268687849
 40
0.8001097714309228
 40
1.0
 40
1.0
 40
1.0
 40
1.0
 10
6677.964937056298
 20
5218.633750761315
 30
0.0
 10
6678.522401188843
 20
5218.682070154724
 30
0.0
 10
6679.607436508179
 20
5218.776117906675
 30
0.0
 10
6681.093972213066
 20
5219.373751593281
 30
0.0
 10
6682.342633657133
 20
5220.204528715974
 30
0.0
 10
6683.330396747924
 20
5221.215036493104
 30
0.0
 10
6684.04890768269
 20
5222.319216325478
 30
0.0
 10
6684.680000001342
 20
5223.770446485532
 30
0.0
 10
6684.779279034119
 20
5224.906288244462
 30
0.0
 10
6684.842770211254
 20
5225.63268462741
 30
0.0
  0
LINE
  5
28F
330
1F
100
AcDbEntity
  8
0
  6
Continuous
 62
     7
370
    25
100
AcDbLine
 10
6684.8427702113
 20
5225.6326846274
 30
0.0
 11
6684.8427702113
 21
5228.6504339913
 31
0.0
  0
LINE
  5
290
330
1F
100
AcDbEntity
  8
0
  6
Continuous
 62
     7
370
    25
100
AcDbLine
 10
6684.8427702113
 20
5228.6504339913
 30
0.0
 11
6683.8689471596
 21
5228.7356324686
 31
0.0
  0
LINE
  5
291
330
1F
100
AcDbEntity
  8
0
  6
Continuous
 62
     7
370
    25
100
AcDbLine
 10
6668.9427702113
 20
5214.6994545927
 30
0.0
 11
6668.9427702113
 21
5238.6994545927
 31
0.0
  0
LINE
  5
292
330
1F
100
AcDbEntity
  8
0
  6
Continuous
 62
     7
370
    25
100
AcDbLine
 10
6669.9427702113
 20
5237.6994545927
 30
0.0
 11
6669.9427702113
 21
5215.6994545927
 31
0.0
  0
LINE
  5
293
330
1F
100
AcDbEntity
  8
0
  6
Continuous
 62
     7
370
    25
100
AcDbLine
 10
6662.8427702113
 20
5233.024009913
 30
0.0
 11
6664.8427702113
 21
5233.024009913
 31
0.0
  0
LINE
  5
294
330
1F
100
AcDbEntity
  8
0
  6
Continuous
 62
     7
370
    25
100
AcDbLine
 10
6662.8427702113
 20
5220.3748992723
 30
0.0
 11
6664.8427702113
 21
5220.3748992723
 31
0.0
  0
SPLINE
  5
295
330
1F
100
AcDbEntity
  8
0
  6
Continuous
 62
     7
370
    25
100
AcDbSpline
210
0.0
220
0.0
230
1.0
 70
     8
 71
     3
 72
    13
 73
     9
 74
     0
 42
0.00000001
 43
0.00000001
 40
0.0
 40
0.0
 40
0.0
 40
0.0
 40
0.0254342784918754
 40
0.2391405405228544
 40
0.4528843033372459
 40
0.6670512278740727
 40
0.8818628295039127
 40
1.0
 40
1.0
 40
1.0
 40
1.0
 10
6669.942770211253
 20
5236.282206898499
 30
0.0
 10
6669.945426226413
 20
5236.282172886215
 30
0.0
 10
6669.970398859358
 20
5236.281853092755
 30
0.0
 10
6670.01768669307
 20
5236.271664496242
 30
0.0
 10
6670.07606976067
 20
5236.236280243194
 30
0.0
 10
6670.119299174381
 20
5236.183459486288
 30
0.0
 10
6670.140165091241
 20
5236.128720310472
 30
0.0
 10
6670.142087943247
 20
5236.093915487335
 30
0.0
 10
6670.142770211253
 20
5236.08156600997
 30
0.0
  0
LINE
  5
296
330
1F
100
AcDbEntity
  8
0
  6
Continuous
 62
     7
370
    25
100
AcDbLine
 10
6670.1427702113
 20
5236.08156601
 30
0.0
 11
6670.1427702113
 21
5225.2994545927
 31
0.0
  0
LINE
  5
297
330
1F
100
AcDbEntity
  8
0
  6
Continuous
 62
     8
370
    25
100
AcDbLine
 10
6667.8465233724
 20
5089.7034305868
 30
0.0
 11
6667.8427702113
 21
5089.7034305868
 31
0.0
  0
LINE
  5
298
330
1F
100
AcDbEntity
  8
0
  6
Continuous
 62
     8
370
    25
100
AcDbLine
 10
6667.8427702113
 20
5092.6954785986
 30
0.0
 11
6667.8465233724
 21
5092.6954785986
 31
0.0
  0
LINE
  5
299
330
1F
100
AcDbEntity
  8
0
  6
Continuous
 62
     8
370
    25
100
AcDbLine
 10
6667.8465233724
 20
5334.7034305868
 30
0.0
 11
6667.8427702113
 21
5334.7034305868
 31
0.0
  0
LINE
  5
29A
330
1F
100
AcDbEntity
  8
0
  6
Continuous
 62
     8
370
    25
100
AcDbLine
 10
6667.8427702113
 20
5337.6954785987
 30
0.0
 11
6667.8465233724
 21
5337.6954785987
 31
0.0
  0
LINE
  5
29B
330
1F
100
AcDbEntity
  8
0
  6
Continuous
 62
     8
370
    25
100
AcDbLine
 10
6662.8427702113
 20
5083.9065613739
 30
0.0
 11
6662.8427702113
 21
5083.2065613739
 31
0.0
  0
LINE
  5
29C
330
1F
100
AcDbEntity
  8
0
  6
Continuous
 62
     8
370
    25
100
AcDbLine
 10
6662.8427702113
 20
5343.4923478116
 30
0.0
 11
6662.8427702113
 21
5344.1923478116
 31
0.0
  0
LINE
  5
29D
330
1F
100
AcDbEntity
  8
0
  6
Continuous
 62
     8
370
    25
100
AcDbLine
 10
6670.6427702113
 20
5298.6655654179
 30
0.0
 11
6672.6689498177
 21
5298.6478832163
 31
0.0
  0
LINE
  5
29E
330
1F
100
AcDbEntity
  8
0
  6
Continuous
 62
     8
370
    25
100
AcDbLine
 10
6672.6689498178
 20
5283.8053856916
 30
0.0
 11
6670.6427702113
 21
5283.78770349
 31
0.0
  0
LINE
  5
29F
330
1F
100
AcDbEntity
  8
0
  6
Continuous
 62
     8
370
    25
100
AcDbLine
 10
6677.9736615982
 20
5219.6335984565
 30
0.0
 11
6669.9427702113
 21
5219.4934187259
 31
0.0
  0
ARC
  5
2A0
330
1F
100
AcDbEntity
  8
0
  6
Continuous
 62
     7
370
    25
100
AcDbCircle
 10
6260.2687553361
 20
4873.5347660412
 30
0.0
 40
2.250000000000909
100
AcDbArc
 50
0.0
 51
90.0
  0
ARC
  5
2A1
330
1F
100
AcDbEntity
  8
0
  6
Continuous
 62
     7
370
    25
100
AcDbCircle
 10
6242.7687553361
 20
4873.5347660412
 30
0.0
 40
2.25
100
AcDbArc
 50
90.0
 51
180.0
  0
LINE
  5
2A2
330
1F
100
AcDbEntity
  8
0
  6
Continuous
 62
     7
370
    25
100
AcDbLine
 10
6324.4963804945
 20
4748.5347660412
 30
0.0
 11
6324.7416558089
 21
4748.5119377045
 31
0.0
  0
LINE
  5
2A3
330
1F
100
AcDbEntity
  8
0
  6
Continuous
 62
     7
370
    25
100
AcDbLine
 10
6328.2962389987
 20
4748.5119711338
 30
0.0
 11
6328.5411301777
 21
4748.5347660412
 31
0.0
  0
ARC
  5
2A4
330
1F
100
AcDbEntity
  8
0
  6
Continuous
 62
     7
370
    25
100
AcDbCircle
 10
6326.5187553361
 20
4768.9347660412
 30
0.0
 40
20.5
100
AcDbArc
 50
267.9033450422
 51
270.0
  0
ARC
  5
2A5
330
1F
100
AcDbEntity
  8
0
  6
Continuous
 62
     7
370
    25
100
AcDbCircle
 10
6326.5187553361
 20
4768.9347660412
 30
0.0
 40
20.5
100
AcDbArc
 50
270.0
 51
272.0966549578
  0
LINE
  5
2A6
330
1F
100
AcDbEntity
  8
0
  6
Continuous
 62
     7
370
    25
100
AcDbLine
 10
6325.7687553361
 20
4748.5158856779
 30
0.0
 11
6325.7687553361
 21
4748.4484901473
 31
0.0
  0
LINE
  5
2A7
330
1F
100
AcDbEntity
  8
0
  6
Continuous
 62
     7
370
    25
100
AcDbLine
 10
6327.2687553361
 20
4748.4484901473
 30
0.0
 11
6327.2687553361
 21
4748.5160315358
 31
0.0
  0
LINE
  5
2A8
330
1F
100
AcDbEntity
  8
0
  6
Continuous
 62
     7
370
    25
100
AcDbLine
 10
6328.2901307306
 20
4748.5347660412
 30
0.0
 11
6328.2901307306
 21
4748.5122079112
 31
0.0
  0
LINE
  5
2A9
330
1F
100
AcDbEntity
  8
0
  6
Continuous
 62
     7
370
    25
100
AcDbLine
 10
6324.7473799416
 20
4748.5122079112
 30
0.0
 11
6324.7473799416
 21
4748.5347660412
 31
0.0
  0
LINE
  5
2AA
330
1F
100
AcDbEntity
  8
0
  6
Continuous
 62
     7
370
    25
100
AcDbLine
 10
6219.4963804945
 20
4748.5347660412
 30
0.0
 11
6219.7416558088
 21
4748.5119377045
 31
0.0
  0
LINE
  5
2AB
330
1F
100
AcDbEntity
  8
0
  6
Continuous
 62
     7
370
    25
100
AcDbLine
 10
6223.2962389986
 20
4748.5119711338
 30
0.0
 11
6223.5411301777
 21
4748.5347660412
 31
0.0
  0
LINE
  5
2AC
330
1F
100
AcDbEntity
  8
0
  6
Continuous
 62
     7
370
    25
100
AcDbLine
 10
6220.7687553361
 20
4748.5158856779
 30
0.0
 11
6220.7687553361
 21
4748.4484901473
 31
0.0
  0
LINE
  5
2AD
330
1F
100
AcDbEntity
  8
0
  6
Continuous
 62
     7
370
    25
100
AcDbLine
 10
6222.2687553361
 20
4748.4484901473
 30
0.0
 11
6222.2687553361
 21
4748.5160315358
 31
0.0
  0
ARC
  5
2AE
330
1F
100
AcDbEntity
  8
0
  6
Continuous
 62
     7
370
    25
100
AcDbCircle
 10
6221.5187553361
 20
4768.9347660412
 30
0.0
 40
20.5
100
AcDbArc
 50
267.9033450422
 51
270.0
  0
ARC
  5
2AF
330
1F
100
AcDbEntity
  8
0
  6
Continuous
 62
     7
370
    25
100
AcDbCircle
 10
6221.5187553361
 20
4768.9347660412
 30
0.0
 40
20.5
100
AcDbArc
 50
270.0
 51
272.0966549578
  0
LINE
  5
2B0
330
1F
100
AcDbEntity
  8
0
  6
Continuous
 62
     7
370
    25
100
AcDbLine
 10
6219.7473799416
 20
4748.5122079112
 30
0.0
 11
6219.7473799416
 21
4748.5347660412
 31
0.0
  0
LINE
  5
2B1
330
1F
100
AcDbEntity
  8
0
  6
Continuous
 62
     7
370
    25
100
AcDbLine
 10
6223.2901307306
 20
4748.5347660412
 30
0.0
 11
6223.2901307306
 21
4748.5122079112
 31
0.0
  0
LINE
  5
2B2
330
1F
100
AcDbEntity
  8
0
  6
Continuous
 62
     7
370
    25
100
AcDbLine
 10
6237.0187553361
 20
4748.5347660412
 30
0.0
 11
6237.0187553361
 21
4747.4347660412
 31
0.0
  0
LINE
  5
2B3
330
1F
100
AcDbEntity
  8
0
  6
Continuous
 62
     7
370
    25
100
AcDbLine
 10
6261.0187553361
 20
4747.4347660412
 30
0.0
 11
6261.0187553361
 21
4748.5347660412
 31
0.0
  0
LINE
  5
2B4
330
1F
100
AcDbEntity
  8
0
  6
Continuous
 62
     7
370
    25
100
AcDbLine
 10
6237.0187553361
 20
4747.4347660412
 30
0.0
 11
6238.0187553361
 21
4746.4347660412
 31
0.0
  0
LINE
  5
2B5
330
1F
100
AcDbEntity
  8
0
  6
Continuous
 62
     7
370
    25
100
AcDbLine
 10
6260.0187553361
 20
4746.4347660412
 30
0.0
 11
6261.0187553361
 21
4747.4347660412
 31
0.0
  0
ARC
  5
2B6
330
1F
100
AcDbEntity
  8
0
  6
Continuous
 62
     7
370
    25
100
AcDbCircle
 10
6254.4187553361
 20
4746.4347660412
 30
0.0
 40
0.1999999999998181
100
AcDbArc
 50
270.0
 51
0.0
  0
ARC
  5
2B7
330
1F
100
AcDbEntity
  8
0
  6
Continuous
 62
     7
370
    25
100
AcDbCircle
 10
6243.6187553361
 20
4746.4347660412
 30
0.0
 40
0.1999999999998181
100
AcDbArc
 50
180.0
 51
270.0
  0
LINE
  5
2B8
330
1F
100
AcDbEntity
  8
0
  6
Continuous
 62
     7
370
    25
100
AcDbLine
 10
6249.1127409747
 20
4746.2347660412
 30
0.0
 11
6249.1127409747
 21
4746.4347660412
 31
0.0
  0
LINE
  5
2B9
330
1F
100
AcDbEntity
  8
0
  6
Continuous
 62
     7
370
    25
100
AcDbLine
 10
6251.5187553361
 20
4875.7847660412
 30
0.0
 11
6242.7687553361
 21
4875.7847660412
 31
0.0
  0
LINE
  5
2BA
330
1F
100
AcDbEntity
  8
0
  6
Continuous
 62
     7
370
    25
100
AcDbLine
 10
6260.2687553361
 20
4875.7847660412
 30
0.0
 11
6251.5187553361
 21
4875.7847660412
 31
0.0
  0
CIRCLE
  5
2BB
330
1F
100
AcDbEntity
  8
0
  6
Continuous
 62
     7
370
    25
100
AcDbCircle
 10
6251.5187553361
 20
4853.5347660412
 30
0.0
 40
8.75
  0
CIRCLE
  5
2BC
330
1F
100
AcDbEntity
  8
0
  6
Continuous
 62
     7
370
    25
100
AcDbCircle
 10
6251.5187553361
 20
4853.5347660412
 30
0.0
 40
7.0
  0
CIRCLE
  5
2BD
330
1F
100
AcDbEntity
  8
0
  6
Continuous
 62
     7
370
    25
100
AcDbCircle
 10
6251.5187553361
 20
4853.5347660412
 30
0.0
 40
11.0
  0
SPLINE
  5
2BE
330
1F
100
AcDbEntity
  8
0
  6
Continuous
 62
     7
370
    25
100
AcDbSpline
210
0.0
220
0.0
230
1.0
 70
     8
 71
     3
 72
    10
 73
     6
 74
     0
 42
0.00000001
 43
0.00000001
 40
0.0
 40
0.0
 40
0.0
 40
0.0
 40
0.3893514563373051
 40
0.77876750250408
 40
0.9999999999999999
 40
0.9999999999999999
 40
0.9999999999999999
 40
0.9999999999999999
 10
6328.466034315579
 20
4748.531012880036
 30
0.0
 10
6328.427402141581
 20
4748.52671320209
 30
0.0
 10
6328.350131384861
 20
4748.518113132925
 30
0.0
 10
6328.293848639528
 20
4748.511853977696
 30
0.0
 10
6328.296188072308
 20
4748.512114120203
 30
0.0
 10
6328.297035627848
 20
4748.512208367502
 30
0.0
  0
SPLINE
  5
2BF
330
1F
100
AcDbEntity
  8
0
  6
Continuous
 62
     7
370
    25
100
AcDbSpline
210
0.0
220
0.0
230
1.0
 70
     8
 71
     3
 72
    13
 73
     9
 74
     0
 42
0.00000001
 43
0.00000001
 40
0.0
 40
0.0
 40
0.0
 40
0.0
 40
0.1945921045770271
 40
0.3892164901962509
 40
0.5831042183268673
 40
0.7765337036200386
 40
0.9702718140457952
 40
1.0
 40
1.0
 40
1.0
 40
1.0
 10
6327.162665944315
 20
4748.531012880036
 30
0.0
 10
6327.178189516147
 20
4748.526657861416
 30
0.0
 10
6327.209239235031
 20
4748.517947101715
 30
0.0
 10
6327.320657524177
 20
4748.511473722188
 30
0.0
 10
6327.465512285749
 20
4748.510957617808
 30
0.0
 10
6327.631942601006
 20
4748.516790836014
 30
0.0
 10
6327.753382613705
 20
4748.524948497163
 30
0.0
 10
6327.814052646771
 20
4748.53030084595
 30
0.0
 10
6327.822123707392
 20
4748.531012880036
 30
0.0
  0
SPLINE
  5
2C0
330
1F
100
AcDbEntity
  8
0
  6
Continuous
 62
     7
370
    25
100
AcDbSpline
210
0.0
220
0.0
230
1.0
 70
     8
 71
     3
 72
    13
 73
     9
 74
     0
 42
0.00000001
 43
0.00000001
 40
0.0
 40
0.0
 40
0.0
 40
0.0
 40
0.1945921045769649
 40
0.3892164901964043
 40
0.5831042183268592
 40
0.7765337036200425
 40
0.9702718140457667
 40
1.0
 40
1.0
 40
1.0
 40
1.0
 10
6325.215386964861
 20
4748.531012880036
 30
0.0
 10
6325.270040315631
 20
4748.526657861416
 30
0.0
 10
6325.379356083662
 20
4748.517947101715
 30
0.0
 10
6325.548983769279
 20
4748.511473722188
 30
0.0
 10
6325.698477601826
 20
4748.510957617808
 30
0.0
 10
6325.812459830826
 20
4748.516790836014
 30
0.0
 10
6325.86058182419
 20
4748.524948497163
 30
0.0
 10
6325.873170085383
 20
4748.53030084595
 30
0.0
 10
6325.874844727939
 20
4748.531012880036
 30
0.0
  0
SPLINE
  5
2C1
330
1F
100
AcDbEntity
  8
0
  6
Continuous
 62
     7
370
    25
100
AcDbSpline
210
0.0
220
0.0
230
1.0
 70
     8
 71
     3
 72
    11
 73
     7
 74
     0
 42
0.00000001
 43
0.00000001
 40
0.0
 40
0.0
 40
0.0
 40
0.0
 40
0.1665054029837147
 40
0.5532265884281509
 40
0.9405648042960503
 40
1.0
 40
1.0
 40
1.0
 40
1.0
 10
6324.740475798271
 20
4748.512208283659
 30
0.0
 10
6324.742105624881
 20
4748.512027016768
 30
0.0
 10
6324.747520845041
 20
4748.511424744041
 30
0.0
 10
6324.697126596161
 20
4748.517029497896
 30
0.0
 10
6324.626016776442
 20
4748.524941576334
 30
0.0
 10
6324.577880081297
 20
4748.530300033359
 30
0.0
 10
6324.571476356674
 20
4748.531012880036
 30
0.0
  0
LINE
  5
2C2
330
1F
100
AcDbEntity
  8
0
  6
Continuous
 62
     7
370
    25
100
AcDbLine
 10
6325.7687553361
 20
4748.4484901473
 30
0.0
 11
6327.2687553361
 21
4748.4484901473
 31
0.0
  0
SPLINE
  5
2C3
330
1F
100
AcDbEntity
  8
0
  6
Continuous
 62
     7
370
    25
100
AcDbSpline
210
0.0
220
0.0
230
1.0
 70
     8
 71
     3
 72
    10
 73
     6
 74
     0
 42
0.00000001
 43
0.00000001
 40
0.0
 40
0.0
 40
0.0
 40
0.0
 40
0.3893514563373051
 40
0.77876750250408
 40
0.9999999999999999
 40
0.9999999999999999
 40
0.9999999999999999
 40
0.9999999999999999
 10
6223.466034315526
 20
4748.531012880036
 30
0.0
 10
6223.427402141529
 20
4748.52671320209
 30
0.0
 10
6223.350131384808
 20
4748.518113132925
 30
0.0
 10
6223.293848639475
 20
4748.511853977696
 30
0.0
 10
6223.296188072255
 20
4748.512114120203
 30
0.0
 10
6223.297035627796
 20
4748.512208367502
 30
0.0
  0
SPLINE
  5
2C4
330
1F
100
AcDbEntity
  8
0
  6
Continuous
 62
     7
370
    25
100
AcDbSpline
210
0.0
220
0.0
230
1.0
 70
     8
 71
     3
 72
    13
 73
     9
 74
     0
 42
0.00000001
 43
0.00000001
 40
0.0
 40
0.0
 40
0.0
 40
0.0
 40
0.1945921045770273
 40
0.3892164901962512
 40
0.5831042183268609
 40
0.7765337036200323
 40
0.9702718140457951
 40
0.9999999999999999
 40
0.9999999999999999
 40
0.9999999999999999
 40
0.9999999999999999
 10
6222.162665944261
 20
4748.531012880036
 30
0.0
 10
6222.178189516094
 20
4748.526657861416
 30
0.0
 10
6222.209239234978
 20
4748.517947101716
 30
0.0
 10
6222.320657524125
 20
4748.511473722188
 30
0.0
 10
6222.465512285697
 20
4748.510957617808
 30
0.0
 10
6222.631942600951
 20
4748.516790836014
 30
0.0
 10
6222.753382613651
 20
4748.524948497163
 30
0.0
 10
6222.814052646718
 20
4748.53030084595
 30
0.0
 10
6222.822123707339
 20
4748.531012880036
 30
0.0
  0
SPLINE
  5
2C5
330
1F
100
AcDbEntity
  8
0
  6
Continuous
 62
     7
370
    25
100
AcDbSpline
210
0.0
220
0.0
230
1.0
 70
     8
 71
     3
 72
    13
 73
     9
 74
     0
 42
0.00000001
 43
0.00000001
 40
0.0
 40
0.0
 40
0.0
 40
0.0
 40
0.1945921045769725
 40
0.3892164901964037
 40
0.5831042183268583
 40
0.7765337036200415
 40
0.9702718140457685
 40
1.0
 40
1.0
 40
1.0
 40
1.0
 10
6220.215386964808
 20
4748.531012880036
 30
0.0
 10
6220.270040315579
 20
4748.526657861416
 30
0.0
 10
6220.379356083608
 20
4748.517947101715
 30
0.0
 10
6220.548983769226
 20
4748.511473722188
 30
0.0
 10
6220.698477601773
 20
4748.510957617808
 30
0.0
 10
6220.812459830772
 20
4748.516790836014
 30
0.0
 10
6220.860581824137
 20
4748.524948497163
 30
0.0
 10
6220.87317008533
 20
4748.53030084595
 30
0.0
 10
6220.874844727886
 20
4748.531012880036
 30
0.0
  0
SPLINE
  5
2C6
330
1F
100
AcDbEntity
  8
0
  6
Continuous
 62
     7
370
    25
100
AcDbSpline
210
0.0
220
0.0
230
1.0
 70
     8
 71
     3
 72
    11
 73
     7
 74
     0
 42
0.00000001
 43
0.00000001
 40
0.0
 40
0.0
 40
0.0
 40
0.0
 40
0.1665054029837164
 40
0.55322658842816
 40
0.9405648042960618
 40
1.0
 40
1.0
 40
1.0
 40
1.0
 10
6219.740475798219
 20
4748.512208283659
 30
0.0
 10
6219.742105624828
 20
4748.512027016768
 30
0.0
 10
6219.747520844988
 20
4748.511424744041
 30
0.0
 10
6219.697126596107
 20
4748.517029497896
 30
0.0
 10
6219.626016776388
 20
4748.524941576334
 30
0.0
 10
6219.577880081243
 20
4748.530300033359
 30
0.0
 10
6219.571476356621
 20
4748.531012880036
 30
0.0
  0
LINE
  5
2C7
330
1F
100
AcDbEntity
  8
0
  6
Continuous
 62
     7
370
    25
100
AcDbLine
 10
6220.7687553361
 20
4748.4484901473
 30
0.0
 11
6222.2687553361
 21
4748.4484901473
 31
0.0
  0
LINE
  5
2C8
330
1F
100
AcDbEntity
  8
0
  6
Continuous
 62
     7
370
    25
100
AcDbLine
 10
6334.8116485549
 20
4871.5347660412
 30
0.0
 11
6334.8116485549
 21
4753.5347660412
 31
0.0
  0
LINE
  5
2C9
330
1F
100
AcDbEntity
  8
0
  6
Continuous
 62
     7
370
    25
100
AcDbLine
 10
6334.8116485549
 20
4753.5347660412
 30
0.0
 11
6213.2258621173
 21
4753.5347660412
 31
0.0
  0
LINE
  5
2CA
330
1F
100
AcDbEntity
  8
0
  6
Continuous
 62
     7
370
    25
100
AcDbLine
 10
6213.2258621173
 20
4871.5347660412
 30
0.0
 11
6213.2258621173
 21
4753.5347660412
 31
0.0
  0
LINE
  5
2CB
330
1F
100
AcDbEntity
  8
0
  6
Continuous
 62
     7
370
    25
100
AcDbLine
 10
6213.2258621173
 20
4871.5347660412
 30
0.0
 11
6334.8116485549
 21
4871.5347660412
 31
0.0
  0
SPLINE
  5
2CC
330
1F
100
AcDbEntity
  8
0
  6
Continuous
 62
     7
370
    25
100
AcDbSpline
210
0.0
220
0.0
230
1.0
 70
     8
 71
     3
 72
    11
 73
     7
 74
     0
 42
0.00000001
 43
0.00000001
 40
0.0
 40
0.0
 40
0.0
 40
0.0
 40
0.2499999999999968
 40
0.5000000000000001
 40
0.75
 40
1.0
 40
1.0
 40
1.0
 40
1.0
 10
6334.518755336127
 20
4873.534766041218
 30
0.0
 10
6334.543163104361
 20
4873.504702895643
 30
0.0
 10
6334.59197864083
 20
4873.444576604494
 30
0.0
 10
6334.665201945533
 20
4872.982078178249
 30
0.0
 10
6334.738425250236
 20
4872.320988304055
 30
0.0
 10
6334.787240786705
 20
4871.79684012883
 30
0.0
 10
6334.811648554941
 20
4871.534766041217
 30
0.0
  0
SPLINE
  5
2CD
330
1F
100
AcDbEntity
  8
0
  6
Continuous
 62
     7
370
    25
100
AcDbSpline
210
0.0
220
0.0
230
1.0
 70
     8
 71
     3
 72
    11
 73
     7
 74
     0
 42
0.00000001
 43
0.00000001
 40
0.0
 40
0.0
 40
0.0
 40
0.0
 40
0.2500000000000002
 40
0.4999999999999999
 40
0.7500000000000038
 40
1.0
 40
1.0
 40
1.0
 40
1.0
 10
6213.225862117313
 20
4871.534766041217
 30
0.0
 10
6213.250269885548
 20
4871.796840128829
 30
0.0
 10
6213.299085422017
 20
4872.320988304054
 30
0.0
 10
6213.37230872672
 20
4872.982078178248
 30
0.0
 10
6213.445532031424
 20
4873.444576604493
 30
0.0
 10
6213.494347567893
 20
4873.504702895642
 30
0.0
 10
6213.518755336127
 20
4873.534766041217
 30
0.0
  0
LINE
  5
2CE
330
1F
100
AcDbEntity
  8
0
  6
Continuous
 62
     7
370
    25
100
AcDbLine
 10
6213.5187553361
 20
4873.5347660412
 30
0.0
 11
6334.5187553361
 21
4873.5347660412
 31
0.0
  0
LINE
  5
2CF
330
1F
100
AcDbEntity
  8
0
  6
Continuous
 62
     7
370
    25
100
AcDbLine
 10
6229.5187553361
 20
4753.5347660412
 30
0.0
 11
6229.5187553361
 21
4751.5347660412
 31
0.0
  0
LINE
  5
2D0
330
1F
100
AcDbEntity
  8
0
  6
Continuous
 62
     7
370
    25
100
AcDbLine
 10
6213.5187553361
 20
4751.5347660412
 30
0.0
 11
6213.5187553361
 21
4753.5347660412
 31
0.0
  0
LINE
  5
2D1
330
1F
100
AcDbEntity
  8
0
  6
Continuous
 62
     7
370
    25
100
AcDbLine
 10
6318.5187553361
 20
4751.5347660412
 30
0.0
 11
6318.5187553361
 21
4753.5347660412
 31
0.0
  0
LINE
  5
2D2
330
1F
100
AcDbEntity
  8
0
  6
Continuous
 62
     7
370
    25
100
AcDbLine
 10
6334.5187553361
 20
4753.5347660412
 30
0.0
 11
6334.5187553361
 21
4751.5347660412
 31
0.0
  0
LINE
  5
2D3
330
1F
100
AcDbEntity
  8
0
  6
Continuous
 62
     7
370
    25
100
AcDbLine
 10
6211.5187553361
 20
4871.5347660412
 30
0.0
 11
6212.5187553361
 21
4871.5347660412
 31
0.0
  0
LINE
  5
2D4
330
1F
100
AcDbEntity
  8
0
  6
Continuous
 62
     7
370
    25
100
AcDbLine
 10
6212.5187553361
 20
4753.5347660412
 30
0.0
 11
6211.5187553361
 21
4753.5347660412
 31
0.0
  0
LINE
  5
2D5
330
1F
100
AcDbEntity
  8
0
  6
Continuous
 62
     7
370
    25
100
AcDbLine
 10
6211.5187553361
 20
4871.5347660412
 30
0.0
 11
6211.5187553361
 21
4753.5347660412
 31
0.0
  0
LINE
  5
2D6
330
1F
100
AcDbEntity
  8
0
  6
Continuous
 62
     7
370
    25
100
AcDbLine
 10
6212.5187553361
 20
4871.5347660412
 30
0.0
 11
6212.5187553361
 21
4753.5347660412
 31
0.0
  0
LINE
  5
2D7
330
1F
100
AcDbEntity
  8
0
  6
Continuous
 62
     7
370
    25
100
AcDbLine
 10
6336.5187553361
 20
4871.5347660412
 30
0.0
 11
6335.5187553361
 21
4871.5347660412
 31
0.0
  0
LINE
  5
2D8
330
1F
100
AcDbEntity
  8
0
  6
Continuous
 62
     7
370
    25
100
AcDbLine
 10
6336.5187553361
 20
4753.5347660412
 30
0.0
 11
6336.5187553361
 21
4871.5347660412
 31
0.0
  0
LINE
  5
2D9
330
1F
100
AcDbEntity
  8
0
  6
Continuous
 62
     7
370
    25
100
AcDbLine
 10
6335.5187553361
 20
4753.5347660412
 30
0.0
 11
6336.5187553361
 21
4753.5347660412
 31
0.0
  0
LINE
  5
2DA
330
1F
100
AcDbEntity
  8
0
  6
Continuous
 62
     7
370
    25
100
AcDbLine
 10
6335.5187553361
 20
4871.5347660412
 30
0.0
 11
6335.5187553361
 21
4753.5347660412
 31
0.0
  0
SPLINE
  5
2DB
330
1F
100
AcDbEntity
  8
0
  6
Continuous
 62
     7
370
    25
100
AcDbSpline
210
0.0
220
0.0
230
1.0
 70
     8
 71
     3
 72
    11
 73
     7
 74
     0
 42
0.00000001
 43
0.00000001
 40
0.0
 40
0.0
 40
0.0
 40
0.0
 40
0.2500000000000047
 40
0.5000000000000011
 40
0.7499999999999996
 40
0.9999999999999999
 40
0.9999999999999999
 40
0.9999999999999999
 40
0.9999999999999999
 10
6213.518755336127
 20
4873.534766041217
 30
0.0
 10
6213.256681248514
 20
4873.504702895642
 30
0.0
 10
6212.732533073289
 20
4873.444576604493
 30
0.0
 10
6212.071443199096
 20
4872.982078178248
 30
0.0
 10
6211.608944772851
 20
4872.320988304054
 30
0.0
 10
6211.548818481701
 20
4871.796840128829
 30
0.0
 10
6211.518755336127
 20
4871.534766041217
 30
0.0
  0
SPLINE
  5
2DC
330
1F
100
AcDbEntity
  8
0
  6
Continuous
 62
     7
370
    25
100
AcDbSpline
210
0.0
220
0.0
230
1.0
 70
     8
 71
     3
 72
    11
 73
     7
 74
     0
 42
0.00000001
 43
0.00000001
 40
0.0
 40
0.0
 40
0.0
 40
0.0
 40
0.13881561105118
 40
0.4258770740341194
 40
0.7129385370170513
 40
1.0
 40
1.0
 40
1.0
 40
1.0
 10
6213.321127863384
 20
4872.495455492754
 30
0.0
 10
6213.258318845831
 20
4872.486528880739
 30
0.0
 10
6213.065624951999
 20
4872.459142628016
 30
0.0
 10
6212.796162806866
 20
4872.255257739344
 30
0.0
 10
6212.563584169676
 20
4871.928668265233
 30
0.0
 10
6212.533698280643
 20
4871.666066782555
 30
0.0
 10
6212.518755336127
 20
4871.534766041217
 30
0.0
  0
SPLINE
  5
2DD
330
1F
100
AcDbEntity
  8
0
  6
Continuous
 62
     7
370
    25
100
AcDbSpline
210
0.0
220
0.0
230
1.0
 70
     8
 71
     3
 72
    11
 73
     7
 74
     0
 42
0.00000001
 43
0.00000001
 40
0.0
 40
0.0
 40
0.0
 40
0.0
 40
0.2500000000000009
 40
0.5000000000000007
 40
0.7499999999999999
 40
1.0
 40
1.0
 40
1.0
 40
1.0
 10
6336.518755336127
 20
4871.534766041217
 30
0.0
 10
6336.488692190552
 20
4871.79684012883
 30
0.0
 10
6336.428565899402
 20
4872.320988304055
 30
0.0
 10
6335.966067473158
 20
4872.982078178249
 30
0.0
 10
6335.304977598964
 20
4873.444576604494
 30
0.0
 10
6334.780829423739
 20
4873.504702895643
 30
0.0
 10
6334.518755336127
 20
4873.534766041218
 30
0.0
  0
SPLINE
  5
2DE
330
1F
100
AcDbEntity
  8
0
  6
Continuous
 62
     7
370
    25
100
AcDbSpline
210
0.0
220
0.0
230
1.0
 70
     8
 71
     3
 72
    11
 73
     7
 74
     0
 42
0.00000001
 43
0.00000001
 40
0.0
 40
0.0
 40
0.0
 40
0.0
 40
0.2870614629829433
 40
0.57412292596588
 40
0.861184388948818
 40
1.0
 40
1.0
 40
1.0
 40
1.0
 10
6335.518755336127
 20
4871.534766041217
 30
0.0
 10
6335.503812391611
 20
4871.666066782556
 30
0.0
 10
6335.473926502578
 20
4871.928668265234
 30
0.0
 10
6335.241347865388
 20
4872.255257739345
 30
0.0
 10
6334.971885720255
 20
4872.459142628017
 30
0.0
 10
6334.779191826423
 20
4872.48652888074
 30
0.0
 10
6334.71638280887
 20
4872.495455492755
 30
0.0
  0
ARC
  5
2DF
330
1F
100
AcDbEntity
  8
0
  6
Continuous
 62
     7
370
    25
100
AcDbCircle
 10
6213.5187553361
 20
4753.5347660412
 30
0.0
 40
1.0
100
AcDbArc
 50
180.0
 51
270.0
  0
ARC
  5
2E0
330
1F
100
AcDbEntity
  8
0
  6
Continuous
 62
     7
370
    25
100
AcDbCircle
 10
6213.5187553361
 20
4753.5347660412
 30
0.0
 40
2.000000000000909
100
AcDbArc
 50
180.0
 51
270.0
  0
ARC
  5
2E1
330
1F
100
AcDbEntity
  8
0
  6
Continuous
 62
     7
370
    25
100
AcDbCircle
 10
6334.5187553361
 20
4753.5347660412
 30
0.0
 40
2.000000000000909
100
AcDbArc
 50
270.0
 51
0.0
  0
ARC
  5
2E2
330
1F
100
AcDbEntity
  8
0
  6
Continuous
 62
     7
370
    25
100
AcDbCircle
 10
6334.5187553361
 20
4753.5347660412
 30
0.0
 40
1.0
100
AcDbArc
 50
270.0
 51
0.0
  0
LINE
  5
2E3
330
1F
100
AcDbEntity
  8
0
  6
Continuous
 62
     7
370
    25
100
AcDbLine
 10
6343.5187553361
 20
4751.5347660412
 30
0.0
 11
6204.5187553361
 21
4751.5347660412
 31
0.0
  0
LINE
  5
2E4
330
1F
100
AcDbEntity
  8
0
  6
Continuous
 62
     7
370
    25
100
AcDbLine
 10
6343.5187553361
 20
4749.5347660412
 30
0.0
 11
6343.5187553361
 21
4751.5347660412
 31
0.0
  0
LINE
  5
2E5
330
1F
100
AcDbEntity
  8
0
  6
Continuous
 62
     7
370
    25
100
AcDbLine
 10
6204.5187553361
 20
4749.5347660412
 30
0.0
 11
6343.5187553361
 21
4749.5347660412
 31
0.0
  0
LINE
  5
2E6
330
1F
100
AcDbEntity
  8
0
  6
Continuous
 62
     7
370
    25
100
AcDbLine
 10
6204.5187553361
 20
4751.5347660412
 30
0.0
 11
6204.5187553361
 21
4749.5347660412
 31
0.0
  0
LINE
  5
2E7
330
1F
100
AcDbEntity
  8
0
  6
Continuous
 62
     7
370
    25
100
AcDbLine
 10
6343.5187553361
 20
4751.5347660412
 30
0.0
 11
6346.5187553361
 21
4751.5347660412
 31
0.0
  0
LINE
  5
2E8
330
1F
100
AcDbEntity
  8
0
  6
Continuous
 62
     7
370
    25
100
AcDbLine
 10
6346.5187553361
 20
4751.5347660412
 30
0.0
 11
6346.5187553361
 21
4749.5347660412
 31
0.0
  0
LINE
  5
2E9
330
1F
100
AcDbEntity
  8
0
  6
Continuous
 62
     7
370
    25
100
AcDbLine
 10
6343.5187553361
 20
4749.5347660412
 30
0.0
 11
6346.5187553361
 21
4749.5347660412
 31
0.0
  0
LINE
  5
2EA
330
1F
100
AcDbEntity
  8
0
  6
Continuous
 62
     7
370
    25
100
AcDbLine
 10
6201.5187553361
 20
4751.5347660412
 30
0.0
 11
6204.5187553361
 21
4751.5347660412
 31
0.0
  0
LINE
  5
2EB
330
1F
100
AcDbEntity
  8
0
  6
Continuous
 62
     7
370
    25
100
AcDbLine
 10
6201.5187553361
 20
4749.5347660412
 30
0.0
 11
6204.5187553361
 21
4749.5347660412
 31
0.0
  0
LINE
  5
2EC
330
1F
100
AcDbEntity
  8
0
  6
Continuous
 62
     7
370
    25
100
AcDbLine
 10
6201.5187553361
 20
4749.5347660412
 30
0.0
 11
6201.5187553361
 21
4751.5347660412
 31
0.0
  0
LINE
  5
2ED
330
1F
100
AcDbEntity
  8
0
  6
Continuous
 62
     7
370
    25
100
AcDbLine
 10
6346.5187553361
 20
4749.5347660412
 30
0.0
 11
6345.5187553361
 21
4748.5347660412
 31
0.0
  0
LINE
  5
2EE
330
1F
100
AcDbEntity
  8
0
  6
Continuous
 62
     7
370
    25
100
AcDbLine
 10
6345.5187553361
 20
4748.5347660412
 30
0.0
 11
6343.5187553361
 21
4748.5347660412
 31
0.0
  0
LINE
  5
2EF
330
1F
100
AcDbEntity
  8
0
  6
Continuous
 62
     7
370
    25
100
AcDbLine
 10
6343.5187553361
 20
4749.5347660412
 30
0.0
 11
6343.5187553361
 21
4748.5347660412
 31
0.0
  0
LINE
  5
2F0
330
1F
100
AcDbEntity
  8
0
  6
Continuous
 62
     7
370
    25
100
AcDbLine
 10
6204.5187553361
 20
4748.5347660412
 30
0.0
 11
6202.5187553361
 21
4748.5347660412
 31
0.0
  0
LINE
  5
2F1
330
1F
100
AcDbEntity
  8
0
  6
Continuous
 62
     7
370
    25
100
AcDbLine
 10
6202.5187553361
 20
4748.5347660412
 30
0.0
 11
6201.5187553361
 21
4749.5347660412
 31
0.0
  0
LINE
  5
2F2
330
1F
100
AcDbEntity
  8
0
  6
Continuous
 62
     7
370
    25
100
AcDbLine
 10
6204.5187553361
 20
4748.5347660412
 30
0.0
 11
6204.5187553361
 21
4749.5347660412
 31
0.0
  0
LINE
  5
2F3
330
1F
100
AcDbEntity
  8
0
  6
Continuous
 62
     7
370
    25
100
AcDbLine
 10
6343.5187553361
 20
4748.5347660412
 30
0.0
 11
6204.5187553361
 21
4748.5347660412
 31
0.0
  0
LINE
  5
2F4
330
1F
100
AcDbEntity
  8
0
  6
Continuous
 62
     7
370
    25
100
AcDbLine
 10
6280.6930812132
 20
4753.5347660412
 30
0.0
 11
6280.6930812132
 21
4751.5347660412
 31
0.0
  0
LINE
  5
2F5
330
1F
100
AcDbEntity
  8
0
  6
Continuous
 62
     7
370
    25
100
AcDbLine
 10
6312.5421886496
 20
4746.226039838
 30
0.0
 11
6291.4250382175
 21
4746.226039838
 31
0.0
  0
LINE
  5
2F6
330
1F
100
AcDbEntity
  8
0
  6
Continuous
 62
     7
370
    25
100
AcDbLine
 10
6291.3847392518
 20
4748.5347660412
 30
0.0
 11
6291.4250382175
 21
4746.226039838
 31
0.0
  0
LINE
  5
2F7
330
1F
100
AcDbEntity
  8
0
  6
Continuous
 62
     7
370
    25
100
AcDbLine
 10
6312.5824876154
 20
4748.5347660412
 30
0.0
 11
6312.5421886496
 21
4746.226039838
 31
0.0
  0
LINE
  5
2F8
330
1F
100
AcDbEntity
  8
0
  6
Continuous
 62
     7
370
    25
100
AcDbLine
 10
6291.4336134336
 20
4745.7347660412
 30
0.0
 11
6312.5336134336
 21
4745.7347660412
 31
0.0
  0
LINE
  5
2F9
330
1F
100
AcDbEntity
  8
0
  6
Continuous
 62
     7
370
    25
100
AcDbLine
 10
6291.4250382175
 20
4746.226039838
 30
0.0
 11
6291.4336134336
 21
4745.7347660412
 31
0.0
  0
LINE
  5
2FA
330
1F
100
AcDbEntity
  8
0
  6
Continuous
 62
     7
370
    25
100
AcDbLine
 10
6312.5336134336
 20
4745.7347660412
 30
0.0
 11
6312.5421886496
 21
4746.226039838
 31
0.0
  0
SPLINE
  5
2FB
330
1F
100
AcDbEntity
  8
0
  6
Continuous
 62
     7
370
    25
100
AcDbSpline
210
0.0
220
0.0
230
1.0
 70
     8
 71
     3
 72
    11
 73
     7
 74
     0
 42
0.00000001
 43
0.00000001
 40
0.0
 40
0.0
 40
0.0
 40
0.0
 40
0.2500000000001203
 40
0.5000000000000819
 40
0.7500000000000465
 40
1.0
 40
1.0
 40
1.0
 40
1.0
 10
6293.285204591873
 20
4743.708586434722
 30
0.0
 10
6293.292724337127
 20
4743.708080336572
 30
0.0
 10
6293.307763827635
 20
4743.707068140275
 30
0.0
 10
6293.423385920086
 20
4743.706634947338
 30
0.0
 10
6293.588647006425
 20
4743.707068140275
 30
0.0
 10
6293.719672704412
 20
4743.708080336572
 30
0.0
 10
6293.785185553405
 20
4743.708586434722
 30
0.0
  0
LINE
  5
2FC
330
1F
100
AcDbEntity
  8
0
  6
Continuous
 62
     7
370
    25
100
AcDbLine
 10
6293.2675223903
 20
4745.7347660412
 30
0.0
 11
6293.2852045919
 21
4743.7085864347
 31
0.0
  0
LINE
  5
2FD
330
1F
100
AcDbEntity
  8
0
  6
Continuous
 62
     7
370
    25
100
AcDbLine
 10
6310.1276830782
 20
4743.7085864347
 30
0.0
 11
6293.7851855534
 21
4743.7085864347
 31
0.0
  0
LINE
  5
2FE
330
1F
100
AcDbEntity
  8
0
  6
Continuous
 62
     7
370
    25
100
AcDbLine
 10
6310.6276640397
 20
4743.7085864347
 30
0.0
 11
6310.6453462413
 21
4745.7347660412
 31
0.0
  0
SPLINE
  5
2FF
330
1F
100
AcDbEntity
  8
0
  6
Continuous
 62
     7
370
    25
100
AcDbSpline
210
0.0
220
0.0
230
1.0
 70
     8
 71
     3
 72
    11
 73
     7
 74
     0
 42
0.00000001
 43
0.00000001
 40
0.0
 40
0.0
 40
0.0
 40
0.0
 40
0.2499999999999916
 40
0.5000000000000119
 40
0.7500000000000259
 40
1.0
 40
1.0
 40
1.0
 40
1.0
 10
6310.127683078179
 20
4743.708586434722
 30
0.0
 10
6310.193195927171
 20
4743.708080336572
 30
0.0
 10
6310.324221625157
 20
4743.707068140275
 30
0.0
 10
6310.489482711498
 20
4743.706634947338
 30
0.0
 10
6310.605104803948
 20
4743.707068140275
 30
0.0
 10
6310.620144294457
 20
4743.708080336572
 30
0.0
 10
6310.627664039711
 20
4743.708586434722
 30
0.0
  0
LINE
  5
300
330
1F
100
AcDbEntity
  8
0
  6
Continuous
 62
     7
370
    25
100
AcDbLine
 10
6293.8068123339
 20
4740.7347660412
 30
0.0
 11
6310.1060562977
 21
4740.7347660412
 31
0.0
  0
SPLINE
  5
301
330
1F
100
AcDbEntity
  8
0
  6
Continuous
 62
     7
370
    25
100
AcDbSpline
210
0.0
220
0.0
230
1.0
 70
     8
 71
     3
 72
    13
 73
     9
 74
     0
 42
0.00000001
 43
0.00000001
 40
0.0
 40
0.0
 40
0.0
 40
0.0
 40
0.1993624729093081
 40
0.4320079366433519
 40
0.5614183591822913
 40
0.6992244946358045
 40
0.8454204602180136
 40
1.0
 40
1.0
 40
1.0
 40
1.0
 10
6293.806812334578
 20
4740.734766041217
 30
0.0
 10
6293.806511081522
 20
4740.763102920459
 30
0.0
 10
6293.805858282079
 20
4740.824507439337
 30
0.0
 10
6293.802276636127
 20
4741.267484285554
 30
0.0
 10
6293.798377498213
 20
4741.813655260887
 30
0.0
 10
6293.794634124415
 20
4742.354940532201
 30
0.0
 10
6293.790250798081
 20
4742.998294056247
 30
0.0
 10
6293.786905053827
 20
4743.467463226969
 30
0.0
 10
6293.78518555341
 20
4743.708586434134
 30
0.0
  0
SPLINE
  5
302
330
1F
100
AcDbEntity
  8
0
  6
Continuous
 62
     7
370
    25
100
AcDbSpline
210
0.0
220
0.0
230
1.0
 70
     8
 71
     3
 72
    13
 73
     9
 74
     0
 42
0.00000001
 43
0.00000001
 40
0.0
 40
0.0
 40
0.0
 40
0.0
 40
0.1545795397755738
 40
0.3007755053532377
 40
0.4385816408040725
 40
0.5679920633421968
 40
0.8006375270796716
 40
0.9999999999999999
 40
0.9999999999999999
 40
0.9999999999999999
 40
0.9999999999999999
 10
6310.127683078179
 20
4743.708586434722
 30
0.0
 10
6310.125963577761
 20
4743.467463227503
 30
0.0
 10
6310.122617833506
 20
4742.998294056672
 30
0.0
 10
6310.118234507171
 20
4742.354940532451
 30
0.0
 10
6310.114491133372
 20
4741.813655260985
 30
0.0
 10
6310.110591995457
 20
4741.267484285502
 30
0.0
 10
6310.107010349505
 20
4740.824507439194
 30
0.0
 10
6310.106357550062
 20
4740.763102920413
 30
0.0
 10
6310.106056297005
 20
4740.734766041217
 30
0.0
  0
LINE
  5
303
330
1F
100
AcDbEntity
  8
0
  6
Continuous
 62
     7
370
    25
100
AcDbLine
 10
6293.2852045919
 20
4743.7085864347
 30
0.0
 11
6293.306831373
 21
4741.2304027735
 31
0.0
  0
SPLINE
  5
304
330
1F
100
AcDbEntity
  8
0
  6
Continuous
 62
     7
370
    25
100
AcDbSpline
210
0.0
220
0.0
230
1.0
 70
     8
 71
     3
 72
    11
 73
     7
 74
     0
 42
0.00000001
 43
0.00000001
 40
0.0
 40
0.0
 40
0.0
 40
0.0
 40
0.2499999999999936
 40
0.4999999999999956
 40
0.7499999999999974
 40
0.9999999999999999
 40
0.9999999999999999
 40
0.9999999999999999
 40
0.9999999999999999
 10
6293.306831373045
 20
4741.230402773633
 30
0.0
 10
6293.314830447031
 20
4741.165315816552
 30
0.0
 10
6293.330828595002
 20
4741.03514190239
 30
0.0
 10
6293.446662938079
 20
4740.871459955233
 30
0.0
 10
6293.611349485048
 20
4740.757058398828
 30
0.0
 10
6293.741658050968
 20
4740.742196827087
 30
0.0
 10
6293.806812333928
 20
4740.734766041217
 30
0.0
  0
LINE
  5
305
330
1F
100
AcDbEntity
  8
0
  6
Continuous
 62
     7
370
    25
100
AcDbLine
 10
6310.6060372585
 20
4741.2304027735
 30
0.0
 11
6310.6276640397
 21
4743.7085864347
 31
0.0
  0
SPLINE
  5
306
330
1F
100
AcDbEntity
  8
0
  6
Continuous
 62
     7
370
    25
100
AcDbSpline
210
0.0
220
0.0
230
1.0
 70
     8
 71
     3
 72
    11
 73
     7
 74
     0
 42
0.00000001
 43
0.00000001
 40
0.0
 40
0.0
 40
0.0
 40
0.0
 40
0.2499999999999864
 40
0.4999999999999941
 40
0.7499999999999933
 40
1.0
 40
1.0
 40
1.0
 40
1.0
 10
6310.106056297655
 20
4740.734766041217
 30
0.0
 10
6310.171210580615
 20
4740.742196827087
 30
0.0
 10
6310.301519146535
 20
4740.757058398828
 30
0.0
 10
6310.466205693505
 20
4740.871459955233
 30
0.0
 10
6310.582040036581
 20
4741.03514190239
 30
0.0
 10
6310.598038184553
 20
4741.165315816552
 30
0.0
 10
6310.606037258538
 20
4741.230402773633
 30
0.0
  0
LINE
  5
307
330
1F
100
AcDbEntity
  8
0
  6
Continuous
 62
     7
370
    25
100
AcDbLine
 10
6296.0054458166
 20
4731.5347660412
 30
0.0
 11
6303.4727924746
 21
4731.5347660412
 31
0.0
  0
ARC
  5
308
330
1F
100
AcDbEntity
  8
0
  6
Continuous
 62
     7
370
    25
100
AcDbCircle
 10
6296.0054458166
 20
4732.5347660412
 30
0.0
 40
1.0
100
AcDbArc
 50
181.5
 51
270.0
  0
LINE
  5
309
330
1F
100
AcDbEntity
  8
0
  6
Continuous
 62
     7
370
    25
100
AcDbLine
 10
6296.9151788769
 20
4733.8526476706
 30
0.0
 11
6302.5630594142
 21
4733.8526476706
 31
0.0
  0
ARC
  5
30A
330
1F
100
AcDbEntity
  8
0
  6
Continuous
 62
     7
370
    25
100
AcDbCircle
 10
6303.4727924746
 20
4732.5347660412
 30
0.0
 40
1.0
100
AcDbArc
 50
270.0
 51
358.5
  0
LINE
  5
30B
330
1F
100
AcDbEntity
  8
0
  6
Continuous
 62
     7
370
    25
100
AcDbLine
 10
6302.6831872372
 20
4740.7347660412
 30
0.0
 11
6302.5630594142
 21
4733.8526476706
 31
0.0
  0
LINE
  5
30C
330
1F
100
AcDbEntity
  8
0
  6
Continuous
 62
     7
370
    25
100
AcDbLine
 10
6296.9151788769
 20
4733.8526476706
 30
0.0
 11
6296.7950510539
 21
4740.7347660412
 31
0.0
  0
LINE
  5
30D
330
1F
100
AcDbEntity
  8
0
  6
Continuous
 62
     7
370
    25
100
AcDbLine
 10
6294.7903784672
 20
4740.7347660412
 30
0.0
 11
6295.0057884916
 21
4732.5085890929
 31
0.0
  0
LINE
  5
30E
330
1F
100
AcDbEntity
  8
0
  6
Continuous
 62
     7
370
    25
100
AcDbLine
 10
6304.6878598239
 20
4740.7347660412
 30
0.0
 11
6304.4724497995
 21
4732.5085890929
 31
0.0
  0
LINE
  5
30F
330
1F
100
AcDbEntity
  8
0
  6
Continuous
 62
     7
370
    25
100
AcDbLine
 10
6237.0187553361
 20
4747.4347660412
 30
0.0
 11
6261.0187553361
 21
4747.4347660412
 31
0.0
  0
LINE
  5
310
330
1F
100
AcDbEntity
  8
0
  6
Continuous
 62
     7
370
    25
100
AcDbLine
 10
6260.0187553361
 20
4746.4347660412
 30
0.0
 11
6238.0187553361
 21
4746.4347660412
 31
0.0
  0
LINE
  5
311
330
1F
100
AcDbEntity
  8
0
  6
Continuous
 62
     7
370
    25
100
AcDbLine
 10
6240.0187553361
 20
4753.5347660412
 30
0.0
 11
6240.0187553361
 21
4751.5347660412
 31
0.0
  0
LINE
  5
312
330
1F
100
AcDbEntity
  8
0
  6
Continuous
 62
     7
370
    25
100
AcDbLine
 10
6258.0187553361
 20
4753.5347660412
 30
0.0
 11
6258.0187553361
 21
4751.5347660412
 31
0.0
  0
LINE
  5
313
330
1F
100
AcDbEntity
  8
0
  6
Continuous
 62
     7
370
    25
100
AcDbLine
 10
6248.5795780464
 20
4746.2347660412
 30
0.0
 11
6243.6187553361
 21
4746.2347660412
 31
0.0
  0
LINE
  5
314
330
1F
100
AcDbEntity
  8
0
  6
Continuous
 62
     7
370
    25
100
AcDbLine
 10
6254.4187553361
 20
4746.2347660412
 30
0.0
 11
6249.5795780464
 21
4746.2347660412
 31
0.0
  0
SPLINE
  5
315
330
1F
100
AcDbEntity
  8
0
  6
Continuous
 62
     7
370
    25
100
AcDbSpline
210
0.0
220
0.0
230
1.0
 70
    24
 71
     3
 72
    13
 73
     9
 74
     0
 42
0.00000001
 43
0.00000001
 40
0.0
 40
0.0
 40
0.0
 40
0.0
 40
0.0078315083444661
 40
0.2242134010656637
 40
0.4405065274113952
 40
0.656034453051666
 40
0.870478551742464
 40
1.0
 40
1.0
 40
1.0
 40
1.0
 10
6249.579578046397
 20
4746.234766041217
 30
0.0
 10
6249.579578046397
 20
4746.234769292786
 30
0.0
 10
6249.579578046397
 20
4746.234862384095
 30
0.0
 10
6249.579578046397
 20
4746.243361230071
 30
0.0
 10
6249.579578046397
 20
4746.277577478073
 30
0.0
 10
6249.579578046397
 20
4746.329637002849
 30
0.0
 10
6249.579578046397
 20
4746.385208752973
 30
0.0
 10
6249.579578046397
 20
4746.421209741234
 30
0.0
 10
6249.579578046397
 20
4746.434766041217
 30
0.0
  0
SPLINE
  5
316
330
1F
100
AcDbEntity
  8
0
  6
Continuous
 62
     7
370
    25
100
AcDbSpline
210
0.0
220
0.0
230
1.0
 70
    24
 71
     3
 72
    13
 73
     9
 74
     0
 42
0.00000001
 43
0.00000001
 40
0.0
 40
0.0
 40
0.0
 40
0.0
 40
0.0254342784918754
 40
0.2391405405228544
 40
0.4528843033372459
 40
0.6670512278740727
 40
0.8818628295039127
 40
1.0
 40
1.0
 40
1.0
 40
1.0
 10
6248.579578046397
 20
4746.434766041217
 30
0.0
 10
6248.579578046397
 20
4746.432110026057
 30
0.0
 10
6248.579578046397
 20
4746.407137393112
 30
0.0
 10
6248.579578046397
 20
4746.359849559401
 30
0.0
 10
6248.579578046397
 20
4746.301466491801
 30
0.0
 10
6248.579578046397
 20
4746.25823707809
 30
0.0
 10
6248.579578046397
 20
4746.23737116123
 30
0.0
 10
6248.579578046397
 20
4746.235448309224
 30
0.0
 10
6248.579578046397
 20
4746.234766041217
 30
0.0
  0
LINE
  5
317
330
1F
100
AcDbEntity
  8
0
  6
Continuous
 62
     7
370
    25
100
AcDbLine
 10
6248.5795780464
 20
4746.2347660412
 30
0.0
 11
6249.1127409747
 21
4746.2347660412
 31
0.0
  0
LINE
  5
318
330
1F
100
AcDbEntity
  8
0
  6
Continuous
 62
     7
370
    25
100
AcDbLine
 10
6249.1127409747
 20
4746.2347660412
 30
0.0
 11
6249.5795780464
 21
4746.2347660412
 31
0.0
  0
LINE
  5
319
330
1F
100
AcDbEntity
  8
0
  6
Continuous
 62
     8
370
    25
100
AcDbLine
 10
6324.5714763567
 20
4748.53101288
 30
0.0
 11
6324.5714763567
 21
4748.5347660412
 31
0.0
  0
LINE
  5
31A
330
1F
100
AcDbEntity
  8
0
  6
Continuous
 62
     8
370
    25
100
AcDbLine
 10
6328.4660343156
 20
4748.5347660412
 30
0.0
 11
6328.4660343156
 21
4748.53101288
 31
0.0
  0
LINE
  5
31B
330
1F
100
AcDbEntity
  8
0
  6
Continuous
 62
     8
370
    25
100
AcDbLine
 10
6219.5714763566
 20
4748.53101288
 30
0.0
 11
6219.5714763566
 21
4748.5347660412
 31
0.0
  0
LINE
  5
31C
330
1F
100
AcDbEntity
  8
0
  6
Continuous
 62
     8
370
    25
100
AcDbLine
 10
6223.4660343155
 20
4748.5347660412
 30
0.0
 11
6223.4660343155
 21
4748.53101288
 31
0.0
  0
LINE
  5
31D
330
1F
100
AcDbEntity
  8
0
  6
Continuous
 62
     8
370
    25
100
AcDbLine
 10
6293.7851855534
 20
4743.7085864341
 30
0.0
 11
6293.7675033519
 21
4745.7347660412
 31
0.0
  0
LINE
  5
31E
330
1F
100
AcDbEntity
  8
0
  6
Continuous
 62
     8
370
    25
100
AcDbLine
 10
6310.1453652797
 20
4745.7347660412
 30
0.0
 11
6310.1276830782
 21
4743.7085864347
 31
0.0
  0
ENDSEC
  0
SECTION
  2
OBJECTS
  0
DICTIONARY
  5
C
330
0
100
AcDbDictionary
281
     1
  3
ACAD_GROUP
350
D
  3
ACAD_LAYOUT
350
1A
  3
ACAD_MLINESTYLE
350
17
  3
ACAD_PLOTSETTINGS
350
19
  3
ACAD_PLOTSTYLENAME
350
E
  3
ACAD_SCALELIST
350
47
  3
DWGPROPS
350
31F
  0
DICTIONARY
  5
D
102
{ACAD_REACTORS
330
C
102
}
330
C
100
AcDbDictionary
281
     1
  0
DICTIONARY
  5
1A
102
{ACAD_REACTORS
330
C
102
}
330
C
100
AcDbDictionary
281
     1
  3
Layout1
350
1E
  3
Layout2
350
26
  3
Model
350
22
  0
DICTIONARY
  5
17
102
{ACAD_REACTORS
330
C
102
}
330
C
100
AcDbDictionary
281
     1
  3
Standard
350
18
  0
DICTIONARY
  5
19
102
{ACAD_REACTORS
330
C
102
}
330
C
100
AcDbDictionary
281
     1
  0
ACDBDICTIONARYWDFLT
  5
E
102
{ACAD_REACTORS
330
C
102
}
330
C
100
AcDbDictionary
281
     1
  3
Normal
350
F
100
AcDbDictionaryWithDefault
340
F
  0
DICTIONARY
  5
47
102
{ACAD_REACTORS
330
C
102
}
330
C
100
AcDbDictionary
281
     1
  3
A0
350
48
  3
A1
350
49
  3
A2
350
4A
  3
A3
350
4B
  3
A4
350
4C
  3
A5
350
4D
  3
A6
350
4E
  3
A7
350
4F
  3
A8
350
50
  3
A9
350
51
  3
B0
350
52
  3
B1
350
53
  3
B2
350
54
  3
B3
350
55
  3
B4
350
56
  3
B5
350
57
  3
B6
350
58
  3
B7
350
59
  3
B8
350
5A
  3
B9
350
5B
  3
C0
350
5C
  3
C1
350
5D
  3
C2
350
5E
  3
C3
350
5F
  3
C4
350
60
  3
C5
350
61
  3
C6
350
62
  3
C7
350
63
  3
C8
350
64
  3
C9
350
65
  3
D0
350
66
  3
D1
350
67
  3
D2
350
68
  0
XRECORD
  5
31F
102
{ACAD_REACTORS
330
C
102
}
330
C
100
AcDbXrecord
280
     1
  1
DWGPROPS COOKIE
  2

  3

  4

  6

  7

  8
radek.stransky
  9

300
=
301
=
302
=
303
=
304
=
305
=
306
=
307
=
308
=
309
=
 40
0.0
 41
2460262.48422353
 42
2460262.484225451
  1

 90
        0
  0
LAYOUT
  5
1E
102
{ACAD_REACTORS
330
1A
102
}
330
1A
100
AcDbPlotSettings
  1

  2
none_device
  4

  6

 40
0.0
 41
0.0
 42
0.0
 43
0.0
 44
0.0
 45
0.0
 46
0.0
 47
0.0
 48
0.0
 49
0.0
140
0.0
141
0.0
142
1.0
143
1.0
 70
   688
 72
     1
 73
     0
 74
     5
  7

 75
    16
147
1.0
148
0.0
149
0.0
100
AcDbLayout
  1
Layout1
 70
     1
 71
     1
 10
0.0
 20
0.0
 11
420.0
 21
297.0
 12
0.0
 22
0.0
 32
0.0
 14
1.0000000000E+20
 24
1.0000000000E+20
 34
1.0000000000E+20
 15
-1.0000000000E+20
 25
-1.0000000000E+20
 35
-1.0000000000E+20
146
0.0
 13
0.0
 23
0.0
 33
0.0
 16
1.0
 26
0.0
 36
0.0
 17
0.0
 27
1.0
 37
0.0
 76
     0
330
1B
  0
LAYOUT
  5
26
102
{ACAD_REACTORS
330
1A
102
}
330
1A
100
AcDbPlotSettings
  1

  2
none_device
  4

  6

 40
0.0
 41
0.0
 42
0.0
 43
0.0
 44
0.0
 45
0.0
 46
0.0
 47
0.0
 48
0.0
 49
0.0
140
0.0
141
0.0
142
1.0
143
1.0
 70
   688
 72
     1
 73
     0
 74
     5
  7

 75
    16
147
1.0
148
0.0
149
0.0
100
AcDbLayout
  1
Layout2
 70
     1
 71
     2
 10
0.0
 20
0.0
 11
0.0
 21
0.0
 12
0.0
 22
0.0
 32
0.0
 14
0.0
 24
0.0
 34
0.0
 15
0.0
 25
0.0
 35
0.0
146
0.0
 13
0.0
 23
0.0
 33
0.0
 16
1.0
 26
0.0
 36
0.0
 17
0.0
 27
1.0
 37
0.0
 76
     0
330
23
  0
LAYOUT
  5
22
102
{ACAD_REACTORS
330
1A
102
}
330
1A
100
AcDbPlotSettings
  1

  2
none_device
  4
Letter_(8.50_x_11.00_Inches)
  6

 40
6.35
 41
6.35
 42
6.35000508
 43
6.35000508
 44
215.9
 45
279.4
 46
0.0
 47
0.0
 48
0.0
 49
0.0
140
0.0
141
0.0
142
1.0
143
1.0
 70
  1712
 72
     1
 73
     0
 74
     0
  7

 75
     0
147
1.0
148
0.0
149
0.0
100
AcDbLayout
  1
Model
 70
     1
 71
     0
 10
0.0
 20
0.0
 11
20000.0
 21
10000.0
 12
0.0
 22
0.0
 32
0.0
 14
0.0
 24
0.0
 34
0.0
 15
20000.0
 25
10000.0
 35
0.0
146
0.0
 13
0.0
 23
0.0
 33
0.0
 16
1.0
 26
0.0
 36
0.0
 17
0.0
 27
1.0
 37
0.0
 76
     0
330
1F
331
29
  0
MLINESTYLE
  5
18
102
{ACAD_REACTORS
330
17
102
}
330
17
100
AcDbMlineStyle
  2
Standard
 70
     0
  3

 62
   256
 51
90.0
 52
90.0
 71
     2
 49
0.5
 62
   256
  6
BYLAYER
 49
-0.5
 62
   256
  6
BYLAYER
  0
ACDBPLACEHOLDER
  5
F
102
{ACAD_REACTORS
330
E
102
}
330
E
  0
SCALE
  5
48
102
{ACAD_REACTORS
330
47
102
}
330
47
100
AcDbScale
 70
     0
300
1:1
140
1.0
141
1.0
290
     1
  0
SCALE
  5
49
102
{ACAD_REACTORS
330
47
102
}
330
47
100
AcDbScale
 70
     0
300
1:2
140
1.0
141
2.0
290
     0
  0
SCALE
  5
4A
102
{ACAD_REACTORS
330
47
102
}
330
47
100
AcDbScale
 70
     0
300
1:4
140
1.0
141
4.0
290
     0
  0
SCALE
  5
4B
102
{ACAD_REACTORS
330
47
102
}
330
47
100
AcDbScale
 70
     0
300
1:5
140
1.0
141
5.0
290
     0
  0
SCALE
  5
4C
102
{ACAD_REACTORS
330
47
102
}
330
47
100
AcDbScale
 70
     0
300
1:8
140
1.0
141
8.0
290
     0
  0
SCALE
  5
4D
102
{ACAD_REACTORS
330
47
102
}
330
47
100
AcDbScale
 70
     0
300
1:10
140
1.0
141
10.0
290
     0
  0
SCALE
  5
4E
102
{ACAD_REACTORS
330
47
102
}
330
47
100
AcDbScale
 70
     0
300
1:16
140
1.0
141
16.0
290
     0
  0
SCALE
  5
4F
102
{ACAD_REACTORS
330
47
102
}
330
47
100
AcDbScale
 70
     0
300
1:20
140
1.0
141
20.0
290
     0
  0
SCALE
  5
50
102
{ACAD_REACTORS
330
47
102
}
330
47
100
AcDbScale
 70
     0
300
1:30
140
1.0
141
30.0
290
     0
  0
SCALE
  5
51
102
{ACAD_REACTORS
330
47
102
}
330
47
100
AcDbScale
 70
     0
300
1:40
140
1.0
141
40.0
290
     0
  0
SCALE
  5
52
102
{ACAD_REACTORS
330
47
102
}
330
47
100
AcDbScale
 70
     0
300
1:50
140
1.0
141
50.0
290
     0
  0
SCALE
  5
53
102
{ACAD_REACTORS
330
47
102
}
330
47
100
AcDbScale
 70
     0
300
1:100
140
1.0
141
100.0
290
     0
  0
SCALE
  5
54
102
{ACAD_REACTORS
330
47
102
}
330
47
100
AcDbScale
 70
     0
300
2:1
140
2.0
141
1.0
290
     0
  0
SCALE
  5
55
102
{ACAD_REACTORS
330
47
102
}
330
47
100
AcDbScale
 70
     0
300
4:1
140
4.0
141
1.0
290
     0
  0
SCALE
  5
56
102
{ACAD_REACTORS
330
47
102
}
330
47
100
AcDbScale
 70
     0
300
8:1
140
8.0
141
1.0
290
     0
  0
SCALE
  5
57
102
{ACAD_REACTORS
330
47
102
}
330
47
100
AcDbScale
 70
     0
300
10:1
140
10.0
141
1.0
290
     0
  0
SCALE
  5
58
102
{ACAD_REACTORS
330
47
102
}
330
47
100
AcDbScale
 70
     0
300
100:1
140
100.0
141
1.0
290
     0
  0
SCALE
  5
59
102
{ACAD_REACTORS
330
47
102
}
330
47
100
AcDbScale
 70
     0
300
1/128" = 1'-0"
140
0.0078125
141
12.0
290
     0
  0
SCALE
  5
5A
102
{ACAD_REACTORS
330
47
102
}
330
47
100
AcDbScale
 70
     0
300
1/64" = 1'-0"
140
0.015625
141
12.0
290
     0
  0
SCALE
  5
5B
102
{ACAD_REACTORS
330
47
102
}
330
47
100
AcDbScale
 70
     0
300
1/32" = 1'-0"
140
0.03125
141
12.0
290
     0
  0
SCALE
  5
5C
102
{ACAD_REACTORS
330
47
102
}
330
47
100
AcDbScale
 70
     0
300
1/16" = 1'-0"
140
0.0625
141
12.0
290
     0
  0
SCALE
  5
5D
102
{ACAD_REACTORS
330
47
102
}
330
47
100
AcDbScale
 70
     0
300
3/32" = 1'-0"
140
0.09375
141
12.0
290
     0
  0
SCALE
  5
5E
102
{ACAD_REACTORS
330
47
102
}
330
47
100
AcDbScale
 70
     0
300
1/8" = 1'-0"
140
0.125
141
12.0
290
     0
  0
SCALE
  5
5F
102
{ACAD_REACTORS
330
47
102
}
330
47
100
AcDbScale
 70
     0
300
3/16" = 1'-0"
140
0.1875
141
12.0
290
     0
  0
SCALE
  5
60
102
{ACAD_REACTORS
330
47
102
}
330
47
100
AcDbScale
 70
     0
300
1/4" = 1'-0"
140
0.25
141
12.0
290
     0
  0
SCALE
  5
61
102
{ACAD_REACTORS
330
47
102
}
330
47
100
AcDbScale
 70
     0
300
3/8" = 1'-0"
140
0.375
141
12.0
290
     0
  0
SCALE
  5
62
102
{ACAD_REACTORS
330
47
102
}
330
47
100
AcDbScale
 70
     0
300
1/2" = 1'-0"
140
0.5
141
12.0
290
     0
  0
SCALE
  5
63
102
{ACAD_REACTORS
330
47
102
}
330
47
100
AcDbScale
 70
     0
300
3/4" = 1'-0"
140
0.75
141
12.0
290
     0
  0
SCALE
  5
64
102
{ACAD_REACTORS
330
47
102
}
330
47
100
AcDbScale
 70
     0
300
1" = 1'-0"
140
1.0
141
12.0
290
     0
  0
SCALE
  5
65
102
{ACAD_REACTORS
330
47
102
}
330
47
100
AcDbScale
 70
     0
300
1-1/2" = 1'-0"
140
1.5
141
12.0
290
     0
  0
SCALE
  5
66
102
{ACAD_REACTORS
330
47
102
}
330
47
100
AcDbScale
 70
     0
300
3" = 1'-0"
140
3.0
141
12.0
290
     0
  0
SCALE
  5
67
102
{ACAD_REACTORS
330
47
102
}
330
47
100
AcDbScale
 70
     0
300
6" = 1'-0"
140
6.0
141
12.0
290
     0
  0
SCALE
  5
68
102
{ACAD_REACTORS
330
47
102
}
330
47
100
AcDbScale
 70
     0
300
1'-0" = 1'-0"
140
12.0
141
12.0
290
     0
  0
ENDSEC
  0
EOF
