  0
SECTION
  2
HEADER
  9
$ACADVER
  1
AC1015
  9
$ACADMAINTVER
 70
     6
  9
$DWGCODEPAGE
  3
ANSI_1250
  9
$INSBASE
 10
0.0
 20
0.0
 30
0.0
  9
$EXTMIN
 10
0.0
 20
0.0
 30
0.0
  9
$EXTMAX
 10
20000.0
 20
10000.0
 30
0.0
  9
$LIMMIN
 10
0.0
 20
0.0
  9
$LIMMAX
 10
20000.0
 20
10000.0
  9
$ORTHOMODE
 70
     0
  9
$REGENMODE
 70
     1
  9
$FILLMODE
 70
     1
  9
$QTEXTMODE
 70
     0
  9
$MIRRTEXT
 70
     1
  9
$LTSCALE
 40
1.0
  9
$ATTMODE
 70
     1
  9
$TEXTSIZE
 40
2.0
  9
$TRACEWID
 40
1.0
  9
$TEXTSTYLE
  7
Standard
  9
$CLAYER
  8
0
  9
$CELTYPE
  6
ByLayer
  9
$CECOLOR
 62
   256
  9
$CELTSCALE
 40
1.0
  9
$DISPSILH
 70
     0
  9
$DIMSCALE
 40
1.0
  9
$DIMASZ
 40
2.0
  9
$DIMEXO
 40
1.0
  9
$DIMDLI
 40
3.75
  9
$DIMRND
 40
0.0
  9
$DIMDLE
 40
0.0
  9
$DIMEXE
 40
1.0
  9
$DIMTP
 40
0.0
  9
$DIMTM
 40
0.0
  9
$DIMTXT
 40
2.0
  9
$DIMCEN
 40
2.5
  9
$DIMTSZ
 40
0.0
  9
$DIMTOL
 70
     0
  9
$DIMLIM
 70
     0
  9
$DIMTIH
 70
     1
  9
$DIMTOH
 70
     1
  9
$DIMSE1
 70
     0
  9
$DIMSE2
 70
     0
  9
$DIMTAD
 70
     1
  9
$DIMZIN
 70
     0
  9
$DIMBLK
  1

  9
$DIMASO
 70
     1
  9
$DIMSHO
 70
     1
  9
$DIMPOST
  1

  9
$DIMAPOST
  1

  9
$DIMALT
 70
     0
  9
$DIMALTD
 70
     3
  9
$DIMALTF
 40
0.0393700787
  9
$DIMLFAC
 40
1.0
  9
$DIMTOFL
 70
     1
  9
$DIMTVP
 40
0.0
  9
$DIMTIX
 70
     0
  9
$DIMSOXD
 70
     0
  9
$DIMSAH
 70
     0
  9
$DIMBLK1
  1

  9
$DIMBLK2
  1

  9
$DIMSTYLE
  2
ISO-25
  9
$DIMCLRD
 70
     0
  9
$DIMCLRE
 70
     0
  9
$DIMCLRT
 70
     0
  9
$DIMTFAC
 40
1.0
  9
$DIMGAP
 40
1.524
  9
$DIMJUST
 70
     0
  9
$DIMSD1
 70
     0
  9
$DIMSD2
 70
     0
  9
$DIMTOLJ
 70
     0
  9
$DIMTZIN
 70
     0
  9
$DIMALTZ
 70
     0
  9
$DIMALTTZ
 70
     0
  9
$DIMUPT
 70
     0
  9
$DIMDEC
 70
     2
  9
$DIMTDEC
 70
     0
  9
$DIMALTU
 70
     2
  9
$DIMALTTD
 70
     3
  9
$DIMTXSTY
  7
Standard
  9
$DIMAUNIT
 70
     0
  9
$DIMADEC
 70
     2
  9
$DIMALTRND
 40
0.0
  9
$DIMAZIN
 70
     0
  9
$DIMDSEP
 70
    44
  9
$DIMATFIT
 70
     3
  9
$DIMFRAC
 70
     0
  9
$DIMLDRBLK
  1

  9
$DIMLUNIT
 70
     2
  9
$DIMLWD
 70
    -2
  9
$DIMLWE
 70
    -2
  9
$DIMTMOVE
 70
     0
  9
$LUNITS
 70
     2
  9
$LUPREC
 70
     3
  9
$SKETCHINC
 40
1.0
  9
$FILLETRAD
 40
10.0
  9
$AUNITS
 70
     0
  9
$AUPREC
 70
     2
  9
$MENU
  1
.
  9
$ELEVATION
 40
0.0
  9
$PELEVATION
 40
0.0
  9
$THICKNESS
 40
0.0
  9
$LIMCHECK
 70
     0
  9
$CHAMFERA
 40
0.0
  9
$CHAMFERB
 40
0.0
  9
$CHAMFERC
 40
0.0
  9
$CHAMFERD
 40
0.0
  9
$SKPOLY
 70
     0
  9
$TDCREATE
 40
2459117.369422836
  9
$TDUCREATE
 40
2459117.286089502
  9
$TDUPDATE
 40
2459117.369423299
  9
$TDUUPDATE
 40
2459117.286089965
  9
$TDINDWG
 40
0.0000000116
  9
$TDUSRTIMER
 40
0.0000000116
  9
$USRTIMER
 70
     1
  9
$ANGBASE
 50
0.0
  9
$ANGDIR
 70
     0
  9
$PDMODE
 70
     0
  9
$PDSIZE
 40
-1.0
  9
$PLINEWID
 40
0.0
  9
$SPLFRAME
 70
     0
  9
$SPLINETYPE
 70
     6
  9
$SPLINESEGS
 70
     8
  9
$HANDSEED
  5
228
  9
$SURFTAB1
 70
     6
  9
$SURFTAB2
 70
     6
  9
$SURFTYPE
 70
     6
  9
$SURFU
 70
     6
  9
$SURFV
 70
     6
  9
$UCSBASE
  2

  9
$UCSNAME
  2

  9
$UCSORG
 10
0.0
 20
0.0
 30
0.0
  9
$UCSXDIR
 10
1.0
 20
0.0
 30
0.0
  9
$UCSYDIR
 10
0.0
 20
1.0
 30
0.0
  9
$UCSORTHOREF
  2

  9
$UCSORTHOVIEW
 70
     0
  9
$UCSORGTOP
 10
0.0
 20
0.0
 30
0.0
  9
$UCSORGBOTTOM
 10
0.0
 20
0.0
 30
0.0
  9
$UCSORGLEFT
 10
0.0
 20
0.0
 30
0.0
  9
$UCSORGRIGHT
 10
0.0
 20
0.0
 30
0.0
  9
$UCSORGFRONT
 10
0.0
 20
0.0
 30
0.0
  9
$UCSORGBACK
 10
0.0
 20
0.0
 30
0.0
  9
$PUCSBASE
  2

  9
$PUCSNAME
  2

  9
$PUCSORG
 10
0.0
 20
0.0
 30
0.0
  9
$PUCSXDIR
 10
1.0
 20
0.0
 30
0.0
  9
$PUCSYDIR
 10
0.0
 20
1.0
 30
0.0
  9
$PUCSORTHOREF
  2

  9
$PUCSORTHOVIEW
 70
     0
  9
$PUCSORGTOP
 10
0.0
 20
0.0
 30
0.0
  9
$PUCSORGBOTTOM
 10
0.0
 20
0.0
 30
0.0
  9
$PUCSORGLEFT
 10
0.0
 20
0.0
 30
0.0
  9
$PUCSORGRIGHT
 10
0.0
 20
0.0
 30
0.0
  9
$PUCSORGFRONT
 10
0.0
 20
0.0
 30
0.0
  9
$PUCSORGBACK
 10
0.0
 20
0.0
 30
0.0
  9
$USERI1
 70
     0
  9
$USERI2
 70
     0
  9
$USERI3
 70
     0
  9
$USERI4
 70
     0
  9
$USERI5
 70
     0
  9
$USERR1
 40
0.0
  9
$USERR2
 40
0.0
  9
$USERR3
 40
0.0
  9
$USERR4
 40
0.0
  9
$USERR5
 40
0.0
  9
$WORLDVIEW
 70
     1
  9
$SHADEDGE
 70
     3
  9
$SHADEDIF
 70
    70
  9
$TILEMODE
 70
     1
  9
$MAXACTVP
 70
    64
  9
$PINSBASE
 10
0.0
 20
0.0
 30
0.0
  9
$PLIMCHECK
 70
     0
  9
$PEXTMIN
 10
1.0000000000E+20
 20
1.0000000000E+20
 30
1.0000000000E+20
  9
$PEXTMAX
 10
-1.0000000000E+20
 20
-1.0000000000E+20
 30
-1.0000000000E+20
  9
$PLIMMIN
 10
0.0
 20
0.0
  9
$PLIMMAX
 10
420.0
 20
297.0
  9
$UNITMODE
 70
     0
  9
$VISRETAIN
 70
     1
  9
$PLINEGEN
 70
     0
  9
$PSLTSCALE
 70
     1
  9
$TREEDEPTH
 70
  3020
  9
$CMLSTYLE
  2
Standard
  9
$CMLJUST
 70
     0
  9
$CMLSCALE
 40
20.0
  9
$PROXYGRAPHICS
 70
     1
  9
$MEASUREMENT
 70
     1
  9
$CELWEIGHT
370
    -1
  9
$ENDCAPS
280
     0
  9
$JOINSTYLE
280
     0
  9
$LWDISPLAY
290
     1
  9
$INSUNITS
 70
     4
  9
$HYPERLINKBASE
  1

  9
$STYLESHEET
  1

  9
$XEDIT
290
     1
  9
$CEPSNTYPE
380
     0
  9
$PSTYLEMODE
290
     1
  9
$FINGERPRINTGUID
  2
{c5da7a77-b342-496c-9e15-5d4738ba87f6}
  9
$VERSIONGUID
  2
{FAEB1C32-E019-11D5-929B-00C0DF256EC4}
  9
$EXTNAMES
290
     1
  9
$PSVPSCALE
 40
0.0
  9
$OLESTARTUP
290
     0
  0
ENDSEC
  0
SECTION
  2
CLASSES
  0
CLASS
  1
ACDBDICTIONARYWDFLT
  2
AcDbDictionaryWithDefault
  3
ObjectDBX Classes
 90
        0
280
     0
281
     0
  0
CLASS
  1
VISUALSTYLE
  2
AcDbVisualStyle
  3
ObjectDBX Classes
 90
     4095
280
     0
281
     0
  0
CLASS
  1
MATERIAL
  2
AcDbMaterial
  3
ObjectDBX Classes
 90
     1153
280
     0
281
     0
  0
CLASS
  1
SCALE
  2
AcDbScale
  3
ObjectDBX Classes
 90
     1153
280
     0
281
     0
  0
CLASS
  1
TABLESTYLE
  2
AcDbTableStyle
  3
ObjectDBX Classes
 90
     4095
280
     0
281
     0
  0
CLASS
  1
MLEADERSTYLE
  2
AcDbMLeaderStyle
  3
ACDB_MLEADERSTYLE_CLASS
 90
     4095
280
     0
281
     0
  0
CLASS
  1
SUN
  2
AcDbSun
  3
SCENEOE
 90
     1153
280
     0
281
     0
  0
CLASS
  1
ACDBPLACEHOLDER
  2
AcDbPlaceHolder
  3
ObjectDBX Classes
 90
        0
280
     0
281
     0
  0
CLASS
  1
LAYOUT
  2
AcDbLayout
  3
ObjectDBX Classes
 90
        0
280
     0
281
     0
  0
ENDSEC
  0
SECTION
  2
TABLES
  0
TABLE
  2
VPORT
  5
8
330
0
100
AcDbSymbolTable
 70
     1
  0
VPORT
  5
29
330
8
100
AcDbSymbolTableRecord
100
AcDbViewportTableRecord
  2
*Active
 70
     0
 10
0.0
 20
0.0
 11
1.0
 21
1.0
 12
10000.0
 22
5000.0
 13
0.0
 23
0.0
 14
10.0
 24
10.0
 15
10.0
 25
10.0
 16
0.0
 26
0.0
 36
1.0
 17
0.0
 27
0.0
 37
0.0
 40
10000.0
 41
2.0
 42
50.0
 43
0.0
 44
0.0
 50
0.0
 51
0.0
 71
     0
 72
  2000
 73
     1
 74
     3
 75
     0
 76
     0
 77
     0
 78
     0
281
     0
 65
     1
110
0.0
120
0.0
130
0.0
111
1.0
121
0.0
131
0.0
112
0.0
122
1.0
132
0.0
 79
     0
146
0.0
  0
ENDTAB
  0
TABLE
  2
LTYPE
  5
5
330
0
100
AcDbSymbolTable
 70
     6
  0
LTYPE
  5
14
330
5
100
AcDbSymbolTableRecord
100
AcDbLinetypeTableRecord
  2
ByBlock
 70
     0
  3

 72
    65
 73
     0
 40
0.0
  0
LTYPE
  5
15
330
5
100
AcDbSymbolTableRecord
100
AcDbLinetypeTableRecord
  2
ByLayer
 70
     0
  3

 72
    65
 73
     0
 40
0.0
  0
LTYPE
  5
16
330
5
100
AcDbSymbolTableRecord
100
AcDbLinetypeTableRecord
  2
Continuous
 70
     0
  3
Solid line
 72
    65
 73
     0
 40
0.0
  0
LTYPE
  5
6E
330
5
100
AcDbSymbolTableRecord
100
AcDbLinetypeTableRecord
  2
HIDDEN
 70
     0
  3
Hidden __ __ __ __ __ __ __ __ __ __ __ __ __ __
 72
    65
 73
     2
 40
1.905
 49
1.27
 74
     0
 49
-0.635
 74
     0
  0
LTYPE
  5
6F
330
5
100
AcDbSymbolTableRecord
100
AcDbLinetypeTableRecord
  2
PHANTOM
 70
     0
  3
Phantom ______  __  __  ______  __  __  ______
 72
    65
 73
     6
 40
12.7
 49
6.35
 74
     0
 49
-1.27
 74
     0
 49
1.27
 74
     0
 49
-1.27
 74
     0
 49
1.27
 74
     0
 49
-1.27
 74
     0
  0
LTYPE
  5
70
330
5
100
AcDbSymbolTableRecord
100
AcDbLinetypeTableRecord
  2
CENTER
 70
     0
  3
Center ____ _ ____ _ ____ _ ____ _ ____ _ ____
 72
    65
 73
     4
 40
10.16
 49
6.35
 74
     0
 49
-1.27
 74
     0
 49
1.27
 74
     0
 49
-1.27
 74
     0
  0
LTYPE
  5
71
330
5
100
AcDbSymbolTableRecord
100
AcDbLinetypeTableRecord
  2
CENTERX2
 70
     0
  3
Center (2x) ________  __  ________  __  _____
 72
    65
 73
     4
 40
20.32
 49
12.7
 74
     0
 49
-2.54
 74
     0
 49
2.54
 74
     0
 49
-2.54
 74
     0
  0
LTYPE
  5
72
330
5
100
AcDbSymbolTableRecord
100
AcDbLinetypeTableRecord
  2
DOT2
 70
     0
  3
Dot (.5x) ........................................
 72
    65
 73
     2
 40
0.635
 49
0.0
 74
     0
 49
-0.635
 74
     0
  0
ENDTAB
  0
TABLE
  2
LAYER
  5
2
330
0
100
AcDbSymbolTable
 70
    13
  0
LAYER
  5
10
330
2
100
AcDbSymbolTableRecord
100
AcDbLayerTableRecord
  2
0
 70
     0
 62
     7
  6
Continuous
370
    -3
390
F
  0
LAYER
  5
73
330
2
100
AcDbSymbolTableRecord
100
AcDbLayerTableRecord
  2
FORMAT
 70
     0
 62
     7
  6
Continuous
370
    -3
390
F
  0
LAYER
  5
74
330
2
100
AcDbSymbolTableRecord
100
AcDbLayerTableRecord
  2
OSA
 70
     0
 62
     7
  6
CENTER
370
    -3
390
F
  0
LAYER
  5
75
330
2
100
AcDbSymbolTableRecord
100
AcDbLayerTableRecord
  2
0_35
 70
     0
 62
     7
  6
Continuous
370
    35
390
F
  0
LAYER
  5
76
330
2
100
AcDbSymbolTableRecord
100
AcDbLayerTableRecord
  2
0_5
 70
     0
 62
     7
  6
Continuous
370
    50
390
F
  0
LAYER
  5
77
330
2
100
AcDbSymbolTableRecord
100
AcDbLayerTableRecord
  2
0_25
 70
     0
 62
     7
  6
Continuous
370
    25
390
F
  0
LAYER
  5
78
330
2
100
AcDbSymbolTableRecord
100
AcDbLayerTableRecord
  2
0_18
 70
     0
 62
     7
  6
Continuous
370
    -3
390
F
  0
LAYER
  5
79
330
2
100
AcDbSymbolTableRecord
100
AcDbLayerTableRecord
  2
SLD-0
 70
     0
 62
   179
  6
Continuous
370
    -3
390
F
  0
LAYER
  5
7A
330
2
100
AcDbSymbolTableRecord
100
AcDbLayerTableRecord
  2
KOTY
 70
     0
 62
     7
  6
Continuous
370
    -3
390
F
  0
LAYER
  5
7B
330
2
100
AcDbSymbolTableRecord
100
AcDbLayerTableRecord
  2
SILNA
 70
     0
 62
   179
  6
Continuous
370
    -3
390
F
  0
LAYER
  5
7C
330
2
100
AcDbSymbolTableRecord
100
AcDbLayerTableRecord
  2
0_18_1
 70
     0
 62
   179
  6
Continuous
370
    -3
390
F
  0
LAYER
  5
7D
330
2
100
AcDbSymbolTableRecord
100
AcDbLayerTableRecord
  2
0_35_1
 70
     0
 62
   179
  6
Continuous
370
    35
390
F
  0
LAYER
  5
7E
330
2
100
AcDbSymbolTableRecord
100
AcDbLayerTableRecord
  2
0_5_1
 70
     0
 62
   179
  6
Continuous
370
    50
390
F
  0
ENDTAB
  0
TABLE
  2
STYLE
  5
3
330
0
100
AcDbSymbolTable
 70
     1
  0
STYLE
  5
11
330
3
100
AcDbSymbolTableRecord
100
AcDbTextStyleTableRecord
  2
Standard
 70
     0
 40
0.0
 41
1.0
 50
0.0
 71
     0
 42
2.0
  3
txt
  4

  0
ENDTAB
  0
TABLE
  2
VIEW
  5
6
330
0
100
AcDbSymbolTable
 70
     0
  0
ENDTAB
  0
TABLE
  2
UCS
  5
7
330
0
100
AcDbSymbolTable
 70
     0
  0
ENDTAB
  0
TABLE
  2
APPID
  5
9
330
0
100
AcDbSymbolTable
 70
     1
  0
APPID
  5
12
330
9
100
AcDbSymbolTableRecord
100
AcDbRegAppTableRecord
  2
ACAD
 70
     0
  0
ENDTAB
  0
TABLE
  2
DIMSTYLE
  5
A
330
0
100
AcDbSymbolTable
 70
     1
100
AcDbDimStyleTable
  0
DIMSTYLE
105
27
330
A
100
AcDbSymbolTableRecord
100
AcDbDimStyleTableRecord
  2
ISO-25
 70
     0
 41
2.5
 42
0.625
 43
3.75
 44
1.25
 73
     0
 74
     0
 77
     1
 78
     8
140
2.5
141
2.5
143
0.0393700787
147
0.625
171
     3
172
     1
178
     0
271
     2
272
     2
274
     3
278
    44
283
     0
284
     8
340
11
  0
ENDTAB
  0
TABLE
  2
BLOCK_RECORD
  5
1
330
0
100
AcDbSymbolTable
 70
     1
  0
BLOCK_RECORD
  5
1F
330
1
100
AcDbSymbolTableRecord
100
AcDbBlockTableRecord
  2
*Model_Space
340
22
  0
BLOCK_RECORD
  5
1B
330
1
100
AcDbSymbolTableRecord
100
AcDbBlockTableRecord
  2
*Paper_Space
340
1E
  0
BLOCK_RECORD
  5
23
330
1
100
AcDbSymbolTableRecord
100
AcDbBlockTableRecord
  2
*Paper_Space0
340
26
  0
ENDTAB
  0
ENDSEC
  0
SECTION
  2
BLOCKS
  0
BLOCK
  5
20
330
1F
100
AcDbEntity
  8
0
100
AcDbBlockBegin
  2
*Model_Space
 70
     0
 10
0.0
 20
0.0
 30
0.0
  3
*Model_Space
  1

  0
ENDBLK
  5
21
330
1F
100
AcDbEntity
  8
0
100
AcDbBlockEnd
  0
BLOCK
  5
1C
330
1B
100
AcDbEntity
 67
     1
  8
0
100
AcDbBlockBegin
  2
*Paper_Space
 70
     0
 10
0.0
 20
0.0
 30
0.0
  3
*Paper_Space
  1

  0
ENDBLK
  5
1D
330
1B
100
AcDbEntity
 67
     1
  8
0
100
AcDbBlockEnd
  0
BLOCK
  5
24
330
23
100
AcDbEntity
  8
0
100
AcDbBlockBegin
  2
*Paper_Space0
 70
     0
 10
0.0
 20
0.0
 30
0.0
  3
*Paper_Space0
  1

  0
ENDBLK
  5
25
330
23
100
AcDbEntity
  8
0
100
AcDbBlockEnd
  0
ENDSEC
  0
SECTION
  2
ENTITIES
  0
LINE
  5
7F
330
1F
100
AcDbEntity
  8
0
  6
Continuous
 62
     7
370
    25
100
AcDbLine
 10
6170.7153767965
 20
5069.7285294763
 30
0.0
 11
6258.3334531252
 21
5155.7593723611
 31
0.0
  0
LINE
  5
80
330
1F
100
AcDbEntity
  8
0
  6
Continuous
 62
     7
370
    25
100
AcDbLine
 10
5771.3191413151
 20
5039.7593723611
 30
0.0
 11
5871.3191413151
 21
5039.7593723611
 31
0.0
  0
LINE
  5
81
330
1F
100
AcDbEntity
  8
0
  6
Continuous
 62
     7
370
    25
100
AcDbLine
 10
5871.3191413151
 20
5139.7593723611
 30
0.0
 11
5771.3191413151
 21
5139.7593723611
 31
0.0
  0
LWPOLYLINE
  5
82
330
1F
100
AcDbEntity
  8
0
  6
Continuous
 62
     7
370
    25
100
AcDbPolyline
 90
       17
 70
   128
 43
0.0
 10
5871.3191413151
 20
5039.7593487635
 10
5877.5771763978
 20
5039.7406671599
 10
5882.9710859275
 20
5039.645889213
 10
5887.5656365277
 20
5039.4416571347
 10
5891.4309972105
 20
5039.1217008378
 10
5895.5755916866
 20
5038.5414180373
 10
5898.7210842354
 20
5037.8516314706
 10
5901.2571122221
 20
5037.0603968433
 10
5904.6428741142
 20
5035.4896169449
 10
5907.4925814549
 20
5033.3691721392
 10
5908.3176944618
 20
5032.5173929605
 10
5909.2318627523
 20
5031.3703466353
 10
5910.2524067532
 20
5029.7030767807
 10
5911.0038693534
 20
5028.0209425413
 10
5911.6612306322
 20
5025.8765853847
 10
5912.1348783748
 20
5023.1653889067
 10
5912.3191410219
 20
5019.7593723611
  0
LWPOLYLINE
  5
83
330
1F
100
AcDbEntity
  8
0
  6
Continuous
 62
     7
370
    25
100
AcDbPolyline
 90
       33
 70
   128
 43
0.0
 10
5990.3191416083
 20
5019.7593723611
 10
5990.1782449831
 20
5028.4268586473
 10
5989.8128676378
 20
5035.8652536031
 10
5989.3055730464
 20
5042.151205626
 10
5988.7279655027
 20
5047.3915515264
 10
5988.1532519295
 20
5051.5938380026
 10
5987.6408057971
 20
5054.8106344919
 10
5987.2289487046
 20
5057.1346772844
 10
5986.8556953801
 20
5059.0815637987
 10
5986.4061287391
 20
5061.2602380882
 10
5985.9447145908
 20
5063.3377268324
 10
5985.3213044244
 20
5065.9325343091
 10
5984.2147077571
 20
5070.0600194885
 10
5982.6948326902
 20
5074.9777127153
 10
5980.67119811
 20
5080.5592363948
 10
5978.337849431
 20
5086.0216617223
 10
5975.8044339035
 20
5091.099904896
 10
5973.0881514769
 20
5095.8097339809
 10
5970.2067005166
 20
5100.1670787241
 10
5964.8213554617
 20
5106.9925180204
 10
5959.0705560291
 20
5112.8869655564
 10
5954.6024295227
 20
5116.7246577799
 10
5949.226398499
 20
5120.6689533285
 10
5942.8000422917
 20
5124.6078987052
 10
5937.1935689725
 20
5127.4825887786
 10
5930.8276183803
 20
5130.2231624757
 10
5923.6172404801
 20
5132.7642653581
 10
5915.4692690319
 20
5135.0346682331
 10
5908.2076378626
 20
5136.6042609695
 10
5900.2244296292
 20
5137.908500727
 10
5891.4591597104
 20
5138.9019037663
 10
5881.8471153102
 20
5139.5360394288
 10
5871.3191413151
 20
5139.7593959588
  0
ARC
  5
84
330
1F
100
AcDbEntity
  8
0
  6
Continuous
 62
     7
370
    25
100
AcDbCircle
 10
6041.3191413151
 20
5019.7593723611
 30
0.0
 40
51.00000000000091
100
AcDbArc
 50
180.0
 51
0.0
  0
ARC
  5
85
330
1F
100
AcDbEntity
  8
0
  6
Continuous
 62
     7
370
    25
100
AcDbCircle
 10
6041.3191413151
 20
5019.7593723611
 30
0.0
 40
129.0000000000013
100
AcDbArc
 50
179.9995571655
 51
0.0
  0
LINE
  5
86
330
1F
100
AcDbEntity
  8
0
  6
Continuous
 62
     7
370
    25
100
AcDbLine
 10
6170.3191413151
 20
5019.7593723611
 30
0.0
 11
6170.3191413151
 21
5069.7593723611
 31
0.0
  0
LINE
  5
87
330
1F
100
AcDbEntity
  8
0
  6
Continuous
 62
     7
370
    25
100
AcDbLine
 10
6092.3191413151
 20
5069.7593723611
 30
0.0
 11
6092.3191413151
 21
5019.7593723611
 31
0.0
  0
LINE
  5
88
330
1F
100
AcDbEntity
  8
0
  6
Continuous
 62
     7
370
    25
100
AcDbLine
 10
6651.3191413151
 20
5213.7593723611
 30
0.0
 11
5951.3191413151
 21
5213.7593723611
 31
0.0
  0
LINE
  5
89
330
1F
100
AcDbEntity
  8
0
  6
Continuous
 62
     7
370
    25
100
AcDbLine
 10
5953.3191413151
 20
5215.7593723611
 30
0.0
 11
6649.3191413151
 21
5215.7593723611
 31
0.0
  0
ARC
  5
8A
330
1F
100
AcDbEntity
  8
0
  6
Continuous
 62
     7
370
    25
100
AcDbCircle
 10
5953.3191413151
 20
5213.7593723611
 30
0.0
 40
1.999999999999091
100
AcDbArc
 50
90.0
 51
180.0
  0
ARC
  5
8B
330
1F
100
AcDbEntity
  8
0
  6
Continuous
 62
     7
370
    25
100
AcDbCircle
 10
6649.3191413151
 20
5213.7593723611
 30
0.0
 40
2.000000000000909
100
AcDbArc
 50
0.0
 51
90.0
  0
LINE
  5
8C
330
1F
100
AcDbEntity
  8
0
  6
Continuous
 62
     7
370
    25
100
AcDbLine
 10
6651.3191413151
 20
5155.7593723611
 30
0.0
 11
6651.3191413151
 21
5213.7593723611
 31
0.0
  0
LINE
  5
8D
330
1F
100
AcDbEntity
  8
0
  6
Continuous
 62
     7
370
    25
100
AcDbLine
 10
5951.3191413151
 20
5155.7593723611
 30
0.0
 11
6651.3191413151
 21
5155.7593723611
 31
0.0
  0
LINE
  5
8E
330
1F
100
AcDbEntity
  8
0
  6
Continuous
 62
     7
370
    25
100
AcDbLine
 10
5951.3191413151
 20
5155.7593723611
 30
0.0
 11
5951.3191413151
 21
5213.7593723611
 31
0.0
  0
LINE
  5
8F
330
1F
100
AcDbEntity
  8
0
  6
Continuous
 62
     7
370
    25
100
AcDbLine
 10
6126.9962823593
 20
5069.7593723611
 30
0.0
 11
6170.7378675037
 21
5069.7593723611
 31
0.0
  0
LWPOLYLINE
  5
90
330
1F
100
AcDbEntity
  8
0
  6
Continuous
 62
     7
370
    25
100
AcDbPolyline
 90
        3
 70
   128
 43
0.0
 10
6131.3672970712
 20
5155.7593723611
 10
6129.4423125323
 20
5118.4523309289
 10
6126.9962823046
 20
5069.7593723644
  0
LINE
  5
91
330
1F
100
AcDbEntity
  8
0
  6
Continuous
 62
     7
370
    25
100
AcDbLine
 10
6091.8693508627
 20
5069.7593723611
 30
0.0
 11
6126.9962823593
 21
5069.7593723611
 31
0.0
  0
LWPOLYLINE
  5
92
330
1F
100
AcDbEntity
  8
0
  6
Continuous
 62
     7
370
    25
100
AcDbPolyline
 90
        4
 70
   128
 43
0.0
 10
6091.8693508627
 20
5069.7593723611
 10
6051.9147112399
 20
5107.8217835194
 10
6021.5086750861
 20
5136.7878504029
 10
6001.5940516511
 20
5155.7593723611
  0
LINE
  5
93
330
1F
100
AcDbEntity
  8
0
  6
Continuous
 62
     7
370
    25
100
AcDbLine
 10
5771.3191413151
 20
5039.7593723611
 30
0.0
 11
5771.3191413151
 21
5139.7593723611
 31
0.0
  0
LINE
  5
94
330
1F
100
AcDbEntity
  8
0
  6
Continuous
 62
     7
370
    25
100
AcDbLine
 10
5951.2846348445
 20
5019.7593723611
 30
0.0
 11
5990.3191260498
 21
5019.7593723611
 31
0.0
  0
LINE
  5
95
330
1F
100
AcDbEntity
  8
0
  6
Continuous
 62
     7
370
    25
100
AcDbLine
 10
5931.4058119444
 20
5019.7593723611
 30
0.0
 11
5951.2846348445
 21
5019.7593723611
 31
0.0
  0
LINE
  5
96
330
1F
100
AcDbEntity
  8
0
  6
Continuous
 62
     7
370
    25
100
AcDbLine
 10
5917.7509973344
 20
5019.7593723611
 30
0.0
 11
5931.4058119444
 21
5019.7593723611
 31
0.0
  0
LINE
  5
97
330
1F
100
AcDbEntity
  8
0
  6
Continuous
 62
     7
370
    25
100
AcDbLine
 10
5912.3191565805
 20
5019.7593723611
 30
0.0
 11
5917.7509973344
 21
5019.7593723611
 31
0.0
  0
LINE
  5
98
330
1F
100
AcDbEntity
  8
0
  6
Continuous
 62
     8
370
    25
100
AcDbLine
 10
5871.3191413151
 20
5039.7593723611
 30
0.0
 11
5871.3191413151
 21
5139.7593723611
 31
0.0
  0
LINE
  5
99
330
1F
100
AcDbEntity
  8
0
  6
Continuous
 62
     8
370
    25
100
AcDbLine
 10
6170.3191413151
 20
5019.7593723611
 30
0.0
 11
6092.3191413151
 21
5019.7593723611
 31
0.0
  0
LWPOLYLINE
  5
9A
330
1F
100
AcDbEntity
  8
0
  6
Continuous
 62
     7
370
    25
100
AcDbPolyline
 90
        4
 70
   128
 43
0.0
 10
5189.1269004417
 20
5069.7250917475
 10
5236.2415612823
 20
5093.7005212037
 10
5285.0669439338
 20
5118.5438376336
 10
5358.2040232328
 20
5155.7593723611
  0
LWPOLYLINE
  5
9B
330
1F
100
AcDbEntity
  8
0
  6
Continuous
 62
     7
370
    25
100
AcDbPolyline
 90
        4
 70
   128
 43
0.0
 10
4939.7910643071
 20
5155.7593723611
 10
5012.9281436061
 20
5118.5438376336
 10
5061.7535262576
 20
5093.7005212037
 10
5108.8542664237
 20
5069.7321756178
  0
LINE
  5
9C
330
1F
100
AcDbEntity
  8
0
  6
Continuous
 62
     7
370
    25
100
AcDbLine
 10
5187.9975437699
 20
5019.7593723611
 30
0.0
 11
5187.9975437699
 21
5069.7593723611
 31
0.0
  0
LINE
  5
9D
330
1F
100
AcDbEntity
  8
0
  6
Continuous
 62
     7
370
    25
100
AcDbLine
 10
5109.9975437699
 20
5069.7593723611
 30
0.0
 11
5109.9975437699
 21
5019.7593723611
 31
0.0
  0
ARC
  5
9E
330
1F
100
AcDbEntity
  8
0
  6
Continuous
 62
     7
370
    25
100
AcDbCircle
 10
5148.9975437699
 20
4929.7593723611
 30
0.0
 40
39.00000000000091
100
AcDbArc
 50
180.0
 51
0.0
  0
LINE
  5
9F
330
1F
100
AcDbEntity
  8
0
  6
Continuous
 62
     7
370
    25
100
AcDbLine
 10
5109.9975437699
 20
5019.7593723611
 30
0.0
 11
5109.9975437699
 21
4929.7593723611
 31
0.0
  0
LINE
  5
A0
330
1F
100
AcDbEntity
  8
0
  6
Continuous
 62
     7
370
    25
100
AcDbLine
 10
5187.9975437699
 20
4929.7593723611
 30
0.0
 11
5187.9975437699
 21
5019.7593723611
 31
0.0
  0
LWPOLYLINE
  5
A1
330
1F
100
AcDbEntity
  8
0
  6
Continuous
 62
     7
370
    25
100
AcDbPolyline
 90
       20
 70
   128
 43
0.0
 10
5187.9975440679
 20
5019.7593723611
 10
5188.0649785797
 20
5025.9985860903
 10
5188.2324528803
 20
5031.2922025899
 10
5188.4561462284
 20
5035.7323113833
 10
5188.7019704055
 20
5039.4009654941
 10
5188.9438673119
 20
5042.3699760787
 10
5189.2115164786
 20
5045.1900085816
 10
5189.4571467869
 20
5047.4732758766
 10
5189.7407152384
 20
5049.8358543633
 10
5190.0633264648
 20
5052.2453029093
 10
5190.5359026218
 20
5055.3589045595
 10
5191.0166967747
 20
5058.1266916047
 10
5191.4359132466
 20
5060.2710361799
 10
5191.6841299751
 20
5061.4371530084
 10
5191.9803526335
 20
5062.7358285705
 10
5192.2993098114
 20
5064.02600471
 10
5192.5704754612
 20
5065.0359135568
 10
5192.853636825
 20
5066.001660672
 10
5193.0280951552
 20
5066.5475402834
 10
5193.051698539
 20
5066.6287897481
  0
LWPOLYLINE
  5
A2
330
1F
100
AcDbEntity
  8
0
  6
Continuous
 62
     7
370
    25
100
AcDbPolyline
 90
       20
 70
   128
 43
0.0
 10
5104.9613995198
 20
5066.696579818
 10
5104.9190436603
 20
5066.7993593143
 10
5104.871332831
 20
5066.9292249801
 10
5104.8935249726
 20
5066.8802521424
 10
5105.00233884
 20
5066.5779058827
 10
5105.2040888035
 20
5065.9516025043
 10
5105.5359181978
 20
5064.8014274544
 10
5105.942922649
 20
5063.2171908183
 10
5106.3091954465
 20
5061.6315231465
 10
5106.7643046782
 20
5059.4391987118
 10
5107.3044649239
 20
5056.4750801056
 10
5107.8157696656
 20
5053.228502921
 10
5108.2913002148
 20
5049.7063506987
 10
5108.9343970213
 20
5043.7852254572
 10
5109.4248731151
 20
5037.6333002103
 10
5109.5731490285
 20
5035.2166061793
 10
5109.7105598702
 20
5032.5298714079
 10
5109.8456836195
 20
5029.1007020789
 10
5109.9527137849
 20
5024.8667845626
 10
5109.9975434767
 20
5019.7593723611
  0
LINE
  5
A3
330
1F
100
AcDbEntity
  8
0
  6
Continuous
 62
     7
370
    25
100
AcDbLine
 10
5448.9975437699
 20
5213.7593723611
 30
0.0
 11
4848.9975437699
 21
5213.7593723611
 31
0.0
  0
ARC
  5
A4
330
1F
100
AcDbEntity
  8
0
  6
Continuous
 62
     7
370
    25
100
AcDbCircle
 10
4850.9975437699
 20
5213.7593723611
 30
0.0
 40
2.000000000000909
100
AcDbArc
 50
90.0
 51
180.0
  0
LINE
  5
A5
330
1F
100
AcDbEntity
  8
0
  6
Continuous
 62
     7
370
    25
100
AcDbLine
 10
4850.9975437699
 20
5215.7593723611
 30
0.0
 11
5448.9975437699
 21
5215.7593723611
 31
0.0
  0
LINE
  5
A6
330
1F
100
AcDbEntity
  8
0
  6
Continuous
 62
     7
370
    25
100
AcDbLine
 10
5448.9975437699
 20
5215.7593723611
 30
0.0
 11
5448.9975437699
 21
5213.7593723611
 31
0.0
  0
LINE
  5
A7
330
1F
100
AcDbEntity
  8
0
  6
Continuous
 62
     7
370
    25
100
AcDbLine
 10
4848.9975437699
 20
5155.7593723611
 30
0.0
 11
5448.9975437699
 21
5155.7593723611
 31
0.0
  0
LINE
  5
A8
330
1F
100
AcDbEntity
  8
0
  6
Continuous
 62
     7
370
    25
100
AcDbLine
 10
4848.9975437699
 20
5155.7593723611
 30
0.0
 11
4848.9975437699
 21
5213.7593723611
 31
0.0
  0
LINE
  5
A9
330
1F
100
AcDbEntity
  8
0
  6
Continuous
 62
     7
370
    25
100
AcDbLine
 10
5448.9975437699
 20
5155.7593723611
 30
0.0
 11
5448.9975437699
 21
5213.7593723611
 31
0.0
  0
LINE
  5
AA
330
1F
100
AcDbEntity
  8
0
  6
Continuous
 62
     7
370
    25
100
AcDbLine
 10
5189.1508815299
 20
5069.7593723611
 30
0.0
 11
5108.8322408871
 21
5069.7593723611
 31
0.0
  0
ARC
  5
AB
330
1F
100
AcDbEntity
  8
0
  6
Continuous
 62
     7
370
    25
100
AcDbCircle
 10
5135.1607163556
 20
5083.0030814112
 30
0.0
 40
34.64991394583677
100
AcDbArc
 50
196.3177870832
 51
215.4618111754
  0
ARC
  5
AC
330
1F
100
AcDbEntity
  8
0
  6
Continuous
 62
     7
370
    25
100
AcDbCircle
 10
5163.5700684759
 20
5082.6880181007
 30
0.0
 40
33.85546543783957
100
AcDbArc
 50
325.0228624311
 51
343.8441165885
  0
LINE
  5
AD
330
1F
100
AcDbEntity
  8
0
  6
Continuous
 62
     8
370
    25
100
AcDbLine
 10
5187.9975437699
 20
5019.7593723611
 30
0.0
 11
5109.9975437699
 21
5019.7593723611
 31
0.0
  0
LINE
  5
AE
330
1F
100
AcDbEntity
  8
0
  6
Continuous
 62
     7
370
    25
100
AcDbLine
 10
5241.4449889721
 20
4343.95433956
 30
0.0
 11
5237.7535083131
 21
4334.696725185
 31
0.0
  0
LINE
  5
AF
330
1F
100
AcDbEntity
  8
0
  6
Continuous
 62
     7
370
    25
100
AcDbLine
 10
5257.2134665894
 20
4326.9370522613
 30
0.0
 11
5260.9292481503
 21
4336.2556092224
 31
0.0
  0
LINE
  5
B0
330
1F
100
AcDbEntity
  8
0
  6
Continuous
 62
     7
370
    25
100
AcDbLine
 10
5037.0658393895
 20
4336.2556092224
 30
0.0
 11
5040.7816209504
 21
4326.9370522613
 31
0.0
  0
LINE
  5
B1
330
1F
100
AcDbEntity
  8
0
  6
Continuous
 62
     7
370
    25
100
AcDbLine
 10
5060.2415792268
 20
4334.696725185
 30
0.0
 11
5056.5500985677
 21
4343.95433956
 31
0.0
  0
LINE
  5
B2
330
1F
100
AcDbEntity
  8
0
  6
Continuous
 62
     7
370
    25
100
AcDbLine
 10
5098.9975437699
 20
4577.9990350525
 30
0.0
 11
5098.9975437699
 21
4477.9990350525
 31
0.0
  0
LINE
  5
B3
330
1F
100
AcDbEntity
  8
0
  6
Continuous
 62
     7
370
    25
100
AcDbLine
 10
5198.9975437699
 20
4477.9990350525
 30
0.0
 11
5198.9975437699
 21
4577.9990350525
 31
0.0
  0
LWPOLYLINE
  5
B4
330
1F
100
AcDbEntity
  8
0
  6
Continuous
 62
     7
370
    25
100
AcDbPolyline
 90
       23
 70
   128
 43
0.0
 10
5098.9975201723
 20
4477.9990350525
 10
5099.0216251714
 20
4473.4204628532
 10
5099.0769141021
 20
4469.7354011838
 10
5099.1424670844
 20
4466.8814383047
 10
5099.2028103124
 20
4464.8096901433
 10
5099.3150431379
 20
4461.6739438247
 10
5099.4793610694
 20
4458.0004072
 10
5099.7109454998
 20
4453.8191289477
 10
5100.0169420744
 20
4449.2967353719
 10
5100.4037833517
 20
4444.5360076703
 10
5101.1663989053
 20
4436.9002175644
 10
5102.043179814
 20
4429.7754092708
 10
5102.9503120789
 20
4423.5464007207
 10
5103.8147582514
 20
4418.3412011168
 10
5104.2360097376
 20
4416.0017349636
 10
5104.6561996575
 20
4413.776215807
 10
5105.0805744453
 20
4411.6264019487
 10
5105.5856155028
 20
4409.1828655818
 10
5106.1925617428
 20
4406.3939741946
 10
5106.8938888343
 20
4403.349818357
 10
5107.5304561271
 20
4400.7348632285
 10
5108.0223218781
 20
4398.8023680349
 10
5108.2330534729
 20
4397.9990350525
  0
LWPOLYLINE
  5
B5
330
1F
100
AcDbEntity
  8
0
  6
Continuous
 62
     7
370
    25
100
AcDbPolyline
 90
       22
 70
   128
 43
0.0
 10
5189.7908127877
 20
4397.9990350525
 10
5190.0364798853
 20
4398.929415518
 10
5190.629636327
 20
4401.2668184299
 10
5191.3342056318
 20
4404.1931095353
 10
5191.969728544
 20
4406.9869733169
 10
5192.5857066653
 20
4409.8520894433
 10
5193.1051885518
 20
4412.4040641584
 10
5193.6851741754
 20
4415.4204810889
 10
5194.2172952441
 20
4418.366554166
 10
5194.6618785254
 20
4420.9801758969
 10
5195.0224129307
 20
4423.2171170229
 10
5195.3643741091
 20
4425.4504943935
 10
5195.7880201536
 20
4428.3934515097
 10
5196.2180589633
 20
4431.6196779585
 10
5196.6913918228
 20
4435.51962681
 10
5197.1915201933
 20
4440.1676161506
 10
5197.6958046441
 20
4445.6489467419
 10
5198.0821703012
 20
4450.6983700931
 10
5198.4322675298
 20
4456.3969534768
 10
5198.7219558179
 20
4462.8035944164
 10
5198.9220355337
 20
4469.9816761831
 10
5198.9975677667
 20
4477.9990350525
  0
LWPOLYLINE
  5
B6
330
1F
100
AcDbEntity
  8
0
  6
Continuous
 62
     7
370
    25
100
AcDbPolyline
 90
        9
 70
   128
 43
0.0
 10
5148.9975437699
 20
3769.5676348949
 10
5149.0072924957
 20
3769.2090508378
 10
5149.0169010283
 20
3768.8563192062
 10
5149.0262311907
 20
3768.5145125161
 10
5149.0351488088
 20
3768.1885461751
 10
5149.0435256415
 20
3767.8831077962
 10
5149.0512412242
 20
3767.6025897867
 10
5149.0581846017
 20
3767.3510261823
 10
5149.0642559238
 20
3767.1320346351
  0
LWPOLYLINE
  5
B7
330
1F
100
AcDbEntity
  8
0
  6
Continuous
 62
     7
370
    25
100
AcDbPolyline
 90
       33
 70
   128
 43
0.0
 10
5148.9975437699
 20
3769.5676348949
 10
5165.2978306618
 20
3770.2023630524
 10
5181.585276366
 20
3771.3753974352
 10
5197.7783503568
 20
3773.3161423833
 10
5213.7955221085
 20
3776.2540022367
 10
5225.3972394208
 20
3779.2903118652
 10
5236.7820028118
 20
3783.1804778934
 10
5247.8966189869
 20
3787.8452247868
 10
5258.6878946515
 20
3793.205277011
 10
5269.1026365111
 20
3799.1813590315
 10
5278.6937359129
 20
3805.2737426912
 10
5288.0906675018
 20
3811.7715683954
 10
5297.1512151839
 20
3818.7344222448
 10
5305.7331628653
 20
3826.22189034
 10
5313.6942944518
 20
3834.2935587814
 10
5320.8923938495
 20
3843.0090136697
 10
5328.4338029091
 20
3853.9674861411
 10
5335.2004917502
 20
3865.4520128167
 10
5341.2964499746
 20
3877.3416518056
 10
5346.8256671838
 20
3889.515461217
 10
5351.8921329794
 20
3901.8524991602
 10
5357.9606629714
 20
3918.3025763718
 10
5363.2984741968
 20
3935.0238625549
 10
5367.8419352345
 20
3951.973758805
 10
5371.5274146632
 20
3969.1096662173
 10
5374.2645379199
 20
3986.43379362
 10
5376.0831725517
 20
4003.8991563688
 10
5377.1095444302
 20
4021.4398830111
 10
5377.4698794269
 20
4038.9901020942
 10
5377.2286715512
 20
4078.0126547097
 10
5376.7018444768
 20
4117.0342474862
 10
5376.5903517582
 20
4127.4726618254
 10
5376.4079366722
 20
4144.551124626
  0
ARC
  5
B8
330
1F
100
AcDbEntity
  8
0
  6
Continuous
 62
     7
370
    25
100
AcDbCircle
 10
5182.2994203051
 20
4181.67743661
 30
0.0
 40
197.6271215389683
100
AcDbArc
 50
349.1720535966
 51
353.6228067551
  0
LWPOLYLINE
  5
B9
330
1F
100
AcDbEntity
  8
0
  6
Continuous
 62
     7
370
    25
100
AcDbPolyline
 90
       33
 70
   128
 43
0.0
 10
5378.7036669092
 20
4159.7263299491
 10
5379.623875387
 20
4073.5725659886
 10
5379.8031479505
 20
4056.3086326824
 10
5379.831043922
 20
4039.0286025086
 10
5379.495303732
 20
4021.7612541409
 10
5378.5836678108
 20
4004.535366253
 10
5376.883876589
 20
3987.3797175186
 10
5374.1340081631
 20
3969.7089593081
 10
5370.4170654704
 20
3952.1829650687
 10
5365.8045716854
 20
3934.8517461689
 10
5360.3680499825
 20
3917.7653139768
 10
5354.1790235361
 20
3900.9736798608
 10
5349.0613328381
 20
3888.516086269
 10
5343.4743866881
 20
3876.2243555698
 10
5337.3144757601
 20
3864.2199324982
 10
5330.4778907284
 20
3852.6242617892
 10
5322.860922267
 20
3841.5587881778
 10
5315.5662962229
 20
3832.7225255478
 10
5307.5006987005
 20
3824.5359163369
 10
5298.8070517153
 20
3816.9400185021
 10
5289.628277283
 20
3809.8758900006
 10
5280.1072974191
 20
3803.2845887894
 10
5270.3870341391
 20
3797.1071728256
 10
5259.8305075102
 20
3791.0506359396
 10
5248.8919141325
 20
3785.6195055127
 10
5237.6254485147
 20
3780.8934620137
 10
5226.0853051657
 20
3776.9521859116
 10
5214.3256785942
 20
3773.8753576754
 10
5208.4362507773
 20
3772.6687376738
 10
5196.5523681998
 20
3770.7507188739
 10
5184.5941446777
 20
3769.3456950512
 10
5166.8501526343
 20
3767.9118736253
 10
5149.0642559238
 20
3767.1320346351
  0
ARC
  5
BA
330
1F
100
AcDbEntity
  8
0
  6
Continuous
 62
     7
370
    25
100
AcDbCircle
 10
5274.001272115
 20
4184.9554140058
 30
0.0
 40
110.0891981350343
100
AcDbArc
 50
269.9980595877
 51
338.4684126785
  0
LWPOLYLINE
  5
BB
330
1F
100
AcDbEntity
  8
0
  6
Continuous
 62
     7
370
    25
100
AcDbPolyline
 90
       30
 70
   128
 43
0.0
 10
4921.5871508676
 20
4144.551124626
 10
4920.6504299042
 20
4056.8812933486
 10
4920.6156822158
 20
4039.2667450269
 10
4921.0030560044
 20
4021.6309642372
 10
4921.9889692451
 20
4004.0282684128
 10
4923.749839913
 20
3986.5129749868
 10
4926.462085983
 20
3969.1394013926
 10
4930.3290388293
 20
3950.977739836
 10
4935.0973993471
 20
3932.9728613743
 10
4940.7803670139
 20
3915.213592249
 10
4947.3911413074
 20
3897.7887587014
 10
4954.9429217053
 20
3880.787186973
 10
4963.4489076853
 20
3864.2977033054
 10
4969.1714507216
 20
3854.6235344114
 10
4975.4944166806
 20
3845.2700331602
 10
4982.4398682206
 20
3836.3726447107
 10
4990.0298680001
 20
3828.0668142219
 10
4998.2864786777
 20
3820.4879868529
 10
5009.0107176356
 20
3812.0079224215
 10
5020.237194899
 20
3804.0877450498
 10
5031.9266474133
 20
3796.8362813239
 10
5044.0398121237
 20
3790.3623578299
 10
5056.5374259753
 20
3784.7748011537
 10
5069.3802259135
 20
3780.1824378816
 10
5077.539166856
 20
3777.8531869311
 10
5088.6102874287
 20
3775.3465725348
 10
5099.8133365896
 20
3773.4499841209
 10
5111.0842671352
 20
3772.0371084309
 10
5130.0154363425
 20
3770.4236066296
 10
5148.9975437699
 20
3769.5676348949
  0
ARC
  5
BC
330
1F
100
AcDbEntity
  8
0
  6
Continuous
 62
     7
370
    25
100
AcDbCircle
 10
5023.9936733138
 20
4184.9552051565
 30
0.0
 40
110.0889892906979
100
AcDbArc
 50
201.5315133562
 51
270.0020143776
  0
LINE
  5
BD
330
1F
100
AcDbEntity
  8
0
  6
Continuous
 62
     7
370
    25
100
AcDbLine
 10
5273.9975437699
 20
4074.8662159339
 30
0.0
 11
5023.9975437699
 21
4074.8662159339
 31
0.0
  0
ARC
  5
BE
330
1F
100
AcDbEntity
  8
0
  6
Continuous
 62
     7
370
    25
100
AcDbCircle
 10
5278.9975437699
 20
3867.7718057621
 30
0.0
 40
25.83000000000084
100
AcDbArc
 50
270.0
 51
0.0
  0
LINE
  5
BF
330
1F
100
AcDbEntity
  8
0
  6
Continuous
 62
     7
370
    25
100
AcDbLine
 10
5304.8275437699
 20
4027.7718057621
 30
0.0
 11
5304.8275437699
 21
3867.7718057621
 31
0.0
  0
ARC
  5
C0
330
1F
100
AcDbEntity
  8
0
  6
Continuous
 62
     7
370
    25
100
AcDbCircle
 10
5278.9975437699
 20
4027.7718057621
 30
0.0
 40
25.83000000000084
100
AcDbArc
 50
0.0
 51
90.0
  0
LINE
  5
C1
330
1F
100
AcDbEntity
  8
0
  6
Continuous
 62
     7
370
    25
100
AcDbLine
 10
5233.9975437699
 20
4053.6018057621
 30
0.0
 11
5278.9975437699
 21
4053.6018057621
 31
0.0
  0
ARC
  5
C2
330
1F
100
AcDbEntity
  8
0
  6
Continuous
 62
     7
370
    25
100
AcDbCircle
 10
5233.9975437699
 20
4027.7718057621
 30
0.0
 40
25.83000000000084
100
AcDbArc
 50
90.0
 51
180.0
  0
LINE
  5
C3
330
1F
100
AcDbEntity
  8
0
  6
Continuous
 62
     7
370
    25
100
AcDbLine
 10
5208.1675437699
 20
3867.7718057621
 30
0.0
 11
5208.1675437699
 21
4027.7718057621
 31
0.0
  0
ARC
  5
C4
330
1F
100
AcDbEntity
  8
0
  6
Continuous
 62
     7
370
    25
100
AcDbCircle
 10
5233.9975437699
 20
3867.7718057621
 30
0.0
 40
25.83000000000084
100
AcDbArc
 50
180.0
 51
270.0
  0
LINE
  5
C5
330
1F
100
AcDbEntity
  8
0
  6
Continuous
 62
     7
370
    25
100
AcDbLine
 10
5278.9975437699
 20
3841.9418057621
 30
0.0
 11
5233.9975437699
 21
3841.9418057621
 31
0.0
  0
ARC
  5
C6
330
1F
100
AcDbEntity
  8
0
  6
Continuous
 62
     7
370
    25
100
AcDbCircle
 10
5063.9975437699
 20
4027.7718057621
 30
0.0
 40
25.82999999999993
100
AcDbArc
 50
0.0
 51
90.0
  0
LINE
  5
C7
330
1F
100
AcDbEntity
  8
0
  6
Continuous
 62
     7
370
    25
100
AcDbLine
 10
5018.9975437699
 20
4053.6018057621
 30
0.0
 11
5063.9975437699
 21
4053.6018057621
 31
0.0
  0
ARC
  5
C8
330
1F
100
AcDbEntity
  8
0
  6
Continuous
 62
     7
370
    25
100
AcDbCircle
 10
5018.9975437699
 20
4027.7718057621
 30
0.0
 40
25.82999999999993
100
AcDbArc
 50
90.0
 51
180.0
  0
LINE
  5
C9
330
1F
100
AcDbEntity
  8
0
  6
Continuous
 62
     7
370
    25
100
AcDbLine
 10
4993.1675437699
 20
3867.7718057621
 30
0.0
 11
4993.1675437699
 21
4027.7718057621
 31
0.0
  0
ARC
  5
CA
330
1F
100
AcDbEntity
  8
0
  6
Continuous
 62
     7
370
    25
100
AcDbCircle
 10
5018.9975437699
 20
3867.7718057621
 30
0.0
 40
25.83000000000038
100
AcDbArc
 50
180.0
 51
270.0
  0
LINE
  5
CB
330
1F
100
AcDbEntity
  8
0
  6
Continuous
 62
     7
370
    25
100
AcDbLine
 10
5063.9975437699
 20
3841.9418057621
 30
0.0
 11
5018.9975437699
 21
3841.9418057621
 31
0.0
  0
ARC
  5
CC
330
1F
100
AcDbEntity
  8
0
  6
Continuous
 62
     7
370
    25
100
AcDbCircle
 10
5063.9975437699
 20
3867.7718057621
 30
0.0
 40
25.83000000000038
100
AcDbArc
 50
270.0
 51
0.0
  0
LINE
  5
CD
330
1F
100
AcDbEntity
  8
0
  6
Continuous
 62
     7
370
    25
100
AcDbLine
 10
5089.8275437699
 20
4027.7718057621
 30
0.0
 11
5089.8275437699
 21
3867.7718057621
 31
0.0
  0
LWPOLYLINE
  5
CE
330
1F
100
AcDbEntity
  8
0
  6
Continuous
 62
     7
370
    25
100
AcDbPolyline
 90
       31
 70
   128
 43
0.0
 10
5148.8654884019
 20
3759.3215692028
 10
5134.5068346792
 20
3759.8433208857
 10
5120.1189022786
 20
3760.7452350439
 10
5105.7742756149
 20
3762.1742142224
 10
5091.5455391026
 20
3764.2771609667
 10
5077.5052771564
 20
3767.2009778218
 10
5063.7260741909
 20
3771.092567333
 10
5049.9411186227
 20
3776.2547470374
 10
5036.5776133922
 20
3782.5284368637
 10
5023.6393805462
 20
3789.7280867069
 10
5011.1302421313
 20
3797.6681464617
 10
4999.0540201944
 20
3806.1630660231
 10
4990.0993722
 20
3813.297765928
 10
4981.6786433056
 20
3821.1208279802
 10
4973.8350218796
 20
3829.5498080392
 10
4966.6116962901
 20
3838.5022619648
 10
4960.0518549056
 20
3847.8957456167
 10
4951.5498113205
 20
3862.0228857773
 10
4943.9260804481
 20
3876.6800312379
 10
4937.1118567537
 20
3891.7704412706
 10
4931.0383347028
 20
3907.1973751474
 10
4925.6367087608
 20
3922.8640921403
 10
4920.8381733931
 20
3938.6738515213
 10
4916.2706774793
 20
3956.6946097619
 10
4912.7071795105
 20
3974.9747454358
 10
4910.0693622596
 20
3993.4439358298
 10
4908.2789084996
 20
4012.0318582311
 10
4907.2575010037
 20
4030.6681899267
 10
4906.9268225447
 20
4049.2826082037
 10
4906.8482656059
 20
4177.0961003485
 10
4906.844303153
 20
4183.5430794393
  0
ARC
  5
CF
330
1F
100
AcDbEntity
  8
0
  6
Continuous
 62
     7
370
    25
100
AcDbCircle
 10
4904.0546800793
 20
4191.0248575364
 30
0.0
 40
7.984923317519616
100
AcDbArc
 50
290.448253457
 51
311.0709689696
  0
LWPOLYLINE
  5
D0
330
1F
100
AcDbEntity
  8
0
  6
Continuous
 62
     7
370
    25
100
AcDbPolyline
 90
       32
 70
   128
 43
0.0
 10
4909.3007215242
 20
4185.00505276
 10
4909.3009727647
 20
4184.5962801104
 10
4909.3512190842
 20
4102.8446530014
 10
4909.2366463053
 20
4075.5867062436
 10
4909.2615841585
 20
4048.3293809061
 10
4910.0292647304
 20
4021.0934117515
 10
4911.5964358619
 20
4000.4237581727
 10
4914.2887168073
 20
3979.837121128
 10
4918.1460964397
 20
3959.4427399678
 10
4923.2085636323
 20
3939.3498540424
 10
4927.971731953
 20
3923.6568840463
 10
4933.3320752327
 20
3908.1052930781
 10
4939.3586591249
 20
3892.7914690489
 10
4946.1205492833
 20
3877.8117998697
 10
4953.6868113614
 20
3863.2626734515
 10
4962.1265110128
 20
3849.2404777052
 10
4968.5847727674
 20
3839.9942130185
 10
4975.6957809002
 20
3831.1818777572
 10
4983.4171976499
 20
3822.8847719042
 10
4991.7066852553
 20
3815.1841954422
 10
5000.5219059554
 20
3808.1614483538
 10
5012.4682284236
 20
3799.7568561931
 10
5024.8414256939
 20
3791.8987350613
 10
5037.6385864288
 20
3784.7722334998
 10
5050.8567992908
 20
3778.5625000501
 10
5064.4931529424
 20
3773.4546832536
 10
5072.2262978251
 20
3771.1345826006
 10
5082.715631733
 20
3768.5635226977
 10
5093.3346442074
 20
3766.5465373048
 10
5104.0290372564
 20
3765.0062561713
 10
5126.4395470084
 20
3762.8633932092
 10
5148.9315160859
 20
3761.8055687518
  0
LINE
  5
D1
330
1F
100
AcDbEntity
  8
0
  6
Continuous
 62
     7
370
    25
100
AcDbLine
 10
5148.8654884019
 20
3759.3215692028
 30
0.0
 11
5148.9315160859
 21
3761.8055687518
 31
0.0
  0
LINE
  5
D2
330
1F
100
AcDbEntity
  8
0
  6
Continuous
 62
     7
370
    25
100
AcDbLine
 10
5148.9315160859
 20
3761.8055687518
 30
0.0
 11
5148.9308316161
 21
3767.1320346351
 31
0.0
  0
LWPOLYLINE
  5
D3
330
1F
100
AcDbEntity
  8
0
  6
Continuous
 62
     7
370
    25
100
AcDbPolyline
 90
        3
 70
   128
 43
0.0
 10
4909.7976777562
 20
4186.0525667843
 10
4909.4127137754
 20
4185.1673019296
 10
4909.3007215242
 20
4185.00505276
  0
LWPOLYLINE
  5
D4
330
1F
100
AcDbEntity
  8
0
  6
Continuous
 62
     7
370
    25
100
AcDbPolyline
 90
        3
 70
   128
 43
0.0
 10
4909.7976762967
 20
4186.0525623341
 10
4915.0008484316
 20
4200.3736122819
 10
4920.7741256698
 20
4214.6536345901
  0
LINE
  5
D5
330
1F
100
AcDbEntity
  8
0
  6
Continuous
 62
     7
370
    25
100
AcDbLine
 10
4920.7741256556
 20
4214.6536332622
 30
0.0
 11
4920.7607744024
 21
4213.4036331298
 31
0.0
  0
ARC
  5
D6
330
1F
100
AcDbEntity
  8
0
  6
Continuous
 62
     7
370
    25
100
AcDbCircle
 10
5023.8011991507
 20
4184.9616145379
 30
0.0
 40
106.8937676101627
100
AcDbArc
 50
164.5690165197
 51
190.8629238474
  0
ARC
  5
D7
330
1F
100
AcDbEntity
  8
0
  6
Continuous
 62
     7
370
    25
100
AcDbCircle
 10
4858.117601679
 20
4156.66187083
 30
0.0
 40
61.25052681256521
100
AcDbArc
 50
2.8677942334
 51
7.650724895
  0
LWPOLYLINE
  5
D8
330
1F
100
AcDbEntity
  8
0
  6
Continuous
 62
     7
370
    25
100
AcDbPolyline
 90
       32
 70
   128
 43
0.0
 10
5148.9308316161
 20
3767.1320346351
 10
5135.4025579869
 20
3767.6223337976
 10
5121.8488526353
 20
3768.4507809275
 10
5108.333125801
 20
3769.7529518308
 10
5094.9187877231
 20
3771.6644223138
 10
5081.6692486412
 20
3774.3207681827
 10
5068.6479187947
 20
3777.8575652435
 10
5055.6539052283
 20
3782.5027429921
 10
5043.0082380326
 20
3788.1532195438
 10
5030.7510847393
 20
3794.699675132
 10
5018.9226128798
 20
3802.0327899904
 10
5007.5629899859
 20
3810.0432443526
 10
4996.7123835892
 20
3818.6217184521
 10
4988.3213023623
 20
3826.3215577527
 10
4980.6056199155
 20
3834.7585616585
 10
4973.5442212211
 20
3843.796138597
 10
4967.1159912515
 20
3853.2976969958
 10
4961.2998149787
 20
3863.1266452827
 10
4952.7334192598
 20
3879.7323711986
 10
4945.1273981608
 20
3896.8535999006
 10
4938.4687416255
 20
3914.4009779588
 10
4932.7444395978
 20
3932.285151943
 10
4927.9414820213
 20
3950.4167684231
 10
4924.0468588399
 20
3968.706473969
 10
4921.427520384
 20
3985.2304732177
 10
4919.6588336063
 20
4001.8855767857
 10
4918.6093652883
 20
4018.622584894
 10
4918.1476822112
 20
4035.3922977634
 10
4918.1423511563
 20
4052.145515615
 10
4919.0472205586
 20
4136.8632985065
 10
4919.1574671949
 20
4147.1850494028
 10
4919.2914206306
 20
4159.726329949
  0
LINE
  5
D9
330
1F
100
AcDbEntity
  8
0
  6
Continuous
 62
     7
370
    25
100
AcDbLine
 10
5377.2343131374
 20
4213.4036331299
 30
0.0
 11
5377.2209618842
 21
4214.6536332622
 31
0.0
  0
LWPOLYLINE
  5
DA
330
1F
100
AcDbEntity
  8
0
  6
Continuous
 62
     7
370
    25
100
AcDbPolyline
 90
        3
 70
   128
 43
0.0
 10
5377.22096187
 20
4214.6536345901
 10
5382.9942391077
 20
4200.3736122832
 10
5388.1974112432
 20
4186.0525623341
  0
LWPOLYLINE
  5
DB
330
1F
100
AcDbEntity
  8
0
  6
Continuous
 62
     7
370
    25
100
AcDbPolyline
 90
        3
 70
   128
 43
0.0
 10
5388.6943660157
 20
4185.00505276
 10
5388.3012542357
 20
4185.76671954
 10
5388.1974097837
 20
4186.0525667844
  0
LWPOLYLINE
  5
DC
330
1F
100
AcDbEntity
  8
0
  6
Continuous
 62
     7
370
    25
100
AcDbPolyline
 90
       34
 70
   128
 43
0.0
 10
5149.0635714539
 20
3761.8055687518
 10
5163.303644919
 20
3762.3212665277
 10
5177.573095223
 20
3763.2113777904
 10
5191.7997858459
 20
3764.6228388144
 10
5205.9115802679
 20
3766.7025858741
 10
5219.8363419688
 20
3769.5975552441
 10
5233.5019344287
 20
3773.4546831988
 10
5247.1382881078
 20
3778.5624999919
 10
5260.3565009964
 20
3784.7722334433
 10
5273.1536617569
 20
3791.8987350106
 10
5285.5268590514
 20
3799.7568561513
 10
5297.4731815423
 20
3808.1614483229
 10
5306.2884022483
 20
3815.1841954121
 10
5314.5778898598
 20
3822.8847718752
 10
5322.2993066154
 20
3831.1818777298
 10
5329.4103147535
 20
3839.9942129932
 10
5335.8685765127
 20
3849.2404776829
 10
5344.3082761639
 20
3863.262673425
 10
5351.8745382418
 20
3877.8117998392
 10
5358.6364284002
 20
3892.7914690144
 10
5364.6630122926
 20
3908.1052930396
 10
5370.0233555728
 20
3923.6568840037
 10
5374.7865238943
 20
3939.3498539958
 10
5379.3268648997
 20
3957.2604529853
 10
5382.8684836144
 20
3975.4290527517
 10
5385.4895407097
 20
3993.7856862381
 10
5387.2681968569
 20
4012.2603863875
 10
5388.2826127271
 20
4030.7831861428
 10
5388.6109489918
 20
4049.2841184469
 10
5388.6170806412
 20
4058.7103826535
 10
5388.6225361641
 20
4068.1366472704
 10
5388.6457105086
 20
4105.8417049281
 10
5388.6941147752
 20
4184.5962801104
 10
5388.6943660157
 20
4185.00505276
  0
LINE
  5
DD
330
1F
100
AcDbEntity
  8
0
  6
Continuous
 62
     7
370
    25
100
AcDbLine
 10
5149.0642559238
 20
3767.1320346351
 30
0.0
 11
5149.0635714539
 21
3761.8055687518
 31
0.0
  0
ARC
  5
DE
330
1F
100
AcDbEntity
  8
0
  6
Continuous
 62
     7
370
    25
100
AcDbCircle
 10
5445.112426257
 20
4156.1799910673
 30
0.0
 40
66.50338215135858
100
AcDbArc
 50
172.5382589337
 51
176.9432130045
  0
ARC
  5
DF
330
1F
100
AcDbEntity
  8
0
  6
Continuous
 62
     7
370
    25
100
AcDbCircle
 10
5274.1920096272
 20
4184.9615396321
 30
0.0
 40
106.8955985774314
100
AcDbArc
 50
349.137307158
 51
15.4307542392
  0
LWPOLYLINE
  5
E0
330
1F
100
AcDbEntity
  8
0
  6
Continuous
 62
     7
370
    25
100
AcDbPolyline
 90
        9
 70
   128
 43
0.0
 10
5148.9975437699
 20
3769.5676348949
 10
5148.9877950441
 20
3769.2090508378
 10
5148.9781865115
 20
3768.8563192062
 10
5148.9688563492
 20
3768.5145125161
 10
5148.959938731
 20
3768.1885461751
 10
5148.9515618984
 20
3767.8831077962
 10
5148.9438463157
 20
3767.6025897867
 10
5148.9369029381
 20
3767.3510261823
 10
5148.9308316161
 20
3767.1320346351
  0
ARC
  5
E1
330
1F
100
AcDbEntity
  8
0
  6
Continuous
 62
     7
370
    25
100
AcDbCircle
 10
5115.6916241012
 20
4181.6768249581
 30
0.0
 40
197.6230354853337
100
AcDbArc
 50
186.3771472099
 51
190.8279924384
  0
LINE
  5
E2
330
1F
100
AcDbEntity
  8
0
  6
Continuous
 62
     7
370
    25
100
AcDbLine
 10
5149.1295991379
 20
3759.3215692028
 30
0.0
 11
5149.0635714539
 21
3761.8055687518
 31
0.0
  0
ARC
  5
E3
330
1F
100
AcDbEntity
  8
0
  6
Continuous
 62
     7
370
    25
100
AcDbCircle
 10
5393.9404074469
 20
4191.0248575137
 30
0.0
 40
7.984923291505439
100
AcDbArc
 50
228.929030997
 51
249.5517465773
  0
LWPOLYLINE
  5
E4
330
1F
100
AcDbEntity
  8
0
  6
Continuous
 62
     7
370
    25
100
AcDbPolyline
 90
       33
 70
   128
 43
0.0
 10
5391.1507843869
 20
4183.5430794393
 10
5391.146821934
 20
4177.0961003485
 10
5391.0979736992
 20
4097.6191812469
 10
5391.1675710169
 20
4077.7440155565
 10
5391.2271080487
 20
4057.8658774257
 10
5391.016064494
 20
4037.9952805446
 10
5390.273920052
 20
4018.1427386034
 10
5388.6359130215
 20
3998.0471474974
 10
5385.9219970927
 20
3978.0375531279
 10
5382.1047911639
 20
3958.2133297139
 10
5377.1569141333
 20
3938.6738514744
 10
5372.3583787649
 20
3922.8640920974
 10
5366.9567528224
 20
3907.1973751085
 10
5360.8832307713
 20
3891.7704412358
 10
5354.0690070769
 20
3876.6800312071
 10
5346.4452762045
 20
3862.0228857506
 10
5337.9432326197
 20
3847.8957455942
 10
5331.3833912305
 20
3838.5022619393
 10
5324.1600656357
 20
3829.5498080114
 10
5316.3164442037
 20
3821.1208279508
 10
5307.8957153033
 20
3813.2977658976
 10
5298.9410673028
 20
3806.1630659918
 10
5286.8648453428
 20
3797.6681464194
 10
5274.3557069034
 20
3789.7280866555
 10
5261.4174740315
 20
3782.5284368064
 10
5248.0539687739
 20
3776.2547469783
 10
5234.2690131778
 20
3771.0925672774
 10
5226.5351205166
 20
3768.7693765724
 10
5216.0466607606
 20
3766.1877422303
 10
5205.4291245403
 20
3764.1552230841
 10
5194.7357049143
 20
3762.5982987409
 10
5171.9750584866
 20
3760.4005799148
 10
5149.1295991379
 20
3759.3215692028
  0
LINE
  5
E5
330
1F
100
AcDbEntity
  8
0
  6
Continuous
 62
     7
370
    25
100
AcDbLine
 10
5448.9975437699
 20
4395.9990350525
 30
0.0
 11
4850.9975437699
 21
4395.9990350525
 31
0.0
  0
LINE
  5
E6
330
1F
100
AcDbEntity
  8
0
  6
Continuous
 62
     7
370
    25
100
AcDbLine
 10
4848.9975437699
 20
4397.9990350525
 30
0.0
 11
4850.9975437699
 21
4395.9990350525
 31
0.0
  0
LINE
  5
E7
330
1F
100
AcDbEntity
  8
0
  6
Continuous
 62
     7
370
    25
100
AcDbLine
 10
4848.9975437699
 20
4397.9990350525
 30
0.0
 11
5448.9975437699
 21
4397.9990350525
 31
0.0
  0
LINE
  5
E8
330
1F
100
AcDbEntity
  8
0
  6
Continuous
 62
     7
370
    25
100
AcDbLine
 10
5448.9975437699
 20
4397.9990350525
 30
0.0
 11
5448.9975437699
 21
4395.9990350525
 31
0.0
  0
LINE
  5
E9
330
1F
100
AcDbEntity
  8
0
  6
Continuous
 62
     7
370
    25
100
AcDbLine
 10
4848.9975437699
 20
3697.9990350525
 30
0.0
 11
4848.9975437699
 21
4397.9990350525
 31
0.0
  0
LINE
  5
EA
330
1F
100
AcDbEntity
  8
0
  6
Continuous
 62
     7
370
    25
100
AcDbLine
 10
4850.9975437699
 20
4395.9990350525
 30
0.0
 11
4850.9975437699
 21
3699.9990350525
 31
0.0
  0
LINE
  5
EB
330
1F
100
AcDbEntity
  8
0
  6
Continuous
 62
     7
370
    25
100
AcDbLine
 10
4848.9975437699
 20
3697.9990350525
 30
0.0
 11
4850.9975437699
 21
3699.9990350525
 31
0.0
  0
LINE
  5
EC
330
1F
100
AcDbEntity
  8
0
  6
Continuous
 62
     7
370
    25
100
AcDbLine
 10
4850.9975437699
 20
3699.9990350525
 30
0.0
 11
5448.9975437699
 21
3699.9990350525
 31
0.0
  0
LINE
  5
ED
330
1F
100
AcDbEntity
  8
0
  6
Continuous
 62
     7
370
    25
100
AcDbLine
 10
4857.7549030828
 20
3822.9990350525
 30
0.0
 11
4857.7549030828
 21
4272.9990350525
 31
0.0
  0
ARC
  5
EE
330
1F
100
AcDbEntity
  8
0
  6
Continuous
 62
     7
370
    25
100
AcDbCircle
 10
4973.9975437699
 20
3822.9990350525
 30
0.0
 40
116.24264068712
100
AcDbArc
 50
180.0
 51
270.0
  0
LINE
  5
EF
330
1F
100
AcDbEntity
  8
0
  6
Continuous
 62
     7
370
    25
100
AcDbLine
 10
5323.9975437699
 20
3706.7563943654
 30
0.0
 11
4973.9975437699
 21
3706.7563943654
 31
0.0
  0
ARC
  5
F0
330
1F
100
AcDbEntity
  8
0
  6
Continuous
 62
     7
370
    25
100
AcDbCircle
 10
5323.9975437699
 20
3822.9990350525
 30
0.0
 40
116.2426406871195
100
AcDbArc
 50
270.0
 51
0.0
  0
LINE
  5
F1
330
1F
100
AcDbEntity
  8
0
  6
Continuous
 62
     7
370
    25
100
AcDbLine
 10
5440.240184457
 20
4272.9990350525
 30
0.0
 11
5440.240184457
 21
3822.9990350525
 31
0.0
  0
ARC
  5
F2
330
1F
100
AcDbEntity
  8
0
  6
Continuous
 62
     7
370
    25
100
AcDbCircle
 10
5323.9975437699
 20
4272.9990350525
 30
0.0
 40
116.2426406871191
100
AcDbArc
 50
0.0
 51
90.0
  0
LINE
  5
F3
330
1F
100
AcDbEntity
  8
0
  6
Continuous
 62
     7
370
    25
100
AcDbLine
 10
4973.9975437699
 20
4389.2416757396
 30
0.0
 11
5323.9975437699
 21
4389.2416757396
 31
0.0
  0
ARC
  5
F4
330
1F
100
AcDbEntity
  8
0
  6
Continuous
 62
     7
370
    25
100
AcDbCircle
 10
4973.9975437699
 20
4272.9990350525
 30
0.0
 40
116.24264068712
100
AcDbArc
 50
90.0
 51
180.0
  0
LINE
  5
F5
330
1F
100
AcDbEntity
  8
0
  6
Continuous
 62
     7
370
    25
100
AcDbLine
 10
5448.9975437699
 20
3699.9990350525
 30
0.0
 11
5448.9975437699
 21
4395.9990350525
 31
0.0
  0
ARC
  5
F6
330
1F
100
AcDbEntity
  8
0
  6
Continuous
 62
     7
370
    25
100
AcDbCircle
 10
5323.9975437699
 20
4272.9990350525
 30
0.0
 40
114.12132034356
100
AcDbArc
 50
0.0
 51
90.0
  0
LINE
  5
F7
330
1F
100
AcDbEntity
  8
0
  6
Continuous
 62
     7
370
    25
100
AcDbLine
 10
5323.9975437699
 20
4387.120355396
 30
0.0
 11
5323.9975437699
 21
4389.2416757396
 31
0.0
  0
LINE
  5
F8
330
1F
100
AcDbEntity
  8
0
  6
Continuous
 62
     7
370
    25
100
AcDbLine
 10
5438.1188641135
 20
4272.9990350525
 30
0.0
 11
5440.240184457
 21
4272.9990350525
 31
0.0
  0
LINE
  5
F9
330
1F
100
AcDbEntity
  8
0
  6
Continuous
 62
     7
370
    25
100
AcDbLine
 10
5323.9975437699
 20
4387.120355396
 30
0.0
 11
4973.9975437699
 21
4387.120355396
 31
0.0
  0
LINE
  5
FA
330
1F
100
AcDbEntity
  8
0
  6
Continuous
 62
     7
370
    25
100
AcDbLine
 10
4973.9975437699
 20
4389.2416757396
 30
0.0
 11
4973.9975437699
 21
4387.120355396
 31
0.0
  0
ARC
  5
FB
330
1F
100
AcDbEntity
  8
0
  6
Continuous
 62
     7
370
    25
100
AcDbCircle
 10
4973.9975437699
 20
4272.9990350525
 30
0.0
 40
114.1213203435609
100
AcDbArc
 50
90.0
 51
180.0
  0
LINE
  5
FC
330
1F
100
AcDbEntity
  8
0
  6
Continuous
 62
     7
370
    25
100
AcDbLine
 10
4857.7549030828
 20
4272.9990350525
 30
0.0
 11
4859.8762234264
 21
4272.9990350525
 31
0.0
  0
LINE
  5
FD
330
1F
100
AcDbEntity
  8
0
  6
Continuous
 62
     7
370
    25
100
AcDbLine
 10
5438.1188641135
 20
3822.9990350525
 30
0.0
 11
5438.1188641135
 21
4272.9990350525
 31
0.0
  0
LINE
  5
FE
330
1F
100
AcDbEntity
  8
0
  6
Continuous
 62
     7
370
    25
100
AcDbLine
 10
5438.1188641135
 20
3822.9990350525
 30
0.0
 11
5440.240184457
 21
3822.9990350525
 31
0.0
  0
LINE
  5
FF
330
1F
100
AcDbEntity
  8
0
  6
Continuous
 62
     7
370
    25
100
AcDbLine
 10
4859.8762234264
 20
4272.9990350525
 30
0.0
 11
4859.8762234264
 21
3822.9990350525
 31
0.0
  0
LINE
  5
100
330
1F
100
AcDbEntity
  8
0
  6
Continuous
 62
     7
370
    25
100
AcDbLine
 10
4857.7549030828
 20
3822.9990350525
 30
0.0
 11
4859.8762234264
 21
3822.9990350525
 31
0.0
  0
ARC
  5
101
330
1F
100
AcDbEntity
  8
0
  6
Continuous
 62
     7
370
    25
100
AcDbCircle
 10
5323.9975437699
 20
3822.9990350525
 30
0.0
 40
114.12132034356
100
AcDbArc
 50
270.0
 51
0.0
  0
LINE
  5
102
330
1F
100
AcDbEntity
  8
0
  6
Continuous
 62
     7
370
    25
100
AcDbLine
 10
5323.9975437699
 20
3708.8777147089
 30
0.0
 11
5323.9975437699
 21
3706.7563943654
 31
0.0
  0
ARC
  5
103
330
1F
100
AcDbEntity
  8
0
  6
Continuous
 62
     7
370
    25
100
AcDbCircle
 10
4973.9975437699
 20
3822.9990350525
 30
0.0
 40
114.1213203435609
100
AcDbArc
 50
180.0
 51
270.0
  0
LINE
  5
104
330
1F
100
AcDbEntity
  8
0
  6
Continuous
 62
     7
370
    25
100
AcDbLine
 10
4973.9975437699
 20
3706.7563943654
 30
0.0
 11
4973.9975437699
 21
3708.8777147089
 31
0.0
  0
LINE
  5
105
330
1F
100
AcDbEntity
  8
0
  6
Continuous
 62
     7
370
    25
100
AcDbLine
 10
4973.9975437699
 20
3708.8777147089
 30
0.0
 11
5323.9975437699
 21
3708.8777147089
 31
0.0
  0
LINE
  5
106
330
1F
100
AcDbEntity
  8
0
  6
Continuous
 62
     7
370
    25
100
AcDbLine
 10
5448.9975437699
 20
3697.9990350525
 30
0.0
 11
4848.9975437699
 21
3697.9990350525
 31
0.0
  0
LINE
  5
107
330
1F
100
AcDbEntity
  8
0
  6
Continuous
 62
     7
370
    25
100
AcDbLine
 10
5448.9975437699
 20
3699.9990350525
 30
0.0
 11
5448.9975437699
 21
3697.9990350525
 31
0.0
  0
LINE
  5
108
330
1F
100
AcDbEntity
  8
0
  6
Continuous
 62
     7
370
    25
100
AcDbLine
 10
4973.9975437699
 20
4387.120355396
 30
0.0
 11
4973.9975437699
 21
4373.8777147089
 31
0.0
  0
ARC
  5
109
330
1F
100
AcDbEntity
  8
0
  6
Continuous
 62
     7
370
    25
100
AcDbCircle
 10
4973.9975437699
 20
4272.9990350525
 30
0.0
 40
100.8786796564409
100
AcDbArc
 50
90.0
 51
180.0
  0
LINE
  5
10A
330
1F
100
AcDbEntity
  8
0
  6
Continuous
 62
     7
370
    25
100
AcDbLine
 10
4859.8762234264
 20
4272.9990350525
 30
0.0
 11
4873.1188641135
 21
4272.9990350525
 31
0.0
  0
LINE
  5
10B
330
1F
100
AcDbEntity
  8
0
  6
Continuous
 62
     7
370
    25
100
AcDbLine
 10
5323.9975437699
 20
4373.8777147089
 30
0.0
 11
5323.9975437699
 21
4387.120355396
 31
0.0
  0
LINE
  5
10C
330
1F
100
AcDbEntity
  8
0
  6
Continuous
 62
     7
370
    25
100
AcDbLine
 10
4973.9975437699
 20
4373.8777147089
 30
0.0
 11
5323.9975437699
 21
4373.8777147089
 31
0.0
  0
LINE
  5
10D
330
1F
100
AcDbEntity
  8
0
  6
Continuous
 62
     7
370
    25
100
AcDbLine
 10
5424.8762234264
 20
4272.9990350525
 30
0.0
 11
5438.1188641135
 21
4272.9990350525
 31
0.0
  0
ARC
  5
10E
330
1F
100
AcDbEntity
  8
0
  6
Continuous
 62
     7
370
    25
100
AcDbCircle
 10
5323.9975437699
 20
4272.9990350525
 30
0.0
 40
100.8786796564409
100
AcDbArc
 50
0.0
 51
90.0
  0
LINE
  5
10F
330
1F
100
AcDbEntity
  8
0
  6
Continuous
 62
     7
370
    25
100
AcDbLine
 10
4873.1188641135
 20
3822.9990350525
 30
0.0
 11
4873.1188641135
 21
4272.9990350525
 31
0.0
  0
LINE
  5
110
330
1F
100
AcDbEntity
  8
0
  6
Continuous
 62
     7
370
    25
100
AcDbLine
 10
4859.8762234264
 20
3822.9990350525
 30
0.0
 11
4873.1188641135
 21
3822.9990350525
 31
0.0
  0
LINE
  5
111
330
1F
100
AcDbEntity
  8
0
  6
Continuous
 62
     7
370
    25
100
AcDbLine
 10
5424.8762234264
 20
3822.9990350525
 30
0.0
 11
5438.1188641135
 21
3822.9990350525
 31
0.0
  0
LINE
  5
112
330
1F
100
AcDbEntity
  8
0
  6
Continuous
 62
     7
370
    25
100
AcDbLine
 10
5424.8762234264
 20
4272.9990350525
 30
0.0
 11
5424.8762234264
 21
3822.9990350525
 31
0.0
  0
ARC
  5
113
330
1F
100
AcDbEntity
  8
0
  6
Continuous
 62
     7
370
    25
100
AcDbCircle
 10
4973.9975437699
 20
3822.9990350525
 30
0.0
 40
100.87867965644
100
AcDbArc
 50
180.0
 51
270.0
  0
LINE
  5
114
330
1F
100
AcDbEntity
  8
0
  6
Continuous
 62
     7
370
    25
100
AcDbLine
 10
4973.9975437699
 20
3708.8777147089
 30
0.0
 11
4973.9975437699
 21
3722.120355396
 31
0.0
  0
LINE
  5
115
330
1F
100
AcDbEntity
  8
0
  6
Continuous
 62
     7
370
    25
100
AcDbLine
 10
5323.9975437699
 20
3722.120355396
 30
0.0
 11
5323.9975437699
 21
3708.8777147089
 31
0.0
  0
ARC
  5
116
330
1F
100
AcDbEntity
  8
0
  6
Continuous
 62
     7
370
    25
100
AcDbCircle
 10
5323.9975437699
 20
3822.9990350525
 30
0.0
 40
100.8786796564409
100
AcDbArc
 50
270.0
 51
0.0
  0
LINE
  5
117
330
1F
100
AcDbEntity
  8
0
  6
Continuous
 62
     7
370
    25
100
AcDbLine
 10
5323.9975437699
 20
3722.120355396
 30
0.0
 11
4973.9975437699
 21
3722.120355396
 31
0.0
  0
LWPOLYLINE
  5
118
330
1F
100
AcDbEntity
  8
0
  6
Continuous
 62
     7
370
    25
100
AcDbPolyline
 90
       23
 70
   128
 43
0.0
 10
5148.9975437699
 20
4357.3221357496
 10
5132.0269901395
 20
4356.6771700863
 10
5115.0711204988
 20
4355.4896775334
 10
5098.1974231299
 20
4353.5734255768
 10
5081.4733863153
 20
4350.7421817025
 10
5068.4524442297
 20
4347.6184773508
 10
5055.6377729047
 20
4343.5836315603
 10
5043.0773261514
 20
4338.716937316
 10
5030.8190577811
 20
4333.0976876026
 10
5018.9109216051
 20
4326.805175405
 10
5007.4008714346
 20
4319.918693708
 10
4999.0495860817
 20
4314.5039240584
 10
4990.8496354546
 20
4308.8641284934
 10
4980.4455286572
 20
4300.8612083143
 10
4970.6053841491
 20
4292.0939369251
 10
4961.4106447123
 20
4282.6298870251
 10
4952.9427531286
 20
4272.5366313139
 10
4945.2831521797
 20
4261.8817424909
 10
4938.2520904299
 20
4250.5344692293
 10
4931.8496079578
 20
4238.8072294783
 10
4926.006542329
 20
4226.7977991321
 10
4917.3736611251
 20
4206.6362716096
 10
4909.797676297
 20
4186.052562335
  0
LWPOLYLINE
  5
119
330
1F
100
AcDbEntity
  8
0
  6
Continuous
 62
     7
370
    25
100
AcDbPolyline
 90
       23
 70
   128
 43
0.0
 10
4906.844303153
 20
4183.5430794393
 10
4912.6505507901
 20
4200.1046796868
 10
4919.1172151979
 20
4216.4649976913
 10
4926.3579056507
 20
4232.4888185283
 10
4934.4862314228
 20
4248.0409272734
 10
4943.6158017882
 20
4262.9861090023
 10
4951.3606127597
 20
4273.759737215
 10
4959.9225776294
 20
4283.9656100314
 10
4969.2194378349
 20
4293.5353140022
 10
4979.1689348138
 20
4302.4004356786
 10
4989.6888100038
 20
4310.4925616114
 10
4997.9335697707
 20
4316.1633778484
 10
5006.330491634
 20
4321.6079375462
 10
5017.9451938327
 20
4328.5562455333
 10
5029.9619812908
 20
4334.9042614141
 10
5042.3322706363
 20
4340.5724409145
 10
5055.0074784971
 20
4345.4812397607
 10
5067.9390215011
 20
4349.5511136786
 10
5081.0783162764
 20
4352.7025183943
 10
5097.9002166747
 20
4355.5505718205
 10
5114.8726243153
 20
4357.4785733063
 10
5131.9276848099
 20
4358.6735517876
 10
5148.99754377
 20
4359.3225362002
  0
LINE
  5
11A
330
1F
100
AcDbEntity
  8
0
  6
Continuous
 62
     7
370
    25
100
AcDbLine
 10
5148.99754377
 20
4359.3225362002
 30
0.0
 11
5148.9975437699
 21
4357.3221357496
 31
0.0
  0
LWPOLYLINE
  5
11B
330
1F
100
AcDbEntity
  8
0
  6
Continuous
 62
     7
370
    25
100
AcDbPolyline
 90
        3
 70
   128
 43
0.0
 10
4920.7741256679
 20
4214.6536345855
 10
4921.4370196747
 20
4216.2193657148
 10
4921.9622223106
 20
4217.447671165
  0
LINE
  5
11C
330
1F
100
AcDbEntity
  8
0
  6
Continuous
 62
     7
370
    25
100
AcDbLine
 10
5148.9975437699
 20
4357.3221357496
 30
0.0
 11
5148.9975437699
 21
4357.0315448054
 31
0.0
  0
ARC
  5
11D
330
1F
100
AcDbEntity
  8
0
  6
Continuous
 62
     7
370
    25
100
AcDbCircle
 10
5082.9869288339
 20
4248.5438903991
 30
0.0
 40
98.99147931100599
100
AcDbArc
 50
105.5609918928
 51
117.5548910079
  0
LWPOLYLINE
  5
11E
330
1F
100
AcDbEntity
  8
0
  6
Continuous
 62
     7
370
    25
100
AcDbPolyline
 90
       25
 70
   128
 43
0.0
 10
5388.1974112429
 20
4186.052562335
 10
5383.2381950093
 20
4199.979813169
 10
5377.8159384453
 20
4213.7782130067
 10
5371.8558609606
 20
4227.3572891787
 10
5365.2831819647
 20
4240.6265690153
 10
5358.0231208672
 20
4253.4955798473
 10
5350.0008970777
 20
4265.873849005
 10
5342.0732987364
 20
4276.3184482494
 10
5333.3214529849
 20
4286.1495261019
 10
5323.8542079729
 20
4295.3328280651
 10
5313.7804118495
 20
4303.834099642
 10
5303.2089127641
 20
4311.6190863353
 10
5292.42051401
 20
4318.7797520349
 10
5281.3308724713
 20
4325.5554984088
 10
5269.9438188149
 20
4331.8288132839
 10
5258.2631837074
 20
4337.482184487
 10
5246.2927978155
 20
4342.398099845
 10
5234.036491806
 20
4346.4590471849
 10
5229.4791399523
 20
4347.7242328718
 10
5220.2752934603
 20
4349.9519882382
 10
5210.984967215
 20
4351.7876801261
 10
5195.5972134694
 20
4354.0984681126
 10
5180.1070712053
 20
4355.7070187742
 10
5164.5590210848
 20
4356.7395140177
 10
5148.9975437699
 20
4357.3221357496
  0
LWPOLYLINE
  5
11F
330
1F
100
AcDbEntity
  8
0
  6
Continuous
 62
     7
370
    25
100
AcDbPolyline
 90
       25
 70
   128
 43
0.0
 10
5148.99754377
 20
4359.3225362002
 10
5152.9958860616
 20
4359.206643194
 10
5168.9800411943
 20
4358.458422859
 10
5175.2777340801
 20
4358.0293148827
 10
5190.2677740799
 20
4356.6779758928
 10
5205.2118327142
 20
4354.737979491
 10
5220.0177364924
 20
4352.0312525602
 10
5234.5933119237
 20
4348.3797219833
 10
5246.9510053219
 20
4344.2863874248
 10
5259.0212007602
 20
4339.3325868549
 10
5270.7996487019
 20
4333.6360304075
 10
5282.2820996105
 20
4327.3144282165
 10
5293.4643039494
 20
4320.4854904157
 10
5304.342012182
 20
4313.2669271392
 10
5315.0288012302
 20
4305.3962914862
 10
5325.2118411729
 20
4296.8009177484
 10
5334.781492196
 20
4287.5158438943
 10
5343.6281144854
 20
4277.5761078923
 10
5351.642068227
 20
4267.0167477109
 10
5360.0037655032
 20
4254.0910252799
 10
5367.5493769449
 20
4240.6406864214
 10
5374.3578935531
 20
4226.7632267717
 10
5380.5083063288
 20
4212.5561419673
 10
5386.079606273
 20
4198.1169276443
 10
5391.1507843869
 20
4183.5430794393
  0
LWPOLYLINE
  5
120
330
1F
100
AcDbEntity
  8
0
  6
Continuous
 62
     7
370
    25
100
AcDbPolyline
 90
        3
 70
   128
 43
0.0
 10
5376.0328652293
 20
4217.447671165
 10
5376.7006337309
 20
4215.8840780476
 10
5377.22096187
 20
4214.6536345901
  0
ARC
  5
121
330
1F
100
AcDbEntity
  8
0
  6
Continuous
 62
     7
370
    25
100
AcDbCircle
 10
5215.008158706
 20
4248.5438903991
 30
0.0
 40
98.9914793109716
100
AcDbArc
 50
62.4451089921
 51
74.4390081072
  0
ARC
  5
122
330
1F
100
AcDbEntity
  8
0
  6
Continuous
 62
     7
370
    25
100
AcDbCircle
 10
5041.4975437699
 20
4028.8606151956
 30
0.0
 40
0.071728695169785
100
AcDbArc
 50
66.4435356912
 51
246.4435356906
  0
LINE
  5
123
330
1F
100
AcDbEntity
  8
0
  6
Continuous
 62
     7
370
    25
100
AcDbLine
 10
5039.279889619
 20
4023.7740737812
 30
0.0
 11
5041.4688772085
 21
4028.7948638917
 31
0.0
  0
ARC
  5
124
330
1F
100
AcDbEntity
  8
0
  6
Continuous
 62
     7
370
    25
100
AcDbCircle
 10
5041.4975437699
 20
4028.8606151956
 30
0.0
 40
5.548954270221675
100
AcDbArc
 50
66.4435356909
 51
246.4435356909
  0
LINE
  5
125
330
1F
100
AcDbEntity
  8
0
  6
Continuous
 62
     7
370
    25
100
AcDbLine
 10
5041.5262103314
 20
4028.9263664995
 30
0.0
 11
5043.7151979208
 21
4033.94715661
 31
0.0
  0
ARC
  5
126
330
1F
100
AcDbEntity
  8
0
  6
Continuous
 62
     7
370
    25
100
AcDbCircle
 10
5256.4975437699
 20
4028.8606151956
 30
0.0
 40
5.548954270222038
100
AcDbArc
 50
293.5564643091
 51
113.5564643091
  0
LINE
  5
127
330
1F
100
AcDbEntity
  8
0
  6
Continuous
 62
     7
370
    25
100
AcDbLine
 10
5258.7151979208
 20
4023.7740737812
 30
0.0
 11
5256.5262103314
 21
4028.7948638917
 31
0.0
  0
ARC
  5
128
330
1F
100
AcDbEntity
  8
0
  6
Continuous
 62
     7
370
    25
100
AcDbCircle
 10
5256.4975437699
 20
4028.8606151956
 30
0.0
 40
0.071728695169785
100
AcDbArc
 50
293.5564643088
 51
113.5564643094
  0
LINE
  5
129
330
1F
100
AcDbEntity
  8
0
  6
Continuous
 62
     7
370
    25
100
AcDbLine
 10
5254.279889619
 20
4033.94715661
 30
0.0
 11
5256.4688772085
 21
4028.9263664995
 31
0.0
  0
LINE
  5
12A
330
1F
100
AcDbEntity
  8
0
  6
Continuous
 62
     7
370
    25
100
AcDbLine
 10
5254.279889619
 20
4033.94715661
 30
0.0
 11
5226.779889619
 21
4021.9575778017
 31
0.0
  0
LINE
  5
12B
330
1F
100
AcDbEntity
  8
0
  6
Continuous
 62
     7
370
    25
100
AcDbLine
 10
5256.4688772085
 20
4028.9263664995
 30
0.0
 11
5228.9688772085
 21
4016.9367876912
 31
0.0
  0
LINE
  5
12C
330
1F
100
AcDbEntity
  8
0
  6
Continuous
 62
     7
370
    25
100
AcDbLine
 10
5228.9688772085
 20
4016.9367876912
 30
0.0
 11
5226.779889619
 21
4021.9575778017
 31
0.0
  0
LINE
  5
12D
330
1F
100
AcDbEntity
  8
0
  6
Continuous
 62
     7
370
    25
100
AcDbLine
 10
5069.0262103314
 20
4016.9367876912
 30
0.0
 11
5041.5262103314
 21
4028.9263664995
 31
0.0
  0
LINE
  5
12E
330
1F
100
AcDbEntity
  8
0
  6
Continuous
 62
     7
370
    25
100
AcDbLine
 10
5043.7151979208
 20
4033.94715661
 30
0.0
 11
5071.2151979208
 21
4021.9575778017
 31
0.0
  0
LINE
  5
12F
330
1F
100
AcDbEntity
  8
0
  6
Continuous
 62
     7
370
    25
100
AcDbLine
 10
5069.0262103314
 20
4016.9367876912
 30
0.0
 11
5071.2151979208
 21
4021.9575778017
 31
0.0
  0
LINE
  5
130
330
1F
100
AcDbEntity
  8
0
  6
Continuous
 62
     7
370
    25
100
AcDbLine
 10
5039.279889619
 20
4023.7740737812
 30
0.0
 11
5066.779889619
 21
4011.784494973
 31
0.0
  0
LINE
  5
131
330
1F
100
AcDbEntity
  8
0
  6
Continuous
 62
     7
370
    25
100
AcDbLine
 10
5041.4688772085
 20
4028.7948638917
 30
0.0
 11
5068.9688772085
 21
4016.8052850834
 31
0.0
  0
LINE
  5
132
330
1F
100
AcDbEntity
  8
0
  6
Continuous
 62
     7
370
    25
100
AcDbLine
 10
5066.779889619
 20
4011.784494973
 30
0.0
 11
5068.9688772085
 21
4016.8052850834
 31
0.0
  0
LINE
  5
133
330
1F
100
AcDbEntity
  8
0
  6
Continuous
 62
     7
370
    25
100
AcDbLine
 10
5258.7151979208
 20
4023.7740737812
 30
0.0
 11
5231.2151979208
 21
4011.784494973
 31
0.0
  0
LINE
  5
134
330
1F
100
AcDbEntity
  8
0
  6
Continuous
 62
     7
370
    25
100
AcDbLine
 10
5229.0262103314
 20
4016.8052850834
 30
0.0
 11
5231.2151979208
 21
4011.784494973
 31
0.0
  0
LINE
  5
135
330
1F
100
AcDbEntity
  8
0
  6
Continuous
 62
     7
370
    25
100
AcDbLine
 10
5229.0262103314
 20
4016.8052850834
 30
0.0
 11
5256.5262103314
 21
4028.7948638917
 31
0.0
  0
ARC
  5
136
330
1F
100
AcDbEntity
  8
0
  6
Continuous
 62
     7
370
    25
100
AcDbCircle
 10
5068.9975437699
 20
4016.8710363873
 30
0.0
 40
0.071728695169785
100
AcDbArc
 50
246.4435356906
 51
66.4435356906
  0
ARC
  5
137
330
1F
100
AcDbEntity
  8
0
  6
Continuous
 62
     7
370
    25
100
AcDbCircle
 10
5228.9975437699
 20
4016.8710363873
 30
0.0
 40
0.071728695169785
100
AcDbArc
 50
113.5564643094
 51
293.5564643088
  0
ARC
  5
138
330
1F
100
AcDbEntity
  8
0
  6
Continuous
 62
     7
370
    25
100
AcDbCircle
 10
5068.9975437699
 20
4016.8710363873
 30
0.0
 40
5.548954270221675
100
AcDbArc
 50
246.4435356909
 51
66.4435356909
  0
ARC
  5
139
330
1F
100
AcDbEntity
  8
0
  6
Continuous
 62
     7
370
    25
100
AcDbCircle
 10
5228.9975437699
 20
4016.8710363873
 30
0.0
 40
5.548954270221621
100
AcDbArc
 50
113.5564643091
 51
293.5564643091
  0
ARC
  5
13A
330
1F
100
AcDbEntity
  8
0
  6
Continuous
 62
     7
370
    25
100
AcDbCircle
 10
5013.9975437699
 20
3999.8554045998
 30
0.0
 40
0.071728695169785
100
AcDbArc
 50
66.4435356912
 51
246.4435356906
  0
LINE
  5
13B
330
1F
100
AcDbEntity
  8
0
  6
Continuous
 62
     7
370
    25
100
AcDbLine
 10
5011.779889619
 20
3994.7688631854
 30
0.0
 11
5013.9688772085
 21
3999.7896532959
 31
0.0
  0
ARC
  5
13C
330
1F
100
AcDbEntity
  8
0
  6
Continuous
 62
     7
370
    25
100
AcDbCircle
 10
5013.9975437699
 20
3999.8554045998
 30
0.0
 40
5.548954270221675
100
AcDbArc
 50
66.4435356909
 51
246.4435356909
  0
LINE
  5
13D
330
1F
100
AcDbEntity
  8
0
  6
Continuous
 62
     7
370
    25
100
AcDbLine
 10
5014.0262103314
 20
3999.9211559037
 30
0.0
 11
5016.2151979208
 21
4004.9419460141
 31
0.0
  0
ARC
  5
13E
330
1F
100
AcDbEntity
  8
0
  6
Continuous
 62
     7
370
    25
100
AcDbCircle
 10
5283.9975437699
 20
3999.8554045998
 30
0.0
 40
5.548954270222038
100
AcDbArc
 50
293.5564643091
 51
113.5564643091
  0
LINE
  5
13F
330
1F
100
AcDbEntity
  8
0
  6
Continuous
 62
     7
370
    25
100
AcDbLine
 10
5286.2151979208
 20
3994.7688631854
 30
0.0
 11
5284.0262103314
 21
3999.7896532959
 31
0.0
  0
ARC
  5
140
330
1F
100
AcDbEntity
  8
0
  6
Continuous
 62
     7
370
    25
100
AcDbCircle
 10
5283.9975437699
 20
3999.8554045998
 30
0.0
 40
0.071728695169785
100
AcDbArc
 50
293.5564643094
 51
113.5564643088
  0
LINE
  5
141
330
1F
100
AcDbEntity
  8
0
  6
Continuous
 62
     7
370
    25
100
AcDbLine
 10
5281.779889619
 20
4004.9419460141
 30
0.0
 11
5283.9688772085
 21
3999.9211559037
 31
0.0
  0
LINE
  5
142
330
1F
100
AcDbEntity
  8
0
  6
Continuous
 62
     7
370
    25
100
AcDbLine
 10
5281.779889619
 20
4004.9419460141
 30
0.0
 11
5226.779889619
 21
3980.9627883976
 31
0.0
  0
LINE
  5
143
330
1F
100
AcDbEntity
  8
0
  6
Continuous
 62
     7
370
    25
100
AcDbLine
 10
5283.9688772085
 20
3999.9211559037
 30
0.0
 11
5228.9688772085
 21
3975.9419982871
 31
0.0
  0
LINE
  5
144
330
1F
100
AcDbEntity
  8
0
  6
Continuous
 62
     7
370
    25
100
AcDbLine
 10
5228.9688772085
 20
3975.9419982871
 30
0.0
 11
5226.779889619
 21
3980.9627883976
 31
0.0
  0
LINE
  5
145
330
1F
100
AcDbEntity
  8
0
  6
Continuous
 62
     7
370
    25
100
AcDbLine
 10
5069.0262103314
 20
3975.9419982871
 30
0.0
 11
5014.0262103314
 21
3999.9211559037
 31
0.0
  0
LINE
  5
146
330
1F
100
AcDbEntity
  8
0
  6
Continuous
 62
     7
370
    25
100
AcDbLine
 10
5016.2151979208
 20
4004.9419460141
 30
0.0
 11
5071.2151979208
 21
3980.9627883976
 31
0.0
  0
LINE
  5
147
330
1F
100
AcDbEntity
  8
0
  6
Continuous
 62
     7
370
    25
100
AcDbLine
 10
5069.0262103314
 20
3975.9419982871
 30
0.0
 11
5071.2151979208
 21
3980.9627883976
 31
0.0
  0
LINE
  5
148
330
1F
100
AcDbEntity
  8
0
  6
Continuous
 62
     7
370
    25
100
AcDbLine
 10
5011.779889619
 20
3994.7688631854
 30
0.0
 11
5066.779889619
 21
3970.7897055688
 31
0.0
  0
LINE
  5
149
330
1F
100
AcDbEntity
  8
0
  6
Continuous
 62
     7
370
    25
100
AcDbLine
 10
5013.9688772085
 20
3999.7896532959
 30
0.0
 11
5068.9688772085
 21
3975.8104956793
 31
0.0
  0
LINE
  5
14A
330
1F
100
AcDbEntity
  8
0
  6
Continuous
 62
     7
370
    25
100
AcDbLine
 10
5066.779889619
 20
3970.7897055688
 30
0.0
 11
5068.9688772085
 21
3975.8104956793
 31
0.0
  0
LINE
  5
14B
330
1F
100
AcDbEntity
  8
0
  6
Continuous
 62
     7
370
    25
100
AcDbLine
 10
5286.2151979208
 20
3994.7688631854
 30
0.0
 11
5231.2151979208
 21
3970.7897055688
 31
0.0
  0
LINE
  5
14C
330
1F
100
AcDbEntity
  8
0
  6
Continuous
 62
     7
370
    25
100
AcDbLine
 10
5229.0262103314
 20
3975.8104956793
 30
0.0
 11
5231.2151979208
 21
3970.7897055688
 31
0.0
  0
LINE
  5
14D
330
1F
100
AcDbEntity
  8
0
  6
Continuous
 62
     7
370
    25
100
AcDbLine
 10
5229.0262103314
 20
3975.8104956793
 30
0.0
 11
5284.0262103314
 21
3999.7896532959
 31
0.0
  0
ARC
  5
14E
330
1F
100
AcDbEntity
  8
0
  6
Continuous
 62
     7
370
    25
100
AcDbCircle
 10
5228.9975437699
 20
3975.8762469832
 30
0.0
 40
0.0717286951698383
100
AcDbArc
 50
113.5564643094
 51
293.5564643086
  0
ARC
  5
14F
330
1F
100
AcDbEntity
  8
0
  6
Continuous
 62
     7
370
    25
100
AcDbCircle
 10
5068.9975437699
 20
3975.8762469832
 30
0.0
 40
0.0717286951702018
100
AcDbArc
 50
246.4435356907
 51
66.4435356906
  0
ARC
  5
150
330
1F
100
AcDbEntity
  8
0
  6
Continuous
 62
     7
370
    25
100
AcDbCircle
 10
5228.9975437699
 20
3975.8762469832
 30
0.0
 40
5.548954270221621
100
AcDbArc
 50
113.5564643091
 51
293.5564643091
  0
ARC
  5
151
330
1F
100
AcDbEntity
  8
0
  6
Continuous
 62
     7
370
    25
100
AcDbCircle
 10
5068.9975437699
 20
3975.8762469832
 30
0.0
 40
5.548954270221675
100
AcDbArc
 50
246.4435356909
 51
66.4435356909
  0
ARC
  5
152
330
1F
100
AcDbEntity
  8
0
  6
Continuous
 62
     7
370
    25
100
AcDbCircle
 10
5283.9975437699
 20
3959.8554045998
 30
0.0
 40
5.548954270222038
100
AcDbArc
 50
293.5564643091
 51
113.5564643091
  0
LINE
  5
153
330
1F
100
AcDbEntity
  8
0
  6
Continuous
 62
     7
370
    25
100
AcDbLine
 10
5286.2151979208
 20
3954.7688631854
 30
0.0
 11
5284.0262103314
 21
3959.7896532959
 31
0.0
  0
ARC
  5
154
330
1F
100
AcDbEntity
  8
0
  6
Continuous
 62
     7
370
    25
100
AcDbCircle
 10
5283.9975437699
 20
3959.8554045998
 30
0.0
 40
0.0717286951702018
100
AcDbArc
 50
293.5564643093
 51
113.5564643088
  0
LINE
  5
155
330
1F
100
AcDbEntity
  8
0
  6
Continuous
 62
     7
370
    25
100
AcDbLine
 10
5281.779889619
 20
3964.9419460141
 30
0.0
 11
5283.9688772085
 21
3959.9211559037
 31
0.0
  0
ARC
  5
156
330
1F
100
AcDbEntity
  8
0
  6
Continuous
 62
     7
370
    25
100
AcDbCircle
 10
5013.9975437699
 20
3959.8554045998
 30
0.0
 40
0.0717286951702018
100
AcDbArc
 50
66.4435356912
 51
246.4435356907
  0
LINE
  5
157
330
1F
100
AcDbEntity
  8
0
  6
Continuous
 62
     7
370
    25
100
AcDbLine
 10
5011.779889619
 20
3954.7688631854
 30
0.0
 11
5013.9688772085
 21
3959.7896532959
 31
0.0
  0
ARC
  5
158
330
1F
100
AcDbEntity
  8
0
  6
Continuous
 62
     7
370
    25
100
AcDbCircle
 10
5013.9975437699
 20
3959.8554045998
 30
0.0
 40
5.548954270221675
100
AcDbArc
 50
66.4435356909
 51
246.4435356909
  0
LINE
  5
159
330
1F
100
AcDbEntity
  8
0
  6
Continuous
 62
     7
370
    25
100
AcDbLine
 10
5014.0262103314
 20
3959.9211559037
 30
0.0
 11
5016.2151979208
 21
3964.9419460141
 31
0.0
  0
LINE
  5
15A
330
1F
100
AcDbEntity
  8
0
  6
Continuous
 62
     7
370
    25
100
AcDbLine
 10
5281.779889619
 20
3964.9419460141
 30
0.0
 11
5226.779889619
 21
3940.9627883976
 31
0.0
  0
LINE
  5
15B
330
1F
100
AcDbEntity
  8
0
  6
Continuous
 62
     7
370
    25
100
AcDbLine
 10
5283.9688772085
 20
3959.9211559037
 30
0.0
 11
5228.9688772085
 21
3935.9419982871
 31
0.0
  0
LINE
  5
15C
330
1F
100
AcDbEntity
  8
0
  6
Continuous
 62
     7
370
    25
100
AcDbLine
 10
5228.9688772085
 20
3935.9419982871
 30
0.0
 11
5226.779889619
 21
3940.9627883976
 31
0.0
  0
LINE
  5
15D
330
1F
100
AcDbEntity
  8
0
  6
Continuous
 62
     7
370
    25
100
AcDbLine
 10
5069.0262103314
 20
3935.9419982871
 30
0.0
 11
5014.0262103314
 21
3959.9211559037
 31
0.0
  0
LINE
  5
15E
330
1F
100
AcDbEntity
  8
0
  6
Continuous
 62
     7
370
    25
100
AcDbLine
 10
5016.2151979208
 20
3964.9419460141
 30
0.0
 11
5071.2151979208
 21
3940.9627883976
 31
0.0
  0
LINE
  5
15F
330
1F
100
AcDbEntity
  8
0
  6
Continuous
 62
     7
370
    25
100
AcDbLine
 10
5069.0262103314
 20
3935.9419982871
 30
0.0
 11
5071.2151979208
 21
3940.9627883976
 31
0.0
  0
LINE
  5
160
330
1F
100
AcDbEntity
  8
0
  6
Continuous
 62
     7
370
    25
100
AcDbLine
 10
5229.0262103314
 20
3935.8104956793
 30
0.0
 11
5284.0262103314
 21
3959.7896532959
 31
0.0
  0
ARC
  5
161
330
1F
100
AcDbEntity
  8
0
  6
Continuous
 62
     7
370
    25
100
AcDbCircle
 10
5228.9975437699
 20
3935.8762469832
 30
0.0
 40
0.0717286951702018
100
AcDbArc
 50
113.5564643093
 51
293.5564643088
  0
LINE
  5
162
330
1F
100
AcDbEntity
  8
0
  6
Continuous
 62
     7
370
    25
100
AcDbLine
 10
5011.779889619
 20
3954.7688631854
 30
0.0
 11
5066.779889619
 21
3930.7897055688
 31
0.0
  0
LINE
  5
163
330
1F
100
AcDbEntity
  8
0
  6
Continuous
 62
     7
370
    25
100
AcDbLine
 10
5013.9688772085
 20
3959.7896532959
 30
0.0
 11
5068.9688772085
 21
3935.8104956793
 31
0.0
  0
LINE
  5
164
330
1F
100
AcDbEntity
  8
0
  6
Continuous
 62
     7
370
    25
100
AcDbLine
 10
5066.779889619
 20
3930.7897055688
 30
0.0
 11
5068.9688772085
 21
3935.8104956793
 31
0.0
  0
ARC
  5
165
330
1F
100
AcDbEntity
  8
0
  6
Continuous
 62
     7
370
    25
100
AcDbCircle
 10
5068.9975437699
 20
3935.8762469832
 30
0.0
 40
0.0717286951701485
100
AcDbArc
 50
246.4435356899
 51
66.4435356914
  0
LINE
  5
166
330
1F
100
AcDbEntity
  8
0
  6
Continuous
 62
     7
370
    25
100
AcDbLine
 10
5286.2151979208
 20
3954.7688631854
 30
0.0
 11
5231.2151979208
 21
3930.7897055688
 31
0.0
  0
LINE
  5
167
330
1F
100
AcDbEntity
  8
0
  6
Continuous
 62
     7
370
    25
100
AcDbLine
 10
5229.0262103314
 20
3935.8104956793
 30
0.0
 11
5231.2151979208
 21
3930.7897055688
 31
0.0
  0
ARC
  5
168
330
1F
100
AcDbEntity
  8
0
  6
Continuous
 62
     7
370
    25
100
AcDbCircle
 10
5228.9975437699
 20
3935.8762469832
 30
0.0
 40
5.548954270222038
100
AcDbArc
 50
113.5564643091
 51
293.5564643091
  0
ARC
  5
169
330
1F
100
AcDbEntity
  8
0
  6
Continuous
 62
     7
370
    25
100
AcDbCircle
 10
5068.9975437699
 20
3935.8762469832
 30
0.0
 40
5.548954270221621
100
AcDbArc
 50
246.4435356909
 51
66.4435356909
  0
ARC
  5
16A
330
1F
100
AcDbEntity
  8
0
  6
Continuous
 62
     7
370
    25
100
AcDbCircle
 10
5013.9975437699
 20
3919.8554045998
 30
0.0
 40
0.0717286951698383
100
AcDbArc
 50
66.4435356914
 51
246.4435356906
  0
LINE
  5
16B
330
1F
100
AcDbEntity
  8
0
  6
Continuous
 62
     7
370
    25
100
AcDbLine
 10
5011.779889619
 20
3914.7688631854
 30
0.0
 11
5013.9688772085
 21
3919.7896532959
 31
0.0
  0
ARC
  5
16C
330
1F
100
AcDbEntity
  8
0
  6
Continuous
 62
     7
370
    25
100
AcDbCircle
 10
5013.9975437699
 20
3919.8554045998
 30
0.0
 40
5.548954270221675
100
AcDbArc
 50
66.4435356909
 51
246.4435356909
  0
LINE
  5
16D
330
1F
100
AcDbEntity
  8
0
  6
Continuous
 62
     7
370
    25
100
AcDbLine
 10
5014.0262103314
 20
3919.9211559037
 30
0.0
 11
5016.2151979208
 21
3924.9419460141
 31
0.0
  0
ARC
  5
16E
330
1F
100
AcDbEntity
  8
0
  6
Continuous
 62
     7
370
    25
100
AcDbCircle
 10
5283.9975437699
 20
3919.8554045998
 30
0.0
 40
5.548954270221675
100
AcDbArc
 50
293.5564643091
 51
113.5564643091
  0
LINE
  5
16F
330
1F
100
AcDbEntity
  8
0
  6
Continuous
 62
     7
370
    25
100
AcDbLine
 10
5286.2151979208
 20
3914.7688631854
 30
0.0
 11
5284.0262103314
 21
3919.7896532959
 31
0.0
  0
ARC
  5
170
330
1F
100
AcDbEntity
  8
0
  6
Continuous
 62
     7
370
    25
100
AcDbCircle
 10
5283.9975437699
 20
3919.8554045998
 30
0.0
 40
0.0717286951698383
100
AcDbArc
 50
293.5564643094
 51
113.5564643086
  0
LINE
  5
171
330
1F
100
AcDbEntity
  8
0
  6
Continuous
 62
     7
370
    25
100
AcDbLine
 10
5281.779889619
 20
3924.9419460141
 30
0.0
 11
5283.9688772085
 21
3919.9211559037
 31
0.0
  0
LINE
  5
172
330
1F
100
AcDbEntity
  8
0
  6
Continuous
 62
     7
370
    25
100
AcDbLine
 10
5069.0262103314
 20
3895.9419982871
 30
0.0
 11
5014.0262103314
 21
3919.9211559037
 31
0.0
  0
LINE
  5
173
330
1F
100
AcDbEntity
  8
0
  6
Continuous
 62
     7
370
    25
100
AcDbLine
 10
5016.2151979208
 20
3924.9419460141
 30
0.0
 11
5071.2151979208
 21
3900.9627883976
 31
0.0
  0
LINE
  5
174
330
1F
100
AcDbEntity
  8
0
  6
Continuous
 62
     7
370
    25
100
AcDbLine
 10
5069.0262103314
 20
3895.9419982871
 30
0.0
 11
5071.2151979208
 21
3900.9627883976
 31
0.0
  0
LINE
  5
175
330
1F
100
AcDbEntity
  8
0
  6
Continuous
 62
     7
370
    25
100
AcDbLine
 10
5281.779889619
 20
3924.9419460141
 30
0.0
 11
5226.779889619
 21
3900.9627883976
 31
0.0
  0
LINE
  5
176
330
1F
100
AcDbEntity
  8
0
  6
Continuous
 62
     7
370
    25
100
AcDbLine
 10
5283.9688772085
 20
3919.9211559037
 30
0.0
 11
5228.9688772085
 21
3895.9419982871
 31
0.0
  0
LINE
  5
177
330
1F
100
AcDbEntity
  8
0
  6
Continuous
 62
     7
370
    25
100
AcDbLine
 10
5228.9688772085
 20
3895.9419982871
 30
0.0
 11
5226.779889619
 21
3900.9627883976
 31
0.0
  0
LINE
  5
178
330
1F
100
AcDbEntity
  8
0
  6
Continuous
 62
     7
370
    25
100
AcDbLine
 10
5011.779889619
 20
3914.7688631854
 30
0.0
 11
5066.779889619
 21
3890.7897055688
 31
0.0
  0
LINE
  5
179
330
1F
100
AcDbEntity
  8
0
  6
Continuous
 62
     7
370
    25
100
AcDbLine
 10
5013.9688772085
 20
3919.7896532959
 30
0.0
 11
5068.9688772085
 21
3895.8104956793
 31
0.0
  0
LINE
  5
17A
330
1F
100
AcDbEntity
  8
0
  6
Continuous
 62
     7
370
    25
100
AcDbLine
 10
5066.779889619
 20
3890.7897055688
 30
0.0
 11
5068.9688772085
 21
3895.8104956793
 31
0.0
  0
LINE
  5
17B
330
1F
100
AcDbEntity
  8
0
  6
Continuous
 62
     7
370
    25
100
AcDbLine
 10
5229.0262103314
 20
3895.8104956793
 30
0.0
 11
5284.0262103314
 21
3919.7896532959
 31
0.0
  0
ARC
  5
17C
330
1F
100
AcDbEntity
  8
0
  6
Continuous
 62
     7
370
    25
100
AcDbCircle
 10
5228.9975437699
 20
3895.8762469832
 30
0.0
 40
0.071728695169785
100
AcDbArc
 50
113.5564643094
 51
293.5564643088
  0
ARC
  5
17D
330
1F
100
AcDbEntity
  8
0
  6
Continuous
 62
     7
370
    25
100
AcDbCircle
 10
5068.9975437699
 20
3895.8762469832
 30
0.0
 40
0.0717286951701485
100
AcDbArc
 50
246.4435356899
 51
66.4435356912
  0
LINE
  5
17E
330
1F
100
AcDbEntity
  8
0
  6
Continuous
 62
     7
370
    25
100
AcDbLine
 10
5286.2151979208
 20
3914.7688631854
 30
0.0
 11
5231.2151979208
 21
3890.7897055688
 31
0.0
  0
LINE
  5
17F
330
1F
100
AcDbEntity
  8
0
  6
Continuous
 62
     7
370
    25
100
AcDbLine
 10
5229.0262103314
 20
3895.8104956793
 30
0.0
 11
5231.2151979208
 21
3890.7897055688
 31
0.0
  0
ARC
  5
180
330
1F
100
AcDbEntity
  8
0
  6
Continuous
 62
     7
370
    25
100
AcDbCircle
 10
5068.9975437699
 20
3895.8762469832
 30
0.0
 40
5.548954270221621
100
AcDbArc
 50
246.4435356909
 51
66.4435356909
  0
ARC
  5
181
330
1F
100
AcDbEntity
  8
0
  6
Continuous
 62
     7
370
    25
100
AcDbCircle
 10
5228.9975437699
 20
3895.8762469832
 30
0.0
 40
5.548954270222038
100
AcDbArc
 50
113.5564643091
 51
293.5564643091
  0
ARC
  5
182
330
1F
100
AcDbEntity
  8
0
  6
Continuous
 62
     7
370
    25
100
AcDbCircle
 10
5283.9975437699
 20
3878.8606151956
 30
0.0
 40
5.548954270221675
100
AcDbArc
 50
293.5564643091
 51
113.5564643091
  0
LINE
  5
183
330
1F
100
AcDbEntity
  8
0
  6
Continuous
 62
     7
370
    25
100
AcDbLine
 10
5286.2151979208
 20
3873.7740737812
 30
0.0
 11
5284.0262103314
 21
3878.7948638917
 31
0.0
  0
ARC
  5
184
330
1F
100
AcDbEntity
  8
0
  6
Continuous
 62
     7
370
    25
100
AcDbCircle
 10
5283.9975437699
 20
3878.8606151956
 30
0.0
 40
0.0717286951698383
100
AcDbArc
 50
293.5564643094
 51
113.5564643086
  0
LINE
  5
185
330
1F
100
AcDbEntity
  8
0
  6
Continuous
 62
     7
370
    25
100
AcDbLine
 10
5281.779889619
 20
3883.94715661
 30
0.0
 11
5283.9688772085
 21
3878.9263664995
 31
0.0
  0
ARC
  5
186
330
1F
100
AcDbEntity
  8
0
  6
Continuous
 62
     7
370
    25
100
AcDbCircle
 10
5013.9975437699
 20
3878.8606151956
 30
0.0
 40
0.0717286951698383
100
AcDbArc
 50
66.4435356914
 51
246.4435356906
  0
LINE
  5
187
330
1F
100
AcDbEntity
  8
0
  6
Continuous
 62
     7
370
    25
100
AcDbLine
 10
5011.779889619
 20
3873.7740737812
 30
0.0
 11
5013.9688772085
 21
3878.7948638917
 31
0.0
  0
ARC
  5
188
330
1F
100
AcDbEntity
  8
0
  6
Continuous
 62
     7
370
    25
100
AcDbCircle
 10
5013.9975437699
 20
3878.8606151956
 30
0.0
 40
5.548954270221675
100
AcDbArc
 50
66.4435356909
 51
246.4435356909
  0
LINE
  5
189
330
1F
100
AcDbEntity
  8
0
  6
Continuous
 62
     7
370
    25
100
AcDbLine
 10
5014.0262103314
 20
3878.9263664995
 30
0.0
 11
5016.2151979208
 21
3883.94715661
 31
0.0
  0
LINE
  5
18A
330
1F
100
AcDbEntity
  8
0
  6
Continuous
 62
     7
370
    25
100
AcDbLine
 10
5041.5262103314
 20
3866.9367876912
 30
0.0
 11
5014.0262103314
 21
3878.9263664995
 31
0.0
  0
LINE
  5
18B
330
1F
100
AcDbEntity
  8
0
  6
Continuous
 62
     7
370
    25
100
AcDbLine
 10
5016.2151979208
 20
3883.94715661
 30
0.0
 11
5043.7151979208
 21
3871.9575778017
 31
0.0
  0
LINE
  5
18C
330
1F
100
AcDbEntity
  8
0
  6
Continuous
 62
     7
370
    25
100
AcDbLine
 10
5041.5262103314
 20
3866.9367876912
 30
0.0
 11
5043.7151979208
 21
3871.9575778017
 31
0.0
  0
LINE
  5
18D
330
1F
100
AcDbEntity
  8
0
  6
Continuous
 62
     7
370
    25
100
AcDbLine
 10
5281.779889619
 20
3883.94715661
 30
0.0
 11
5254.279889619
 21
3871.9575778017
 31
0.0
  0
LINE
  5
18E
330
1F
100
AcDbEntity
  8
0
  6
Continuous
 62
     7
370
    25
100
AcDbLine
 10
5283.9688772085
 20
3878.9263664995
 30
0.0
 11
5256.4688772085
 21
3866.9367876912
 31
0.0
  0
LINE
  5
18F
330
1F
100
AcDbEntity
  8
0
  6
Continuous
 62
     7
370
    25
100
AcDbLine
 10
5256.4688772085
 20
3866.9367876912
 30
0.0
 11
5254.279889619
 21
3871.9575778017
 31
0.0
  0
LINE
  5
190
330
1F
100
AcDbEntity
  8
0
  6
Continuous
 62
     7
370
    25
100
AcDbLine
 10
5286.2151979208
 20
3873.7740737812
 30
0.0
 11
5258.7151979208
 21
3861.784494973
 31
0.0
  0
LINE
  5
191
330
1F
100
AcDbEntity
  8
0
  6
Continuous
 62
     7
370
    25
100
AcDbLine
 10
5256.5262103314
 20
3866.8052850834
 30
0.0
 11
5258.7151979208
 21
3861.784494973
 31
0.0
  0
LINE
  5
192
330
1F
100
AcDbEntity
  8
0
  6
Continuous
 62
     7
370
    25
100
AcDbLine
 10
5256.5262103314
 20
3866.8052850834
 30
0.0
 11
5284.0262103314
 21
3878.7948638917
 31
0.0
  0
LINE
  5
193
330
1F
100
AcDbEntity
  8
0
  6
Continuous
 62
     7
370
    25
100
AcDbLine
 10
5011.779889619
 20
3873.7740737812
 30
0.0
 11
5039.279889619
 21
3861.784494973
 31
0.0
  0
LINE
  5
194
330
1F
100
AcDbEntity
  8
0
  6
Continuous
 62
     7
370
    25
100
AcDbLine
 10
5013.9688772085
 20
3878.7948638917
 30
0.0
 11
5041.4688772085
 21
3866.8052850834
 31
0.0
  0
LINE
  5
195
330
1F
100
AcDbEntity
  8
0
  6
Continuous
 62
     7
370
    25
100
AcDbLine
 10
5039.279889619
 20
3861.784494973
 30
0.0
 11
5041.4688772085
 21
3866.8052850834
 31
0.0
  0
ARC
  5
196
330
1F
100
AcDbEntity
  8
0
  6
Continuous
 62
     7
370
    25
100
AcDbCircle
 10
5256.4975437699
 20
3866.8710363873
 30
0.0
 40
0.071728695169785
100
AcDbArc
 50
113.5564643094
 51
293.5564643088
  0
ARC
  5
197
330
1F
100
AcDbEntity
  8
0
  6
Continuous
 62
     7
370
    25
100
AcDbCircle
 10
5041.4975437699
 20
3866.8710363873
 30
0.0
 40
0.071728695169785
100
AcDbArc
 50
246.4435356906
 51
66.4435356912
  0
ARC
  5
198
330
1F
100
AcDbEntity
  8
0
  6
Continuous
 62
     7
370
    25
100
AcDbCircle
 10
5256.4975437699
 20
3866.8710363873
 30
0.0
 40
5.548954270221675
100
AcDbArc
 50
113.5564643091
 51
293.5564643091
  0
ARC
  5
199
330
1F
100
AcDbEntity
  8
0
  6
Continuous
 62
     7
370
    25
100
AcDbCircle
 10
5041.4975437699
 20
3866.8710363873
 30
0.0
 40
5.548954270222038
100
AcDbArc
 50
246.4435356909
 51
66.4435356909
  0
LINE
  5
19A
330
1F
100
AcDbEntity
  8
0
  6
Continuous
 62
     7
370
    25
100
AcDbLine
 10
5323.9975437699
 20
4373.8777147089
 30
0.0
 11
5323.9975437699
 21
4371.7563943654
 31
0.0
  0
LINE
  5
19B
330
1F
100
AcDbEntity
  8
0
  6
Continuous
 62
     7
370
    25
100
AcDbLine
 10
5323.9975437699
 20
4371.7563943654
 30
0.0
 11
4973.9975437699
 21
4371.7563943654
 31
0.0
  0
LINE
  5
19C
330
1F
100
AcDbEntity
  8
0
  6
Continuous
 62
     7
370
    25
100
AcDbLine
 10
4973.9975437699
 20
4373.8777147089
 30
0.0
 11
4973.9975437699
 21
4371.7563943654
 31
0.0
  0
ARC
  5
19D
330
1F
100
AcDbEntity
  8
0
  6
Continuous
 62
     7
370
    25
100
AcDbCircle
 10
4973.9975437699
 20
4272.9990350525
 30
0.0
 40
98.75735931288091
100
AcDbArc
 50
90.0
 51
180.0
  0
LINE
  5
19E
330
1F
100
AcDbEntity
  8
0
  6
Continuous
 62
     7
370
    25
100
AcDbLine
 10
4873.1188641135
 20
4272.9990350525
 30
0.0
 11
4875.240184457
 21
4272.9990350525
 31
0.0
  0
LINE
  5
19F
330
1F
100
AcDbEntity
  8
0
  6
Continuous
 62
     7
370
    25
100
AcDbLine
 10
5424.8762234264
 20
4272.9990350525
 30
0.0
 11
5422.7549030828
 21
4272.9990350525
 31
0.0
  0
ARC
  5
1A0
330
1F
100
AcDbEntity
  8
0
  6
Continuous
 62
     7
370
    25
100
AcDbCircle
 10
5323.9975437699
 20
4272.9990350525
 30
0.0
 40
98.75735931288091
100
AcDbArc
 50
0.0
 51
90.0
  0
LINE
  5
1A1
330
1F
100
AcDbEntity
  8
0
  6
Continuous
 62
     7
370
    25
100
AcDbLine
 10
4875.240184457
 20
4272.9990350525
 30
0.0
 11
4875.240184457
 21
3822.9990350525
 31
0.0
  0
LINE
  5
1A2
330
1F
100
AcDbEntity
  8
0
  6
Continuous
 62
     7
370
    25
100
AcDbLine
 10
4875.240184457
 20
3822.9990350525
 30
0.0
 11
4873.1188641135
 21
3822.9990350525
 31
0.0
  0
LINE
  5
1A3
330
1F
100
AcDbEntity
  8
0
  6
Continuous
 62
     7
370
    25
100
AcDbLine
 10
5422.7549030828
 20
3822.9990350525
 30
0.0
 11
5422.7549030828
 21
4272.9990350525
 31
0.0
  0
LINE
  5
1A4
330
1F
100
AcDbEntity
  8
0
  6
Continuous
 62
     7
370
    25
100
AcDbLine
 10
5422.7549030828
 20
3822.9990350525
 30
0.0
 11
5424.8762234264
 21
3822.9990350525
 31
0.0
  0
ARC
  5
1A5
330
1F
100
AcDbEntity
  8
0
  6
Continuous
 62
     7
370
    25
100
AcDbCircle
 10
5323.9975437699
 20
3822.9990350525
 30
0.0
 40
98.75735931288091
100
AcDbArc
 50
270.0
 51
0.0
  0
LINE
  5
1A6
330
1F
100
AcDbEntity
  8
0
  6
Continuous
 62
     7
370
    25
100
AcDbLine
 10
5323.9975437699
 20
3724.2416757396
 30
0.0
 11
5323.9975437699
 21
3722.120355396
 31
0.0
  0
ARC
  5
1A7
330
1F
100
AcDbEntity
  8
0
  6
Continuous
 62
     7
370
    25
100
AcDbCircle
 10
4973.9975437699
 20
3822.9990350525
 30
0.0
 40
98.75735931288091
100
AcDbArc
 50
180.0
 51
270.0
  0
LINE
  5
1A8
330
1F
100
AcDbEntity
  8
0
  6
Continuous
 62
     7
370
    25
100
AcDbLine
 10
4973.9975437699
 20
3724.2416757396
 30
0.0
 11
4973.9975437699
 21
3722.120355396
 31
0.0
  0
LINE
  5
1A9
330
1F
100
AcDbEntity
  8
0
  6
Continuous
 62
     7
370
    25
100
AcDbLine
 10
4973.9975437699
 20
3724.2416757396
 30
0.0
 11
5323.9975437699
 21
3724.2416757396
 31
0.0
  0
LINE
  5
1AA
330
1F
100
AcDbEntity
  8
0
  6
Continuous
 62
     7
370
    25
100
AcDbLine
 10
5149.1295991379
 20
3759.3215692028
 30
0.0
 11
5148.8654884019
 21
3759.3215692028
 31
0.0
  0
ARC
  5
1AB
330
1F
100
AcDbEntity
  8
0
  6
Continuous
 62
     7
370
    25
100
AcDbCircle
 10
5063.9975437699
 20
4027.8658257915
 30
0.0
 40
20.0
100
AcDbArc
 50
0.0
 51
90.0
  0
LINE
  5
1AC
330
1F
100
AcDbEntity
  8
0
  6
Continuous
 62
     7
370
    25
100
AcDbLine
 10
5078.1675437699
 20
4027.8658257915
 30
0.0
 11
5083.9975437699
 21
4027.8658257915
 31
0.0
  0
ARC
  5
1AD
330
1F
100
AcDbEntity
  8
0
  6
Continuous
 62
     7
370
    25
100
AcDbCircle
 10
5063.9975437699
 20
4027.8658257915
 30
0.0
 40
14.17000000000007
100
AcDbArc
 50
0.0
 51
90.0
  0
LINE
  5
1AE
330
1F
100
AcDbEntity
  8
0
  6
Continuous
 62
     7
370
    25
100
AcDbLine
 10
5063.9975437699
 20
4047.8658257915
 30
0.0
 11
5063.9975437699
 21
4042.0358257915
 31
0.0
  0
ARC
  5
1AF
330
1F
100
AcDbEntity
  8
0
  6
Continuous
 62
     7
370
    25
100
AcDbCircle
 10
5233.9975437699
 20
4027.8658257915
 30
0.0
 40
14.17000000000007
100
AcDbArc
 50
90.0
 51
180.0
  0
LINE
  5
1B0
330
1F
100
AcDbEntity
  8
0
  6
Continuous
 62
     7
370
    25
100
AcDbLine
 10
5213.9975437699
 20
4027.8658257915
 30
0.0
 11
5219.8275437699
 21
4027.8658257915
 31
0.0
  0
ARC
  5
1B1
330
1F
100
AcDbEntity
  8
0
  6
Continuous
 62
     7
370
    25
100
AcDbCircle
 10
5233.9975437699
 20
4027.8658257915
 30
0.0
 40
20.00000000000091
100
AcDbArc
 50
90.0
 51
180.0
  0
LINE
  5
1B2
330
1F
100
AcDbEntity
  8
0
  6
Continuous
 62
     7
370
    25
100
AcDbLine
 10
5233.9975437699
 20
4042.0358257915
 30
0.0
 11
5233.9975437699
 21
4047.8658257915
 31
0.0
  0
LINE
  5
1B3
330
1F
100
AcDbEntity
  8
0
  6
Continuous
 62
     7
370
    25
100
AcDbLine
 10
5018.9975437699
 20
4047.8658257915
 30
0.0
 11
5063.9975437699
 21
4047.8658257915
 31
0.0
  0
LINE
  5
1B4
330
1F
100
AcDbEntity
  8
0
  6
Continuous
 62
     7
370
    25
100
AcDbLine
 10
5063.9975437699
 20
4042.0358257915
 30
0.0
 11
5018.9975437699
 21
4042.0358257915
 31
0.0
  0
LINE
  5
1B5
330
1F
100
AcDbEntity
  8
0
  6
Continuous
 62
     7
370
    25
100
AcDbLine
 10
5018.9975437699
 20
4047.8658257915
 30
0.0
 11
5018.9975437699
 21
4042.0358257915
 31
0.0
  0
LINE
  5
1B6
330
1F
100
AcDbEntity
  8
0
  6
Continuous
 62
     7
370
    25
100
AcDbLine
 10
5278.9975437699
 20
4042.0358257915
 30
0.0
 11
5233.9975437699
 21
4042.0358257915
 31
0.0
  0
LINE
  5
1B7
330
1F
100
AcDbEntity
  8
0
  6
Continuous
 62
     7
370
    25
100
AcDbLine
 10
5233.9975437699
 20
4047.8658257915
 30
0.0
 11
5278.9975437699
 21
4047.8658257915
 31
0.0
  0
LINE
  5
1B8
330
1F
100
AcDbEntity
  8
0
  6
Continuous
 62
     7
370
    25
100
AcDbLine
 10
5278.9975437699
 20
4042.0358257915
 30
0.0
 11
5278.9975437699
 21
4047.8658257915
 31
0.0
  0
ARC
  5
1B9
330
1F
100
AcDbEntity
  8
0
  6
Continuous
 62
     7
370
    25
100
AcDbCircle
 10
5018.9975437699
 20
4027.8658257915
 30
0.0
 40
20.0
100
AcDbArc
 50
90.0
 51
180.0
  0
ARC
  5
1BA
330
1F
100
AcDbEntity
  8
0
  6
Continuous
 62
     7
370
    25
100
AcDbCircle
 10
5018.9975437699
 20
4027.8658257915
 30
0.0
 40
14.17000000000007
100
AcDbArc
 50
90.0
 51
180.0
  0
LINE
  5
1BB
330
1F
100
AcDbEntity
  8
0
  6
Continuous
 62
     7
370
    25
100
AcDbLine
 10
4998.9975437699
 20
4027.8658257915
 30
0.0
 11
5004.8275437699
 21
4027.8658257915
 31
0.0
  0
ARC
  5
1BC
330
1F
100
AcDbEntity
  8
0
  6
Continuous
 62
     7
370
    25
100
AcDbCircle
 10
5278.9975437699
 20
4027.8658257915
 30
0.0
 40
14.17000000000007
100
AcDbArc
 50
0.0
 51
90.0
  0
ARC
  5
1BD
330
1F
100
AcDbEntity
  8
0
  6
Continuous
 62
     7
370
    25
100
AcDbCircle
 10
5278.9975437699
 20
4027.8658257915
 30
0.0
 40
20.0
100
AcDbArc
 50
0.0
 51
90.0
  0
LINE
  5
1BE
330
1F
100
AcDbEntity
  8
0
  6
Continuous
 62
     7
370
    25
100
AcDbLine
 10
5293.1675437699
 20
4027.8658257915
 30
0.0
 11
5298.9975437699
 21
4027.8658257915
 31
0.0
  0
LINE
  5
1BF
330
1F
100
AcDbEntity
  8
0
  6
Continuous
 62
     7
370
    25
100
AcDbLine
 10
5293.1675437699
 20
3867.8658257915
 30
0.0
 11
5293.1675437699
 21
4027.8658257915
 31
0.0
  0
ARC
  5
1C0
330
1F
100
AcDbEntity
  8
0
  6
Continuous
 62
     7
370
    25
100
AcDbCircle
 10
5278.9975437699
 20
3867.8658257915
 30
0.0
 40
14.17000000000007
100
AcDbArc
 50
270.0
 51
0.0
  0
LINE
  5
1C1
330
1F
100
AcDbEntity
  8
0
  6
Continuous
 62
     7
370
    25
100
AcDbLine
 10
5233.9975437699
 20
3853.6958257915
 30
0.0
 11
5278.9975437699
 21
3853.6958257915
 31
0.0
  0
ARC
  5
1C2
330
1F
100
AcDbEntity
  8
0
  6
Continuous
 62
     7
370
    25
100
AcDbCircle
 10
5233.9975437699
 20
3867.8658257915
 30
0.0
 40
14.17000000000007
100
AcDbArc
 50
180.0
 51
270.0
  0
LINE
  5
1C3
330
1F
100
AcDbEntity
  8
0
  6
Continuous
 62
     7
370
    25
100
AcDbLine
 10
5219.8275437699
 20
4027.8658257915
 30
0.0
 11
5219.8275437699
 21
3867.8658257915
 31
0.0
  0
ARC
  5
1C4
330
1F
100
AcDbEntity
  8
0
  6
Continuous
 62
     7
370
    25
100
AcDbCircle
 10
5063.9975437699
 20
3867.8658257915
 30
0.0
 40
14.17000000000007
100
AcDbArc
 50
270.0
 51
0.0
  0
LINE
  5
1C5
330
1F
100
AcDbEntity
  8
0
  6
Continuous
 62
     7
370
    25
100
AcDbLine
 10
5018.9975437699
 20
3853.6958257915
 30
0.0
 11
5063.9975437699
 21
3853.6958257915
 31
0.0
  0
ARC
  5
1C6
330
1F
100
AcDbEntity
  8
0
  6
Continuous
 62
     7
370
    25
100
AcDbCircle
 10
5018.9975437699
 20
3867.8658257915
 30
0.0
 40
14.17000000000007
100
AcDbArc
 50
180.0
 51
270.0
  0
LINE
  5
1C7
330
1F
100
AcDbEntity
  8
0
  6
Continuous
 62
     7
370
    25
100
AcDbLine
 10
5004.8275437699
 20
4027.8658257915
 30
0.0
 11
5004.8275437699
 21
3867.8658257915
 31
0.0
  0
LINE
  5
1C8
330
1F
100
AcDbEntity
  8
0
  6
Continuous
 62
     7
370
    25
100
AcDbLine
 10
5078.1675437699
 20
3867.8658257915
 30
0.0
 11
5078.1675437699
 21
4027.8658257915
 31
0.0
  0
LINE
  5
1C9
330
1F
100
AcDbEntity
  8
0
  6
Continuous
 62
     7
370
    25
100
AcDbLine
 10
5213.9975437699
 20
3867.8658257915
 30
0.0
 11
5213.9975437699
 21
4027.8658257915
 31
0.0
  0
LINE
  5
1CA
330
1F
100
AcDbEntity
  8
0
  6
Continuous
 62
     7
370
    25
100
AcDbLine
 10
5213.9975437699
 20
3867.8658257915
 30
0.0
 11
5219.8275437699
 21
3867.8658257915
 31
0.0
  0
LINE
  5
1CB
330
1F
100
AcDbEntity
  8
0
  6
Continuous
 62
     7
370
    25
100
AcDbLine
 10
5298.9975437699
 20
4027.8658257915
 30
0.0
 11
5298.9975437699
 21
3867.8658257915
 31
0.0
  0
LINE
  5
1CC
330
1F
100
AcDbEntity
  8
0
  6
Continuous
 62
     7
370
    25
100
AcDbLine
 10
5293.1675437699
 20
3867.8658257915
 30
0.0
 11
5298.9975437699
 21
3867.8658257915
 31
0.0
  0
LINE
  5
1CD
330
1F
100
AcDbEntity
  8
0
  6
Continuous
 62
     7
370
    25
100
AcDbLine
 10
4998.9975437699
 20
3867.8658257915
 30
0.0
 11
4998.9975437699
 21
4027.8658257915
 31
0.0
  0
LINE
  5
1CE
330
1F
100
AcDbEntity
  8
0
  6
Continuous
 62
     7
370
    25
100
AcDbLine
 10
4998.9975437699
 20
3867.8658257915
 30
0.0
 11
5004.8275437699
 21
3867.8658257915
 31
0.0
  0
LINE
  5
1CF
330
1F
100
AcDbEntity
  8
0
  6
Continuous
 62
     7
370
    25
100
AcDbLine
 10
5083.9975437699
 20
4027.8658257915
 30
0.0
 11
5083.9975437699
 21
3867.8658257915
 31
0.0
  0
LINE
  5
1D0
330
1F
100
AcDbEntity
  8
0
  6
Continuous
 62
     7
370
    25
100
AcDbLine
 10
5078.1675437699
 20
3867.8658257915
 30
0.0
 11
5083.9975437699
 21
3867.8658257915
 31
0.0
  0
ARC
  5
1D1
330
1F
100
AcDbEntity
  8
0
  6
Continuous
 62
     7
370
    25
100
AcDbCircle
 10
5063.9975437699
 20
3867.8658257915
 30
0.0
 40
20.00000000000045
100
AcDbArc
 50
270.0
 51
0.0
  0
LINE
  5
1D2
330
1F
100
AcDbEntity
  8
0
  6
Continuous
 62
     7
370
    25
100
AcDbLine
 10
5063.9975437699
 20
3853.6958257915
 30
0.0
 11
5063.9975437699
 21
3847.8658257915
 31
0.0
  0
ARC
  5
1D3
330
1F
100
AcDbEntity
  8
0
  6
Continuous
 62
     7
370
    25
100
AcDbCircle
 10
5018.9975437699
 20
3867.8658257915
 30
0.0
 40
20.0
100
AcDbArc
 50
180.0
 51
270.0
  0
LINE
  5
1D4
330
1F
100
AcDbEntity
  8
0
  6
Continuous
 62
     7
370
    25
100
AcDbLine
 10
5018.9975437699
 20
3853.6958257915
 30
0.0
 11
5018.9975437699
 21
3847.8658257915
 31
0.0
  0
ARC
  5
1D5
330
1F
100
AcDbEntity
  8
0
  6
Continuous
 62
     7
370
    25
100
AcDbCircle
 10
5233.9975437699
 20
3867.8658257915
 30
0.0
 40
20.00000000000091
100
AcDbArc
 50
180.0
 51
270.0
  0
LINE
  5
1D6
330
1F
100
AcDbEntity
  8
0
  6
Continuous
 62
     7
370
    25
100
AcDbLine
 10
5233.9975437699
 20
3847.8658257915
 30
0.0
 11
5233.9975437699
 21
3853.6958257915
 31
0.0
  0
ARC
  5
1D7
330
1F
100
AcDbEntity
  8
0
  6
Continuous
 62
     7
370
    25
100
AcDbCircle
 10
5278.9975437699
 20
3867.8658257915
 30
0.0
 40
20.0
100
AcDbArc
 50
270.0
 51
0.0
  0
LINE
  5
1D8
330
1F
100
AcDbEntity
  8
0
  6
Continuous
 62
     7
370
    25
100
AcDbLine
 10
5278.9975437699
 20
3847.8658257915
 30
0.0
 11
5278.9975437699
 21
3853.6958257915
 31
0.0
  0
LINE
  5
1D9
330
1F
100
AcDbEntity
  8
0
  6
Continuous
 62
     7
370
    25
100
AcDbLine
 10
5278.9975437699
 20
3847.8658257915
 30
0.0
 11
5233.9975437699
 21
3847.8658257915
 31
0.0
  0
LINE
  5
1DA
330
1F
100
AcDbEntity
  8
0
  6
Continuous
 62
     7
370
    25
100
AcDbLine
 10
5063.9975437699
 20
3847.8658257915
 30
0.0
 11
5018.9975437699
 21
3847.8658257915
 31
0.0
  0
LINE
  5
1DB
330
1F
100
AcDbEntity
  8
0
  6
Continuous
 62
     7
370
    25
100
AcDbLine
 10
5148.9315160859
 20
3761.8055687518
 30
0.0
 11
5149.0635714539
 21
3761.8055687518
 31
0.0
  0
ARC
  5
1DC
330
1F
100
AcDbEntity
  8
0
  6
Continuous
 62
     7
370
    25
100
AcDbCircle
 10
5148.9975437699
 20
3770.7535762
 30
0.0
 40
3.622155962638912
100
AcDbArc
 50
268.9446779683
 51
271.0553220317
  0
LINE
  5
1DD
330
1F
100
AcDbEntity
  8
0
  6
Continuous
 62
     7
370
    25
100
AcDbLine
 10
5257.2134665894
 20
4326.9370522613
 30
0.0
 11
5237.7535083131
 21
4334.696725185
 31
0.0
  0
LINE
  5
1DE
330
1F
100
AcDbEntity
  8
0
  6
Continuous
 62
     7
370
    25
100
AcDbLine
 10
5040.7816209504
 20
4326.9370522613
 30
0.0
 11
5060.2415792268
 21
4334.696725185
 31
0.0
  0
LINE
  5
1DF
330
1F
100
AcDbEntity
  8
0
  6
Continuous
 62
     7
370
    25
100
AcDbLine
 10
5018.9975437699
 20
3847.8658257915
 30
0.0
 11
5018.9975437699
 21
3841.9418057621
 31
0.0
  0
ARC
  5
1E0
330
1F
100
AcDbEntity
  8
0
  6
Continuous
 62
     7
370
    25
100
AcDbCircle
 10
4994.6246647062
 20
3958.2190740516
 30
0.0
 40
90.45900476163726
100
AcDbArc
 50
269.0770350511
 51
272.7708153566
  0
ARC
  5
1E1
330
1F
100
AcDbEntity
  8
0
  6
Continuous
 62
     7
370
    25
100
AcDbCircle
 10
5088.3704228336
 20
3958.2190740516
 30
0.0
 40
90.45900476160637
100
AcDbArc
 50
267.2291846434
 51
270.9229649489
  0
LINE
  5
1E2
330
1F
100
AcDbEntity
  8
0
  6
Continuous
 62
     7
370
    25
100
AcDbLine
 10
5063.9975437699
 20
3847.8658257915
 30
0.0
 11
5063.9975437699
 21
3841.9418057621
 31
0.0
  0
LINE
  5
1E3
330
1F
100
AcDbEntity
  8
0
  6
Continuous
 62
     7
370
    25
100
AcDbLine
 10
5278.9975437699
 20
3841.9418057621
 30
0.0
 11
5278.9975437699
 21
3847.8658257915
 31
0.0
  0
ARC
  5
1E4
330
1F
100
AcDbEntity
  8
0
  6
Continuous
 62
     7
370
    25
100
AcDbCircle
 10
5303.3704228336
 20
3958.2190740516
 30
0.0
 40
90.45900476165637
100
AcDbArc
 50
267.2291846434
 51
270.9229649489
  0
ARC
  5
1E5
330
1F
100
AcDbEntity
  8
0
  6
Continuous
 62
     7
370
    25
100
AcDbCircle
 10
5209.6246647062
 20
3958.2190740516
 30
0.0
 40
90.45900476157685
100
AcDbArc
 50
269.0770350511
 51
272.7708153566
  0
LINE
  5
1E6
330
1F
100
AcDbEntity
  8
0
  6
Continuous
 62
     7
370
    25
100
AcDbLine
 10
5233.9975437699
 20
3841.9418057621
 30
0.0
 11
5233.9975437699
 21
3847.8658257915
 31
0.0
  0
ARC
  5
1E7
330
1F
100
AcDbEntity
  8
0
  6
Continuous
 62
     7
370
    25
100
AcDbCircle
 10
5088.3704228336
 20
4118.2190740512
 30
0.0
 40
90.45900476122806
100
AcDbArc
 50
267.2291846434
 51
270.9229649489
  0
ARC
  5
1E8
330
1F
100
AcDbEntity
  8
0
  6
Continuous
 62
     7
370
    25
100
AcDbCircle
 10
4994.6246647062
 20
4118.2190740512
 30
0.0
 40
90.45900476125898
100
AcDbArc
 50
269.0770350511
 51
272.7708153566
  0
ARC
  5
1E9
330
1F
100
AcDbEntity
  8
0
  6
Continuous
 62
     7
370
    25
100
AcDbCircle
 10
5303.3704228336
 20
4118.2190740513
 30
0.0
 40
90.45900476127808
100
AcDbArc
 50
267.2291846434
 51
270.9229649489
  0
ARC
  5
1EA
330
1F
100
AcDbEntity
  8
0
  6
Continuous
 62
     7
370
    25
100
AcDbCircle
 10
5209.6246647062
 20
4118.2190740512
 30
0.0
 40
90.45900476119805
100
AcDbArc
 50
269.0770350511
 51
272.7708153566
  0
LINE
  5
1EB
330
1F
100
AcDbEntity
  8
0
  6
Continuous
 62
     7
370
    25
100
AcDbLine
 10
5063.9975437699
 20
4053.6018057621
 30
0.0
 11
5063.9975437699
 21
4047.8658257915
 31
0.0
  0
LINE
  5
1EC
330
1F
100
AcDbEntity
  8
0
  6
Continuous
 62
     7
370
    25
100
AcDbLine
 10
5018.9975437699
 20
4053.6018057621
 30
0.0
 11
5018.9975437699
 21
4047.8658257915
 31
0.0
  0
LINE
  5
1ED
330
1F
100
AcDbEntity
  8
0
  6
Continuous
 62
     7
370
    25
100
AcDbLine
 10
5233.9975437699
 20
4047.8658257915
 30
0.0
 11
5233.9975437699
 21
4053.6018057621
 31
0.0
  0
LINE
  5
1EE
330
1F
100
AcDbEntity
  8
0
  6
Continuous
 62
     7
370
    25
100
AcDbLine
 10
5278.9975437699
 20
4047.8658257915
 30
0.0
 11
5278.9975437699
 21
4053.6018057621
 31
0.0
  0
ARC
  5
1EF
330
1F
100
AcDbEntity
  8
0
  6
Continuous
 62
     7
370
    25
100
AcDbCircle
 10
5023.9938565043
 20
4184.9065602397
 30
0.0
 40
107.0891153158104
100
AcDbArc
 50
201.5315549398
 51
270.0019727939
  0
ARC
  5
1F0
330
1F
100
AcDbEntity
  8
0
  6
Continuous
 62
     7
370
    25
100
AcDbCircle
 10
5023.2452561269
 20
4184.5982702563
 30
0.0
 40
106.2796096490553
100
AcDbArc
 50
190.7270368747
 51
201.525069713
  0
ARC
  5
1F1
330
1F
100
AcDbEntity
  8
0
  6
Continuous
 62
     7
370
    25
100
AcDbCircle
 10
5023.9730130196
 20
4184.9406793119
 30
0.0
 40
107.0649613104405
100
AcDbArc
 50
162.3248812161
 51
164.5826816986
  0
LINE
  5
1F2
330
1F
100
AcDbEntity
  8
0
  6
Continuous
 62
     7
370
    25
100
AcDbLine
 10
4921.9622223106
 20
4217.2248349014
 30
0.0
 11
4921.9622223106
 21
4217.447671165
 31
0.0
  0
ARC
  5
1F3
330
1F
100
AcDbEntity
  8
0
  6
Continuous
 62
     7
370
    25
100
AcDbCircle
 10
5016.1748468876
 20
4186.20634339
 30
0.0
 40
99.18752666200785
100
AcDbArc
 50
161.7764274483
 51
180.8584235943
  0
ARC
  5
1F4
330
1F
100
AcDbEntity
  8
0
  6
Continuous
 62
     7
370
    25
100
AcDbCircle
 10
5274.0220745187
 20
4184.9406793114
 30
0.0
 40
107.0649613120986
100
AcDbArc
 50
15.4173183014
 51
17.6751187839
  0
ARC
  5
1F5
330
1F
100
AcDbEntity
  8
0
  6
Continuous
 62
     7
370
    25
100
AcDbCircle
 10
5275.1272767904
 20
4184.4891402713
 30
0.0
 40
105.8884541572834
100
AcDbArc
 50
338.4549265794
 51
349.2929686658
  0
ARC
  5
1F6
330
1F
100
AcDbEntity
  8
0
  6
Continuous
 62
     7
370
    25
100
AcDbCircle
 10
5274.0012310356
 20
4184.9065602397
 30
0.0
 40
107.0891153158086
100
AcDbArc
 50
269.9980272061
 51
338.4684450601
  0
ARC
  5
1F7
330
1F
100
AcDbEntity
  8
0
  6
Continuous
 62
     7
370
    25
100
AcDbCircle
 10
5281.3733433208
 20
4186.133601459
 30
0.0
 40
99.63478250548545
100
AcDbArc
 50
359.1870702704
 51
18.1829373133
  0
LINE
  5
1F8
330
1F
100
AcDbEntity
  8
0
  6
Continuous
 62
     7
370
    25
100
AcDbLine
 10
5376.0328652293
 20
4217.2248349014
 30
0.0
 11
5376.0328652293
 21
4217.447671165
 31
0.0
  0
ARC
  5
1F9
330
1F
100
AcDbEntity
  8
0
  6
Continuous
 62
     7
370
    25
100
AcDbCircle
 10
5357.7516467659
 20
4099.299533502
 30
0.0
 40
48.9465387164273
100
AcDbArc
 50
67.5946645315
 51
71.0864988902
  0
ARC
  5
1FA
330
1F
100
AcDbEntity
  8
0
  6
Continuous
 62
     7
370
    25
100
AcDbCircle
 10
4940.2434407725
 20
4099.2995335059
 30
0.0
 40
48.94653871228574
100
AcDbArc
 50
108.9135011097
 51
112.4053354686
  0
LINE
  5
1FB
330
1F
100
AcDbEntity
  8
0
  6
Continuous
 62
     7
370
    25
100
AcDbLine
 10
5023.9975437699
 20
4077.8174449873
 30
0.0
 11
5023.9975437699
 21
4074.8662159339
 31
0.0
  0
LINE
  5
1FC
330
1F
100
AcDbEntity
  8
0
  6
Continuous
 62
     7
370
    25
100
AcDbLine
 10
5273.9975437699
 20
4077.8174449873
 30
0.0
 11
5273.9975437699
 21
4074.8662159339
 31
0.0
  0
LINE
  5
1FD
330
1F
100
AcDbEntity
  8
0
  6
Continuous
 62
     7
370
    25
100
AcDbLine
 10
5023.9975437699
 20
4077.8174449873
 30
0.0
 11
5273.9975437699
 21
4077.8174449873
 31
0.0
  0
LINE
  5
1FE
330
1F
100
AcDbEntity
  8
0
  6
Continuous
 62
     7
370
    25
100
AcDbLine
 10
5376.0323097855
 20
4217.2257512671
 30
0.0
 11
5376.0328652293
 21
4217.2248349014
 31
0.0
  0
LINE
  5
1FF
330
1F
100
AcDbEntity
  8
0
  6
Continuous
 62
     7
370
    25
100
AcDbLine
 10
5148.9975437699
 20
4356.80315133
 30
0.0
 11
5148.9975437699
 21
4357.0315448054
 31
0.0
  0
LINE
  5
200
330
1F
100
AcDbEntity
  8
0
  6
Continuous
 62
     7
370
    25
100
AcDbLine
 10
5148.9975437699
 20
4356.1829624759
 30
0.0
 11
5148.9975437699
 21
4356.80315133
 31
0.0
  0
ARC
  5
201
330
1F
100
AcDbEntity
  8
0
  6
Continuous
 62
     7
370
    25
100
AcDbCircle
 10
5375.5174009186
 20
4221.4802450896
 30
0.0
 40
4.285539502462471
100
AcDbArc
 50
262.1662468759
 51
276.9007770299
  0
LINE
  5
202
330
1F
100
AcDbEntity
  8
0
  6
Continuous
 62
     7
370
    25
100
AcDbLine
 10
5374.9332853063
 20
4217.2346994499
 30
0.0
 11
5374.9213436858
 21
4217.235744263
 31
0.0
  0
LINE
  5
203
330
1F
100
AcDbEntity
  8
0
  6
Continuous
 62
     7
370
    25
100
AcDbLine
 10
4923.073743854
 20
4217.235744263
 30
0.0
 11
4923.0618022335
 21
4217.23469945
 31
0.0
  0
ARC
  5
204
330
1F
100
AcDbEntity
  8
0
  6
Continuous
 62
     7
370
    25
100
AcDbCircle
 10
4921.4544852647
 20
4347.1508257115
 30
0.0
 40
129.926068710781
100
AcDbArc
 50
270.2241512346
 51
270.7088248627
  0
LINE
  5
205
330
1F
100
AcDbEntity
  8
0
  6
Continuous
 62
     7
370
    25
100
AcDbLine
 10
4921.9622223106
 20
4217.2248349014
 30
0.0
 11
4921.9627777544
 21
4217.2257512671
 31
0.0
  0
ARC
  5
206
330
1F
100
AcDbEntity
  8
0
  6
Continuous
 62
     7
370
    25
100
AcDbCircle
 10
5024.5540551999
 20
4184.8562661523
 30
0.0
 40
106.5318748309456
100
AcDbArc
 50
162.3060850368
 51
269.69610931
  0
ARC
  5
207
330
1F
100
AcDbEntity
  8
0
  6
Continuous
 62
     7
370
    25
100
AcDbCircle
 10
5273.4326352478
 20
4184.8623672425
 30
0.0
 40
106.5380207008231
100
AcDbArc
 50
270.3083891509
 51
17.6894165023
  0
LWPOLYLINE
  5
208
330
1F
100
AcDbEntity
  8
0
  6
Continuous
 62
     7
370
    25
100
AcDbPolyline
 90
        6
 70
   128
 43
0.0
 10
5023.9890241725
 20
4078.3258897569
 10
5058.8682669001
 20
4078.2868900557
 10
5093.7475740773
 20
4078.2570883248
 10
5183.8767850114
 20
4078.2448605443
 10
5228.9416963413
 20
4078.2124292598
 10
5274.0060633674
 20
4078.3258897569
  0
LINE
  5
209
330
1F
100
AcDbEntity
  8
0
  6
Continuous
 62
     7
370
    25
100
AcDbLine
 10
4923.073743854
 20
4217.235744263
 30
0.0
 11
5110.1619928802
 21
4222.2814104411
 31
0.0
  0
LWPOLYLINE
  5
20A
330
1F
100
AcDbEntity
  8
0
  6
Continuous
 62
     7
370
    25
100
AcDbPolyline
 90
       23
 70
   128
 43
0.0
 10
5187.8330946597
 20
4222.2814104411
 10
5187.8331016275
 20
4222.2813508471
 10
5188.0303164298
 20
4215.8207398331
 10
5187.1356424018
 20
4209.4193866919
 10
5185.1167712364
 20
4203.1640149532
 10
5182.0588002736
 20
4197.3452788914
 10
5178.0570185205
 20
4192.1580545336
 10
5173.2427425108
 20
4187.7128546055
 10
5167.775846766
 20
4184.1487394437
 10
5161.7984513225
 20
4181.5291226495
 10
5155.4853589971
 20
4179.9395430399
 10
5148.9975437699
 20
4179.4002634986
 10
5142.7717772961
 20
4179.8932341697
 10
5136.4432801596
 20
4181.4494623791
 10
5130.4541625696
 20
4184.0186643299
 10
5124.9563369575
 20
4187.5595361968
 10
5120.1171908665
 20
4191.9576254241
 10
5116.0804312864
 20
4197.1300815172
 10
5112.9805087633
 20
4202.9124784866
 10
5110.9668669613
 20
4208.9794421192
 10
5109.9925756431
 20
4215.297056165
 10
5110.1619859123
 20
4222.2813508474
 10
5110.1619928802
 20
4222.2814104411
  0
LINE
  5
20B
330
1F
100
AcDbEntity
  8
0
  6
Continuous
 62
     7
370
    25
100
AcDbLine
 10
5374.9213436858
 20
4217.235744263
 30
0.0
 11
5187.8330946597
 21
4222.2814104411
 31
0.0
  0
LINE
  5
20C
330
1F
100
AcDbEntity
  8
0
  6
Continuous
 62
     7
370
    25
100
AcDbLine
 10
5187.8329503189
 20
4222.2814143339
 30
0.0
 11
5187.8330946597
 21
4222.2814104411
 31
0.0
  0
ARC
  5
20D
330
1F
100
AcDbEntity
  8
0
  6
Continuous
 62
     7
370
    25
100
AcDbCircle
 10
5149.1589055179
 20
4217.672106558
 30
0.0
 40
38.94775294470773
100
AcDbArc
 50
6.796650707
 51
90.2373788699
  0
LINE
  5
20E
330
1F
100
AcDbEntity
  8
0
  6
Continuous
 62
     7
370
    25
100
AcDbLine
 10
5148.9975437699
 20
4256.6195252379
 30
0.0
 11
5148.9975437699
 21
4356.1829624759
 31
0.0
  0
ARC
  5
20F
330
1F
100
AcDbEntity
  8
0
  6
Continuous
 62
     7
370
    25
100
AcDbCircle
 10
5148.8732608755
 20
4217.6301714512
 30
0.0
 40
38.98955186903176
100
AcDbArc
 50
89.8173639595
 51
173.1486064636
  0
LINE
  5
210
330
1F
100
AcDbEntity
  8
0
  6
Continuous
 62
     7
370
    25
100
AcDbLine
 10
5110.1619928802
 20
4222.2814104411
 30
0.0
 11
5110.162137221
 21
4222.2814143339
 31
0.0
  0
LINE
  5
211
330
1F
100
AcDbEntity
  8
0
  6
Continuous
 62
     7
370
    25
100
AcDbLine
 10
5098.9975437699
 20
4577.9990350525
 30
0.0
 11
5198.9975437699
 21
4577.9990350525
 31
0.0
  0
ARC
  5
212
330
1F
100
AcDbEntity
  8
0
  6
Continuous
 62
     7
370
    25
100
AcDbCircle
 10
5113.8552604094
 20
4253.298722842
 30
0.0
 40
31.23639841550084
100
AcDbArc
 50
263.2099572438
 51
265.1742586438
  0
ARC
  5
213
330
1F
100
AcDbEntity
  8
0
  6
Continuous
 62
     7
370
    25
100
AcDbCircle
 10
5148.9975437699
 20
4217.9990350525
 30
0.0
 40
38.00000000000002
100
AcDbArc
 50
173.6937600977
 51
6.3062399022
  0
ARC
  5
214
330
1F
100
AcDbEntity
  8
0
  6
Continuous
 62
     7
370
    25
100
AcDbCircle
 10
5184.1398269485
 20
4253.2987246279
 30
0.0
 40
31.23640021039496
100
AcDbArc
 50
274.8257414131
 51
276.7900427003
  0
ARC
  5
215
330
1F
100
AcDbEntity
  8
0
  6
Continuous
 62
     7
370
    25
100
AcDbCircle
 10
5148.9920590191
 20
4217.9929106204
 30
0.0
 40
38.00612468170987
100
AcDbArc
 50
6.3145086333
 51
89.9932574925
  0
ARC
  5
216
330
1F
100
AcDbEntity
  8
0
  6
Continuous
 62
     7
370
    25
100
AcDbCircle
 10
5016.6044595052
 20
4256.5252573014
 30
0.0
 40
132.3931178255601
100
AcDbArc
 50
359.7722661525
 51
0.0407963454
  0
ARC
  5
217
330
1F
100
AcDbEntity
  8
0
  6
Continuous
 62
     7
370
    25
100
AcDbCircle
 10
5149.0064494676
 20
4217.9890912249
 30
0.0
 40
38.00994510802382
100
AcDbArc
 50
90.0149501767
 51
173.6803361446
  0
LWPOLYLINE
  5
218
330
1F
100
AcDbEntity
  8
0
  6
Continuous
 62
     8
370
    25
100
AcDbPolyline
 90
        8
 70
   128
 43
0.0
 10
5056.5913605593
 20
4343.8508614054
 10
5066.865161653
 20
4346.99080849
 10
5078.4226342572
 20
4349.8167398993
 10
5092.4102314583
 20
4352.3912309345
 10
5106.4893716168
 20
4354.2370206185
 10
5120.6158421658
 20
4355.571977455
 10
5134.7824140698
 20
4356.4902554639
 10
5148.9975437699
 20
4357.0315448054
  0
LWPOLYLINE
  5
219
330
1F
100
AcDbEntity
  8
0
  6
Continuous
 62
     8
370
    25
100
AcDbPolyline
 90
       13
 70
   128
 43
0.0
 10
4921.9622223106
 20
4217.447671165
 10
4927.8101529197
 20
4230.3889939968
 10
4934.22289388
 20
4243.0649445955
 10
4941.3192338444
 20
4255.406936327
 10
4949.1929417727
 20
4267.3093211622
 10
4957.8936156535
 20
4278.6010211009
 10
4967.4663455249
 20
4289.1042805659
 10
4977.9381302138
 20
4298.6665596369
 10
4989.1641426565
 20
4307.374810518
 10
5000.9046014694
 20
4315.4483334063
 10
5012.9368320751
 20
4323.0835225987
 10
5025.3198668149
 20
4330.2480349936
 10
5037.1074316991
 20
4336.1513026857
  0
LWPOLYLINE
  5
21A
330
1F
100
AcDbEntity
  8
0
  6
Continuous
 62
     8
370
    25
100
AcDbPolyline
 90
        8
 70
   128
 43
0.0
 10
5148.9975437699
 20
4357.0315448054
 10
5163.21267347
 20
4356.4902554639
 10
5177.379245374
 20
4355.571977455
 10
5191.5057159231
 20
4354.2370206185
 10
5205.5848560816
 20
4352.3912309345
 10
5219.5724532827
 20
4349.8167398993
 10
5231.1299258868
 20
4346.99080849
 10
5241.4037269806
 20
4343.8508614054
  0
LWPOLYLINE
  5
21B
330
1F
100
AcDbEntity
  8
0
  6
Continuous
 62
     8
370
    25
100
AcDbPolyline
 90
       13
 70
   128
 43
0.0
 10
5260.8876558407
 20
4336.1513026857
 10
5272.675220725
 20
4330.2480349936
 10
5285.0582554648
 20
4323.0835225987
 10
5297.0904860705
 20
4315.4483334063
 10
5308.8309448833
 20
4307.374810518
 10
5320.056957326
 20
4298.6665596369
 10
5330.5287420149
 20
4289.1042805659
 10
5340.1014718864
 20
4278.6010211009
 10
5348.8021457671
 20
4267.3093211622
 10
5356.6758536954
 20
4255.406936327
 10
5363.7721936599
 20
4243.0649445955
 10
5370.1849346202
 20
4230.3889939968
 10
5376.0328652293
 20
4217.447671165
  0
LWPOLYLINE
  5
21C
330
1F
100
AcDbEntity
  8
0
  6
Continuous
 62
     8
370
    25
100
AcDbPolyline
 90
        7
 70
   128
 43
0.0
 10
5148.9975437699
 20
4356.80315133
 10
5164.4081208554
 20
4356.2272307347
 10
5179.8054311929
 20
4355.2107712778
 10
5195.1470408704
 20
4353.633365124
 10
5210.390515976
 20
4351.3746044378
 10
5226.1052543361
 20
4347.9740906778
 10
5241.2336421937
 20
4343.4243172857
  0
LWPOLYLINE
  5
21D
330
1F
100
AcDbEntity
  8
0
  6
Continuous
 62
     8
370
    25
100
AcDbPolyline
 90
       13
 70
   128
 43
0.0
 10
5260.6735544485
 20
4335.6143723021
 10
5271.275594279
 20
4330.6097846664
 10
5285.2945931973
 20
4322.7126659203
 10
5296.3535880575
 20
4315.7234029793
 10
5307.1589563753
 20
4308.3505940644
 10
5317.6537902099
 20
4300.2716762901
 10
5327.5727859718
 20
4291.4135465203
 10
5336.8340549746
 20
4281.8469521937
 10
5345.3557085319
 20
4271.6426407487
 10
5353.0558579573
 20
4260.8713596238
 10
5361.5889446758
 20
4246.8095071573
 10
5369.2008308489
 20
4232.2038062484
 10
5376.0323097855
 20
4217.2257512671
  0
LWPOLYLINE
  5
21E
330
1F
100
AcDbEntity
  8
0
  6
Continuous
 62
     8
370
    25
100
AcDbPolyline
 90
       14
 70
   128
 43
0.0
 10
5374.9213436858
 20
4217.235744263
 10
5374.9213200077
 20
4217.2357993858
 10
5368.1810264807
 20
4232.0185150667
 10
5360.6776959822
 20
4246.4376163731
 10
5352.2747883732
 20
4260.3271858385
 10
5344.6331646922
 20
4271.0633917576
 10
5336.1765270747
 20
4281.2402758944
 10
5326.9839428969
 20
4290.7850834595
 10
5317.1344795355
 20
4299.6250596636
 10
5306.7072043668
 20
4307.6874497172
 10
5295.9344926257
 20
4315.06117711
 10
5284.9056348728
 20
4322.0487717437
 10
5270.9418433752
 20
4329.9405531285
 10
5260.4033729955
 20
4334.9368025315
  0
LWPOLYLINE
  5
21F
330
1F
100
AcDbEntity
  8
0
  6
Continuous
 62
     8
370
    25
100
AcDbPolyline
 90
        9
 70
   128
 43
0.0
 10
5240.9761512512
 20
4342.7785731872
 10
5225.9447844381
 20
4347.3265038065
 10
5210.2852684742
 20
4350.7375417681
 10
5195.0694303893
 20
4353.0065849993
 10
5179.7541657219
 20
4354.5893856962
 10
5164.3825362496
 20
4355.6076192213
 10
5148.9976037502
 20
4356.1829609373
 10
5148.9975437699
 20
4356.1829624759
 10
5148.9975437699
 20
4356.1829624759
  0
LWPOLYLINE
  5
220
330
1F
100
AcDbEntity
  8
0
  6
Continuous
 62
     8
370
    25
100
AcDbPolyline
 90
        9
 70
   128
 43
0.0
 10
5148.9975437699
 20
4356.1829624759
 10
5148.9974837897
 20
4356.1829609373
 10
5133.970703657
 20
4355.6397753704
 10
5118.917715569
 20
4354.6865074725
 10
5103.9092087635
 20
4353.1840184433
 10
5089.0158724781
 20
4350.9931694824
 10
5074.3083959506
 20
4347.9748217896
 10
5059.8574684187
 20
4343.9898365645
 10
5056.9464282708
 20
4342.9604111352
  0
LWPOLYLINE
  5
221
330
1F
100
AcDbEntity
  8
0
  6
Continuous
 62
     8
370
    25
100
AcDbPolyline
 90
       16
 70
   128
 43
0.0
 10
5037.4704405364
 20
4335.2409374039
 10
5026.9392834441
 20
4330.0037179582
 10
5016.5488770786
 20
4324.1421055573
 10
5006.3602022556
 20
4317.8797171733
 10
4996.3416863532
 20
4311.261186824
 10
4986.6137073441
 20
4304.220407067
 10
4977.2966432009
 20
4296.6912704594
 10
4968.510871896
 20
4288.6076695588
 10
4960.3767714021
 20
4279.9034969225
 10
4951.3328697533
 20
4268.4512453007
 10
4943.1631910214
 20
4256.313304664
 10
4935.785162727
 20
4243.6347200844
 10
4929.1162123904
 20
4230.5605366344
 10
4923.0737675322
 20
4217.2357993859
 10
4923.073743854
 20
4217.235744263
 10
4923.073743854
 20
4217.235744263
  0
LWPOLYLINE
  5
222
330
1F
100
AcDbEntity
  8
0
  6
Continuous
 62
     8
370
    25
100
AcDbPolyline
 90
       15
 70
   128
 43
0.0
 10
4921.9627777544
 20
4217.2257512671
 10
4922.5583409155
 20
4218.6054594142
 10
4928.5897189242
 20
4231.7730979794
 10
4935.2419749184
 20
4244.6889122897
 10
4942.5934923797
 20
4257.2115660994
 10
4950.7226547899
 20
4269.1997231626
 10
4959.7078456306
 20
4280.5120472336
 10
4967.8920459775
 20
4289.2290718818
 10
4976.7274332687
 20
4297.3229986192
 10
4986.0934822285
 20
4304.8607609925
 10
4995.8696675808
 20
4311.9092925487
 10
5005.9354640499
 20
4318.5355268347
 10
5016.1703463598
 20
4324.8063973973
 10
5026.604872634
 20
4330.672327892
 10
5037.2003946856
 20
4335.9181671068
  0
LWPOLYLINE
  5
223
330
1F
100
AcDbEntity
  8
0
  6
Continuous
 62
     8
370
    25
100
AcDbPolyline
 90
        8
 70
   128
 43
0.0
 10
5056.6904876136
 20
4343.6022673782
 10
5059.6608350322
 20
4344.646758574
 10
5074.1480455393
 20
4348.6188716696
 10
5088.8895860144
 20
4351.6271840646
 10
5103.8153812662
 20
4353.8107319935
 10
5118.8553561035
 20
4355.308551691
 10
5133.9394353352
 20
4356.2596793916
 10
5148.9975437699
 20
4356.80315133
  0
ARC
  5
224
330
1F
100
AcDbEntity
  8
0
  6
Continuous
 62
     8
370
    25
100
AcDbCircle
 10
5097.9492496991
 20
4078.61763535
 30
0.0
 40
73.96080093840466
100
AcDbArc
 50
180.2260093767
 51
180.6199016021
  0
ARC
  5
225
330
1F
100
AcDbEntity
  8
0
  6
Continuous
 62
     8
370
    25
100
AcDbCircle
 10
5200.0458378932
 20
4078.6176353496
 30
0.0
 40
73.96080088591114
100
AcDbArc
 50
359.3800983978
 51
359.7739906234
  0
LINE
  5
226
330
1F
100
AcDbEntity
  8
0
  6
Continuous
 62
     8
370
    25
100
AcDbLine
 10
5098.9975437699
 20
4477.9990350525
 30
0.0
 11
5198.9975437699
 21
4477.9990350525
 31
0.0
  0
ENDSEC
  0
SECTION
  2
OBJECTS
  0
DICTIONARY
  5
C
330
0
100
AcDbDictionary
281
     1
  3
ACAD_GROUP
350
D
  3
ACAD_LAYOUT
350
1A
  3
ACAD_MLINESTYLE
350
17
  3
ACAD_PLOTSETTINGS
350
19
  3
ACAD_PLOTSTYLENAME
350
E
  3
ACAD_SCALELIST
350
47
  3
DWGPROPS
350
227
  0
DICTIONARY
  5
D
102
{ACAD_REACTORS
330
C
102
}
330
C
100
AcDbDictionary
281
     1
  0
DICTIONARY
  5
1A
102
{ACAD_REACTORS
330
C
102
}
330
C
100
AcDbDictionary
281
     1
  3
Layout1
350
1E
  3
Layout2
350
26
  3
Model
350
22
  0
DICTIONARY
  5
17
102
{ACAD_REACTORS
330
C
102
}
330
C
100
AcDbDictionary
281
     1
  3
Standard
350
18
  0
DICTIONARY
  5
19
102
{ACAD_REACTORS
330
C
102
}
330
C
100
AcDbDictionary
281
     1
  0
ACDBDICTIONARYWDFLT
  5
E
102
{ACAD_REACTORS
330
C
102
}
330
C
100
AcDbDictionary
281
     1
  3
Normal
350
F
100
AcDbDictionaryWithDefault
340
F
  0
DICTIONARY
  5
47
102
{ACAD_REACTORS
330
C
102
}
330
C
100
AcDbDictionary
281
     1
  3
A0
350
48
  3
A1
350
49
  3
A2
350
4A
  3
A3
350
4B
  3
A4
350
4C
  3
A5
350
4D
  3
A6
350
4E
  3
A7
350
4F
  3
A8
350
50
  3
A9
350
51
  3
B0
350
52
  3
B1
350
53
  3
B2
350
54
  3
B3
350
55
  3
B4
350
56
  3
B5
350
57
  3
B6
350
58
  3
B7
350
59
  3
B8
350
5A
  3
B9
350
5B
  3
C0
350
5C
  3
C1
350
5D
  3
C2
350
5E
  3
C3
350
5F
  3
C4
350
60
  3
C5
350
61
  3
C6
350
62
  3
C7
350
63
  3
C8
350
64
  3
C9
350
65
  3
D0
350
66
  3
D1
350
67
  3
D2
350
68
  0
XRECORD
  5
227
102
{ACAD_REACTORS
330
C
102
}
330
C
100
AcDbXrecord
280
     1
  1
DWGPROPS COOKIE
  2

  3

  4

  6

  7

  8
radek.stransky
  9

300
=
301
=
302
=
303
=
304
=
305
=
306
=
307
=
308
=
309
=
 40
0.0
 41
2459117.286089502
 42
2459117.286089965
  1

 90
        0
  0
LAYOUT
  5
1E
102
{ACAD_REACTORS
330
1A
102
}
330
1A
100
AcDbPlotSettings
  1

  2
none_device
  4

  6

 40
0.0
 41
0.0
 42
0.0
 43
0.0
 44
0.0
 45
0.0
 46
0.0
 47
0.0
 48
0.0
 49
0.0
140
0.0
141
0.0
142
1.0
143
1.0
 70
   688
 72
     1
 73
     0
 74
     5
  7

 75
    16
147
1.0
148
0.0
149
0.0
100
AcDbLayout
  1
Layout1
 70
     1
 71
     1
 10
0.0
 20
0.0
 11
420.0
 21
297.0
 12
0.0
 22
0.0
 32
0.0
 14
1.0000000000E+20
 24
1.0000000000E+20
 34
1.0000000000E+20
 15
-1.0000000000E+20
 25
-1.0000000000E+20
 35
-1.0000000000E+20
146
0.0
 13
0.0
 23
0.0
 33
0.0
 16
1.0
 26
0.0
 36
0.0
 17
0.0
 27
1.0
 37
0.0
 76
     0
330
1B
  0
LAYOUT
  5
26
102
{ACAD_REACTORS
330
1A
102
}
330
1A
100
AcDbPlotSettings
  1

  2
none_device
  4

  6

 40
0.0
 41
0.0
 42
0.0
 43
0.0
 44
0.0
 45
0.0
 46
0.0
 47
0.0
 48
0.0
 49
0.0
140
0.0
141
0.0
142
1.0
143
1.0
 70
   688
 72
     1
 73
     0
 74
     5
  7

 75
    16
147
1.0
148
0.0
149
0.0
100
AcDbLayout
  1
Layout2
 70
     1
 71
     2
 10
0.0
 20
0.0
 11
0.0
 21
0.0
 12
0.0
 22
0.0
 32
0.0
 14
0.0
 24
0.0
 34
0.0
 15
0.0
 25
0.0
 35
0.0
146
0.0
 13
0.0
 23
0.0
 33
0.0
 16
1.0
 26
0.0
 36
0.0
 17
0.0
 27
1.0
 37
0.0
 76
     0
330
23
  0
LAYOUT
  5
22
102
{ACAD_REACTORS
330
1A
102
}
330
1A
100
AcDbPlotSettings
  1

  2
none_device
  4
Letter_(8.50_x_11.00_Inches)
  6

 40
6.35
 41
6.35
 42
6.35000508
 43
6.35000508
 44
215.9
 45
279.4
 46
0.0
 47
0.0
 48
0.0
 49
0.0
140
0.0
141
0.0
142
1.0
143
1.0
 70
  1712
 72
     1
 73
     0
 74
     0
  7

 75
     0
147
1.0
148
0.0
149
0.0
100
AcDbLayout
  1
Model
 70
     1
 71
     0
 10
0.0
 20
0.0
 11
20000.0
 21
10000.0
 12
0.0
 22
0.0
 32
0.0
 14
0.0
 24
0.0
 34
0.0
 15
20000.0
 25
10000.0
 35
0.0
146
0.0
 13
0.0
 23
0.0
 33
0.0
 16
1.0
 26
0.0
 36
0.0
 17
0.0
 27
1.0
 37
0.0
 76
     0
330
1F
331
29
  0
MLINESTYLE
  5
18
102
{ACAD_REACTORS
330
17
102
}
330
17
100
AcDbMlineStyle
  2
Standard
 70
     0
  3

 62
   256
 51
90.0
 52
90.0
 71
     2
 49
0.5
 62
   256
  6
BYLAYER
 49
-0.5
 62
   256
  6
BYLAYER
  0
ACDBPLACEHOLDER
  5
F
102
{ACAD_REACTORS
330
E
102
}
330
E
  0
SCALE
  5
48
102
{ACAD_REACTORS
330
47
102
}
330
47
100
AcDbScale
 70
     0
300
1:1
140
1.0
141
1.0
290
     1
  0
SCALE
  5
49
102
{ACAD_REACTORS
330
47
102
}
330
47
100
AcDbScale
 70
     0
300
1:2
140
1.0
141
2.0
290
     0
  0
SCALE
  5
4A
102
{ACAD_REACTORS
330
47
102
}
330
47
100
AcDbScale
 70
     0
300
1:4
140
1.0
141
4.0
290
     0
  0
SCALE
  5
4B
102
{ACAD_REACTORS
330
47
102
}
330
47
100
AcDbScale
 70
     0
300
1:5
140
1.0
141
5.0
290
     0
  0
SCALE
  5
4C
102
{ACAD_REACTORS
330
47
102
}
330
47
100
AcDbScale
 70
     0
300
1:8
140
1.0
141
8.0
290
     0
  0
SCALE
  5
4D
102
{ACAD_REACTORS
330
47
102
}
330
47
100
AcDbScale
 70
     0
300
1:10
140
1.0
141
10.0
290
     0
  0
SCALE
  5
4E
102
{ACAD_REACTORS
330
47
102
}
330
47
100
AcDbScale
 70
     0
300
1:16
140
1.0
141
16.0
290
     0
  0
SCALE
  5
4F
102
{ACAD_REACTORS
330
47
102
}
330
47
100
AcDbScale
 70
     0
300
1:20
140
1.0
141
20.0
290
     0
  0
SCALE
  5
50
102
{ACAD_REACTORS
330
47
102
}
330
47
100
AcDbScale
 70
     0
300
1:30
140
1.0
141
30.0
290
     0
  0
SCALE
  5
51
102
{ACAD_REACTORS
330
47
102
}
330
47
100
AcDbScale
 70
     0
300
1:40
140
1.0
141
40.0
290
     0
  0
SCALE
  5
52
102
{ACAD_REACTORS
330
47
102
}
330
47
100
AcDbScale
 70
     0
300
1:50
140
1.0
141
50.0
290
     0
  0
SCALE
  5
53
102
{ACAD_REACTORS
330
47
102
}
330
47
100
AcDbScale
 70
     0
300
1:100
140
1.0
141
100.0
290
     0
  0
SCALE
  5
54
102
{ACAD_REACTORS
330
47
102
}
330
47
100
AcDbScale
 70
     0
300
2:1
140
2.0
141
1.0
290
     0
  0
SCALE
  5
55
102
{ACAD_REACTORS
330
47
102
}
330
47
100
AcDbScale
 70
     0
300
4:1
140
4.0
141
1.0
290
     0
  0
SCALE
  5
56
102
{ACAD_REACTORS
330
47
102
}
330
47
100
AcDbScale
 70
     0
300
8:1
140
8.0
141
1.0
290
     0
  0
SCALE
  5
57
102
{ACAD_REACTORS
330
47
102
}
330
47
100
AcDbScale
 70
     0
300
10:1
140
10.0
141
1.0
290
     0
  0
SCALE
  5
58
102
{ACAD_REACTORS
330
47
102
}
330
47
100
AcDbScale
 70
     0
300
100:1
140
100.0
141
1.0
290
     0
  0
SCALE
  5
59
102
{ACAD_REACTORS
330
47
102
}
330
47
100
AcDbScale
 70
     0
300
1/128" = 1'-0"
140
0.0078125
141
12.0
290
     0
  0
SCALE
  5
5A
102
{ACAD_REACTORS
330
47
102
}
330
47
100
AcDbScale
 70
     0
300
1/64" = 1'-0"
140
0.015625
141
12.0
290
     0
  0
SCALE
  5
5B
102
{ACAD_REACTORS
330
47
102
}
330
47
100
AcDbScale
 70
     0
300
1/32" = 1'-0"
140
0.03125
141
12.0
290
     0
  0
SCALE
  5
5C
102
{ACAD_REACTORS
330
47
102
}
330
47
100
AcDbScale
 70
     0
300
1/16" = 1'-0"
140
0.0625
141
12.0
290
     0
  0
SCALE
  5
5D
102
{ACAD_REACTORS
330
47
102
}
330
47
100
AcDbScale
 70
     0
300
3/32" = 1'-0"
140
0.09375
141
12.0
290
     0
  0
SCALE
  5
5E
102
{ACAD_REACTORS
330
47
102
}
330
47
100
AcDbScale
 70
     0
300
1/8" = 1'-0"
140
0.125
141
12.0
290
     0
  0
SCALE
  5
5F
102
{ACAD_REACTORS
330
47
102
}
330
47
100
AcDbScale
 70
     0
300
3/16" = 1'-0"
140
0.1875
141
12.0
290
     0
  0
SCALE
  5
60
102
{ACAD_REACTORS
330
47
102
}
330
47
100
AcDbScale
 70
     0
300
1/4" = 1'-0"
140
0.25
141
12.0
290
     0
  0
SCALE
  5
61
102
{ACAD_REACTORS
330
47
102
}
330
47
100
AcDbScale
 70
     0
300
3/8" = 1'-0"
140
0.375
141
12.0
290
     0
  0
SCALE
  5
62
102
{ACAD_REACTORS
330
47
102
}
330
47
100
AcDbScale
 70
     0
300
1/2" = 1'-0"
140
0.5
141
12.0
290
     0
  0
SCALE
  5
63
102
{ACAD_REACTORS
330
47
102
}
330
47
100
AcDbScale
 70
     0
300
3/4" = 1'-0"
140
0.75
141
12.0
290
     0
  0
SCALE
  5
64
102
{ACAD_REACTORS
330
47
102
}
330
47
100
AcDbScale
 70
     0
300
1" = 1'-0"
140
1.0
141
12.0
290
     0
  0
SCALE
  5
65
102
{ACAD_REACTORS
330
47
102
}
330
47
100
AcDbScale
 70
     0
300
1-1/2" = 1'-0"
140
1.5
141
12.0
290
     0
  0
SCALE
  5
66
102
{ACAD_REACTORS
330
47
102
}
330
47
100
AcDbScale
 70
     0
300
3" = 1'-0"
140
3.0
141
12.0
290
     0
  0
SCALE
  5
67
102
{ACAD_REACTORS
330
47
102
}
330
47
100
AcDbScale
 70
     0
300
6" = 1'-0"
140
6.0
141
12.0
290
     0
  0
SCALE
  5
68
102
{ACAD_REACTORS
330
47
102
}
330
47
100
AcDbScale
 70
     0
300
1'-0" = 1'-0"
140
12.0
141
12.0
290
     0
  0
ENDSEC
  0
EOF
