  0
SECTION
  2
HEADER
  9
$ACADVER
  1
AC1015
  9
$ACADMAINTVER
 70
     6
  9
$DWGCODEPAGE
  3
ANSI_1250
  9
$INSBASE
 10
0.0
 20
0.0
 30
0.0
  9
$EXTMIN
 10
0.0
 20
0.0
 30
0.0
  9
$EXTMAX
 10
20000.0
 20
10000.0
 30
0.0
  9
$LIMMIN
 10
0.0
 20
0.0
  9
$LIMMAX
 10
20000.0
 20
10000.0
  9
$ORTHOMODE
 70
     0
  9
$REGENMODE
 70
     1
  9
$FILLMODE
 70
     1
  9
$QTEXTMODE
 70
     0
  9
$MIRRTEXT
 70
     1
  9
$LTSCALE
 40
1.0
  9
$ATTMODE
 70
     1
  9
$TEXTSIZE
 40
2.0
  9
$TRACEWID
 40
1.0
  9
$TEXTSTYLE
  7
Standard
  9
$CLAYER
  8
0
  9
$CELTYPE
  6
ByLayer
  9
$CECOLOR
 62
   256
  9
$CELTSCALE
 40
1.0
  9
$DISPSILH
 70
     0
  9
$DIMSCALE
 40
1.0
  9
$DIMASZ
 40
2.0
  9
$DIMEXO
 40
1.0
  9
$DIMDLI
 40
3.75
  9
$DIMRND
 40
0.0
  9
$DIMDLE
 40
0.0
  9
$DIMEXE
 40
1.0
  9
$DIMTP
 40
0.0
  9
$DIMTM
 40
0.0
  9
$DIMTXT
 40
2.0
  9
$DIMCEN
 40
2.5
  9
$DIMTSZ
 40
0.0
  9
$DIMTOL
 70
     0
  9
$DIMLIM
 70
     0
  9
$DIMTIH
 70
     1
  9
$DIMTOH
 70
     1
  9
$DIMSE1
 70
     0
  9
$DIMSE2
 70
     0
  9
$DIMTAD
 70
     1
  9
$DIMZIN
 70
     0
  9
$DIMBLK
  1

  9
$DIMASO
 70
     1
  9
$DIMSHO
 70
     1
  9
$DIMPOST
  1

  9
$DIMAPOST
  1

  9
$DIMALT
 70
     0
  9
$DIMALTD
 70
     3
  9
$DIMALTF
 40
0.0393700787
  9
$DIMLFAC
 40
1.0
  9
$DIMTOFL
 70
     1
  9
$DIMTVP
 40
0.0
  9
$DIMTIX
 70
     0
  9
$DIMSOXD
 70
     0
  9
$DIMSAH
 70
     0
  9
$DIMBLK1
  1

  9
$DIMBLK2
  1

  9
$DIMSTYLE
  2
ISO-25
  9
$DIMCLRD
 70
     0
  9
$DIMCLRE
 70
     0
  9
$DIMCLRT
 70
     0
  9
$DIMTFAC
 40
1.0
  9
$DIMGAP
 40
1.524
  9
$DIMJUST
 70
     0
  9
$DIMSD1
 70
     0
  9
$DIMSD2
 70
     0
  9
$DIMTOLJ
 70
     0
  9
$DIMTZIN
 70
     0
  9
$DIMALTZ
 70
     0
  9
$DIMALTTZ
 70
     0
  9
$DIMUPT
 70
     0
  9
$DIMDEC
 70
     2
  9
$DIMTDEC
 70
     0
  9
$DIMALTU
 70
     2
  9
$DIMALTTD
 70
     3
  9
$DIMTXSTY
  7
Standard
  9
$DIMAUNIT
 70
     0
  9
$DIMADEC
 70
     2
  9
$DIMALTRND
 40
0.0
  9
$DIMAZIN
 70
     0
  9
$DIMDSEP
 70
    44
  9
$DIMATFIT
 70
     3
  9
$DIMFRAC
 70
     0
  9
$DIMLDRBLK
  1

  9
$DIMLUNIT
 70
     2
  9
$DIMLWD
 70
    -2
  9
$DIMLWE
 70
    -2
  9
$DIMTMOVE
 70
     0
  9
$LUNITS
 70
     2
  9
$LUPREC
 70
     3
  9
$SKETCHINC
 40
1.0
  9
$FILLETRAD
 40
10.0
  9
$AUNITS
 70
     0
  9
$AUPREC
 70
     2
  9
$MENU
  1
.
  9
$ELEVATION
 40
0.0
  9
$PELEVATION
 40
0.0
  9
$THICKNESS
 40
0.0
  9
$LIMCHECK
 70
     0
  9
$CHAMFERA
 40
0.0
  9
$CHAMFERB
 40
0.0
  9
$CHAMFERC
 40
0.0
  9
$CHAMFERD
 40
0.0
  9
$SKPOLY
 70
     0
  9
$TDCREATE
 40
2459123.300040683
  9
$TDUCREATE
 40
2459123.21670735
  9
$TDUPDATE
 40
2459123.300040984
  9
$TDUUPDATE
 40
2459123.216707651
  9
$TDINDWG
 40
0.0000000116
  9
$TDUSRTIMER
 40
0.0000000116
  9
$USRTIMER
 70
     1
  9
$ANGBASE
 50
0.0
  9
$ANGDIR
 70
     0
  9
$PDMODE
 70
     0
  9
$PDSIZE
 40
-1.0
  9
$PLINEWID
 40
0.0
  9
$SPLFRAME
 70
     0
  9
$SPLINETYPE
 70
     6
  9
$SPLINESEGS
 70
     8
  9
$HANDSEED
  5
44D
  9
$SURFTAB1
 70
     6
  9
$SURFTAB2
 70
     6
  9
$SURFTYPE
 70
     6
  9
$SURFU
 70
     6
  9
$SURFV
 70
     6
  9
$UCSBASE
  2

  9
$UCSNAME
  2

  9
$UCSORG
 10
0.0
 20
0.0
 30
0.0
  9
$UCSXDIR
 10
1.0
 20
0.0
 30
0.0
  9
$UCSYDIR
 10
0.0
 20
1.0
 30
0.0
  9
$UCSORTHOREF
  2

  9
$UCSORTHOVIEW
 70
     0
  9
$UCSORGTOP
 10
0.0
 20
0.0
 30
0.0
  9
$UCSORGBOTTOM
 10
0.0
 20
0.0
 30
0.0
  9
$UCSORGLEFT
 10
0.0
 20
0.0
 30
0.0
  9
$UCSORGRIGHT
 10
0.0
 20
0.0
 30
0.0
  9
$UCSORGFRONT
 10
0.0
 20
0.0
 30
0.0
  9
$UCSORGBACK
 10
0.0
 20
0.0
 30
0.0
  9
$PUCSBASE
  2

  9
$PUCSNAME
  2

  9
$PUCSORG
 10
0.0
 20
0.0
 30
0.0
  9
$PUCSXDIR
 10
1.0
 20
0.0
 30
0.0
  9
$PUCSYDIR
 10
0.0
 20
1.0
 30
0.0
  9
$PUCSORTHOREF
  2

  9
$PUCSORTHOVIEW
 70
     0
  9
$PUCSORGTOP
 10
0.0
 20
0.0
 30
0.0
  9
$PUCSORGBOTTOM
 10
0.0
 20
0.0
 30
0.0
  9
$PUCSORGLEFT
 10
0.0
 20
0.0
 30
0.0
  9
$PUCSORGRIGHT
 10
0.0
 20
0.0
 30
0.0
  9
$PUCSORGFRONT
 10
0.0
 20
0.0
 30
0.0
  9
$PUCSORGBACK
 10
0.0
 20
0.0
 30
0.0
  9
$USERI1
 70
     0
  9
$USERI2
 70
     0
  9
$USERI3
 70
     0
  9
$USERI4
 70
     0
  9
$USERI5
 70
     0
  9
$USERR1
 40
0.0
  9
$USERR2
 40
0.0
  9
$USERR3
 40
0.0
  9
$USERR4
 40
0.0
  9
$USERR5
 40
0.0
  9
$WORLDVIEW
 70
     1
  9
$SHADEDGE
 70
     3
  9
$SHADEDIF
 70
    70
  9
$TILEMODE
 70
     1
  9
$MAXACTVP
 70
    64
  9
$PINSBASE
 10
0.0
 20
0.0
 30
0.0
  9
$PLIMCHECK
 70
     0
  9
$PEXTMIN
 10
1.0000000000E+20
 20
1.0000000000E+20
 30
1.0000000000E+20
  9
$PEXTMAX
 10
-1.0000000000E+20
 20
-1.0000000000E+20
 30
-1.0000000000E+20
  9
$PLIMMIN
 10
0.0
 20
0.0
  9
$PLIMMAX
 10
420.0
 20
297.0
  9
$UNITMODE
 70
     0
  9
$VISRETAIN
 70
     1
  9
$PLINEGEN
 70
     0
  9
$PSLTSCALE
 70
     1
  9
$TREEDEPTH
 70
  3020
  9
$CMLSTYLE
  2
Standard
  9
$CMLJUST
 70
     0
  9
$CMLSCALE
 40
20.0
  9
$PROXYGRAPHICS
 70
     1
  9
$MEASUREMENT
 70
     1
  9
$CELWEIGHT
370
    -1
  9
$ENDCAPS
280
     0
  9
$JOINSTYLE
280
     0
  9
$LWDISPLAY
290
     1
  9
$INSUNITS
 70
     4
  9
$HYPERLINKBASE
  1

  9
$STYLESHEET
  1

  9
$XEDIT
290
     1
  9
$CEPSNTYPE
380
     0
  9
$PSTYLEMODE
290
     1
  9
$FINGERPRINTGUID
  2
{9ba1f43e-5b64-4047-bf73-81a0d3b1db84}
  9
$VERSIONGUID
  2
{FAEB1C32-E019-11D5-929B-00C0DF256EC4}
  9
$EXTNAMES
290
     1
  9
$PSVPSCALE
 40
0.0
  9
$OLESTARTUP
290
     0
  0
ENDSEC
  0
SECTION
  2
CLASSES
  0
CLASS
  1
ACDBDICTIONARYWDFLT
  2
AcDbDictionaryWithDefault
  3
ObjectDBX Classes
 90
        0
280
     0
281
     0
  0
CLASS
  1
VISUALSTYLE
  2
AcDbVisualStyle
  3
ObjectDBX Classes
 90
     4095
280
     0
281
     0
  0
CLASS
  1
MATERIAL
  2
AcDbMaterial
  3
ObjectDBX Classes
 90
     1153
280
     0
281
     0
  0
CLASS
  1
SCALE
  2
AcDbScale
  3
ObjectDBX Classes
 90
     1153
280
     0
281
     0
  0
CLASS
  1
TABLESTYLE
  2
AcDbTableStyle
  3
ObjectDBX Classes
 90
     4095
280
     0
281
     0
  0
CLASS
  1
MLEADERSTYLE
  2
AcDbMLeaderStyle
  3
ACDB_MLEADERSTYLE_CLASS
 90
     4095
280
     0
281
     0
  0
CLASS
  1
SUN
  2
AcDbSun
  3
SCENEOE
 90
     1153
280
     0
281
     0
  0
CLASS
  1
ACDBPLACEHOLDER
  2
AcDbPlaceHolder
  3
ObjectDBX Classes
 90
        0
280
     0
281
     0
  0
CLASS
  1
LAYOUT
  2
AcDbLayout
  3
ObjectDBX Classes
 90
        0
280
     0
281
     0
  0
ENDSEC
  0
SECTION
  2
TABLES
  0
TABLE
  2
VPORT
  5
8
330
0
100
AcDbSymbolTable
 70
     1
  0
VPORT
  5
29
330
8
100
AcDbSymbolTableRecord
100
AcDbViewportTableRecord
  2
*Active
 70
     0
 10
0.0
 20
0.0
 11
1.0
 21
1.0
 12
10000.0
 22
5000.0
 13
0.0
 23
0.0
 14
10.0
 24
10.0
 15
10.0
 25
10.0
 16
0.0
 26
0.0
 36
1.0
 17
0.0
 27
0.0
 37
0.0
 40
10000.0
 41
2.0
 42
50.0
 43
0.0
 44
0.0
 50
0.0
 51
0.0
 71
     0
 72
  2000
 73
     1
 74
     3
 75
     0
 76
     0
 77
     0
 78
     0
281
     0
 65
     1
110
0.0
120
0.0
130
0.0
111
1.0
121
0.0
131
0.0
112
0.0
122
1.0
132
0.0
 79
     0
146
0.0
  0
ENDTAB
  0
TABLE
  2
LTYPE
  5
5
330
0
100
AcDbSymbolTable
 70
     6
  0
LTYPE
  5
14
330
5
100
AcDbSymbolTableRecord
100
AcDbLinetypeTableRecord
  2
ByBlock
 70
     0
  3

 72
    65
 73
     0
 40
0.0
  0
LTYPE
  5
15
330
5
100
AcDbSymbolTableRecord
100
AcDbLinetypeTableRecord
  2
ByLayer
 70
     0
  3

 72
    65
 73
     0
 40
0.0
  0
LTYPE
  5
16
330
5
100
AcDbSymbolTableRecord
100
AcDbLinetypeTableRecord
  2
Continuous
 70
     0
  3
Solid line
 72
    65
 73
     0
 40
0.0
  0
LTYPE
  5
6E
330
5
100
AcDbSymbolTableRecord
100
AcDbLinetypeTableRecord
  2
HIDDEN
 70
     0
  3
Hidden __ __ __ __ __ __ __ __ __ __ __ __ __ __
 72
    65
 73
     2
 40
1.905
 49
1.27
 74
     0
 49
-0.635
 74
     0
  0
LTYPE
  5
6F
330
5
100
AcDbSymbolTableRecord
100
AcDbLinetypeTableRecord
  2
PHANTOM
 70
     0
  3
Phantom ______  __  __  ______  __  __  ______
 72
    65
 73
     6
 40
12.7
 49
6.35
 74
     0
 49
-1.27
 74
     0
 49
1.27
 74
     0
 49
-1.27
 74
     0
 49
1.27
 74
     0
 49
-1.27
 74
     0
  0
LTYPE
  5
70
330
5
100
AcDbSymbolTableRecord
100
AcDbLinetypeTableRecord
  2
CENTER
 70
     0
  3
Center ____ _ ____ _ ____ _ ____ _ ____ _ ____
 72
    65
 73
     4
 40
10.16
 49
6.35
 74
     0
 49
-1.27
 74
     0
 49
1.27
 74
     0
 49
-1.27
 74
     0
  0
LTYPE
  5
71
330
5
100
AcDbSymbolTableRecord
100
AcDbLinetypeTableRecord
  2
CENTERX2
 70
     0
  3
Center (2x) ________  __  ________  __  _____
 72
    65
 73
     4
 40
20.32
 49
12.7
 74
     0
 49
-2.54
 74
     0
 49
2.54
 74
     0
 49
-2.54
 74
     0
  0
LTYPE
  5
72
330
5
100
AcDbSymbolTableRecord
100
AcDbLinetypeTableRecord
  2
DOT2
 70
     0
  3
Dot (.5x) ........................................
 72
    65
 73
     2
 40
0.635
 49
0.0
 74
     0
 49
-0.635
 74
     0
  0
ENDTAB
  0
TABLE
  2
LAYER
  5
2
330
0
100
AcDbSymbolTable
 70
    13
  0
LAYER
  5
10
330
2
100
AcDbSymbolTableRecord
100
AcDbLayerTableRecord
  2
0
 70
     0
 62
     7
  6
Continuous
370
    -3
390
F
  0
LAYER
  5
73
330
2
100
AcDbSymbolTableRecord
100
AcDbLayerTableRecord
  2
FORMAT
 70
     0
 62
     7
  6
Continuous
370
    -3
390
F
  0
LAYER
  5
74
330
2
100
AcDbSymbolTableRecord
100
AcDbLayerTableRecord
  2
OSA
 70
     0
 62
     7
  6
CENTER
370
    -3
390
F
  0
LAYER
  5
75
330
2
100
AcDbSymbolTableRecord
100
AcDbLayerTableRecord
  2
0_35
 70
     0
 62
     7
  6
Continuous
370
    35
390
F
  0
LAYER
  5
76
330
2
100
AcDbSymbolTableRecord
100
AcDbLayerTableRecord
  2
0_5
 70
     0
 62
     7
  6
Continuous
370
    50
390
F
  0
LAYER
  5
77
330
2
100
AcDbSymbolTableRecord
100
AcDbLayerTableRecord
  2
0_25
 70
     0
 62
     7
  6
Continuous
370
    25
390
F
  0
LAYER
  5
78
330
2
100
AcDbSymbolTableRecord
100
AcDbLayerTableRecord
  2
0_18
 70
     0
 62
     7
  6
Continuous
370
    -3
390
F
  0
LAYER
  5
79
330
2
100
AcDbSymbolTableRecord
100
AcDbLayerTableRecord
  2
SLD-0
 70
     0
 62
   179
  6
Continuous
370
    -3
390
F
  0
LAYER
  5
7A
330
2
100
AcDbSymbolTableRecord
100
AcDbLayerTableRecord
  2
KOTY
 70
     0
 62
     7
  6
Continuous
370
    -3
390
F
  0
LAYER
  5
7B
330
2
100
AcDbSymbolTableRecord
100
AcDbLayerTableRecord
  2
SILNA
 70
     0
 62
   179
  6
Continuous
370
    -3
390
F
  0
LAYER
  5
7C
330
2
100
AcDbSymbolTableRecord
100
AcDbLayerTableRecord
  2
0_18_1
 70
     0
 62
   179
  6
Continuous
370
    -3
390
F
  0
LAYER
  5
7D
330
2
100
AcDbSymbolTableRecord
100
AcDbLayerTableRecord
  2
0_35_1
 70
     0
 62
   179
  6
Continuous
370
    35
390
F
  0
LAYER
  5
7E
330
2
100
AcDbSymbolTableRecord
100
AcDbLayerTableRecord
  2
0_5_1
 70
     0
 62
   179
  6
Continuous
370
    50
390
F
  0
ENDTAB
  0
TABLE
  2
STYLE
  5
3
330
0
100
AcDbSymbolTable
 70
     1
  0
STYLE
  5
11
330
3
100
AcDbSymbolTableRecord
100
AcDbTextStyleTableRecord
  2
Standard
 70
     0
 40
0.0
 41
1.0
 50
0.0
 71
     0
 42
2.0
  3
txt
  4

  0
ENDTAB
  0
TABLE
  2
VIEW
  5
6
330
0
100
AcDbSymbolTable
 70
     0
  0
ENDTAB
  0
TABLE
  2
UCS
  5
7
330
0
100
AcDbSymbolTable
 70
     0
  0
ENDTAB
  0
TABLE
  2
APPID
  5
9
330
0
100
AcDbSymbolTable
 70
     1
  0
APPID
  5
12
330
9
100
AcDbSymbolTableRecord
100
AcDbRegAppTableRecord
  2
ACAD
 70
     0
  0
ENDTAB
  0
TABLE
  2
DIMSTYLE
  5
A
330
0
100
AcDbSymbolTable
 70
     1
100
AcDbDimStyleTable
  0
DIMSTYLE
105
27
330
A
100
AcDbSymbolTableRecord
100
AcDbDimStyleTableRecord
  2
ISO-25
 70
     0
 41
2.5
 42
0.625
 43
3.75
 44
1.25
 73
     0
 74
     0
 77
     1
 78
     8
140
2.5
141
2.5
143
0.0393700787
147
0.625
171
     3
172
     1
178
     0
271
     2
272
     2
274
     3
278
    44
283
     0
284
     8
340
11
  0
ENDTAB
  0
TABLE
  2
BLOCK_RECORD
  5
1
330
0
100
AcDbSymbolTable
 70
     1
  0
BLOCK_RECORD
  5
1F
330
1
100
AcDbSymbolTableRecord
100
AcDbBlockTableRecord
  2
*Model_Space
340
22
  0
BLOCK_RECORD
  5
1B
330
1
100
AcDbSymbolTableRecord
100
AcDbBlockTableRecord
  2
*Paper_Space
340
1E
  0
BLOCK_RECORD
  5
23
330
1
100
AcDbSymbolTableRecord
100
AcDbBlockTableRecord
  2
*Paper_Space0
340
26
  0
ENDTAB
  0
ENDSEC
  0
SECTION
  2
BLOCKS
  0
BLOCK
  5
20
330
1F
100
AcDbEntity
  8
0
100
AcDbBlockBegin
  2
*Model_Space
 70
     0
 10
0.0
 20
0.0
 30
0.0
  3
*Model_Space
  1

  0
ENDBLK
  5
21
330
1F
100
AcDbEntity
  8
0
100
AcDbBlockEnd
  0
BLOCK
  5
1C
330
1B
100
AcDbEntity
 67
     1
  8
0
100
AcDbBlockBegin
  2
*Paper_Space
 70
     0
 10
0.0
 20
0.0
 30
0.0
  3
*Paper_Space
  1

  0
ENDBLK
  5
1D
330
1B
100
AcDbEntity
 67
     1
  8
0
100
AcDbBlockEnd
  0
BLOCK
  5
24
330
23
100
AcDbEntity
  8
0
100
AcDbBlockBegin
  2
*Paper_Space0
 70
     0
 10
0.0
 20
0.0
 30
0.0
  3
*Paper_Space0
  1

  0
ENDBLK
  5
25
330
23
100
AcDbEntity
  8
0
100
AcDbBlockEnd
  0
ENDSEC
  0
SECTION
  2
ENTITIES
  0
LINE
  5
7F
330
1F
100
AcDbEntity
  8
0
  6
Continuous
 62
     7
370
    25
100
AcDbLine
 10
6271.0187553361
 20
5664.1994545927
 30
0.0
 11
6271.0187553361
 21
5658.1994545927
 31
0.0
  0
LINE
  5
80
330
1F
100
AcDbEntity
  8
0
  6
Continuous
 62
     7
370
    25
100
AcDbLine
 10
6277.0187553361
 20
5658.1994545927
 30
0.0
 11
6277.0187553361
 21
5664.1994545927
 31
0.0
  0
ARC
  5
81
330
1F
100
AcDbEntity
  8
0
  6
Continuous
 62
     7
370
    25
100
AcDbCircle
 10
6274.0187553361
 20
5658.1994545927
 30
0.0
 40
3.0
100
AcDbArc
 50
180.0
 51
0.0
  0
ARC
  5
82
330
1F
100
AcDbEntity
  8
0
  6
Continuous
 62
     7
370
    25
100
AcDbCircle
 10
6326.0187553361
 20
5649.1320302877
 30
0.0
 40
5.000000000000975
100
AcDbArc
 50
293.5781784782
 51
331.4339809246
  0
ARC
  5
83
330
1F
100
AcDbEntity
  8
0
  6
Continuous
 62
     7
370
    25
100
AcDbCircle
 10
6326.0187553361
 20
5649.2668788978
 30
0.0
 40
4.999999999999653
100
AcDbArc
 50
29.4168754149
 51
66.4218215218
  0
ARC
  5
84
330
1F
100
AcDbEntity
  8
0
  6
Continuous
 62
     7
370
    25
100
AcDbCircle
 10
6222.0187553361
 20
5649.2668788978
 30
0.0
 40
4.999999999999815
100
AcDbArc
 50
113.5781784782
 51
151.4329569492
  0
ARC
  5
85
330
1F
100
AcDbEntity
  8
0
  6
Continuous
 62
     7
370
    25
100
AcDbCircle
 10
6222.0187553361
 20
5649.1320302877
 30
0.0
 40
5.000000000000308
100
AcDbArc
 50
209.3947627015
 51
246.4218215218
  0
CIRCLE
  5
86
330
1F
100
AcDbEntity
  8
0
  6
Continuous
 62
     7
370
    25
100
AcDbCircle
 10
6274.0187553361
 20
5404.1994545927
 30
0.0
 40
5.25000000000029
  0
ARC
  5
87
330
1F
100
AcDbEntity
  8
0
  6
Continuous
 62
     7
370
    25
100
AcDbCircle
 10
6274.0187553361
 20
5404.1994545927
 30
0.0
 40
2.800000000002195
100
AcDbArc
 50
183.3796407228
 51
243.3796407228
  0
ARC
  5
88
330
1F
100
AcDbEntity
  8
0
  6
Continuous
 62
     7
370
    25
100
AcDbCircle
 10
6274.0187553361
 20
5404.1994545927
 30
0.0
 40
2.800000000002159
100
AcDbArc
 50
243.3796407228
 51
303.3796407228
  0
ARC
  5
89
330
1F
100
AcDbEntity
  8
0
  6
Continuous
 62
     7
370
    25
100
AcDbCircle
 10
6274.0187553361
 20
5404.1994545927
 30
0.0
 40
2.799999999998477
100
AcDbArc
 50
303.3796407228
 51
3.3796407229
  0
ARC
  5
8A
330
1F
100
AcDbEntity
  8
0
  6
Continuous
 62
     7
370
    25
100
AcDbCircle
 10
6274.0187553361
 20
5404.1994545927
 30
0.0
 40
2.799999999998902
100
AcDbArc
 50
3.3796407229
 51
63.3796407229
  0
ARC
  5
8B
330
1F
100
AcDbEntity
  8
0
  6
Continuous
 62
     7
370
    25
100
AcDbCircle
 10
6274.0187553361
 20
5404.1994545927
 30
0.0
 40
2.799999999999219
100
AcDbArc
 50
63.3796407229
 51
123.3796407229
  0
ARC
  5
8C
330
1F
100
AcDbEntity
  8
0
  6
Continuous
 62
     7
370
    25
100
AcDbCircle
 10
6274.0187553361
 20
5404.1994545927
 30
0.0
 40
2.800000000002195
100
AcDbArc
 50
123.3796407229
 51
183.3796407228
  0
ARC
  5
8D
330
1F
100
AcDbEntity
  8
0
  6
Continuous
 62
     7
370
    25
100
AcDbCircle
 10
6275.051511815
 20
5406.259992511
 30
0.0
 40
0.4951350457333013
100
AcDbArc
 50
63.379640723
 51
139.880562319
  0
ARC
  5
8E
330
1F
100
AcDbEntity
  8
0
  6
Continuous
 62
     7
370
    25
100
AcDbCircle
 10
6273.8366151098
 20
5407.2837351457
 30
0.0
 40
1.09358235715177
100
AcDbArc
 50
226.8787191267
 51
319.8805623192
  0
ARC
  5
8F
330
1F
100
AcDbEntity
  8
0
  6
Continuous
 62
     7
370
    25
100
AcDbCircle
 10
6272.7506553928
 20
5406.1241168985
 30
0.0
 40
0.4951350457336902
100
AcDbArc
 50
46.8787191265
 51
123.3796407228
  0
ARC
  5
90
330
1F
100
AcDbEntity
  8
0
  6
Continuous
 62
     7
370
    25
100
AcDbCircle
 10
6271.2566199117
 20
5405.5838568062
 30
0.0
 40
1.093582357151173
100
AcDbArc
 50
286.8787191265
 51
19.8805623191
  0
ARC
  5
91
330
1F
100
AcDbEntity
  8
0
  6
Continuous
 62
     7
370
    25
100
AcDbCircle
 10
6271.717898914
 20
5404.0635789802
 30
0.0
 40
0.4951350457340969
100
AcDbArc
 50
106.8787191268
 51
183.3796407228
  0
ARC
  5
92
330
1F
100
AcDbEntity
  8
0
  6
Continuous
 62
     7
370
    25
100
AcDbCircle
 10
6272.7506553928
 20
5406.1241168985
 30
0.0
 40
0.4951350457334798
100
AcDbArc
 50
123.3796407228
 51
199.8805623191
  0
ARC
  5
93
330
1F
100
AcDbEntity
  8
0
  6
Continuous
 62
     7
370
    25
100
AcDbCircle
 10
6272.9859988572
 20
5402.1389166744
 30
0.0
 40
0.4951350457328247
100
AcDbArc
 50
243.3796407229
 51
319.8805623193
  0
ARC
  5
94
330
1F
100
AcDbEntity
  8
0
  6
Continuous
 62
     7
370
    25
100
AcDbCircle
 10
6274.2008955624
 20
5401.1151740397
 30
0.0
 40
1.093582357152356
100
AcDbArc
 50
46.8787191266
 51
139.8805623191
  0
ARC
  5
95
330
1F
100
AcDbEntity
  8
0
  6
Continuous
 62
     7
370
    25
100
AcDbCircle
 10
6275.2868552794
 20
5402.2747922869
 30
0.0
 40
0.4951350457330685
100
AcDbArc
 50
226.8787191265
 51
303.3796407227
  0
ARC
  5
96
330
1F
100
AcDbEntity
  8
0
  6
Continuous
 62
     7
370
    25
100
AcDbCircle
 10
6276.7808907605
 20
5402.8150523792
 30
0.0
 40
1.093582357153502
100
AcDbArc
 50
106.8787191266
 51
199.8805623192
  0
ARC
  5
97
330
1F
100
AcDbEntity
  8
0
  6
Continuous
 62
     7
370
    25
100
AcDbCircle
 10
6276.3196117582
 20
5404.3353302053
 30
0.0
 40
0.4951350457313122
100
AcDbArc
 50
286.8787191266
 51
3.379640723
  0
ARC
  5
98
330
1F
100
AcDbEntity
  8
0
  6
Continuous
 62
     7
370
    25
100
AcDbCircle
 10
6275.2868552794
 20
5402.2747922869
 30
0.0
 40
0.4951350457317166
100
AcDbArc
 50
303.3796407227
 51
19.880562319
  0
ARC
  5
99
330
1F
100
AcDbEntity
  8
0
  6
Continuous
 62
     7
370
    25
100
AcDbCircle
 10
6271.438760138
 20
5402.4995762532
 30
0.0
 40
1.093582357153885
100
AcDbArc
 50
346.8787191266
 51
79.8805623191
  0
ARC
  5
9A
330
1F
100
AcDbEntity
  8
0
  6
Continuous
 62
     7
370
    25
100
AcDbCircle
 10
6272.9859988572
 20
5402.1389166744
 30
0.0
 40
0.4951350457324478
100
AcDbArc
 50
166.8787191264
 51
243.3796407229
  0
ARC
  5
9B
330
1F
100
AcDbEntity
  8
0
  6
Continuous
 62
     7
370
    25
100
AcDbCircle
 10
6271.717898914
 20
5404.0635789802
 30
0.0
 40
0.4951350457340969
100
AcDbArc
 50
183.3796407228
 51
259.8805623191
  0
ARC
  5
9C
330
1F
100
AcDbEntity
  8
0
  6
Continuous
 62
     7
370
    25
100
AcDbCircle
 10
6276.5987505342
 20
5405.8993329322
 30
0.0
 40
1.093582357152557
100
AcDbArc
 50
166.8787191266
 51
259.8805623192
  0
ARC
  5
9D
330
1F
100
AcDbEntity
  8
0
  6
Continuous
 62
     7
370
    25
100
AcDbCircle
 10
6275.051511815
 20
5406.259992511
 30
0.0
 40
0.4951350457332608
100
AcDbArc
 50
346.8787191267
 51
63.379640723
  0
ARC
  5
9E
330
1F
100
AcDbEntity
  8
0
  6
Continuous
 62
     7
370
    25
100
AcDbCircle
 10
6276.3196117582
 20
5404.3353302053
 30
0.0
 40
0.4951350457317852
100
AcDbArc
 50
3.379640723
 51
79.8805623192
  0
CIRCLE
  5
9F
330
1F
100
AcDbEntity
  8
0
  6
Continuous
 62
     7
370
    25
100
AcDbCircle
 10
6274.0187553361
 20
5389.1994545927
 30
0.0
 40
5.25
  0
ARC
  5
A0
330
1F
100
AcDbEntity
  8
0
  6
Continuous
 62
     7
370
    25
100
AcDbCircle
 10
6274.0187553361
 20
5389.1994545927
 30
0.0
 40
2.800000000001091
100
AcDbArc
 50
90.0
 51
150.0
  0
ARC
  5
A1
330
1F
100
AcDbEntity
  8
0
  6
Continuous
 62
     7
370
    25
100
AcDbCircle
 10
6274.0187553361
 20
5389.1994545927
 30
0.0
 40
2.800000000000975
100
AcDbArc
 50
150.0
 51
210.0
  0
ARC
  5
A2
330
1F
100
AcDbEntity
  8
0
  6
Continuous
 62
     7
370
    25
100
AcDbCircle
 10
6274.0187553361
 20
5389.1994545927
 30
0.0
 40
2.799999999998823
100
AcDbArc
 50
210.0
 51
270.0
  0
ARC
  5
A3
330
1F
100
AcDbEntity
  8
0
  6
Continuous
 62
     7
370
    25
100
AcDbCircle
 10
6274.0187553361
 20
5389.1994545927
 30
0.0
 40
2.799999999999278
100
AcDbArc
 50
270.0
 51
330.0
  0
ARC
  5
A4
330
1F
100
AcDbEntity
  8
0
  6
Continuous
 62
     7
370
    25
100
AcDbCircle
 10
6274.0187553361
 20
5389.1994545927
 30
0.0
 40
2.799999999999278
100
AcDbArc
 50
330.0
 51
30.0
  0
ARC
  5
A5
330
1F
100
AcDbEntity
  8
0
  6
Continuous
 62
     7
370
    25
100
AcDbCircle
 10
6274.0187553361
 20
5389.1994545927
 30
0.0
 40
2.800000000001091
100
AcDbArc
 50
30.0
 51
90.0
  0
ARC
  5
A6
330
1F
100
AcDbEntity
  8
0
  6
Continuous
 62
     7
370
    25
100
AcDbCircle
 10
6275.563582316
 20
5391.8751734108
 30
0.0
 40
1.093582357151242
100
AcDbArc
 50
193.4990784037
 51
286.5009215962
  0
ARC
  5
A7
330
1F
100
AcDbEntity
  8
0
  6
Continuous
 62
     7
370
    25
100
AcDbCircle
 10
6274.0187553361
 20
5391.504319547
 30
0.0
 40
0.4951350457340595
100
AcDbArc
 50
13.4990784039
 51
90.0
  0
ARC
  5
A8
330
1F
100
AcDbEntity
  8
0
  6
Continuous
 62
     7
370
    25
100
AcDbCircle
 10
6276.0148269388
 20
5390.3518870699
 30
0.0
 40
0.4951350457332524
100
AcDbArc
 50
29.9999999999
 51
106.5009215963
  0
ARC
  5
A9
330
1F
100
AcDbEntity
  8
0
  6
Continuous
 62
     7
370
    25
100
AcDbCircle
 10
6276.0148269388
 20
5388.0470221156
 30
0.0
 40
0.495135045733839
100
AcDbArc
 50
330.0000000002
 51
46.5009215961
  0
ARC
  5
AA
330
1F
100
AcDbEntity
  8
0
  6
Continuous
 62
     7
370
    25
100
AcDbCircle
 10
6277.1084092959
 20
5389.1994545927
 30
0.0
 40
1.093582357151135
100
AcDbArc
 50
133.4990784038
 51
226.5009215963
  0
ARC
  5
AB
330
1F
100
AcDbEntity
  8
0
  6
Continuous
 62
     7
370
    25
100
AcDbCircle
 10
6276.0148269388
 20
5390.3518870699
 30
0.0
 40
0.4951350457339063
100
AcDbArc
 50
313.4990784036
 51
29.9999999999
  0
ARC
  5
AC
330
1F
100
AcDbEntity
  8
0
  6
Continuous
 62
     7
370
    25
100
AcDbCircle
 10
6272.0226837334
 20
5388.0470221156
 30
0.0
 40
0.4951350457338727
100
AcDbArc
 50
133.4990784038
 51
209.9999999998
  0
ARC
  5
AD
330
1F
100
AcDbEntity
  8
0
  6
Continuous
 62
     7
370
    25
100
AcDbCircle
 10
6270.9291013763
 20
5389.1994545927
 30
0.0
 40
1.093582357152421
100
AcDbArc
 50
313.4990784038
 51
46.5009215963
  0
ARC
  5
AE
330
1F
100
AcDbEntity
  8
0
  6
Continuous
 62
     7
370
    25
100
AcDbCircle
 10
6272.0226837334
 20
5390.3518870699
 30
0.0
 40
0.4951350457323945
100
AcDbArc
 50
150.0
 51
226.5009215963
  0
ARC
  5
AF
330
1F
100
AcDbEntity
  8
0
  6
Continuous
 62
     7
370
    25
100
AcDbCircle
 10
6272.4739283562
 20
5391.8751734108
 30
0.0
 40
1.093582357152928
100
AcDbArc
 50
253.4990784037
 51
346.5009215962
  0
ARC
  5
B0
330
1F
100
AcDbEntity
  8
0
  6
Continuous
 62
     7
370
    25
100
AcDbCircle
 10
6272.0226837334
 20
5390.3518870699
 30
0.0
 40
0.4951350457323945
100
AcDbArc
 50
73.4990784036
 51
150.0
  0
ARC
  5
B1
330
1F
100
AcDbEntity
  8
0
  6
Continuous
 62
     7
370
    25
100
AcDbCircle
 10
6274.0187553361
 20
5391.504319547
 30
0.0
 40
0.4951350457340595
100
AcDbArc
 50
90.0
 51
166.5009215963
  0
ARC
  5
B2
330
1F
100
AcDbEntity
  8
0
  6
Continuous
 62
     7
370
    25
100
AcDbCircle
 10
6272.4739283562
 20
5386.5237357746
 30
0.0
 40
1.093582357152314
100
AcDbArc
 50
13.4990784037
 51
106.5009215963
  0
ARC
  5
B3
330
1F
100
AcDbEntity
  8
0
  6
Continuous
 62
     7
370
    25
100
AcDbCircle
 10
6274.0187553361
 20
5386.8945896385
 30
0.0
 40
0.495135045731654
100
AcDbArc
 50
193.4990784037
 51
270.0000000001
  0
ARC
  5
B4
330
1F
100
AcDbEntity
  8
0
  6
Continuous
 62
     7
370
    25
100
AcDbCircle
 10
6272.0226837334
 20
5388.0470221156
 30
0.0
 40
0.4951350457322727
100
AcDbArc
 50
209.9999999998
 51
286.5009215961
  0
ARC
  5
B5
330
1F
100
AcDbEntity
  8
0
  6
Continuous
 62
     7
370
    25
100
AcDbCircle
 10
6275.563582316
 20
5386.5237357746
 30
0.0
 40
1.093582357151914
100
AcDbArc
 50
73.4990784037
 51
166.5009215964
  0
ARC
  5
B6
330
1F
100
AcDbEntity
  8
0
  6
Continuous
 62
     7
370
    25
100
AcDbCircle
 10
6276.0148269388
 20
5388.0470221156
 30
0.0
 40
0.4951350457335151
100
AcDbArc
 50
253.499078404
 51
330.0000000002
  0
ARC
  5
B7
330
1F
100
AcDbEntity
  8
0
  6
Continuous
 62
     7
370
    25
100
AcDbCircle
 10
6274.0187553361
 20
5386.8945896385
 30
0.0
 40
0.4951350457314417
100
AcDbArc
 50
270.0000000001
 51
346.5009215964
  0
CIRCLE
  5
B8
330
1F
100
AcDbEntity
  8
0
  6
Continuous
 62
     7
370
    25
100
AcDbCircle
 10
6234.0187553361
 20
5676.1994545927
 30
0.0
 40
2.0
  0
CIRCLE
  5
B9
330
1F
100
AcDbEntity
  8
0
  6
Continuous
 62
     7
370
    25
100
AcDbCircle
 10
6234.0187553361
 20
5676.1994545927
 30
0.0
 40
2.499999999999091
  0
LWPOLYLINE
  5
BA
330
1F
100
AcDbEntity
  8
0
  6
Continuous
 62
     7
370
    25
100
AcDbPolyline
 90
       41
 70
   128
 43
0.0
 10
6274.0187553361
 20
5759.1994545927
 10
6277.0826569123
 20
5759.5563635409
 10
6279.8252732821
 20
5760.5040751575
 10
6282.3498632346
 20
5761.9435755644
 10
6284.538024649
 20
5763.7094951275
 10
6286.4716223304
 20
5765.7545257103
 10
6288.9353410209
 20
5769.2494349648
 10
6290.8678352997
 20
5773.0699199245
 10
6292.4630082447
 20
5777.6219849293
 10
6293.4895580957
 20
5782.3562395696
 10
6293.9723437819
 20
5787.1622534771
 10
6293.7249548981
 20
5794.3169569721
 10
6292.3028334207
 20
5801.3286900194
 10
6290.4463012657
 20
5806.2782311211
 10
6287.8311796662
 20
5810.8628593102
 10
6285.5538955815
 20
5813.6782130336
 10
6282.8603642933
 20
5816.0895649108
 10
6280.8623697926
 20
5817.3748779541
 10
6278.7022298695
 20
5818.3590071588
 10
6276.3963371982
 20
5818.982589854
 10
6274.0187553361
 20
5819.1994545927
 10
6272.017557417
 20
5819.0476896846
 10
6269.6797958895
 20
5818.4775586571
 10
6267.4651625423
 20
5817.5315047429
 10
6264.9497512558
 20
5815.9166332764
 10
6262.7169274605
 20
5813.9232114308
 10
6260.1857641067
 20
5810.8332645115
 10
6258.1366714308
 20
5807.3983110097
 10
6255.8585173802
 20
5801.7415873086
 10
6254.5093489709
 20
5795.7864802235
 10
6254.0187814997
 20
5789.4087702411
 10
6254.4489475331
 20
5783.0265922696
 10
6255.7653125912
 20
5776.9641807123
 10
6258.0360045537
 20
5771.1995531201
 10
6260.2170333583
 20
5767.5208304294
 10
6262.9492054274
 20
5764.2399276964
 10
6265.2340130212
 20
5762.2688291842
 10
6267.8037500106
 20
5760.695280775
 10
6269.8914230829
 20
5759.851705212
 10
6272.0829966575
 20
5759.3414343128
 10
6274.0187553361
 20
5759.1994545927
  0
ELLIPSE
  5
BB
330
1F
100
AcDbEntity
  8
0
  6
Continuous
 62
     7
370
    25
100
AcDbEllipse
 10
6274.0187553361
 20
5789.1994545927
 30
0.0
 11
0.0
 21
-31.0
 31
-2.131628207280301E-14
210
-6.767073673905716E-16
220
-6.876220023484840E-16
230
1.0
 40
0.6774193548
 41
0.0
 42
6.283185307179586
  0
ARC
  5
BC
330
1F
100
AcDbEntity
  8
0
  6
Continuous
 62
     7
370
    25
100
AcDbCircle
 10
6292.8713132607
 20
5886.5838370572
 30
0.0
 40
1.409178895955943
100
AcDbArc
 50
107.6625500029
 51
163.1099656582
  0
LINE
  5
BD
330
1F
100
AcDbEntity
  8
0
  6
Continuous
 62
     7
370
    25
100
AcDbLine
 10
6291.5229205189
 20
5886.9932539289
 30
0.0
 11
6291.5004205189
 21
5886.9990872623
 31
0.0
  0
LINE
  5
BE
330
1F
100
AcDbEntity
  8
0
  6
Continuous
 62
     7
370
    25
100
AcDbLine
 10
6291.5004205189
 20
5886.9990872623
 30
0.0
 11
6291.5120871856
 21
5887.0682539289
 31
0.0
  0
LWPOLYLINE
  5
BF
330
1F
100
AcDbEntity
  8
0
  6
Continuous
 62
     7
370
    25
100
AcDbPolyline
 90
        3
 70
   128
 43
0.0
 10
6291.5120871856
 20
5887.0682539289
 10
6291.5564896152
 20
5887.3313026763
 10
6291.5754205189
 20
5887.5399205956
  0
ARC
  5
C0
330
1F
100
AcDbEntity
  8
0
  6
Continuous
 62
     7
370
    25
100
AcDbCircle
 10
6291.240868606
 20
5887.5887111697
 30
0.0
 40
0.338090967855122
100
AcDbArc
 50
351.7025609855
 51
87.9571472308
  0
ARC
  5
C1
330
1F
100
AcDbEntity
  8
0
  6
Continuous
 62
     7
370
    25
100
AcDbCircle
 10
6291.6662491794
 20
5886.4942940919
 30
0.0
 40
1.490739516978676
100
AcDbArc
 50
106.0969896885
 51
165.7694538725
  0
LINE
  5
C2
330
1F
100
AcDbEntity
  8
0
  6
Continuous
 62
     7
370
    25
100
AcDbLine
 10
6290.2212538523
 20
5886.8607539289
 30
0.0
 11
6290.1987538523
 21
5886.8665872623
 31
0.0
  0
ARC
  5
C3
330
1F
100
AcDbEntity
  8
0
  6
Continuous
 62
     7
370
    25
100
AcDbCircle
 10
6136.2788401648
 20
5904.2917716587
 30
0.0
 40
154.9031209524552
100
AcDbArc
 50
353.5410775851
 51
353.8902483429
  0
LWPOLYLINE
  5
C4
330
1F
100
AcDbEntity
  8
0
  6
Continuous
 62
     7
370
    25
100
AcDbPolyline
 90
        5
 70
   128
 43
0.0
 10
6290.3020871856
 20
5887.8049205956
 10
6290.2950462928
 20
5887.8763214274
 10
6290.2815242097
 20
5887.9108252328
 10
6290.2683116099
 20
5887.9218155703
 10
6290.2504205189
 20
5887.9265872623
  0
LWPOLYLINE
  5
C5
330
1F
100
AcDbEntity
  8
0
  6
Continuous
 62
     7
370
    25
100
AcDbPolyline
 90
        3
 70
   128
 43
0.0
 10
6290.2504205189
 20
5887.9265872623
 10
6290.0794481649
 20
5887.8682089617
 10
6289.9562538523
 20
5887.7965872623
  0
LWPOLYLINE
  5
C6
330
1F
100
AcDbEntity
  8
0
  6
Continuous
 62
     7
370
    25
100
AcDbPolyline
 90
        3
 70
   128
 43
0.0
 10
6289.9562538523
 20
5887.7965872623
 10
6289.8902960862
 20
5887.6667151375
 10
6289.8704205189
 20
5887.5524205956
  0
ARC
  5
C7
330
1F
100
AcDbEntity
  8
0
  6
Continuous
 62
     7
370
    25
100
AcDbCircle
 10
6398.5806041386
 20
5872.1931138908
 30
0.0
 40
109.7898552921171
100
AcDbArc
 50
171.9580952579
 51
172.8706616464
  0
LWPOLYLINE
  5
C8
330
1F
100
AcDbEntity
  8
0
  6
Continuous
 62
     7
370
    25
100
AcDbPolyline
 90
        4
 70
   128
 43
0.0
 10
6289.6395871856
 20
5885.8190872623
 10
6289.6467265348
 20
5885.7810668493
 10
6289.6729834048
 20
5885.7527400444
 10
6289.7320871856
 20
5885.7399205956
  0
LWPOLYLINE
  5
C9
330
1F
100
AcDbEntity
  8
0
  6
Continuous
 62
     7
370
    25
100
AcDbPolyline
 90
        4
 70
   128
 43
0.0
 10
6289.7320871856
 20
5885.7399205956
 10
6289.9318488212
 20
5885.8084978096
 10
6289.9982518432
 20
5885.8586914914
 10
6290.0370871856
 20
5885.9315872623
  0
ARC
  5
CA
330
1F
100
AcDbEntity
  8
0
  6
Continuous
 62
     7
370
    25
100
AcDbCircle
 10
6292.3087875166
 20
5885.7602964139
 30
0.0
 40
2.278149018030913
100
AcDbArc
 50
123.5041912558
 51
175.6879407838
  0
LWPOLYLINE
  5
CB
330
1F
100
AcDbEntity
  8
0
  6
Continuous
 62
     7
370
    25
100
AcDbPolyline
 90
        5
 70
   128
 43
0.0
 10
6291.0512538523
 20
5887.6599205956
 10
6291.0869670818
 20
5887.6534395095
 10
6291.1171265175
 20
5887.6338648249
 10
6291.1363120695
 20
5887.6031339339
 10
6291.1487538523
 20
5887.5190872623
  0
ARC
  5
CC
330
1F
100
AcDbEntity
  8
0
  6
Continuous
 62
     7
370
    25
100
AcDbCircle
 10
6277.8101028224
 20
5888.8168491695
 30
0.0
 40
13.40163412666792
100
AcDbArc
 50
348.7213765774
 51
354.4429924116
  0
LWPOLYLINE
  5
CD
330
1F
100
AcDbEntity
  8
0
  6
Continuous
 62
     7
370
    25
100
AcDbPolyline
 90
        3
 70
   128
 43
0.0
 10
6290.9529205189
 20
5886.1957539289
 10
6290.9194520952
 20
5886.0004092441
 10
6290.8954205189
 20
5885.8465872623
  0
LWPOLYLINE
  5
CE
330
1F
100
AcDbEntity
  8
0
  6
Continuous
 62
     7
370
    25
100
AcDbPolyline
 90
        5
 70
   128
 43
0.0
 10
6290.8954205189
 20
5885.8465872623
 10
6290.9001937103
 20
5885.8060426068
 10
6290.9153008221
 20
5885.7679988033
 10
6290.9388191926
 20
5885.7465486212
 10
6290.9704205189
 20
5885.7399205956
  0
LWPOLYLINE
  5
CF
330
1F
100
AcDbEntity
  8
0
  6
Continuous
 62
     7
370
    25
100
AcDbPolyline
 90
        3
 70
   128
 43
0.0
 10
6290.9704205189
 20
5885.7399205956
 10
6291.1409671876
 20
5885.7945637915
 10
6291.2595871856
 20
5885.8690872623
  0
LWPOLYLINE
  5
D0
330
1F
100
AcDbEntity
  8
0
  6
Continuous
 62
     7
370
    25
100
AcDbPolyline
 90
        3
 70
   128
 43
0.0
 10
6291.2595871856
 20
5885.8690872623
 10
6291.3403122655
 20
5886.081855937
 10
6291.3754205189
 20
5886.2582539289
  0
ARC
  5
D1
330
1F
100
AcDbEntity
  8
0
  6
Continuous
 62
     7
370
    25
100
AcDbCircle
 10
6293.4141852528
 20
5885.9832975459
 30
0.0
 40
2.057222071730289
100
AcDbArc
 50
125.4132599922
 51
172.3191936419
  0
LWPOLYLINE
  5
D2
330
1F
100
AcDbEntity
  8
0
  6
Continuous
 62
     7
370
    25
100
AcDbPolyline
 90
        5
 70
   128
 43
0.0
 10
6292.2220871856
 20
5887.6599205956
 10
6292.257007814
 20
5887.6548406725
 10
6292.2873978055
 20
5887.637828722
 10
6292.3081125577
 20
5887.6093535919
 10
6292.3220871856
 20
5887.5282539289
  0
LWPOLYLINE
  5
D3
330
1F
100
AcDbEntity
  8
0
  6
Continuous
 62
     7
370
    25
100
AcDbPolyline
 90
        3
 70
   128
 43
0.0
 10
6292.3220871856
 20
5887.5282539289
 10
6292.2730076731
 20
5887.1138917024
 10
6292.2154205189
 20
5886.7907539289
  0
LWPOLYLINE
  5
D4
330
1F
100
AcDbEntity
  8
0
  6
Continuous
 62
     7
370
    25
100
AcDbPolyline
 90
        3
 70
   128
 43
0.0
 10
6292.2154205189
 20
5886.7907539289
 10
6292.1416240072
 20
5886.4015791062
 10
6292.1087538523
 20
5886.0924205956
  0
ARC
  5
D5
330
1F
100
AcDbEntity
  8
0
  6
Continuous
 62
     7
370
    25
100
AcDbCircle
 10
6292.4416077633
 20
5886.0243783969
 30
0.0
 40
0.3397373498191888
100
AcDbArc
 50
168.4467353183
 51
276.1357683369
  0
LWPOLYLINE
  5
D6
330
1F
100
AcDbEntity
  8
0
  6
Continuous
 62
     7
370
    25
100
AcDbPolyline
 90
        5
 70
   128
 43
0.0
 10
6292.4779205189
 20
5885.6865872623
 10
6292.7405867025
 20
5885.7152734571
 10
6292.8657070579
 20
5885.7580442214
 10
6292.921682055
 20
5885.7934631615
 10
6292.9504205189
 20
5885.8515872623
  0
LWPOLYLINE
  5
D7
330
1F
100
AcDbEntity
  8
0
  6
Continuous
 62
     7
370
    25
100
AcDbPolyline
 90
        6
 70
   128
 43
0.0
 10
6292.9504205189
 20
5885.8515872623
 10
6292.9445240997
 20
5885.8783103381
 10
6292.9353335846
 20
5885.8878279647
 10
6292.9226436511
 20
5885.8936950315
 10
6292.8686958344
 20
5885.8981761368
 10
6292.7604205189
 20
5885.8999205956
  0
ARC
  5
D8
330
1F
100
AcDbEntity
  8
0
  6
Continuous
 62
     7
370
    25
100
AcDbCircle
 10
6292.7317563275
 20
5886.0946299355
 30
0.0
 40
0.1968079340691056
100
AcDbArc
 50
176.0305354394
 51
278.3746608843
  0
LWPOLYLINE
  5
D9
330
1F
100
AcDbEntity
  8
0
  6
Continuous
 62
     7
370
    25
100
AcDbPolyline
 90
        3
 70
   128
 43
0.0
 10
6292.5354205189
 20
5886.1082539289
 10
6292.5794066764
 20
5886.4757856921
 10
6292.6304205189
 20
5886.7624205956
  0
LWPOLYLINE
  5
DA
330
1F
100
AcDbEntity
  8
0
  6
Continuous
 62
     7
370
    25
100
AcDbPolyline
 90
        3
 70
   128
 43
0.0
 10
6292.6304205189
 20
5886.7624205956
 10
6292.7131395805
 20
5887.2143552533
 10
6292.7487538523
 20
5887.5732539289
  0
ARC
  5
DB
330
1F
100
AcDbEntity
  8
0
  6
Continuous
 62
     7
370
    25
100
AcDbCircle
 10
6292.4591716329
 20
5887.6315901892
 30
0.0
 40
0.2953996971138812
100
AcDbArc
 50
348.6102210993
 51
92.9917949354
  0
LWPOLYLINE
  5
DC
330
1F
100
AcDbEntity
  8
0
  6
Continuous
 62
     7
370
    25
100
AcDbPolyline
 90
        3
 70
   128
 43
0.0
 10
6293.9704205189
 20
5887.3640872623
 10
6294.2231776171
 20
5887.6020617792
 10
6294.4887538523
 20
5887.6599205956
  0
LWPOLYLINE
  5
DD
330
1F
100
AcDbEntity
  8
0
  6
Continuous
 62
     7
370
    25
100
AcDbPolyline
 90
        3
 70
   128
 43
0.0
 10
6294.4887538523
 20
5887.6599205956
 10
6294.7053898147
 20
5887.6427076623
 10
6294.8745871856
 20
5887.6190872623
  0
LWPOLYLINE
  5
DE
330
1F
100
AcDbEntity
  8
0
  6
Continuous
 62
     7
370
    25
100
AcDbPolyline
 90
        3
 70
   128
 43
0.0
 10
6294.8745871856
 20
5887.6190872623
 10
6295.010148466
 20
5887.6009895319
 10
6295.1170871856
 20
5887.5907539289
  0
ARC
  5
DF
330
1F
100
AcDbEntity
  8
0
  6
Continuous
 62
     7
370
    25
100
AcDbCircle
 10
6295.1281445699
 20
5887.7006916564
 30
0.0
 40
0.1104923964449046
100
AcDbArc
 50
264.2565848118
 51
6.5282766077
  0
LWPOLYLINE
  5
E0
330
1F
100
AcDbEntity
  8
0
  6
Continuous
 62
     7
370
    25
100
AcDbPolyline
 90
        6
 70
   128
 43
0.0
 10
6295.2379205189
 20
5887.7132539289
 10
6295.2314531115
 20
5887.7699682742
 10
6295.2075116748
 20
5887.8217301335
 10
6295.1669011059
 20
5887.8615664472
 10
6295.1155019653
 20
5887.8866506685
 10
6294.8920871856
 20
5887.9265872623
  0
ARC
  5
E1
330
1F
100
AcDbEntity
  8
0
  6
Continuous
 62
     7
370
    25
100
AcDbCircle
 10
6294.8636226022
 20
5886.2381487933
 30
0.0
 40
1.688678387374511
100
AcDbArc
 50
89.0341691199
 51
178.6391304039
  0
ARC
  5
E2
330
1F
100
AcDbEntity
  8
0
  6
Continuous
 62
     7
370
    25
100
AcDbCircle
 10
6293.7370552301
 20
5886.2484187947
 30
0.0
 40
0.5624266031848354
100
AcDbArc
 50
176.9591943135
 51
272.6358902024
  0
ARC
  5
E3
330
1F
100
AcDbEntity
  8
0
  6
Continuous
 62
     7
370
    25
100
AcDbCircle
 10
6293.5518846356
 20
5886.8548374991
 30
0.0
 40
1.187158270806948
100
AcDbArc
 50
280.2396383642
 51
343.4037135548
  0
LINE
  5
E4
330
1F
100
AcDbEntity
  8
0
  6
Continuous
 62
     7
370
    25
100
AcDbLine
 10
6294.6895871856
 20
5886.5157539289
 30
0.0
 11
6294.7012538523
 21
5886.5040872623
 31
0.0
  0
LINE
  5
E5
330
1F
100
AcDbEntity
  8
0
  6
Continuous
 62
     7
370
    25
100
AcDbLine
 10
6294.7012538523
 20
5886.5040872623
 30
0.0
 11
6294.6954205189
 21
5886.4699205956
 31
0.0
  0
LWPOLYLINE
  5
E6
330
1F
100
AcDbEntity
  8
0
  6
Continuous
 62
     7
370
    25
100
AcDbPolyline
 90
        3
 70
   128
 43
0.0
 10
6294.6954205189
 20
5886.4699205956
 10
6294.6426887781
 20
5886.1676445104
 10
6294.6154205189
 20
5885.9282539289
  0
LWPOLYLINE
  5
E7
330
1F
100
AcDbEntity
  8
0
  6
Continuous
 62
     7
370
    25
100
AcDbPolyline
 90
        4
 70
   128
 43
0.0
 10
6294.6154205189
 20
5885.9282539289
 10
6294.6364518141
 20
5885.8133935818
 10
6294.711095828
 20
5885.7249589424
 10
6294.8895871856
 20
5885.6865872623
  0
LWPOLYLINE
  5
E8
330
1F
100
AcDbEntity
  8
0
  6
Continuous
 62
     7
370
    25
100
AcDbPolyline
 90
        6
 70
   128
 43
0.0
 10
6294.8895871856
 20
5885.6865872623
 10
6295.1549528929
 20
5885.7239850032
 10
6295.2829098415
 20
5885.7642492666
 10
6295.3420600114
 20
5885.7957342051
 10
6295.3655921065
 20
5885.8195687549
 10
6295.3745871856
 20
5885.8515872623
  0
LWPOLYLINE
  5
E9
330
1F
100
AcDbEntity
  8
0
  6
Continuous
 62
     7
370
    25
100
AcDbPolyline
 90
        6
 70
   128
 43
0.0
 10
6295.3745871856
 20
5885.8515872623
 10
6295.3705159026
 20
5885.8735607872
 10
6295.3644611482
 20
5885.8822591729
 10
6295.3552785884
 20
5885.8886093338
 10
6295.3122328025
 20
5885.8974432629
 10
6295.2245871856
 20
5885.8999205956
  0
LWPOLYLINE
  5
EA
330
1F
100
AcDbEntity
  8
0
  6
Continuous
 62
     7
370
    25
100
AcDbPolyline
 90
        5
 70
   128
 43
0.0
 10
6295.2245871856
 20
5885.8999205956
 10
6295.0686174651
 20
5885.9166462479
 10
6295.0334143484
 20
5885.9341874168
 10
6295.007534551
 20
5885.9637331847
 10
6294.9887538523
 20
5886.0399205956
  0
ARC
  5
EB
330
1F
100
AcDbEntity
  8
0
  6
Continuous
 62
     7
370
    25
100
AcDbCircle
 10
6318.7810836397
 20
5883.3952708604
 30
0.0
 40
23.93886231499732
100
AcDbArc
 50
171.3355803577
 51
173.6572926048
  0
LWPOLYLINE
  5
EC
330
1F
100
AcDbEntity
  8
0
  6
Continuous
 62
     7
370
    25
100
AcDbPolyline
 90
        3
 70
   128
 43
0.0
 10
6295.1154205189
 20
5887.0015872623
 10
6295.1455625529
 20
5887.2011438968
 10
6295.1670871856
 20
5887.3582539289
  0
LWPOLYLINE
  5
ED
330
1F
100
AcDbEntity
  8
0
  6
Continuous
 62
     7
370
    25
100
AcDbPolyline
 90
        5
 70
   128
 43
0.0
 10
6295.1670871856
 20
5887.3582539289
 10
6295.1542630178
 20
5887.4150771362
 10
6295.1362961075
 20
5887.4383621403
 10
6295.1122189955
 20
5887.4551543837
 10
6294.9995871856
 20
5887.4857539289
  0
LWPOLYLINE
  5
EE
330
1F
100
AcDbEntity
  8
0
  6
Continuous
 62
     7
370
    25
100
AcDbPolyline
 90
        5
 70
   128
 43
0.0
 10
6294.9995871856
 20
5887.4857539289
 10
6294.9611400866
 20
5887.4797140487
 10
6294.9276323741
 20
5887.4596599424
 10
6294.8856455741
 20
5887.3940650645
 10
6294.8270871856
 20
5887.2490872623
  0
LWPOLYLINE
  5
EF
330
1F
100
AcDbEntity
  8
0
  6
Continuous
 62
     7
370
    25
100
AcDbPolyline
 90
        3
 70
   128
 43
0.0
 10
6294.8270871856
 20
5887.2490872623
 10
6294.7863980807
 20
5887.1324119278
 10
6294.7520871856
 20
5887.0415872623
  0
LWPOLYLINE
  5
F0
330
1F
100
AcDbEntity
  8
0
  6
Continuous
 62
     7
370
    25
100
AcDbPolyline
 90
        3
 70
   128
 43
0.0
 10
6294.7520871856
 20
5887.0415872623
 10
6294.5536553876
 20
5886.6108107378
 10
6294.3587538523
 20
5886.2932539289
  0
ARC
  5
F1
330
1F
100
AcDbEntity
  8
0
  6
Continuous
 62
     7
370
    25
100
AcDbCircle
 10
6293.7986961328
 20
5886.5762406758
 30
0.0
 40
0.6274919505962165
100
AcDbArc
 50
276.8699084782
 51
333.1933791809
  0
LWPOLYLINE
  5
F2
330
1F
100
AcDbEntity
  8
0
  6
Continuous
 62
     7
370
    25
100
AcDbPolyline
 90
        5
 70
   128
 43
0.0
 10
6293.8737538523
 20
5885.9532539289
 10
6293.7774245727
 20
5885.9725328708
 10
6293.6979723813
 20
5886.0302606287
 10
6293.6441031698
 20
5886.1126522833
 10
6293.6020871856
 20
5886.3399205956
  0
LWPOLYLINE
  5
F3
330
1F
100
AcDbEntity
  8
0
  6
Continuous
 62
     7
370
    25
100
AcDbPolyline
 90
        3
 70
   128
 43
0.0
 10
6293.6020871856
 20
5886.3399205956
 10
6293.7289415951
 20
5886.9431925917
 10
6293.9704205189
 20
5887.3640872623
  0
LWPOLYLINE
  5
F4
330
1F
100
AcDbEntity
  8
0
  6
Continuous
 62
     7
370
    25
100
AcDbPolyline
 90
        4
 70
   128
 43
0.0
 10
6297.5295871856
 20
5886.3240872623
 10
6297.5753273766
 20
5886.3071571688
 10
6297.5904122555
 20
5886.2951257388
 10
6297.5995871856
 20
5886.2782539289
  0
LWPOLYLINE
  5
F5
330
1F
100
AcDbEntity
  8
0
  6
Continuous
 62
     7
370
    25
100
AcDbPolyline
 90
        4
 70
   128
 43
0.0
 10
6297.5995871856
 20
5886.2782539289
 10
6297.7134125253
 20
5886.0003807497
 10
6297.9265267555
 20
5885.7917636114
 10
6298.3820871856
 20
5885.6865872623
  0
ARC
  5
F6
330
1F
100
AcDbEntity
  8
0
  6
Continuous
 62
     7
370
    25
100
AcDbCircle
 10
6298.3995214215
 20
5886.8884194865
 30
0.0
 40
1.201958671412512
100
AcDbArc
 50
269.1689038985
 51
319.2137894189
  0
ARC
  5
F7
330
1F
100
AcDbEntity
  8
0
  6
Continuous
 62
     7
370
    25
100
AcDbCircle
 10
6299.2530509856
 20
5886.1147545233
 30
0.0
 40
0.0576940688276929
100
AcDbArc
 50
348.5017764761
 51
91.7850156544
  0
LWPOLYLINE
  5
F8
330
1F
100
AcDbEntity
  8
0
  6
Continuous
 62
     7
370
    25
100
AcDbPolyline
 90
        3
 70
   128
 43
0.0
 10
6299.2512538523
 20
5886.1724205956
 10
6299.1593775737
 20
5886.1418409299
 10
6299.0904205189
 20
5886.1090872623
  0
LWPOLYLINE
  5
F9
330
1F
100
AcDbEntity
  8
0
  6
Continuous
 62
     7
370
    25
100
AcDbPolyline
 90
        3
 70
   128
 43
0.0
 10
6299.0904205189
 20
5886.1090872623
 10
6298.7920836747
 20
5885.989740657
 10
6298.5429205189
 20
5885.9532539289
  0
ARC
  5
FA
330
1F
100
AcDbEntity
  8
0
  6
Continuous
 62
     7
370
    25
100
AcDbCircle
 10
6298.5268253487
 20
5886.3977029087
 30
0.0
 40
0.444740317662621
100
AcDbArc
 50
179.8216538069
 51
272.0739894889
  0
LWPOLYLINE
  5
FB
330
1F
100
AcDbEntity
  8
0
  6
Continuous
 62
     7
370
    25
100
AcDbPolyline
 90
        4
 70
   128
 43
0.0
 10
6298.0820871856
 20
5886.3990872623
 10
6298.098504583
 20
5886.4648688201
 10
6298.1518459664
 20
5886.5065670892
 10
6298.2479205189
 20
5886.5540872623
  0
ARC
  5
FC
330
1F
100
AcDbEntity
  8
0
  6
Continuous
 62
     7
370
    25
100
AcDbCircle
 10
6297.980907645
 20
5887.974381759
 30
0.0
 40
1.445175536896447
100
AcDbArc
 50
280.6472306351
 51
342.8852901369
  0
ARC
  5
FD
330
1F
100
AcDbEntity
  8
0
  6
Continuous
 62
     7
370
    25
100
AcDbCircle
 10
6298.9822318903
 20
5887.550999496
 30
0.0
 40
0.3798601085113582
100
AcDbArc
 50
359.7115691119
 51
98.601351517
  0
ARC
  5
FE
330
1F
100
AcDbEntity
  8
0
  6
Continuous
 62
     7
370
    25
100
AcDbCircle
 10
6299.1170623731
 20
5886.4629520967
 30
0.0
 40
1.47612821191337
100
AcDbArc
 50
97.4596172225
 51
172.2012440008
  0
ARC
  5
FF
330
1F
100
AcDbEntity
  8
0
  6
Continuous
 62
     7
370
    25
100
AcDbCircle
 10
6297.5208338943
 20
5886.6936738869
 30
0.0
 40
0.1371689351464193
100
AcDbArc
 50
282.8130162778
 51
347.1869837222
  0
LWPOLYLINE
  5
100
330
1F
100
AcDbEntity
  8
0
  6
Continuous
 62
     7
370
    25
100
AcDbPolyline
 90
        4
 70
   128
 43
0.0
 10
6297.5512538523
 20
5886.5599205956
 10
6297.4623857364
 20
5886.4941056432
 10
6297.4459915039
 20
5886.4536225977
 10
6297.4420871856
 20
5886.4099205956
  0
LWPOLYLINE
  5
101
330
1F
100
AcDbEntity
  8
0
  6
Continuous
 62
     7
370
    25
100
AcDbPolyline
 90
        4
 70
   128
 43
0.0
 10
6297.4420871856
 20
5886.4099205956
 10
6297.4472208681
 20
5886.3711712779
 10
6297.4703788504
 20
5886.3404709971
 10
6297.5295871856
 20
5886.3240872623
  0
LINE
  5
102
330
1F
100
AcDbEntity
  8
0
  6
Continuous
 62
     7
370
    25
100
AcDbLine
 10
6307.9729205189
 20
5885.9990872623
 30
0.0
 11
6307.9554205189
 21
5885.9932539289
 31
0.0
  0
LINE
  5
103
330
1F
100
AcDbEntity
  8
0
  6
Continuous
 62
     7
370
    25
100
AcDbLine
 10
6307.9554205189
 20
5885.9932539289
 30
0.0
 11
6307.9379205189
 21
5885.9932539289
 31
0.0
  0
LWPOLYLINE
  5
104
330
1F
100
AcDbEntity
  8
0
  6
Continuous
 62
     7
370
    25
100
AcDbPolyline
 90
        3
 70
   128
 43
0.0
 10
6307.9379205189
 20
5885.9932539289
 10
6307.8964969176
 20
5885.9860334084
 10
6307.8637538523
 20
5885.9815872623
  0
LWPOLYLINE
  5
105
330
1F
100
AcDbEntity
  8
0
  6
Continuous
 62
     7
370
    25
100
AcDbPolyline
 90
        3
 70
   128
 43
0.0
 10
6307.8637538523
 20
5885.9815872623
 10
6307.7350314051
 20
5885.9609144399
 10
6307.6329205189
 20
5885.9532539289
  0
LWPOLYLINE
  5
106
330
1F
100
AcDbEntity
  8
0
  6
Continuous
 62
     7
370
    25
100
AcDbPolyline
 90
        5
 70
   128
 43
0.0
 10
6307.6329205189
 20
5885.9532539289
 10
6307.5181587267
 20
5885.9628902573
 10
6307.4153172465
 20
5886.0117036787
 10
6307.3731355948
 20
5886.0910496835
 10
6307.3620871856
 20
5886.1807539289
  0
ARC
  5
107
330
1F
100
AcDbEntity
  8
0
  6
Continuous
 62
     7
370
    25
100
AcDbCircle
 10
6325.4831238455
 20
5884.6511056351
 30
0.0
 40
18.18548304365606
100
AcDbArc
 50
170.9554066726
 51
175.1749388094
  0
LINE
  5
108
330
1F
100
AcDbEntity
  8
0
  6
Continuous
 62
     7
370
    25
100
AcDbLine
 10
6307.5237538523
 20
5887.5099205956
 30
0.0
 11
6307.5295871856
 21
5887.5607539289
 31
0.0
  0
LWPOLYLINE
  5
109
330
1F
100
AcDbEntity
  8
0
  6
Continuous
 62
     7
370
    25
100
AcDbPolyline
 90
        5
 70
   128
 43
0.0
 10
6307.5295871856
 20
5887.5607539289
 10
6307.5418759002
 20
5887.5944245599
 10
6307.5700352204
 20
5887.6162382957
 10
6307.6399162283
 20
5887.6320222561
 10
6307.7829205189
 20
5887.6457539289
  0
LWPOLYLINE
  5
10A
330
1F
100
AcDbEntity
  8
0
  6
Continuous
 62
     7
370
    25
100
AcDbPolyline
 90
        3
 70
   128
 43
0.0
 10
6307.7829205189
 20
5887.6457539289
 10
6307.899229645
 20
5887.6578569687
 10
6307.9904205189
 20
5887.6690872623
  0
LWPOLYLINE
  5
10B
330
1F
100
AcDbEntity
  8
0
  6
Continuous
 62
     7
370
    25
100
AcDbPolyline
 90
        5
 70
   128
 43
0.0
 10
6307.9904205189
 20
5887.6690872623
 10
6308.1668740696
 20
5887.6961750244
 10
6308.2506835339
 20
5887.7262550001
 10
6308.2831293568
 20
5887.7567664811
 10
6308.2954205189
 20
5887.7990872623
  0
LWPOLYLINE
  5
10C
330
1F
100
AcDbEntity
  8
0
  6
Continuous
 62
     7
370
    25
100
AcDbPolyline
 90
        5
 70
   128
 43
0.0
 10
6308.2954205189
 20
5887.7990872623
 10
6308.2907220576
 20
5887.8345780377
 10
6308.2817608593
 20
5887.8501167073
 10
6308.2680365125
 20
5887.8616307383
 10
6308.1979205189
 20
5887.8732539289
  0
LINE
  5
10D
330
1F
100
AcDbEntity
  8
0
  6
Continuous
 62
     7
370
    25
100
AcDbLine
 10
6308.1979205189
 20
5887.8732539289
 30
0.0
 11
6307.8112538523
 21
5887.8732539289
 31
0.0
  0
LWPOLYLINE
  5
10E
330
1F
100
AcDbEntity
  8
0
  6
Continuous
 62
     7
370
    25
100
AcDbPolyline
 90
        6
 70
   128
 43
0.0
 10
6307.8112538523
 20
5887.8732539289
 10
6307.6743092219
 20
5887.8765524842
 10
6307.6064847921
 20
5887.8851726572
 10
6307.5919284635
 20
5887.8947467325
 10
6307.5818504245
 20
5887.9085665085
 10
6307.5754205189
 20
5887.9424205956
  0
LWPOLYLINE
  5
10F
330
1F
100
AcDbEntity
  8
0
  6
Continuous
 62
     7
370
    25
100
AcDbPolyline
 90
        3
 70
   128
 43
0.0
 10
6307.5754205189
 20
5887.9424205956
 10
6307.6024086222
 20
5888.1945808679
 10
6307.6329205189
 20
5888.3915872623
  0
LWPOLYLINE
  5
110
330
1F
100
AcDbEntity
  8
0
  6
Continuous
 62
     7
370
    25
100
AcDbPolyline
 90
        3
 70
   128
 43
0.0
 10
6307.6329205189
 20
5888.3915872623
 10
6307.6622181822
 20
5888.6105505146
 10
6307.6787538523
 20
5888.7832539289
  0
LWPOLYLINE
  5
111
330
1F
100
AcDbEntity
  8
0
  6
Continuous
 62
     7
370
    25
100
AcDbPolyline
 90
        5
 70
   128
 43
0.0
 10
6307.6787538523
 20
5888.7832539289
 10
6307.6715111306
 20
5888.8220152568
 10
6307.6658087365
 20
5888.8302672287
 10
6307.6580308901
 20
5888.836522279
 10
6307.6387538523
 20
5888.8407539289
  0
LWPOLYLINE
  5
112
330
1F
100
AcDbEntity
  8
0
  6
Continuous
 62
     7
370
    25
100
AcDbPolyline
 90
        3
 70
   128
 43
0.0
 10
6307.6387538523
 20
5888.8407539289
 10
6307.4608055276
 20
5888.7866790884
 10
6307.3345871856
 20
5888.7140872623
  0
ARC
  5
113
330
1F
100
AcDbEntity
  8
0
  6
Continuous
 62
     7
370
    25
100
AcDbCircle
 10
6310.0431704069
 20
5887.8412236751
 30
0.0
 40
2.845753662671012
100
AcDbArc
 50
162.1380301581
 51
172.8433709557
  0
LWPOLYLINE
  5
114
330
1F
100
AcDbEntity
  8
0
  6
Continuous
 62
     7
370
    25
100
AcDbPolyline
 90
        3
 70
   128
 43
0.0
 10
6307.2195871856
 20
5888.1957539289
 10
6307.2042928501
 20
5888.0959398005
 10
6307.1929205189
 20
5888.0174205956
  0
LINE
  5
115
330
1F
100
AcDbEntity
  8
0
  6
Continuous
 62
     7
370
    25
100
AcDbLine
 10
6307.1929205189
 20
5888.0174205956
 30
0.0
 11
6307.1929205189
 21
5888.0057539289
 31
0.0
  0
LWPOLYLINE
  5
116
330
1F
100
AcDbEntity
  8
0
  6
Continuous
 62
     7
370
    25
100
AcDbPolyline
 90
        6
 70
   128
 43
0.0
 10
6307.1929205189
 20
5888.0057539289
 10
6307.1800432007
 20
5887.9437575526
 10
6307.1622790364
 20
5887.8972898746
 10
6307.139425776
 20
5887.8817290207
 10
6307.111872517
 20
5887.8758262139
 10
6307.0554205189
 20
5887.8732539289
  0
LWPOLYLINE
  5
117
330
1F
100
AcDbEntity
  8
0
  6
Continuous
 62
     7
370
    25
100
AcDbPolyline
 90
        6
 70
   128
 43
0.0
 10
6307.0554205189
 20
5887.8732539289
 10
6306.8247116424
 20
5887.8510502541
 10
6306.7684818828
 20
5887.8369550965
 10
6306.7221023081
 20
5887.8032838999
 10
6306.6990044996
 20
5887.7501222462
 10
6306.6937538523
 20
5887.6924205956
  0
LWPOLYLINE
  5
118
330
1F
100
AcDbEntity
  8
0
  6
Continuous
 62
     7
370
    25
100
AcDbPolyline
 90
        5
 70
   128
 43
0.0
 10
6306.6937538523
 20
5887.6924205956
 10
6306.7028621373
 20
5887.6458698723
 10
6306.7176114554
 20
5887.6272113789
 10
6306.7380924363
 20
5887.6149974868
 10
6306.8320871856
 20
5887.6007539289
  0
LWPOLYLINE
  5
119
330
1F
100
AcDbEntity
  8
0
  6
Continuous
 62
     7
370
    25
100
AcDbPolyline
 90
        3
 70
   128
 43
0.0
 10
6306.8320871856
 20
5887.6007539289
 10
6306.8834512121
 20
5887.6035142218
 10
6306.9237538523
 20
5887.6065872623
  0
LINE
  5
11A
330
1F
100
AcDbEntity
  8
0
  6
Continuous
 62
     7
370
    25
100
AcDbLine
 10
6306.9237538523
 20
5887.6065872623
 30
0.0
 11
6307.0287538523
 21
5887.6065872623
 31
0.0
  0
LWPOLYLINE
  5
11B
330
1F
100
AcDbEntity
  8
0
  6
Continuous
 62
     7
370
    25
100
AcDbPolyline
 90
        5
 70
   128
 43
0.0
 10
6307.0287538523
 20
5887.6065872623
 10
6307.0590937938
 20
5887.603927655
 10
6307.0867140118
 20
5887.5913632772
 10
6307.1004562508
 20
5887.571868875
 10
6307.1045871856
 20
5887.5482539289
  0
LWPOLYLINE
  5
11C
330
1F
100
AcDbEntity
  8
0
  6
Continuous
 62
     7
370
    25
100
AcDbPolyline
 90
        3
 70
   128
 43
0.0
 10
6307.1045871856
 20
5887.5482539289
 10
6307.0719171284
 20
5887.2561510291
 10
6307.0395871856
 20
5887.0274205956
  0
LWPOLYLINE
  5
11D
330
1F
100
AcDbEntity
  8
0
  6
Continuous
 62
     7
370
    25
100
AcDbPolyline
 90
        3
 70
   128
 43
0.0
 10
6307.0395871856
 20
5887.0274205956
 10
6306.9750300148
 20
5886.5100110055
 10
6306.9354205189
 20
5886.1024205956
  0
ARC
  5
11E
330
1F
100
AcDbEntity
  8
0
  6
Continuous
 62
     7
370
    25
100
AcDbCircle
 10
6307.3100765107
 20
5886.061243254
 30
0.0
 40
0.3769120396199197
100
AcDbArc
 50
173.727962513
 51
276.2720374867
  0
LWPOLYLINE
  5
11F
330
1F
100
AcDbEntity
  8
0
  6
Continuous
 62
     7
370
    25
100
AcDbPolyline
 90
        6
 70
   128
 43
0.0
 10
6307.3512538523
 20
5885.6865872623
 10
6307.7364918566
 20
5885.7391088683
 10
6307.9185541506
 20
5885.8078587938
 10
6308.0010419355
 20
5885.8596078237
 10
6308.0337422748
 20
5885.8956852438
 10
6308.0479205189
 20
5885.9415872623
  0
LWPOLYLINE
  5
120
330
1F
100
AcDbEntity
  8
0
  6
Continuous
 62
     7
370
    25
100
AcDbPolyline
 90
        4
 70
   128
 43
0.0
 10
6308.0479205189
 20
5885.9415872623
 10
6308.0410034622
 20
5885.9707491573
 10
6308.0193943154
 20
5885.9911657039
 10
6307.9729205189
 20
5885.9990872623
  0
LWPOLYLINE
  5
121
330
1F
100
AcDbEntity
  8
0
  6
Continuous
 62
     7
370
    25
100
AcDbPolyline
 90
        3
 70
   128
 43
0.0
 10
6314.1662538523
 20
5887.5224205956
 10
6314.3399805153
 20
5887.5969638069
 10
6314.4895871856
 20
5887.6065872623
  0
LWPOLYLINE
  5
122
330
1F
100
AcDbEntity
  8
0
  6
Continuous
 62
     7
370
    25
100
AcDbPolyline
 90
        3
 70
   128
 43
0.0
 10
6314.4895871856
 20
5887.6065872623
 10
6314.7119170564
 20
5887.5969440773
 10
6314.8862538523
 20
5887.5832539289
  0
LWPOLYLINE
  5
123
330
1F
100
AcDbEntity
  8
0
  6
Continuous
 62
     7
370
    25
100
AcDbPolyline
 90
        3
 70
   128
 43
0.0
 10
6314.8862538523
 20
5887.5832539289
 10
6314.993060277
 20
5887.5727057152
 10
6315.0770871856
 20
5887.5657539289
  0
LWPOLYLINE
  5
124
330
1F
100
AcDbEntity
  8
0
  6
Continuous
 62
     7
370
    25
100
AcDbPolyline
 90
        5
 70
   128
 43
0.0
 10
6315.0770871856
 20
5887.5657539289
 10
6315.1495798631
 20
5887.5734471964
 10
6315.2148999998
 20
5887.6046778399
 10
6315.2469627722
 20
5887.6517229164
 10
6315.2554205189
 20
5887.7082539289
  0
LWPOLYLINE
  5
125
330
1F
100
AcDbEntity
  8
0
  6
Continuous
 62
     7
370
    25
100
AcDbPolyline
 90
        5
 70
   128
 43
0.0
 10
6315.2554205189
 20
5887.7082539289
 10
6315.2448843379
 20
5887.7662658491
 10
6315.2087616817
 20
5887.8125884893
 10
6315.0991496571
 20
5887.8547700288
 10
6314.8637538523
 20
5887.8732539289
  0
ARC
  5
126
330
1F
100
AcDbEntity
  8
0
  6
Continuous
 62
     7
370
    25
100
AcDbCircle
 10
6314.7731734637
 20
5886.3834759852
 30
0.0
 40
1.49252910471017
100
AcDbArc
 50
86.5206272232
 51
177.4804772147
  0
LWPOLYLINE
  5
127
330
1F
100
AcDbEntity
  8
0
  6
Continuous
 62
     7
370
    25
100
AcDbPolyline
 90
        5
 70
   128
 43
0.0
 10
6313.2820871856
 20
5886.4490872623
 10
6313.3595738849
 20
5886.1183669263
 10
6313.4666501485
 20
5885.9847595672
 10
6313.6056560799
 20
5885.884738368
 10
6314.2704205189
 20
5885.7399205956
  0
LWPOLYLINE
  5
128
330
1F
100
AcDbEntity
  8
0
  6
Continuous
 62
     7
370
    25
100
AcDbPolyline
 90
        6
 70
   128
 43
0.0
 10
6314.2704205189
 20
5885.7399205956
 10
6314.7585319971
 20
5885.7974089786
 10
6314.9902433458
 20
5885.8803614032
 10
6315.0966964971
 20
5885.9419133696
 10
6315.1414189217
 20
5885.983965267
 10
6315.1629205189
 20
5886.0407539289
  0
LWPOLYLINE
  5
129
330
1F
100
AcDbEntity
  8
0
  6
Continuous
 62
     7
370
    25
100
AcDbPolyline
 90
        4
 70
   128
 43
0.0
 10
6315.1629205189
 20
5886.0407539289
 10
6315.1580136742
 20
5886.0701960845
 10
6315.1390551194
 20
5886.0930699621
 10
6315.0937538523
 20
5886.1040872623
  0
LWPOLYLINE
  5
12A
330
1F
100
AcDbEntity
  8
0
  6
Continuous
 62
     7
370
    25
100
AcDbPolyline
 90
        3
 70
   128
 43
0.0
 10
6315.0937538523
 20
5886.1040872623
 10
6315.009983152
 20
5886.0895818092
 10
6314.9445871856
 20
5886.0757539289
  0
LWPOLYLINE
  5
12B
330
1F
100
AcDbEntity
  8
0
  6
Continuous
 62
     7
370
    25
100
AcDbPolyline
 90
        3
 70
   128
 43
0.0
 10
6314.9445871856
 20
5886.0757539289
 10
6314.6810776418
 20
5886.0284987846
 10
6314.4720871856
 20
5886.0065872623
  0
ARC
  5
12C
330
1F
100
AcDbEntity
  8
0
  6
Continuous
 62
     7
370
    25
100
AcDbCircle
 10
6314.3797890764
 20
5886.5655426366
 30
0.0
 40
0.5665245373653279
100
AcDbArc
 50
174.9997875971
 51
279.376417289
  0
LWPOLYLINE
  5
12D
330
1F
100
AcDbEntity
  8
0
  6
Continuous
 62
     7
370
    25
100
AcDbPolyline
 90
        3
 70
   128
 43
0.0
 10
6313.8154205189
 20
5886.6149205956
 10
6313.9227474278
 20
5887.1614115482
 10
6314.1662538523
 20
5887.5224205956
  0
ARC
  5
12E
330
1F
100
AcDbEntity
  8
0
  6
Continuous
 62
     7
370
    25
100
AcDbCircle
 10
6316.7953263776
 20
5886.6006926919
 30
0.0
 40
1.326572526720246
100
AcDbArc
 50
91.8318566567
 51
179.9973551201
  0
ARC
  5
12F
330
1F
100
AcDbEntity
  8
0
  6
Continuous
 62
     7
370
    25
100
AcDbCircle
 10
6316.3265302508
 20
5886.5450088723
 30
0.0
 40
0.8595858660873694
100
AcDbArc
 50
176.2816983996
 51
272.9824026224
  0
ARC
  5
130
330
1F
100
AcDbEntity
  8
0
  6
Continuous
 62
     7
370
    25
100
AcDbCircle
 10
6316.3296796569
 20
5887.0116763059
 30
0.0
 40
1.325741070988508
100
AcDbArc
 50
271.7970451183
 51
0.0321666585
  0
ARC
  5
131
330
1F
100
AcDbEntity
  8
0
  6
Continuous
 62
     7
370
    25
100
AcDbCircle
 10
6316.7967776774
 20
5887.0673102667
 30
0.0
 40
0.8603954935848456
100
AcDbArc
 50
356.3422824605
 51
92.9218185614
  0
LWPOLYLINE
  5
132
330
1F
100
AcDbEntity
  8
0
  6
Continuous
 62
     7
370
    25
100
AcDbPolyline
 90
        5
 70
   128
 43
0.0
 10
6320.8962538523
 20
5885.6865872623
 10
6321.2116463969
 20
5885.7172543977
 10
6321.363392292
 20
5885.7631352476
 10
6321.4301138902
 20
5885.8063672115
 10
6321.4629205189
 20
5885.8765872623
  0
LWPOLYLINE
  5
133
330
1F
100
AcDbEntity
  8
0
  6
Continuous
 62
     7
370
    25
100
AcDbPolyline
 90
        6
 70
   128
 43
0.0
 10
6321.4629205189
 20
5885.8765872623
 10
6321.4597080045
 20
5885.9082524192
 10
6321.4432651918
 20
5885.9350297132
 10
6321.4135686017
 20
5885.94587893
 10
6321.3819192698
 20
5885.9498412301
 10
6321.2545871856
 20
5885.9532539289
  0
LWPOLYLINE
  5
134
330
1F
100
AcDbEntity
  8
0
  6
Continuous
 62
     7
370
    25
100
AcDbPolyline
 90
        6
 70
   128
 43
0.0
 10
6321.2545871856
 20
5885.9532539289
 10
6321.1245555908
 20
5885.9606507962
 10
6321.0261623604
 20
5885.987837507
 10
6320.9885291016
 20
5886.0310838984
 10
6320.9713479322
 20
5886.0866137096
 10
6320.9620871856
 20
5886.2024205956
  0
ARC
  5
135
330
1F
100
AcDbEntity
  8
0
  6
Continuous
 62
     7
370
    25
100
AcDbCircle
 10
6376.6814716437
 20
5880.6924866305
 30
0.0
 40
55.99115266435579
100
AcDbArc
 50
171.3450294062
 51
174.3525412105
  0
LWPOLYLINE
  5
136
330
1F
100
AcDbEntity
  8
0
  6
Continuous
 62
     7
370
    25
100
AcDbPolyline
 90
        3
 70
   128
 43
0.0
 10
6321.3279205189
 20
5889.1182539289
 10
6321.3723633328
 20
5889.4551767631
 10
6321.4070871856
 20
5889.7199205956
  0
LWPOLYLINE
  5
137
330
1F
100
AcDbEntity
  8
0
  6
Continuous
 62
     7
370
    25
100
AcDbPolyline
 90
        5
 70
   128
 43
0.0
 10
6321.4070871856
 20
5889.7199205956
 10
6321.4037514518
 20
5889.7491003317
 10
6321.3914989168
 20
5889.7756712224
 10
6321.3732394496
 20
5889.789632229
 10
6321.3504205189
 20
5889.7932539289
  0
ARC
  5
138
330
1F
100
AcDbEntity
  8
0
  6
Continuous
 62
     7
370
    25
100
AcDbCircle
 10
6321.4537727966
 20
5889.2546238347
 30
0.0
 40
0.5484560800038085
100
AcDbArc
 50
100.8618874992
 51
152.3568584742
  0
LWPOLYLINE
  5
139
330
1F
100
AcDbEntity
  8
0
  6
Continuous
 62
     7
370
    25
100
AcDbPolyline
 90
        3
 70
   128
 43
0.0
 10
6320.9679205189
 20
5889.5090872623
 10
6320.7005521086
 20
5887.5560798669
 10
6320.5354205189
 20
5886.0165872623
  0
ARC
  5
13A
330
1F
100
AcDbEntity
  8
0
  6
Continuous
 62
     7
370
    25
100
AcDbCircle
 10
6320.8441752918
 20
5885.9919165552
 30
0.0
 40
0.3097388473853005
100
AcDbArc
 50
175.4315505241
 51
279.6795179031
  0
LINE
  5
13B
330
1F
100
AcDbEntity
  8
0
  6
Continuous
 62
     7
370
    25
100
AcDbLine
 10
6284.2637538523
 20
5886.1649205956
 30
0.0
 11
6284.2637538523
 21
5886.1532539289
 31
0.0
  0
ARC
  5
13C
330
1F
100
AcDbEntity
  8
0
  6
Continuous
 62
     7
370
    25
100
AcDbCircle
 10
6284.8162506829
 20
5886.2463072984
 30
0.0
 40
0.5602782142740308
100
AcDbArc
 50
189.5602247265
 51
272.5577507215
  0
LWPOLYLINE
  5
13D
330
1F
100
AcDbEntity
  8
0
  6
Continuous
 62
     7
370
    25
100
AcDbPolyline
 90
        5
 70
   128
 43
0.0
 10
6284.8412538523
 20
5885.6865872623
 10
6285.1445144495
 20
5885.7608126672
 10
6285.381247316
 20
5885.9659639449
 10
6285.6707400141
 20
5886.5222948642
 10
6285.8687538523
 20
5887.7632539289
  0
LWPOLYLINE
  5
13E
330
1F
100
AcDbEntity
  8
0
  6
Continuous
 62
     7
370
    25
100
AcDbPolyline
 90
        5
 70
   128
 43
0.0
 10
6285.8687538523
 20
5887.7632539289
 10
6285.8647089876
 20
5887.807386744
 10
6285.8464364769
 20
5887.8475932922
 10
6285.8182122764
 20
5887.8677652201
 10
6285.7837538523
 20
5887.8732539289
  0
LWPOLYLINE
  5
13F
330
1F
100
AcDbEntity
  8
0
  6
Continuous
 62
     7
370
    25
100
AcDbPolyline
 90
        5
 70
   128
 43
0.0
 10
6285.7837538523
 20
5887.8732539289
 10
6285.5810236644
 20
5887.8277245502
 10
6285.4844332506
 20
5887.7893158048
 10
6285.4402170445
 20
5887.7621040367
 10
6285.4162538523
 20
5887.7174205956
  0
LWPOLYLINE
  5
140
330
1F
100
AcDbEntity
  8
0
  6
Continuous
 62
     7
370
    25
100
AcDbPolyline
 90
        3
 70
   128
 43
0.0
 10
6285.4162538523
 20
5887.7174205956
 10
6285.4305384514
 20
5887.6714925834
 10
6285.4454205189
 20
5887.6365872623
  0
LWPOLYLINE
  5
141
330
1F
100
AcDbEntity
  8
0
  6
Continuous
 62
     7
370
    25
100
AcDbPolyline
 90
        3
 70
   128
 43
0.0
 10
6285.4454205189
 20
5887.6365872623
 10
6285.5311969696
 20
5887.3911446742
 10
6285.5487538523
 20
5887.1874205956
  0
LWPOLYLINE
  5
142
330
1F
100
AcDbEntity
  8
0
  6
Continuous
 62
     7
370
    25
100
AcDbPolyline
 90
        5
 70
   128
 43
0.0
 10
6285.5487538523
 20
5887.1874205956
 10
6285.4566228647
 20
5886.4597932886
 10
6285.3049667519
 20
5886.1262452585
 10
6285.1720419951
 20
5886.0007612068
 10
6284.9962538523
 20
5885.9532539289
  0
LWPOLYLINE
  5
143
330
1F
100
AcDbEntity
  8
0
  6
Continuous
 62
     7
370
    25
100
AcDbPolyline
 90
        5
 70
   128
 43
0.0
 10
6284.9962538523
 20
5885.9532539289
 10
6284.8661542896
 20
5885.9787505703
 10
6284.7578737107
 20
5886.0553973228
 10
6284.6827950473
 20
5886.1651820262
 10
6284.6245871856
 20
5886.4715872623
  0
LWPOLYLINE
  5
144
330
1F
100
AcDbEntity
  8
0
  6
Continuous
 62
     7
370
    25
100
AcDbPolyline
 90
        3
 70
   128
 43
0.0
 10
6284.6245871856
 20
5886.4715872623
 10
6284.6941839911
 20
5887.0669347537
 10
6284.8045871856
 20
5887.5257539289
  0
LWPOLYLINE
  5
145
330
1F
100
AcDbEntity
  8
0
  6
Continuous
 62
     7
370
    25
100
AcDbPolyline
 90
        3
 70
   128
 43
0.0
 10
6284.8045871856
 20
5887.5257539289
 10
6284.8263756654
 20
5887.598474539
 10
6284.8395871856
 20
5887.6565872623
  0
ARC
  5
146
330
1F
100
AcDbEntity
  8
0
  6
Continuous
 62
     7
370
    25
100
AcDbCircle
 10
6284.4596668635
 20
5887.4456616459
 30
0.0
 40
0.4345446660157385
100
AcDbArc
 50
29.0383260459
 51
79.7371495415
  0
ARC
  5
147
330
1F
100
AcDbEntity
  8
0
  6
Continuous
 62
     7
370
    25
100
AcDbCircle
 10
6286.3244572892
 20
5886.8345259639
 30
0.0
 40
2.067280259761449
100
AcDbArc
 50
149.8370392628
 51
181.5366975336
  0
LWPOLYLINE
  5
148
330
1F
100
AcDbEntity
  8
0
  6
Continuous
 62
     7
370
    25
100
AcDbPolyline
 90
        4
 70
   128
 43
0.0
 10
6284.2579205189
 20
5886.7790872623
 10
6284.050716302
 20
5886.2427173685
 10
6283.8995826521
 20
5886.0733121467
 10
6283.6945871856
 20
5885.9840872623
  0
LWPOLYLINE
  5
149
330
1F
100
AcDbEntity
  8
0
  6
Continuous
 62
     7
370
    25
100
AcDbPolyline
 90
        5
 70
   128
 43
0.0
 10
6283.6945871856
 20
5885.9840872623
 10
6283.614263996
 20
5885.9986544567
 10
6283.5448404597
 20
5886.0419704895
 10
6283.4570532358
 20
5886.1786039151
 10
6283.4154205189
 20
5886.5024205956
  0
LWPOLYLINE
  5
14A
330
1F
100
AcDbEntity
  8
0
  6
Continuous
 62
     7
370
    25
100
AcDbPolyline
 90
        3
 70
   128
 43
0.0
 10
6283.4154205189
 20
5886.5024205956
 10
6283.471194957
 20
5887.0700379707
 10
6283.5820871856
 20
5887.5049205956
  0
LWPOLYLINE
  5
14B
330
1F
100
AcDbEntity
  8
0
  6
Continuous
 62
     7
370
    25
100
AcDbPolyline
 90
        3
 70
   128
 43
0.0
 10
6283.5820871856
 20
5887.5049205956
 10
6283.6044272648
 20
5887.5883283998
 10
6283.6170871856
 20
5887.6549205956
  0
ARC
  5
14C
330
1F
100
AcDbEntity
  8
0
  6
Continuous
 62
     7
370
    25
100
AcDbCircle
 10
6283.0062605644
 20
5887.2876323832
 30
0.0
 40
0.7127480566145845
100
AcDbArc
 50
31.0183667356
 51
63.6974452056
  0
ARC
  5
14D
330
1F
100
AcDbEntity
  8
0
  6
Continuous
 62
     7
370
    25
100
AcDbCircle
 10
6285.8761251553
 20
5886.6851579396
 30
0.0
 40
2.839763496137186
100
AcDbArc
 50
154.0772199734
 51
183.6389597429
  0
LWPOLYLINE
  5
14E
330
1F
100
AcDbEntity
  8
0
  6
Continuous
 62
     7
370
    25
100
AcDbPolyline
 90
        6
 70
   128
 43
0.0
 10
6283.0420871856
 20
5886.5049205956
 10
6283.1206101744
 20
5885.9794278976
 10
6283.1805099346
 20
5885.8602900486
 10
6283.2707106759
 20
5885.7624543204
 10
6283.3900188604
 20
5885.7038546604
 10
6283.5220871856
 20
5885.6865872623
  0
ARC
  5
14F
330
1F
100
AcDbEntity
  8
0
  6
Continuous
 62
     7
370
    25
100
AcDbCircle
 10
6283.4599525814
 20
5886.362196255
 30
0.0
 40
0.6784601831085539
100
AcDbArc
 50
275.2546133703
 51
324.5906977274
  0
LWPOLYLINE
  5
150
330
1F
100
AcDbEntity
  8
0
  6
Continuous
 62
     7
370
    25
100
AcDbPolyline
 90
        3
 70
   128
 43
0.0
 10
6284.0129205189
 20
5885.9690872623
 10
6284.098673285
 20
5886.070047671
 10
6284.1612538523
 20
5886.1532539289
  0
LWPOLYLINE
  5
151
330
1F
100
AcDbEntity
  8
0
  6
Continuous
 62
     7
370
    25
100
AcDbPolyline
 90
        3
 70
   128
 43
0.0
 10
6284.1612538523
 20
5886.1532539289
 10
6284.1968728689
 20
5886.1979144804
 10
6284.2295871856
 20
5886.2282539289
  0
ARC
  5
152
330
1F
100
AcDbEntity
  8
0
  6
Continuous
 62
     7
370
    25
100
AcDbCircle
 10
6284.1773535203
 20
5886.1591925656
 30
0.0
 40
0.0865899976836837
100
AcDbArc
 50
3.7929528197
 51
52.8984344259
  0
LINE
  5
153
330
1F
100
AcDbEntity
  8
0
  6
Continuous
 62
     7
370
    25
100
AcDbLine
 10
6291.2435953276
 20
5899.1846376954
 30
0.0
 11
6291.1447699724
 21
5899.176470353
 31
0.0
  0
LINE
  5
154
330
1F
100
AcDbEntity
  8
0
  6
Continuous
 62
     7
370
    25
100
AcDbLine
 10
6291.1447699724
 20
5899.176470353
 30
0.0
 11
6291.0813114987
 21
5899.1766236385
 31
0.0
  0
ARC
  5
155
330
1F
100
AcDbEntity
  8
0
  6
Continuous
 62
     7
370
    25
100
AcDbCircle
 10
6291.213487472
 20
5897.1606246253
 30
0.0
 40
2.020327327183475
100
AcDbArc
 50
93.7511437572
 51
181.4870821497
  0
LINE
  5
156
330
1F
100
AcDbEntity
  8
0
  6
Continuous
 62
     7
370
    25
100
AcDbLine
 10
6289.1938405883
 20
5897.1081939676
 30
0.0
 11
6289.1706750405
 21
5895.6759817487
 31
0.0
  0
LINE
  5
157
330
1F
100
AcDbEntity
  8
0
  6
Continuous
 62
     7
370
    25
100
AcDbLine
 10
6289.1706750405
 20
5895.6759817487
 30
0.0
 11
6288.2421522853
 21
5895.6768465762
 31
0.0
  0
LINE
  5
158
330
1F
100
AcDbEntity
  8
0
  6
Continuous
 62
     7
370
    25
100
AcDbLine
 10
6288.2421522853
 20
5895.6768465762
 30
0.0
 11
6288.6175307165
 21
5894.5357477118
 31
0.0
  0
LINE
  5
159
330
1F
100
AcDbEntity
  8
0
  6
Continuous
 62
     7
370
    25
100
AcDbLine
 10
6288.6175307165
 20
5894.5357477118
 30
0.0
 11
6289.1128481241
 21
5894.5275232451
 31
0.0
  0
LINE
  5
15A
330
1F
100
AcDbEntity
  8
0
  6
Continuous
 62
     7
370
    25
100
AcDbLine
 10
6289.1128481241
 20
5894.5275232451
 30
0.0
 11
6289.1095574079
 21
5890.8261787073
 31
0.0
  0
LINE
  5
15B
330
1F
100
AcDbEntity
  8
0
  6
Continuous
 62
     7
370
    25
100
AcDbLine
 10
6289.1095574079
 20
5890.8261787073
 30
0.0
 11
6290.2017558403
 21
5890.8390434499
 31
0.0
  0
LINE
  5
15C
330
1F
100
AcDbEntity
  8
0
  6
Continuous
 62
     7
370
    25
100
AcDbLine
 10
6290.2017558403
 20
5890.8390434499
 30
0.0
 11
6290.2049783187
 21
5894.5121382871
 31
0.0
  0
LINE
  5
15D
330
1F
100
AcDbEntity
  8
0
  6
Continuous
 62
     7
370
    25
100
AcDbLine
 10
6290.2049783187
 20
5894.5121382871
 30
0.0
 11
6291.1419931268
 21
5894.5183498643
 31
0.0
  0
LINE
  5
15E
330
1F
100
AcDbEntity
  8
0
  6
Continuous
 62
     7
370
    25
100
AcDbLine
 10
6291.1419931268
 20
5894.5183498643
 30
0.0
 11
6292.0056276151
 21
5894.5247386934
 31
0.0
  0
LINE
  5
15F
330
1F
100
AcDbEntity
  8
0
  6
Continuous
 62
     7
370
    25
100
AcDbLine
 10
6292.0056276151
 20
5894.5247386934
 30
0.0
 11
6291.9882120486
 21
5890.8234282746
 31
0.0
  0
LINE
  5
160
330
1F
100
AcDbEntity
  8
0
  6
Continuous
 62
     7
370
    25
100
AcDbLine
 10
6291.9882120486
 20
5890.8234282746
 30
0.0
 11
6293.1086601815
 21
5890.8362247793
 31
0.0
  0
LINE
  5
161
330
1F
100
AcDbEntity
  8
0
  6
Continuous
 62
     7
370
    25
100
AcDbLine
 10
6293.1086601815
 20
5890.8362247793
 30
0.0
 11
6293.1283661578
 21
5897.2257455159
 31
0.0
  0
ARC
  5
162
330
1F
100
AcDbEntity
  8
0
  6
Continuous
 62
     7
370
    25
100
AcDbCircle
 10
6291.2734613017
 20
5897.3272004419
 30
0.0
 40
1.8576773474153
100
AcDbArc
 50
356.8692988344
 51
90.921186875
  0
LINE
  5
163
330
1F
100
AcDbEntity
  8
0
  6
Continuous
 62
     7
370
    25
100
AcDbLine
 10
6300.9253836873
 20
5894.5384708106
 30
0.0
 11
6300.9234539925
 21
5892.0281645483
 31
0.0
  0
LINE
  5
164
330
1F
100
AcDbEntity
  8
0
  6
Continuous
 62
     7
370
    25
100
AcDbLine
 10
6303.428558984
 20
5894.5225711
 30
0.0
 11
6300.9253836873
 21
5894.5384708106
 31
0.0
  0
LINE
  5
165
330
1F
100
AcDbEntity
  8
0
  6
Continuous
 62
     7
370
    25
100
AcDbLine
 10
6303.0392268652
 20
5895.7060097911
 30
0.0
 11
6303.428558984
 21
5894.5225711
 31
0.0
  0
LINE
  5
166
330
1F
100
AcDbEntity
  8
0
  6
Continuous
 62
     7
370
    25
100
AcDbLine
 10
6301.0042767776
 20
5895.7081000552
 30
0.0
 11
6303.0392268652
 21
5895.7060097911
 31
0.0
  0
LINE
  5
167
330
1F
100
AcDbEntity
  8
0
  6
Continuous
 62
     7
370
    25
100
AcDbLine
 10
6301.0066098312
 20
5897.814914166
 30
0.0
 11
6301.0042767776
 21
5895.7081000552
 31
0.0
  0
LINE
  5
168
330
1F
100
AcDbEntity
  8
0
  6
Continuous
 62
     7
370
    25
100
AcDbLine
 10
6303.0979213544
 20
5897.8126877595
 30
0.0
 11
6301.0066098312
 21
5897.814914166
 31
0.0
  0
LINE
  5
169
330
1F
100
AcDbEntity
  8
0
  6
Continuous
 62
     7
370
    25
100
AcDbLine
 10
6303.099282167
 20
5899.0036575469
 30
0.0
 11
6303.0979213544
 21
5897.8126877595
 31
0.0
  0
LINE
  5
16A
330
1F
100
AcDbEntity
  8
0
  6
Continuous
 62
     7
370
    25
100
AcDbLine
 10
6299.8805943094
 20
5899.0057823506
 30
0.0
 11
6303.099282167
 21
5899.0036575469
 31
0.0
  0
LINE
  5
16B
330
1F
100
AcDbEntity
  8
0
  6
Continuous
 62
     7
370
    25
100
AcDbLine
 10
6299.878230839
 20
5895.6882891813
 30
0.0
 11
6299.8805943094
 21
5899.0057823506
 31
0.0
  0
LINE
  5
16C
330
1F
100
AcDbEntity
  8
0
  6
Continuous
 62
     7
370
    25
100
AcDbLine
 10
6298.9836075532
 20
5895.6890029617
 30
0.0
 11
6299.878230839
 21
5895.6882891813
 31
0.0
  0
LINE
  5
16D
330
1F
100
AcDbEntity
  8
0
  6
Continuous
 62
     7
370
    25
100
AcDbLine
 10
6298.9803212072
 20
5899.0065789785
 30
0.0
 11
6298.9836075532
 21
5895.6890029617
 31
0.0
  0
LINE
  5
16E
330
1F
100
AcDbEntity
  8
0
  6
Continuous
 62
     7
370
    25
100
AcDbLine
 10
6298.7319303318
 20
5899.0071789728
 30
0.0
 11
6298.9803212072
 21
5899.0065789785
 31
0.0
  0
LINE
  5
16F
330
1F
100
AcDbEntity
  8
0
  6
Continuous
 62
     7
370
    25
100
AcDbLine
 10
6297.6750435194
 20
5899.0082847049
 30
0.0
 11
6298.7319303318
 21
5899.0071789728
 31
0.0
  0
LINE
  5
170
330
1F
100
AcDbEntity
  8
0
  6
Continuous
 62
     7
370
    25
100
AcDbLine
 10
6297.672480675
 20
5896.2072135237
 30
0.0
 11
6297.6750435194
 21
5899.0082847049
 31
0.0
  0
LINE
  5
171
330
1F
100
AcDbEntity
  8
0
  6
Continuous
 62
     7
370
    25
100
AcDbLine
 10
6294.0374133277
 20
5899.1172553829
 30
0.0
 11
6297.672480675
 21
5896.2072135237
 31
0.0
  0
LINE
  5
172
330
1F
100
AcDbEntity
  8
0
  6
Continuous
 62
     7
370
    25
100
AcDbLine
 10
6294.0385789287
 20
5890.8142723445
 30
0.0
 11
6294.0374133277
 21
5899.1172553829
 31
0.0
  0
LINE
  5
173
330
1F
100
AcDbEntity
  8
0
  6
Continuous
 62
     7
370
    25
100
AcDbLine
 10
6295.2069523445
 20
5890.8142753178
 30
0.0
 11
6294.0385789287
 21
5890.8142723445
 31
0.0
  0
LINE
  5
174
330
1F
100
AcDbEntity
  8
0
  6
Continuous
 62
     7
370
    25
100
AcDbLine
 10
6295.2274236799
 20
5896.3796561052
 30
0.0
 11
6295.2069523445
 21
5890.8142753178
 31
0.0
  0
LINE
  5
175
330
1F
100
AcDbEntity
  8
0
  6
Continuous
 62
     7
370
    25
100
AcDbLine
 10
6297.6923308804
 20
5894.4983241897
 30
0.0
 11
6295.2274236799
 21
5896.3796561052
 31
0.0
  0
LINE
  5
176
330
1F
100
AcDbEntity
  8
0
  6
Continuous
 62
     7
370
    25
100
AcDbLine
 10
6297.6890265602
 20
5890.7913297567
 30
0.0
 11
6297.6923308804
 21
5894.4983241897
 31
0.0
  0
LINE
  5
177
330
1F
100
AcDbEntity
  8
0
  6
Continuous
 62
     7
370
    25
100
AcDbLine
 10
6298.7234128613
 20
5890.8029560122
 30
0.0
 11
6297.6890265602
 21
5890.7913297567
 31
0.0
  0
LINE
  5
178
330
1F
100
AcDbEntity
  8
0
  6
Continuous
 62
     7
370
    25
100
AcDbLine
 10
6298.9520494663
 20
5890.8108789596
 30
0.0
 11
6298.7234128613
 21
5890.8029560122
 31
0.0
  0
LINE
  5
179
330
1F
100
AcDbEntity
  8
0
  6
Continuous
 62
     7
370
    25
100
AcDbLine
 10
6298.9342039769
 20
5894.5193024845
 30
0.0
 11
6298.9520494663
 21
5890.8108789596
 31
0.0
  0
LINE
  5
17A
330
1F
100
AcDbEntity
  8
0
  6
Continuous
 62
     7
370
    25
100
AcDbLine
 10
6299.9050326394
 20
5894.5184042281
 30
0.0
 11
6298.9342039769
 21
5894.5193024845
 31
0.0
  0
LINE
  5
17B
330
1F
100
AcDbEntity
  8
0
  6
Continuous
 62
     7
370
    25
100
AcDbLine
 10
6299.9017760855
 20
5890.8311845373
 30
0.0
 11
6299.9050326394
 21
5894.5184042281
 31
0.0
  0
LINE
  5
17C
330
1F
100
AcDbEntity
  8
0
  6
Continuous
 62
     7
370
    25
100
AcDbLine
 10
6303.0358494952
 20
5890.8278173177
 30
0.0
 11
6299.9017760855
 21
5890.8311845373
 31
0.0
  0
LINE
  5
17D
330
1F
100
AcDbEntity
  8
0
  6
Continuous
 62
     7
370
    25
100
AcDbLine
 10
6303.0359907824
 20
5892.0272648757
 30
0.0
 11
6303.0358494952
 21
5890.8278173177
 31
0.0
  0
LINE
  5
17E
330
1F
100
AcDbEntity
  8
0
  6
Continuous
 62
     7
370
    25
100
AcDbLine
 10
6300.9234539925
 20
5892.0281645483
 30
0.0
 11
6303.0359907824
 21
5892.0272648757
 31
0.0
  0
LINE
  5
17F
330
1F
100
AcDbEntity
  8
0
  6
Continuous
 62
     7
370
    25
100
AcDbLine
 10
6310.1622304321
 20
5899.1460361615
 30
0.0
 11
6310.0056857499
 21
5899.146414299
 31
0.0
  0
ARC
  5
180
330
1F
100
AcDbEntity
  8
0
  6
Continuous
 62
     7
370
    25
100
AcDbCircle
 10
6310.1422745306
 20
5897.1179159545
 30
0.0
 40
2.033091741388702
100
AcDbArc
 50
93.8521920124
 51
181.3209866075
  0
LINE
  5
181
330
1F
100
AcDbEntity
  8
0
  6
Continuous
 62
     7
370
    25
100
AcDbLine
 10
6308.1097231195
 20
5897.0710460269
 30
0.0
 11
6308.0879321108
 21
5895.6373835435
 31
0.0
  0
LINE
  5
182
330
1F
100
AcDbEntity
  8
0
  6
Continuous
 62
     7
370
    25
100
AcDbLine
 10
6308.0879321108
 20
5895.6373835435
 30
0.0
 11
6307.3796225453
 21
5895.6390944828
 31
0.0
  0
LINE
  5
183
330
1F
100
AcDbEntity
  8
0
  6
Continuous
 62
     7
370
    25
100
AcDbLine
 10
6307.3796225453
 20
5895.6390944828
 30
0.0
 11
6307.1806309154
 21
5895.6381282076
 31
0.0
  0
LINE
  5
184
330
1F
100
AcDbEntity
  8
0
  6
Continuous
 62
     7
370
    25
100
AcDbLine
 10
6307.1806309154
 20
5895.6381282076
 30
0.0
 11
6307.3795109971
 21
5895.0224208611
 31
0.0
  0
LINE
  5
185
330
1F
100
AcDbEntity
  8
0
  6
Continuous
 62
     7
370
    25
100
AcDbLine
 10
6307.3795109971
 20
5895.0224208611
 30
0.0
 11
6307.5476035045
 21
5894.4971185499
 31
0.0
  0
LINE
  5
186
330
1F
100
AcDbEntity
  8
0
  6
Continuous
 62
     7
370
    25
100
AcDbLine
 10
6307.5476035045
 20
5894.4971185499
 30
0.0
 11
6308.0372701418
 21
5894.5170886961
 31
0.0
  0
LINE
  5
187
330
1F
100
AcDbEntity
  8
0
  6
Continuous
 62
     7
370
    25
100
AcDbLine
 10
6308.0372701418
 20
5894.5170886961
 30
0.0
 11
6308.026920661
 21
5890.8030143184
 31
0.0
  0
LINE
  5
188
330
1F
100
AcDbEntity
  8
0
  6
Continuous
 62
     7
370
    25
100
AcDbLine
 10
6308.026920661
 20
5890.8030143184
 30
0.0
 11
6309.1402379655
 21
5890.8017720173
 31
0.0
  0
LINE
  5
189
330
1F
100
AcDbEntity
  8
0
  6
Continuous
 62
     7
370
    25
100
AcDbLine
 10
6309.1402379655
 20
5890.8017720173
 30
0.0
 11
6309.1575471827
 21
5894.4875797181
 31
0.0
  0
LINE
  5
18A
330
1F
100
AcDbEntity
  8
0
  6
Continuous
 62
     7
370
    25
100
AcDbLine
 10
6309.1575471827
 20
5894.4875797181
 30
0.0
 11
6310.0579580408
 21
5894.4867827956
 31
0.0
  0
LINE
  5
18B
330
1F
100
AcDbEntity
  8
0
  6
Continuous
 62
     7
370
    25
100
AcDbLine
 10
6310.0579580408
 20
5894.4867827956
 30
0.0
 11
6310.9229535871
 21
5894.4861403218
 31
0.0
  0
LINE
  5
18C
330
1F
100
AcDbEntity
  8
0
  6
Continuous
 62
     7
370
    25
100
AcDbLine
 10
6310.9229535871
 20
5894.4861403218
 30
0.0
 11
6310.9197003184
 21
5890.8002986685
 31
0.0
  0
LINE
  5
18D
330
1F
100
AcDbEntity
  8
0
  6
Continuous
 62
     7
370
    25
100
AcDbLine
 10
6310.9197003184
 20
5890.8002986685
 30
0.0
 11
6312.047073405
 21
5890.7989535131
 31
0.0
  0
LINE
  5
18E
330
1F
100
AcDbEntity
  8
0
  6
Continuous
 62
     7
370
    25
100
AcDbLine
 10
6312.047073405
 20
5890.7989535131
 30
0.0
 11
6312.0738038605
 21
5897.1870103376
 31
0.0
  0
ARC
  5
18F
330
1F
100
AcDbEntity
  8
0
  6
Continuous
 62
     7
370
    25
100
AcDbCircle
 10
6310.2066094032
 20
5897.2771920305
 30
0.0
 40
1.869370984867734
100
AcDbArc
 50
357.2348791594
 51
91.3603327904
  0
LINE
  5
190
330
1F
100
AcDbEntity
  8
0
  6
Continuous
 62
     7
370
    25
100
AcDbLine
 10
6305.0576953414
 20
5891.8473700877
 30
0.0
 11
6307.3761237435
 21
5891.8516914955
 31
0.0
  0
LINE
  5
191
330
1F
100
AcDbEntity
  8
0
  6
Continuous
 62
     7
370
    25
100
AcDbLine
 10
6305.0707048389
 20
5899.0017203349
 30
0.0
 11
6305.0576953414
 21
5891.8473700877
 31
0.0
  0
LINE
  5
192
330
1F
100
AcDbEntity
  8
0
  6
Continuous
 62
     7
370
    25
100
AcDbLine
 10
6303.8585655041
 20
5898.9961734628
 30
0.0
 11
6305.0707048389
 21
5899.0017203349
 31
0.0
  0
LINE
  5
193
330
1F
100
AcDbEntity
  8
0
  6
Continuous
 62
     7
370
    25
100
AcDbLine
 10
6303.8653950849
 20
5890.8130666927
 30
0.0
 11
6303.8585655041
 21
5898.9961734628
 31
0.0
  0
LINE
  5
194
330
1F
100
AcDbEntity
  8
0
  6
Continuous
 62
     7
370
    25
100
AcDbLine
 10
6307.3748315179
 20
5890.8032115581
 30
0.0
 11
6303.8653950849
 21
5890.8130666927
 31
0.0
  0
LINE
  5
195
330
1F
100
AcDbEntity
  8
0
  6
Continuous
 62
     7
370
    25
100
AcDbLine
 10
6307.5654137619
 20
5890.802751202
 30
0.0
 11
6307.3748315179
 21
5890.8032115581
 31
0.0
  0
LINE
  5
196
330
1F
100
AcDbEntity
  8
0
  6
Continuous
 62
     7
370
    25
100
AcDbLine
 10
6307.573599697
 20
5891.8525928915
 30
0.0
 11
6307.5654137619
 21
5890.802751202
 31
0.0
  0
LINE
  5
197
330
1F
100
AcDbEntity
  8
0
  6
Continuous
 62
     7
370
    25
100
AcDbLine
 10
6307.3761237435
 20
5891.8516914955
 30
0.0
 11
6307.573599697
 21
5891.8525928915
 31
0.0
  0
LINE
  5
198
330
1F
100
AcDbEntity
  8
0
  6
Continuous
 62
     7
370
    25
100
AcDbLine
 10
6322.0971617573
 20
5902.2198692185
 30
0.0
 11
6322.0905471933
 21
5902.2198851962
 31
0.0
  0
ARC
  5
199
330
1F
100
AcDbEntity
  8
0
  6
Continuous
 62
     7
370
    25
100
AcDbCircle
 10
6322.0952332036
 20
5901.2992973099
 30
0.0
 40
0.92059981267062
100
AcDbArc
 50
90.2916465661
 51
180.4634979483
  0
ARC
  5
19A
330
1F
100
AcDbEntity
  8
0
  6
Continuous
 62
     7
370
    25
100
AcDbCircle
 10
6322.0874188839
 20
5901.2887593946
 30
0.0
 40
0.9127606034708089
100
AcDbArc
 50
179.8059875332
 51
270.089791778
  0
LINE
  5
19B
330
1F
100
AcDbEntity
  8
0
  6
Continuous
 62
     7
370
    25
100
AcDbLine
 10
6322.0888493272
 20
5900.375999912
 30
0.0
 11
6322.095739498
 21
5900.3759832687
 31
0.0
  0
ARC
  5
19C
330
1F
100
AcDbEntity
  8
0
  6
Continuous
 62
     7
370
    25
100
AcDbCircle
 10
6322.0970439207
 20
5901.2977254456
 30
0.0
 40
0.9217430998926638
100
AcDbArc
 50
269.9189167361
 51
359.5249302732
  0
ARC
  5
19D
330
1F
100
AcDbEntity
  8
0
  6
Continuous
 62
     7
370
    25
100
AcDbCircle
 10
6322.0833702621
 20
5901.2845695725
 30
0.0
 40
0.9354013219636814
100
AcDbArc
 50
0.3377059623
 51
89.1552042091
  0
LINE
  5
19E
330
1F
100
AcDbEntity
  8
0
  6
Continuous
 62
     7
370
    25
100
AcDbLine
 10
6318.5055919208
 20
5897.4935917039
 30
0.0
 11
6318.498408834
 21
5897.4864432353
 31
0.0
  0
LWPOLYLINE
  5
19F
330
1F
100
AcDbEntity
  8
0
  6
Continuous
 62
     7
370
    25
100
AcDbPolyline
 90
        3
 70
   128
 43
0.0
 10
6318.498408834
 20
5897.4864432353
 10
6318.4105455787
 20
5897.3905316953
 10
6318.3428966657
 20
5897.2867271492
  0
LINE
  5
1A0
330
1F
100
AcDbEntity
  8
0
  6
Continuous
 62
     7
370
    25
100
AcDbLine
 10
6318.3428966657
 20
5897.2867271492
 30
0.0
 11
6318.1368927176
 21
5897.463407454
 31
0.0
  0
LWPOLYLINE
  5
1A1
330
1F
100
AcDbEntity
  8
0
  6
Continuous
 62
     7
370
    25
100
AcDbPolyline
 90
        3
 70
   128
 43
0.0
 10
6318.1368927176
 20
5897.463407454
 10
6318.3290859038
 20
5897.6900925063
 10
6318.4986967795
 20
5897.8338469821
  0
LWPOLYLINE
  5
1A2
330
1F
100
AcDbEntity
  8
0
  6
Continuous
 62
     7
370
    25
100
AcDbPolyline
 90
        3
 70
   128
 43
0.0
 10
6318.4986967795
 20
5897.8338469821
 10
6319.181646956
 20
5898.1063422391
 10
6319.9359861128
 20
5898.1725430561
  0
LINE
  5
1A3
330
1F
100
AcDbEntity
  8
0
  6
Continuous
 62
     7
370
    25
100
AcDbLine
 10
6319.9359861128
 20
5898.1725430561
 30
0.0
 11
6319.955122813
 21
5898.1650554029
 31
0.0
  0
LINE
  5
1A4
330
1F
100
AcDbEntity
  8
0
  6
Continuous
 62
     7
370
    25
100
AcDbLine
 10
6319.955122813
 20
5898.1650554029
 30
0.0
 11
6319.9633806991
 21
5898.160763525
 31
0.0
  0
LINE
  5
1A5
330
1F
100
AcDbEntity
  8
0
  6
Continuous
 62
     7
370
    25
100
AcDbLine
 10
6319.9633806991
 20
5898.160763525
 30
0.0
 11
6319.9709981669
 21
5898.1765926102
 31
0.0
  0
ARC
  5
1A6
330
1F
100
AcDbEntity
  8
0
  6
Continuous
 62
     7
370
    25
100
AcDbCircle
 10
6319.5671707972
 20
5898.3351312365
 30
0.0
 40
0.4338329638873232
100
AcDbArc
 50
338.5655197581
 51
32.7637253039
  0
LWPOLYLINE
  5
1A7
330
1F
100
AcDbEntity
  8
0
  6
Continuous
 62
     7
370
    25
100
AcDbPolyline
 90
        3
 70
   128
 43
0.0
 10
6319.9319850134
 20
5898.5699111934
 10
6319.7166714993
 20
5899.1754139753
 10
6319.4929966481
 20
5899.5628863668
  0
LWPOLYLINE
  5
1A8
330
1F
100
AcDbEntity
  8
0
  6
Continuous
 62
     7
370
    25
100
AcDbPolyline
 90
        3
 70
   128
 43
0.0
 10
6319.4929966481
 20
5899.5628863668
 10
6320.1393576055
 20
5900.9956813616
 10
6320.2894153632
 20
5902.2070792584
  0
LWPOLYLINE
  5
1A9
330
1F
100
AcDbEntity
  8
0
  6
Continuous
 62
     7
370
    25
100
AcDbPolyline
 90
        3
 70
   128
 43
0.0
 10
6320.2894153632
 20
5902.2070792584
 10
6319.2666149428
 20
5902.0308415072
 10
6318.5021566037
 20
5901.776348499
  0
LWPOLYLINE
  5
1AA
330
1F
100
AcDbEntity
  8
0
  6
Continuous
 62
     7
370
    25
100
AcDbPolyline
 90
        3
 70
   128
 43
0.0
 10
6318.5021566037
 20
5901.776348499
 10
6318.2694329442
 20
5901.674497303
 10
6318.0910389017
 20
5901.5854491855
  0
LWPOLYLINE
  5
1AB
330
1F
100
AcDbEntity
  8
0
  6
Continuous
 62
     7
370
    25
100
AcDbPolyline
 90
        3
 70
   128
 43
0.0
 10
6318.0910389017
 20
5901.5854491855
 10
6318.025881194
 20
5901.5482401915
 10
6317.9707017299
 20
5901.5142883741
  0
LWPOLYLINE
  5
1AC
330
1F
100
AcDbEntity
  8
0
  6
Continuous
 62
     7
370
    25
100
AcDbPolyline
 90
        3
 70
   128
 43
0.0
 10
6317.9707017299
 20
5901.5142883741
 10
6317.8285751782
 20
5901.4297510132
 10
6317.7225532142
 20
5901.3584110895
  0
LWPOLYLINE
  5
1AD
330
1F
100
AcDbEntity
  8
0
  6
Continuous
 62
     7
370
    25
100
AcDbPolyline
 90
        3
 70
   128
 43
0.0
 10
6317.7225532142
 20
5901.3584110895
 10
6317.4730686244
 20
5901.175685216
 10
6317.2964683537
 20
5901.0185126641
  0
LWPOLYLINE
  5
1AE
330
1F
100
AcDbEntity
  8
0
  6
Continuous
 62
     7
370
    25
100
AcDbPolyline
 90
        3
 70
   128
 43
0.0
 10
6317.2964683537
 20
5901.0185126641
 10
6317.0395232386
 20
5901.0556109499
 10
6316.7855951394
 20
5901.0619147828
  0
LINE
  5
1AF
330
1F
100
AcDbEntity
  8
0
  6
Continuous
 62
     7
370
    25
100
AcDbLine
 10
6316.7855951394
 20
5901.0619147828
 30
0.0
 11
6316.7428581051
 21
5901.0545765872
 31
0.0
  0
ARC
  5
1B0
330
1F
100
AcDbEntity
  8
0
  6
Continuous
 62
     7
370
    25
100
AcDbCircle
 10
6316.6310912036
 20
5898.6478098406
 30
0.0
 40
2.409360498723815
100
AcDbArc
 50
87.3411738535
 51
101.0520480686
  0
LINE
  5
1B1
330
1F
100
AcDbEntity
  8
0
  6
Continuous
 62
     7
370
    25
100
AcDbLine
 10
6316.1692152621
 20
5901.0124850038
 30
0.0
 11
6316.1119917301
 21
5901.055135831
 31
0.0
  0
LWPOLYLINE
  5
1B2
330
1F
100
AcDbEntity
  8
0
  6
Continuous
 62
     7
370
    25
100
AcDbPolyline
 90
        3
 70
   128
 43
0.0
 10
6316.1119917301
 20
5901.055135831
 10
6315.3315640358
 20
5901.5455554329
 10
6314.694529687
 20
5901.8505895085
  0
LWPOLYLINE
  5
1B3
330
1F
100
AcDbEntity
  8
0
  6
Continuous
 62
     7
370
    25
100
AcDbPolyline
 90
        3
 70
   128
 43
0.0
 10
6314.694529687
 20
5901.8505895085
 10
6313.9538954881
 20
5902.09304857
 10
6313.3481983102
 20
5902.1994545927
  0
LINE
  5
1B4
330
1F
100
AcDbEntity
  8
0
  6
Continuous
 62
     7
370
    25
100
AcDbLine
 10
6313.3481983102
 20
5902.1994545927
 30
0.0
 11
6313.3481467157
 21
5902.178095063
 31
0.0
  0
LINE
  5
1B5
330
1F
100
AcDbEntity
  8
0
  6
Continuous
 62
     7
370
    25
100
AcDbLine
 10
6313.3481467157
 20
5902.178095063
 30
0.0
 11
6313.3478073422
 21
5901.8094006882
 31
0.0
  0
LWPOLYLINE
  5
1B6
330
1F
100
AcDbEntity
  8
0
  6
Continuous
 62
     7
370
    25
100
AcDbPolyline
 90
        3
 70
   128
 43
0.0
 10
6313.3478073422
 20
5901.8094006882
 10
6313.6404393945
 20
5900.4395083372
 10
6314.0545479978
 20
5899.5607957076
  0
LWPOLYLINE
  5
1B7
330
1F
100
AcDbEntity
  8
0
  6
Continuous
 62
     7
370
    25
100
AcDbPolyline
 90
        3
 70
   128
 43
0.0
 10
6314.0545479978
 20
5899.5607957076
 10
6313.7832614783
 20
5898.9527292617
 10
6313.655252041
 20
5898.5019768517
  0
LINE
  5
1B8
330
1F
100
AcDbEntity
  8
0
  6
Continuous
 62
     7
370
    25
100
AcDbLine
 10
6313.655252041
 20
5898.5019768517
 30
0.0
 11
6313.6170513648
 21
5898.4329603093
 31
0.0
  0
ARC
  5
1B9
330
1F
100
AcDbEntity
  8
0
  6
Continuous
 62
     7
370
    25
100
AcDbCircle
 10
6314.4710178426
 20
5898.0892985218
 30
0.0
 40
0.9205227696809501
100
AcDbArc
 50
158.0786630611
 51
164.0744977054
  0
LWPOLYLINE
  5
1BA
330
1F
100
AcDbEntity
  8
0
  6
Continuous
 62
     7
370
    25
100
AcDbPolyline
 90
        3
 70
   128
 43
0.0
 10
6313.5858254039
 20
5898.3418782439
 10
6313.6529218343
 20
5898.3336267411
 10
6313.7065045822
 20
5898.326428276
  0
LINE
  5
1BB
330
1F
100
AcDbEntity
  8
0
  6
Continuous
 62
     7
370
    25
100
AcDbLine
 10
6313.7065045822
 20
5898.326428276
 30
0.0
 11
6313.7369496507
 21
5898.3224273148
 31
0.0
  0
LWPOLYLINE
  5
1BC
330
1F
100
AcDbEntity
  8
0
  6
Continuous
 62
     7
370
    25
100
AcDbPolyline
 90
        3
 70
   128
 43
0.0
 10
6313.7369496507
 20
5898.3224273148
 10
6314.292413811
 20
5898.2038497186
 10
6314.6911545851
 20
5898.0572608568
  0
ARC
  5
1BD
330
1F
100
AcDbEntity
  8
0
  6
Continuous
 62
     7
370
    25
100
AcDbCircle
 10
6314.370091381
 20
5897.0361619385
 30
0.0
 40
1.070385249296379
100
AcDbArc
 50
338.1806495611
 51
72.5453355145
  0
LWPOLYLINE
  5
1BE
330
1F
100
AcDbEntity
  8
0
  6
Continuous
 62
     7
370
    25
100
AcDbPolyline
 90
        3
 70
   128
 43
0.0
 10
6315.3637946081
 20
5896.6383196603
 10
6314.9987214229
 20
5895.8439431841
 10
6314.6886098664
 20
5895.2922942019
  0
LWPOLYLINE
  5
1BF
330
1F
100
AcDbEntity
  8
0
  6
Continuous
 62
     7
370
    25
100
AcDbPolyline
 90
        3
 70
   128
 43
0.0
 10
6314.6886098664
 20
5895.2922942019
 10
6314.3292911523
 20
5894.440680519
 10
6314.0275377897
 20
5893.3992207969
  0
ARC
  5
1C0
330
1F
100
AcDbEntity
  8
0
  6
Continuous
 62
     7
370
    25
100
AcDbCircle
 10
6316.8627097375
 20
5892.6472184313
 30
0.0
 40
2.933207720467191
100
AcDbArc
 50
165.1448993757
 51
222.0464481262
  0
LWPOLYLINE
  5
1C1
330
1F
100
AcDbEntity
  8
0
  6
Continuous
 62
     7
370
    25
100
AcDbPolyline
 90
        3
 70
   128
 43
0.0
 10
6314.6845034207
 20
5890.682752913
 10
6315.4138119486
 20
5890.1370619278
 10
6316.1021042658
 20
5889.8877123128
  0
LWPOLYLINE
  5
1C2
330
1F
100
AcDbEntity
  8
0
  6
Continuous
 62
     7
370
    25
100
AcDbPolyline
 90
        3
 70
   128
 43
0.0
 10
6316.1021042658
 20
5889.8877123128
 10
6316.4738507904
 20
5889.8293232313
 10
6316.7753801371
 20
5889.8159436496
  0
LINE
  5
1C3
330
1F
100
AcDbEntity
  8
0
  6
Continuous
 62
     7
370
    25
100
AcDbLine
 10
6316.7753801371
 20
5889.8159436496
 30
0.0
 11
6316.8537906145
 21
5889.8158920513
 31
0.0
  0
LWPOLYLINE
  5
1C4
330
1F
100
AcDbEntity
  8
0
  6
Continuous
 62
     7
370
    25
100
AcDbPolyline
 90
        3
 70
   128
 43
0.0
 10
6316.8537906145
 20
5889.8158920513
 10
6317.3450222643
 20
5889.8598748883
 10
6317.7123262175
 20
5889.9363261902
  0
LWPOLYLINE
  5
1C5
330
1F
100
AcDbEntity
  8
0
  6
Continuous
 62
     7
370
    25
100
AcDbPolyline
 90
        3
 70
   128
 43
0.0
 10
6317.7123262175
 20
5889.9363261902
 10
6317.8539207952
 20
5889.9727918975
 10
6317.9604049936
 20
5890.0062827112
  0
LWPOLYLINE
  5
1C6
330
1F
100
AcDbEntity
  8
0
  6
Continuous
 62
     7
370
    25
100
AcDbPolyline
 90
        3
 70
   128
 43
0.0
 10
6317.9604049936
 20
5890.0062827112
 10
6318.0302409179
 20
5890.0303398971
 10
6318.0808112317
 20
5890.0489867841
  0
LWPOLYLINE
  5
1C7
330
1F
100
AcDbEntity
  8
0
  6
Continuous
 62
     7
370
    25
100
AcDbPolyline
 90
        3
 70
   128
 43
0.0
 10
6318.0808112317
 20
5890.0489867841
 10
6318.3164411146
 20
5890.1495804296
 10
6318.4919119574
 20
5890.2328581232
  0
ARC
  5
1C8
330
1F
100
AcDbEntity
  8
0
  6
Continuous
 62
     7
370
    25
100
AcDbCircle
 10
6316.7824754485
 20
5893.3221187832
 30
0.0
 40
3.530680473191377
100
AcDbArc
 50
298.957865228
 51
357.4819965092
  0
LWPOLYLINE
  5
1C9
330
1F
100
AcDbEntity
  8
0
  6
Continuous
 62
     7
370
    25
100
AcDbPolyline
 90
        3
 70
   128
 43
0.0
 10
6320.3097469303
 20
5893.1670043165
 10
6320.3313792097
 20
5893.422128219
 10
6320.3385239081
 20
5893.6134204825
  0
LINE
  5
1CA
330
1F
100
AcDbEntity
  8
0
  6
Continuous
 62
     7
370
    25
100
AcDbLine
 10
6320.3385239081
 20
5893.6134204825
 30
0.0
 11
6320.3387797243
 21
5893.8334243042
 31
0.0
  0
ARC
  5
1CB
330
1F
100
AcDbEntity
  8
0
  6
Continuous
 62
     7
370
    25
100
AcDbCircle
 10
6315.3836088866
 20
5893.640794512
 30
0.0
 40
4.95891361770022
100
AcDbArc
 50
2.2262238283
 51
50.9815981168
  0
LINE
  5
1CC
330
1F
100
AcDbEntity
  8
0
  6
Continuous
 62
     7
370
    25
100
AcDbLine
 10
6326.0187553361
 20
5905.1994545927
 30
0.0
 11
6222.0187553361
 21
5905.1994545927
 31
0.0
  0
LINE
  5
1CD
330
1F
100
AcDbEntity
  8
0
  6
Continuous
 62
     7
370
    25
100
AcDbLine
 10
6326.0187553361
 20
5666.1994545927
 30
0.0
 11
6326.0187553361
 21
5905.1994545927
 31
0.0
  0
LINE
  5
1CE
330
1F
100
AcDbEntity
  8
0
  6
Continuous
 62
     7
370
    25
100
AcDbLine
 10
6222.0187553361
 20
5666.1994545927
 30
0.0
 11
6326.0187553361
 21
5666.1994545927
 31
0.0
  0
LINE
  5
1CF
330
1F
100
AcDbEntity
  8
0
  6
Continuous
 62
     7
370
    25
100
AcDbLine
 10
6222.0187553361
 20
5905.1994545927
 30
0.0
 11
6222.0187553361
 21
5666.1994545927
 31
0.0
  0
ARC
  5
1D0
330
1F
100
AcDbEntity
  8
0
  6
Continuous
 62
     7
370
    25
100
AcDbCircle
 10
6287.6048387537
 20
5898.6399376084
 30
0.0
 40
3.75857160386984
100
AcDbArc
 50
178.0915089824
 51
232.3114369025
  0
ARC
  5
1D1
330
1F
100
AcDbEntity
  8
0
  6
Continuous
 62
     7
370
    25
100
AcDbCircle
 10
6282.9061880631
 20
5892.2853224965
 30
0.0
 40
4.146089747533876
100
AcDbArc
 50
14.8234475721
 51
54.616537119
  0
LWPOLYLINE
  5
1D2
330
1F
100
AcDbEntity
  8
0
  6
Continuous
 62
     7
370
    25
100
AcDbPolyline
 90
        7
 70
   128
 43
0.0
 10
6285.806277887
 20
5892.0632336414
 10
6286.1472569539
 20
5892.0933618966
 10
6286.4126917417
 20
5892.1809532442
 10
6286.6113512759
 20
5892.3208748764
 10
6286.7520045821
 20
5892.5079939854
 10
6286.8769266297
 20
5892.8850507921
 10
6286.9142908429
 20
5893.3460638886
  0
LINE
  5
1D3
330
1F
100
AcDbEntity
  8
0
  6
Continuous
 62
     7
370
    25
100
AcDbLine
 10
6283.4102108141
 20
5892.0648183719
 30
0.0
 11
6285.806277887
 21
5892.0632336414
 31
0.0
  0
LINE
  5
1D4
330
1F
100
AcDbEntity
  8
0
  6
Continuous
 62
     7
370
    25
100
AcDbLine
 10
6283.4086616091
 20
5890.8244463166
 30
0.0
 11
6283.4102108141
 21
5892.0648183719
 31
0.0
  0
LINE
  5
1D5
330
1F
100
AcDbEntity
  8
0
  6
Continuous
 62
     7
370
    25
100
AcDbLine
 10
6285.9119397407
 20
5890.8226026151
 30
0.0
 11
6283.4086616091
 21
5890.8244463166
 31
0.0
  0
ARC
  5
1D6
330
1F
100
AcDbEntity
  8
0
  6
Continuous
 62
     7
370
    25
100
AcDbCircle
 10
6285.7882517284
 20
5893.254470212
 30
0.0
 40
2.435011033554257
100
AcDbArc
 50
272.9116304141
 51
347.8491007434
  0
ARC
  5
1D7
330
1F
100
AcDbEntity
  8
0
  6
Continuous
 62
     7
370
    25
100
AcDbCircle
 10
6285.3062601894
 20
5893.2358880793
 30
0.0
 40
2.904757056722318
100
AcDbArc
 50
350.2092268184
 51
41.8785714633
  0
LWPOLYLINE
  5
1D8
330
1F
100
AcDbEntity
  8
0
  6
Continuous
 62
     7
370
    25
100
AcDbPolyline
 90
        3
 70
   128
 43
0.0
 10
6286.3135603481
 20
5896.4379124387
 10
6287.0825570588
 20
5895.6562515899
 10
6287.4690297709
 20
5895.1749706705
  0
ARC
  5
1D9
330
1F
100
AcDbEntity
  8
0
  6
Continuous
 62
     7
370
    25
100
AcDbCircle
 10
6287.8308718962
 20
5898.6695689955
 30
0.0
 40
2.698615445231766
100
AcDbArc
 50
179.804534936
 51
235.7880710372
  0
LWPOLYLINE
  5
1DA
330
1F
100
AcDbEntity
  8
0
  6
Continuous
 62
     7
370
    25
100
AcDbPolyline
 90
        6
 70
   128
 43
0.0
 10
6286.5856923647
 20
5899.8479095785
 10
6285.962393112
 20
5899.758151556
 10
6285.4710886199
 20
5899.5012083546
 10
6285.2896653121
 20
5899.2886063167
 10
6285.173409195
 20
5899.0160729743
 10
6285.1322721547
 20
5898.6787753283
  0
LINE
  5
1DB
330
1F
100
AcDbEntity
  8
0
  6
Continuous
 62
     7
370
    25
100
AcDbLine
 10
6291.1463653659
 20
5899.83689316
 30
0.0
 11
6286.5856923647
 21
5899.8479095785
 31
0.0
  0
LINE
  5
1DC
330
1F
100
AcDbEntity
  8
0
  6
Continuous
 62
     7
370
    25
100
AcDbLine
 10
6298.7325225491
 20
5899.8227716384
 30
0.0
 11
6291.1463653659
 21
5899.83689316
 31
0.0
  0
LINE
  5
1DD
330
1F
100
AcDbEntity
  8
0
  6
Continuous
 62
     7
370
    25
100
AcDbLine
 10
6307.3826803895
 20
5899.8145549565
 30
0.0
 11
6298.7325225491
 21
5899.8227716384
 31
0.0
  0
LINE
  5
1DE
330
1F
100
AcDbEntity
  8
0
  6
Continuous
 62
     7
370
    25
100
AcDbLine
 10
6310.0637770214
 20
5899.8053226168
 30
0.0
 11
6307.3826803895
 21
5899.8145549565
 31
0.0
  0
LINE
  5
1DF
330
1F
100
AcDbEntity
  8
0
  6
Continuous
 62
     7
370
    25
100
AcDbLine
 10
6312.4739689446
 20
5899.8037037673
 30
0.0
 11
6310.0637770214
 21
5899.8053226168
 31
0.0
  0
LINE
  5
1E0
330
1F
100
AcDbEntity
  8
0
  6
Continuous
 62
     7
370
    25
100
AcDbLine
 10
6312.4753981528
 20
5901.0229231645
 30
0.0
 11
6312.4739689446
 21
5899.8037037673
 31
0.0
  0
LINE
  5
1E1
330
1F
100
AcDbEntity
  8
0
  6
Continuous
 62
     7
370
    25
100
AcDbLine
 10
6310.0636902256
 20
5901.0244767738
 30
0.0
 11
6312.4753981528
 21
5901.0229231645
 31
0.0
  0
LINE
  5
1E2
330
1F
100
AcDbEntity
  8
0
  6
Continuous
 62
     7
370
    25
100
AcDbLine
 10
6307.3840959501
 20
5901.0281244135
 30
0.0
 11
6310.0636902256
 21
5901.0244767738
 31
0.0
  0
LINE
  5
1E3
330
1F
100
AcDbEntity
  8
0
  6
Continuous
 62
     7
370
    25
100
AcDbLine
 10
6298.7340035163
 20
5901.0348939931
 30
0.0
 11
6307.3840959501
 21
5901.0281244135
 31
0.0
  0
LINE
  5
1E4
330
1F
100
AcDbEntity
  8
0
  6
Continuous
 62
     7
370
    25
100
AcDbLine
 10
6291.14643418
 20
5901.0348939931
 30
0.0
 11
6298.7340035163
 21
5901.0348939931
 31
0.0
  0
LINE
  5
1E5
330
1F
100
AcDbEntity
  8
0
  6
Continuous
 62
     7
370
    25
100
AcDbLine
 10
6286.5025109384
 20
5901.0390834893
 30
0.0
 11
6291.14643418
 21
5901.0348939931
 31
0.0
  0
ARC
  5
1E6
330
1F
100
AcDbEntity
  8
0
  6
Continuous
 62
     7
370
    25
100
AcDbCircle
 10
6286.3117616059
 20
5898.5757836933
 30
0.0
 40
2.470674238472661
100
AcDbArc
 50
85.5720514479
 51
175.6051402178
  0
ARC
  5
1E7
330
1F
100
AcDbEntity
  8
0
  6
Continuous
 62
     7
370
    25
100
AcDbCircle
 10
6319.2486597109
 20
5886.6006926919
 30
0.0
 40
1.326572526718369
100
AcDbArc
 50
91.8318566566
 51
179.9973551201
  0
ARC
  5
1E8
330
1F
100
AcDbEntity
  8
0
  6
Continuous
 62
     7
370
    25
100
AcDbCircle
 10
6318.7798635841
 20
5886.5450088723
 30
0.0
 40
0.8595858660856722
100
AcDbArc
 50
176.2816983994
 51
272.9824026224
  0
ARC
  5
1E9
330
1F
100
AcDbEntity
  8
0
  6
Continuous
 62
     7
370
    25
100
AcDbCircle
 10
6318.7830129902
 20
5887.0116763059
 30
0.0
 40
1.325741070990325
100
AcDbArc
 50
271.7970451184
 51
0.0321666584
  0
ARC
  5
1EA
330
1F
100
AcDbEntity
  8
0
  6
Continuous
 62
     7
370
    25
100
AcDbCircle
 10
6319.2501110107
 20
5887.0673102667
 30
0.0
 40
0.8603954935871604
100
AcDbArc
 50
356.3422824607
 51
92.9218185613
  0
LWPOLYLINE
  5
1EB
330
1F
100
AcDbEntity
  8
0
  6
Continuous
 62
     7
370
    25
100
AcDbPolyline
 90
        4
 70
   128
 43
0.0
 10
6308.2495871856
 20
5886.3240872623
 10
6308.2953273766
 20
5886.3071571688
 10
6308.3104122555
 20
5886.2951257388
 10
6308.3195871856
 20
5886.2782539289
  0
LWPOLYLINE
  5
1EC
330
1F
100
AcDbEntity
  8
0
  6
Continuous
 62
     7
370
    25
100
AcDbPolyline
 90
        4
 70
   128
 43
0.0
 10
6308.3195871856
 20
5886.2782539289
 10
6308.4334125253
 20
5886.0003807497
 10
6308.6465267555
 20
5885.7917636114
 10
6309.1020871856
 20
5885.6865872623
  0
ARC
  5
1ED
330
1F
100
AcDbEntity
  8
0
  6
Continuous
 62
     7
370
    25
100
AcDbCircle
 10
6309.1195214215
 20
5886.8884194865
 30
0.0
 40
1.201958671418838
100
AcDbArc
 50
269.1689038986
 51
319.2137894188
  0
ARC
  5
1EE
330
1F
100
AcDbEntity
  8
0
  6
Continuous
 62
     7
370
    25
100
AcDbCircle
 10
6309.9730509856
 20
5886.1147545233
 30
0.0
 40
0.0576940688276929
100
AcDbArc
 50
348.5017764761
 51
91.7850156553
  0
LWPOLYLINE
  5
1EF
330
1F
100
AcDbEntity
  8
0
  6
Continuous
 62
     7
370
    25
100
AcDbPolyline
 90
        3
 70
   128
 43
0.0
 10
6309.9712538523
 20
5886.1724205956
 10
6309.8793775737
 20
5886.1418409299
 10
6309.8104205189
 20
5886.1090872623
  0
LWPOLYLINE
  5
1F0
330
1F
100
AcDbEntity
  8
0
  6
Continuous
 62
     7
370
    25
100
AcDbPolyline
 90
        3
 70
   128
 43
0.0
 10
6309.8104205189
 20
5886.1090872623
 10
6309.5120836747
 20
5885.989740657
 10
6309.2629205189
 20
5885.9532539289
  0
ARC
  5
1F1
330
1F
100
AcDbEntity
  8
0
  6
Continuous
 62
     7
370
    25
100
AcDbCircle
 10
6309.2468253487
 20
5886.3977029087
 30
0.0
 40
0.4447403176633928
100
AcDbArc
 50
179.8216538069
 51
272.0739894888
  0
LWPOLYLINE
  5
1F2
330
1F
100
AcDbEntity
  8
0
  6
Continuous
 62
     7
370
    25
100
AcDbPolyline
 90
        4
 70
   128
 43
0.0
 10
6308.8020871856
 20
5886.3990872623
 10
6308.818504583
 20
5886.4648688201
 10
6308.8718459664
 20
5886.5065670892
 10
6308.9679205189
 20
5886.5540872623
  0
ARC
  5
1F3
330
1F
100
AcDbEntity
  8
0
  6
Continuous
 62
     7
370
    25
100
AcDbCircle
 10
6308.700907645
 20
5887.974381759
 30
0.0
 40
1.445175536895577
100
AcDbArc
 50
280.6472306351
 51
342.8852901369
  0
ARC
  5
1F4
330
1F
100
AcDbEntity
  8
0
  6
Continuous
 62
     7
370
    25
100
AcDbCircle
 10
6309.7022318903
 20
5887.550999496
 30
0.0
 40
0.3798601085128847
100
AcDbArc
 50
359.7115691121
 51
98.6013515167
  0
ARC
  5
1F5
330
1F
100
AcDbEntity
  8
0
  6
Continuous
 62
     7
370
    25
100
AcDbCircle
 10
6309.8370623731
 20
5886.4629520967
 30
0.0
 40
1.476128211915409
100
AcDbArc
 50
97.4596172225
 51
172.2012440007
  0
ARC
  5
1F6
330
1F
100
AcDbEntity
  8
0
  6
Continuous
 62
     7
370
    25
100
AcDbCircle
 10
6308.2408338943
 20
5886.6936738869
 30
0.0
 40
0.1371689351483947
100
AcDbArc
 50
282.813016278
 51
347.1869837216
  0
LWPOLYLINE
  5
1F7
330
1F
100
AcDbEntity
  8
0
  6
Continuous
 62
     7
370
    25
100
AcDbPolyline
 90
        4
 70
   128
 43
0.0
 10
6308.2712538523
 20
5886.5599205956
 10
6308.1823857364
 20
5886.4941056432
 10
6308.1659915039
 20
5886.4536225977
 10
6308.1620871856
 20
5886.4099205956
  0
LWPOLYLINE
  5
1F8
330
1F
100
AcDbEntity
  8
0
  6
Continuous
 62
     7
370
    25
100
AcDbPolyline
 90
        4
 70
   128
 43
0.0
 10
6308.1620871856
 20
5886.4099205956
 10
6308.1672208681
 20
5886.3711712779
 10
6308.1903788504
 20
5886.3404709971
 10
6308.2495871856
 20
5886.3240872623
  0
LWPOLYLINE
  5
1F9
330
1F
100
AcDbEntity
  8
0
  6
Continuous
 62
     7
370
    25
100
AcDbPolyline
 90
        3
 70
   128
 43
0.0
 10
6310.4712538523
 20
5885.7399205956
 10
6310.6231507221
 20
5885.7796895302
 10
6310.7362538523
 20
5885.8299205956
  0
ARC
  5
1FA
330
1F
100
AcDbEntity
  8
0
  6
Continuous
 62
     7
370
    25
100
AcDbCircle
 10
6309.9147307281
 20
5886.3758301326
 30
0.0
 40
0.9863657872014114
100
AcDbArc
 50
326.3956030787
 51
4.599125161
  0
LWPOLYLINE
  5
1FB
330
1F
100
AcDbEntity
  8
0
  6
Continuous
 62
     7
370
    25
100
AcDbPolyline
 90
        3
 70
   128
 43
0.0
 10
6310.8979205189
 20
5886.4549205956
 10
6310.9295237278
 20
5886.7676487696
 10
6310.9554205189
 20
5887.0132539289
  0
LWPOLYLINE
  5
1FC
330
1F
100
AcDbEntity
  8
0
  6
Continuous
 62
     7
370
    25
100
AcDbPolyline
 90
        3
 70
   128
 43
0.0
 10
6310.9554205189
 20
5887.0132539289
 10
6310.9798938608
 20
5887.2079792255
 10
6311.0187538523
 20
5887.3565872623
  0
ARC
  5
1FD
330
1F
100
AcDbEntity
  8
0
  6
Continuous
 62
     7
370
    25
100
AcDbCircle
 10
6311.2178267725
 20
5887.1814526095
 30
0.0
 40
0.2651455715981074
100
AcDbArc
 50
90.5199787512
 51
138.660255581
  0
LWPOLYLINE
  5
1FE
330
1F
100
AcDbEntity
  8
0
  6
Continuous
 62
     7
370
    25
100
AcDbPolyline
 90
        3
 70
   128
 43
0.0
 10
6311.2154205189
 20
5887.4465872623
 10
6311.437862544
 20
5887.4745009081
 10
6311.6129205189
 20
5887.4940872623
  0
ARC
  5
1FF
330
1F
100
AcDbEntity
  8
0
  6
Continuous
 62
     7
370
    25
100
AcDbCircle
 10
6311.6162955989
 20
5888.034744778
 30
0.0
 40
0.5406680502256674
100
AcDbArc
 50
269.6423330442
 51
294.1991440355
  0
LWPOLYLINE
  5
200
330
1F
100
AcDbEntity
  8
0
  6
Continuous
 62
     7
370
    25
100
AcDbPolyline
 90
        3
 70
   128
 43
0.0
 10
6311.8379205189
 20
5887.5415872623
 10
6311.8828952978
 20
5887.6974965387
 10
6311.8954205189
 20
5887.8257539289
  0
ARC
  5
201
330
1F
100
AcDbEntity
  8
0
  6
Continuous
 62
     7
370
    25
100
AcDbCircle
 10
6311.8093040644
 20
5887.8395071503
 30
0.0
 40
0.0872077682336322
100
AcDbArc
 50
350.9262087181
 51
93.1005172999
  0
LWPOLYLINE
  5
202
330
1F
100
AcDbEntity
  8
0
  6
Continuous
 62
     7
370
    25
100
AcDbPolyline
 90
        3
 70
   128
 43
0.0
 10
6311.8045871856
 20
5887.9265872623
 10
6311.5336230196
 20
5887.8672504299
 10
6311.3320871856
 20
5887.7840872623
  0
LWPOLYLINE
  5
203
330
1F
100
AcDbEntity
  8
0
  6
Continuous
 62
     7
370
    25
100
AcDbPolyline
 90
        3
 70
   128
 43
0.0
 10
6311.3320871856
 20
5887.7840872623
 10
6311.2224676215
 20
5887.7133095688
 10
6311.1387538523
 20
5887.6540872623
  0
LWPOLYLINE
  5
204
330
1F
100
AcDbEntity
  8
0
  6
Continuous
 62
     7
370
    25
100
AcDbPolyline
 90
        3
 70
   128
 43
0.0
 10
6311.1387538523
 20
5887.6540872623
 10
6311.0961907634
 20
5887.6233855641
 10
6311.0587538523
 20
5887.6065872623
  0
LWPOLYLINE
  5
205
330
1F
100
AcDbEntity
  8
0
  6
Continuous
 62
     7
370
    25
100
AcDbPolyline
 90
        6
 70
   128
 43
0.0
 10
6311.0587538523
 20
5887.6065872623
 10
6311.050938492
 20
5887.6111186082
 10
6311.0463961432
 20
5887.6182809316
 10
6311.0441682619
 20
5887.6365843715
 10
6311.0428801611
 20
5887.6720469867
 10
6311.0420871856
 20
5887.7432539289
  0
LWPOLYLINE
  5
206
330
1F
100
AcDbEntity
  8
0
  6
Continuous
 62
     7
370
    25
100
AcDbPolyline
 90
        6
 70
   128
 43
0.0
 10
6311.0420871856
 20
5887.7432539289
 10
6311.0388610195
 20
5887.8484265631
 10
6311.029485367
 20
5887.9003461227
 10
6311.0226819821
 20
5887.9119050096
 10
6311.012989503
 20
5887.9200300615
 10
6310.9870871856
 20
5887.9265872623
  0
ARC
  5
207
330
1F
100
AcDbEntity
  8
0
  6
Continuous
 62
     7
370
    25
100
AcDbCircle
 10
6311.007557565
 20
5887.4595080235
 30
0.0
 40
0.4675275946122656
100
AcDbArc
 50
92.5094591777
 51
147.0079691712
  0
LWPOLYLINE
  5
208
330
1F
100
AcDbEntity
  8
0
  6
Continuous
 62
     7
370
    25
100
AcDbPolyline
 90
        3
 70
   128
 43
0.0
 10
6310.6154205189
 20
5887.7140872623
 10
6310.5332493373
 20
5886.9926541984
 10
6310.4620871856
 20
5886.4265872623
  0
LWPOLYLINE
  5
209
330
1F
100
AcDbEntity
  8
0
  6
Continuous
 62
     7
370
    25
100
AcDbPolyline
 90
        3
 70
   128
 43
0.0
 10
6310.4620871856
 20
5886.4265872623
 10
6310.4263604181
 20
5886.1318753009
 10
6310.4020871856
 20
5885.8999205956
  0
LWPOLYLINE
  5
20A
330
1F
100
AcDbEntity
  8
0
  6
Continuous
 62
     7
370
    25
100
AcDbPolyline
 90
        5
 70
   128
 43
0.0
 10
6310.4020871856
 20
5885.8999205956
 10
6310.4109698352
 20
5885.8054330671
 10
6310.4300833612
 20
5885.7609617558
 10
6310.4479061048
 20
5885.7462849647
 10
6310.4712538523
 20
5885.7399205956
  0
LWPOLYLINE
  5
20B
330
1F
100
AcDbEntity
  8
0
  6
Continuous
 62
     7
370
    25
100
AcDbPolyline
 90
        3
 70
   128
 43
0.0
 10
6305.0104205189
 20
5887.3640872623
 10
6305.2631776171
 20
5887.6020617792
 10
6305.5287538523
 20
5887.6599205956
  0
LWPOLYLINE
  5
20C
330
1F
100
AcDbEntity
  8
0
  6
Continuous
 62
     7
370
    25
100
AcDbPolyline
 90
        3
 70
   128
 43
0.0
 10
6305.5287538523
 20
5887.6599205956
 10
6305.7453898147
 20
5887.6427076623
 10
6305.9145871856
 20
5887.6190872623
  0
LWPOLYLINE
  5
20D
330
1F
100
AcDbEntity
  8
0
  6
Continuous
 62
     7
370
    25
100
AcDbPolyline
 90
        3
 70
   128
 43
0.0
 10
6305.9145871856
 20
5887.6190872623
 10
6306.050148466
 20
5887.6009895319
 10
6306.1570871856
 20
5887.5907539289
  0
ARC
  5
20E
330
1F
100
AcDbEntity
  8
0
  6
Continuous
 62
     7
370
    25
100
AcDbCircle
 10
6306.1681445699
 20
5887.7006916564
 30
0.0
 40
0.110492396446505
100
AcDbArc
 50
264.2565848119
 51
6.5282766067
  0
LWPOLYLINE
  5
20F
330
1F
100
AcDbEntity
  8
0
  6
Continuous
 62
     7
370
    25
100
AcDbPolyline
 90
        6
 70
   128
 43
0.0
 10
6306.2779205189
 20
5887.7132539289
 10
6306.2714531115
 20
5887.7699682742
 10
6306.2475116748
 20
5887.8217301335
 10
6306.2069011059
 20
5887.8615664472
 10
6306.1555019653
 20
5887.8866506685
 10
6305.9320871856
 20
5887.9265872623
  0
ARC
  5
210
330
1F
100
AcDbEntity
  8
0
  6
Continuous
 62
     7
370
    25
100
AcDbCircle
 10
6305.9036226022
 20
5886.2381487933
 30
0.0
 40
1.688678387371829
100
AcDbArc
 50
89.0341691198
 51
178.6391304039
  0
ARC
  5
211
330
1F
100
AcDbEntity
  8
0
  6
Continuous
 62
     7
370
    25
100
AcDbCircle
 10
6304.7770552301
 20
5886.2484187947
 30
0.0
 40
0.5624266031838433
100
AcDbArc
 50
176.9591943134
 51
272.6358902023
  0
ARC
  5
212
330
1F
100
AcDbEntity
  8
0
  6
Continuous
 62
     7
370
    25
100
AcDbCircle
 10
6304.5918846356
 20
5886.8548374991
 30
0.0
 40
1.187158270801826
100
AcDbArc
 50
280.2396383641
 51
343.403713555
  0
LINE
  5
213
330
1F
100
AcDbEntity
  8
0
  6
Continuous
 62
     7
370
    25
100
AcDbLine
 10
6305.7295871856
 20
5886.5157539289
 30
0.0
 11
6305.7412538523
 21
5886.5040872623
 31
0.0
  0
LINE
  5
214
330
1F
100
AcDbEntity
  8
0
  6
Continuous
 62
     7
370
    25
100
AcDbLine
 10
6305.7412538523
 20
5886.5040872623
 30
0.0
 11
6305.7354205189
 21
5886.4699205956
 31
0.0
  0
LWPOLYLINE
  5
215
330
1F
100
AcDbEntity
  8
0
  6
Continuous
 62
     7
370
    25
100
AcDbPolyline
 90
        3
 70
   128
 43
0.0
 10
6305.7354205189
 20
5886.4699205956
 10
6305.6826887781
 20
5886.1676445104
 10
6305.6554205189
 20
5885.9282539289
  0
LWPOLYLINE
  5
216
330
1F
100
AcDbEntity
  8
0
  6
Continuous
 62
     7
370
    25
100
AcDbPolyline
 90
        4
 70
   128
 43
0.0
 10
6305.6554205189
 20
5885.9282539289
 10
6305.6764518141
 20
5885.8133935818
 10
6305.751095828
 20
5885.7249589424
 10
6305.9295871856
 20
5885.6865872623
  0
LWPOLYLINE
  5
217
330
1F
100
AcDbEntity
  8
0
  6
Continuous
 62
     7
370
    25
100
AcDbPolyline
 90
        6
 70
   128
 43
0.0
 10
6305.9295871856
 20
5885.6865872623
 10
6306.1949528929
 20
5885.7239850032
 10
6306.3229098415
 20
5885.7642492666
 10
6306.3820600114
 20
5885.7957342051
 10
6306.4055921065
 20
5885.8195687549
 10
6306.4145871856
 20
5885.8515872623
  0
LWPOLYLINE
  5
218
330
1F
100
AcDbEntity
  8
0
  6
Continuous
 62
     7
370
    25
100
AcDbPolyline
 90
        6
 70
   128
 43
0.0
 10
6306.4145871856
 20
5885.8515872623
 10
6306.4105159026
 20
5885.8735607872
 10
6306.4044611482
 20
5885.8822591729
 10
6306.3952785884
 20
5885.8886093338
 10
6306.3522328025
 20
5885.8974432629
 10
6306.2645871856
 20
5885.8999205956
  0
LWPOLYLINE
  5
219
330
1F
100
AcDbEntity
  8
0
  6
Continuous
 62
     7
370
    25
100
AcDbPolyline
 90
        5
 70
   128
 43
0.0
 10
6306.2645871856
 20
5885.8999205956
 10
6306.1086174651
 20
5885.9166462479
 10
6306.0734143484
 20
5885.9341874168
 10
6306.047534551
 20
5885.9637331847
 10
6306.0287538523
 20
5886.0399205956
  0
ARC
  5
21A
330
1F
100
AcDbEntity
  8
0
  6
Continuous
 62
     7
370
    25
100
AcDbCircle
 10
6329.8210836397
 20
5883.3952708605
 30
0.0
 40
23.93886231499878
100
AcDbArc
 50
171.3355803577
 51
173.6572926049
  0
LWPOLYLINE
  5
21B
330
1F
100
AcDbEntity
  8
0
  6
Continuous
 62
     7
370
    25
100
AcDbPolyline
 90
        3
 70
   128
 43
0.0
 10
6306.1554205189
 20
5887.0015872623
 10
6306.1855625529
 20
5887.2011438968
 10
6306.2070871856
 20
5887.3582539289
  0
LWPOLYLINE
  5
21C
330
1F
100
AcDbEntity
  8
0
  6
Continuous
 62
     7
370
    25
100
AcDbPolyline
 90
        5
 70
   128
 43
0.0
 10
6306.2070871856
 20
5887.3582539289
 10
6306.1942630178
 20
5887.4150771362
 10
6306.1762961075
 20
5887.4383621403
 10
6306.1522189955
 20
5887.4551543837
 10
6306.0395871856
 20
5887.4857539289
  0
LWPOLYLINE
  5
21D
330
1F
100
AcDbEntity
  8
0
  6
Continuous
 62
     7
370
    25
100
AcDbPolyline
 90
        5
 70
   128
 43
0.0
 10
6306.0395871856
 20
5887.4857539289
 10
6306.0011400866
 20
5887.4797140487
 10
6305.9676323741
 20
5887.4596599424
 10
6305.9256455741
 20
5887.3940650645
 10
6305.8670871856
 20
5887.2490872623
  0
LWPOLYLINE
  5
21E
330
1F
100
AcDbEntity
  8
0
  6
Continuous
 62
     7
370
    25
100
AcDbPolyline
 90
        3
 70
   128
 43
0.0
 10
6305.8670871856
 20
5887.2490872623
 10
6305.8263980807
 20
5887.1324119278
 10
6305.7920871856
 20
5887.0415872623
  0
LWPOLYLINE
  5
21F
330
1F
100
AcDbEntity
  8
0
  6
Continuous
 62
     7
370
    25
100
AcDbPolyline
 90
        3
 70
   128
 43
0.0
 10
6305.7920871856
 20
5887.0415872623
 10
6305.5936553876
 20
5886.6108107378
 10
6305.3987538523
 20
5886.2932539289
  0
ARC
  5
220
330
1F
100
AcDbEntity
  8
0
  6
Continuous
 62
     7
370
    25
100
AcDbCircle
 10
6304.8386961328
 20
5886.5762406758
 30
0.0
 40
0.6274919505945833
100
AcDbArc
 50
276.8699084779
 51
333.1933791809
  0
LWPOLYLINE
  5
221
330
1F
100
AcDbEntity
  8
0
  6
Continuous
 62
     7
370
    25
100
AcDbPolyline
 90
        5
 70
   128
 43
0.0
 10
6304.9137538523
 20
5885.9532539289
 10
6304.8174245727
 20
5885.9725328708
 10
6304.7379723813
 20
5886.0302606287
 10
6304.6841031698
 20
5886.1126522833
 10
6304.6420871856
 20
5886.3399205956
  0
LWPOLYLINE
  5
222
330
1F
100
AcDbEntity
  8
0
  6
Continuous
 62
     7
370
    25
100
AcDbPolyline
 90
        3
 70
   128
 43
0.0
 10
6304.6420871856
 20
5886.3399205956
 10
6304.7689415951
 20
5886.9431925917
 10
6305.0104205189
 20
5887.3640872623
  0
LINE
  5
223
330
1F
100
AcDbEntity
  8
0
  6
Continuous
 62
     7
370
    25
100
AcDbLine
 10
6302.3970871856
 20
5886.1649205956
 30
0.0
 11
6302.3970871856
 21
5886.1532539289
 31
0.0
  0
ARC
  5
224
330
1F
100
AcDbEntity
  8
0
  6
Continuous
 62
     7
370
    25
100
AcDbCircle
 10
6302.9495840162
 20
5886.2463072984
 30
0.0
 40
0.5602782142739683
100
AcDbArc
 50
189.5602247265
 51
272.5577507216
  0
LWPOLYLINE
  5
225
330
1F
100
AcDbEntity
  8
0
  6
Continuous
 62
     7
370
    25
100
AcDbPolyline
 90
        5
 70
   128
 43
0.0
 10
6302.9745871856
 20
5885.6865872623
 10
6303.2778477829
 20
5885.7608126672
 10
6303.5145806493
 20
5885.9659639449
 10
6303.8040733474
 20
5886.5222948642
 10
6304.0020871856
 20
5887.7632539289
  0
LWPOLYLINE
  5
226
330
1F
100
AcDbEntity
  8
0
  6
Continuous
 62
     7
370
    25
100
AcDbPolyline
 90
        5
 70
   128
 43
0.0
 10
6304.0020871856
 20
5887.7632539289
 10
6303.9980423209
 20
5887.807386744
 10
6303.9797698102
 20
5887.8475932922
 10
6303.9515456098
 20
5887.8677652201
 10
6303.9170871856
 20
5887.8732539289
  0
LWPOLYLINE
  5
227
330
1F
100
AcDbEntity
  8
0
  6
Continuous
 62
     7
370
    25
100
AcDbPolyline
 90
        5
 70
   128
 43
0.0
 10
6303.9170871856
 20
5887.8732539289
 10
6303.7143569978
 20
5887.8277245502
 10
6303.6177665839
 20
5887.7893158048
 10
6303.5735503778
 20
5887.7621040367
 10
6303.5495871856
 20
5887.7174205956
  0
LWPOLYLINE
  5
228
330
1F
100
AcDbEntity
  8
0
  6
Continuous
 62
     7
370
    25
100
AcDbPolyline
 90
        3
 70
   128
 43
0.0
 10
6303.5495871856
 20
5887.7174205956
 10
6303.5638717848
 20
5887.6714925834
 10
6303.5787538523
 20
5887.6365872623
  0
LWPOLYLINE
  5
229
330
1F
100
AcDbEntity
  8
0
  6
Continuous
 62
     7
370
    25
100
AcDbPolyline
 90
        3
 70
   128
 43
0.0
 10
6303.5787538523
 20
5887.6365872623
 10
6303.664530303
 20
5887.3911446742
 10
6303.6820871856
 20
5887.1874205956
  0
LWPOLYLINE
  5
22A
330
1F
100
AcDbEntity
  8
0
  6
Continuous
 62
     7
370
    25
100
AcDbPolyline
 90
        5
 70
   128
 43
0.0
 10
6303.6820871856
 20
5887.1874205956
 10
6303.589956198
 20
5886.4597932886
 10
6303.4383000852
 20
5886.1262452585
 10
6303.3053753284
 20
5886.0007612068
 10
6303.1295871856
 20
5885.9532539289
  0
LWPOLYLINE
  5
22B
330
1F
100
AcDbEntity
  8
0
  6
Continuous
 62
     7
370
    25
100
AcDbPolyline
 90
        5
 70
   128
 43
0.0
 10
6303.1295871856
 20
5885.9532539289
 10
6302.999487623
 20
5885.9787505703
 10
6302.891207044
 20
5886.0553973228
 10
6302.8161283806
 20
5886.1651820262
 10
6302.7579205189
 20
5886.4715872623
  0
LWPOLYLINE
  5
22C
330
1F
100
AcDbEntity
  8
0
  6
Continuous
 62
     7
370
    25
100
AcDbPolyline
 90
        3
 70
   128
 43
0.0
 10
6302.7579205189
 20
5886.4715872623
 10
6302.8275173245
 20
5887.0669347537
 10
6302.9379205189
 20
5887.5257539289
  0
LWPOLYLINE
  5
22D
330
1F
100
AcDbEntity
  8
0
  6
Continuous
 62
     7
370
    25
100
AcDbPolyline
 90
        3
 70
   128
 43
0.0
 10
6302.9379205189
 20
5887.5257539289
 10
6302.9597089987
 20
5887.598474539
 10
6302.9729205189
 20
5887.6565872623
  0
ARC
  5
22E
330
1F
100
AcDbEntity
  8
0
  6
Continuous
 62
     7
370
    25
100
AcDbCircle
 10
6302.5930001969
 20
5887.4456616459
 30
0.0
 40
0.4345446660115872
100
AcDbArc
 50
29.0383260456
 51
79.7371495417
  0
ARC
  5
22F
330
1F
100
AcDbEntity
  8
0
  6
Continuous
 62
     7
370
    25
100
AcDbCircle
 10
6304.4577906225
 20
5886.8345259639
 30
0.0
 40
2.067280259742454
100
AcDbArc
 50
149.8370392626
 51
181.5366975337
  0
LWPOLYLINE
  5
230
330
1F
100
AcDbEntity
  8
0
  6
Continuous
 62
     7
370
    25
100
AcDbPolyline
 90
        4
 70
   128
 43
0.0
 10
6302.3912538523
 20
5886.7790872623
 10
6302.1840496353
 20
5886.2427173685
 10
6302.0329159854
 20
5886.0733121467
 10
6301.8279205189
 20
5885.9840872623
  0
LWPOLYLINE
  5
231
330
1F
100
AcDbEntity
  8
0
  6
Continuous
 62
     7
370
    25
100
AcDbPolyline
 90
        5
 70
   128
 43
0.0
 10
6301.8279205189
 20
5885.9840872623
 10
6301.7475973293
 20
5885.9986544567
 10
6301.6781737931
 20
5886.0419704895
 10
6301.5903865691
 20
5886.1786039151
 10
6301.5487538523
 20
5886.5024205956
  0
LWPOLYLINE
  5
232
330
1F
100
AcDbEntity
  8
0
  6
Continuous
 62
     7
370
    25
100
AcDbPolyline
 90
        3
 70
   128
 43
0.0
 10
6301.5487538523
 20
5886.5024205956
 10
6301.6045282903
 20
5887.0700379707
 10
6301.7154205189
 20
5887.5049205956
  0
LWPOLYLINE
  5
233
330
1F
100
AcDbEntity
  8
0
  6
Continuous
 62
     7
370
    25
100
AcDbPolyline
 90
        3
 70
   128
 43
0.0
 10
6301.7154205189
 20
5887.5049205956
 10
6301.7377605982
 20
5887.5883283998
 10
6301.7504205189
 20
5887.6549205956
  0
ARC
  5
234
330
1F
100
AcDbEntity
  8
0
  6
Continuous
 62
     7
370
    25
100
AcDbCircle
 10
6301.1395938977
 20
5887.2876323832
 30
0.0
 40
0.7127480566170304
100
AcDbArc
 50
31.0183667359
 51
63.6974452056
  0
ARC
  5
235
330
1F
100
AcDbEntity
  8
0
  6
Continuous
 62
     7
370
    25
100
AcDbCircle
 10
6304.0094584886
 20
5886.6851579396
 30
0.0
 40
2.83976349611824
100
AcDbArc
 50
154.0772199733
 51
183.6389597429
  0
LWPOLYLINE
  5
236
330
1F
100
AcDbEntity
  8
0
  6
Continuous
 62
     7
370
    25
100
AcDbPolyline
 90
        6
 70
   128
 43
0.0
 10
6301.1754205189
 20
5886.5049205956
 10
6301.2539435078
 20
5885.9794278976
 10
6301.3138432679
 20
5885.8602900486
 10
6301.4040440093
 20
5885.7624543204
 10
6301.5233521937
 20
5885.7038546604
 10
6301.6554205189
 20
5885.6865872623
  0
ARC
  5
237
330
1F
100
AcDbEntity
  8
0
  6
Continuous
 62
     7
370
    25
100
AcDbCircle
 10
6301.5932859148
 20
5886.362196255
 30
0.0
 40
0.6784601831171214
100
AcDbArc
 50
275.2546133706
 51
324.5906977269
  0
LWPOLYLINE
  5
238
330
1F
100
AcDbEntity
  8
0
  6
Continuous
 62
     7
370
    25
100
AcDbPolyline
 90
        3
 70
   128
 43
0.0
 10
6302.1462538523
 20
5885.9690872623
 10
6302.2320066183
 20
5886.070047671
 10
6302.2945871856
 20
5886.1532539289
  0
LWPOLYLINE
  5
239
330
1F
100
AcDbEntity
  8
0
  6
Continuous
 62
     7
370
    25
100
AcDbPolyline
 90
        3
 70
   128
 43
0.0
 10
6302.2945871856
 20
5886.1532539289
 10
6302.3302062022
 20
5886.1979144804
 10
6302.3629205189
 20
5886.2282539289
  0
ARC
  5
23A
330
1F
100
AcDbEntity
  8
0
  6
Continuous
 62
     7
370
    25
100
AcDbCircle
 10
6302.3106868536
 20
5886.1591925656
 30
0.0
 40
0.0865899976780233
100
AcDbArc
 50
3.7929528175
 51
52.8984344269
  0
LWPOLYLINE
  5
23B
330
1F
100
AcDbEntity
  8
0
  6
Continuous
 62
     7
370
    25
100
AcDbPolyline
 90
        3
 70
   128
 43
0.0
 10
6297.3320871856
 20
5887.9315872623
 10
6297.2096027431
 20
5887.8393768837
 10
6297.1220871856
 20
5887.7549205956
  0
LWPOLYLINE
  5
23C
330
1F
100
AcDbEntity
  8
0
  6
Continuous
 62
     7
370
    25
100
AcDbPolyline
 90
        3
 70
   128
 43
0.0
 10
6297.1220871856
 20
5887.7549205956
 10
6296.6330931971
 20
5887.3087405342
 10
6296.2420871856
 20
5886.9657539289
  0
LWPOLYLINE
  5
23D
330
1F
100
AcDbEntity
  8
0
  6
Continuous
 62
     7
370
    25
100
AcDbPolyline
 90
        3
 70
   128
 43
0.0
 10
6296.2420871856
 20
5886.9657539289
 10
6296.3113426481
 20
5887.4841326129
 10
6296.3645871856
 20
5887.8915872623
  0
ARC
  5
23E
330
1F
100
AcDbEntity
  8
0
  6
Continuous
 62
     7
370
    25
100
AcDbCircle
 10
6222.0863004513
 20
5897.8025748098
 30
0.0
 40
74.936583551355
100
AcDbArc
 50
352.3998877593
 51
353.811881154
  0
LWPOLYLINE
  5
23F
330
1F
100
AcDbEntity
  8
0
  6
Continuous
 62
     7
370
    25
100
AcDbPolyline
 90
        5
 70
   128
 43
0.0
 10
6296.5862538523
 20
5889.7249205956
 10
6296.5835363044
 20
5889.7522179844
 10
6296.5724221
 20
5889.7772130755
 10
6296.5550975923
 20
5889.7898723357
 10
6296.5337538523
 20
5889.7932539289
  0
LWPOLYLINE
  5
240
330
1F
100
AcDbEntity
  8
0
  6
Continuous
 62
     7
370
    25
100
AcDbPolyline
 90
        3
 70
   128
 43
0.0
 10
6296.5337538523
 20
5889.7932539289
 10
6296.3710435328
 20
5889.723329955
 10
6296.2479205189
 20
5889.6574205956
  0
LWPOLYLINE
  5
241
330
1F
100
AcDbEntity
  8
0
  6
Continuous
 62
     7
370
    25
100
AcDbPolyline
 90
        3
 70
   128
 43
0.0
 10
6296.2479205189
 20
5889.6574205956
 10
6296.2384995738
 20
5889.6503266782
 10
6296.2304205189
 20
5889.6457539289
  0
ARC
  5
242
330
1F
100
AcDbEntity
  8
0
  6
Continuous
 62
     7
370
    25
100
AcDbCircle
 10
6296.3645955079
 20
5889.4830841705
 30
0.0
 40
0.2108657818971544
100
AcDbArc
 50
129.5168544777
 51
185.1687874636
  0
LWPOLYLINE
  5
243
330
1F
100
AcDbEntity
  8
0
  6
Continuous
 62
     7
370
    25
100
AcDbPolyline
 90
        3
 70
   128
 43
0.0
 10
6296.1545871856
 20
5889.4640872623
 10
6296.1508321652
 20
5889.451607663
 10
6296.1487538523
 20
5889.4415872623
  0
ARC
  5
244
330
1F
100
AcDbEntity
  8
0
  6
Continuous
 62
     7
370
    25
100
AcDbCircle
 10
6376.0641804281
 20
5877.2914784568
 30
0.0
 40
80.8337834620159
100
AcDbArc
 50
171.3551203887
 51
173.9401208915
  0
LWPOLYLINE
  5
245
330
1F
100
AcDbEntity
  8
0
  6
Continuous
 62
     7
370
    25
100
AcDbPolyline
 90
        5
 70
   128
 43
0.0
 10
6295.6820871856
 20
5885.8249205956
 10
6295.6857609649
 20
5885.7909661563
 10
6295.6976846614
 20
5885.7591636878
 10
6295.719484273
 20
5885.7438862578
 10
6295.7462538523
 20
5885.7399205956
  0
LWPOLYLINE
  5
246
330
1F
100
AcDbEntity
  8
0
  6
Continuous
 62
     7
370
    25
100
AcDbPolyline
 90
        3
 70
   128
 43
0.0
 10
6295.7462538523
 20
5885.7399205956
 10
6295.9444070639
 20
5885.8286213396
 10
6296.0787538523
 20
5885.9332539289
  0
LWPOLYLINE
  5
247
330
1F
100
AcDbEntity
  8
0
  6
Continuous
 62
     7
370
    25
100
AcDbPolyline
 90
        3
 70
   128
 43
0.0
 10
6296.0787538523
 20
5885.9332539289
 10
6296.1168650987
 20
5886.1222674726
 10
6296.1370871856
 20
5886.2732539289
  0
ARC
  5
248
330
1F
100
AcDbEntity
  8
0
  6
Continuous
 62
     7
370
    25
100
AcDbCircle
 10
6296.9388488784
 20
5886.2933279745
 30
0.0
 40
0.8020129545672805
100
AcDbArc
 50
156.8792997561
 51
181.4342389466
  0
ARC
  5
249
330
1F
100
AcDbEntity
  8
0
  6
Continuous
 62
     7
370
    25
100
AcDbCircle
 10
6291.0450841287
 20
5881.6594513593
 30
0.0
 40
7.146798800293242
100
AcDbArc
 50
35.8731241083
 51
43.8243812073
  0
LWPOLYLINE
  5
24A
330
1F
100
AcDbEntity
  8
0
  6
Continuous
 62
     7
370
    25
100
AcDbPolyline
 90
        3
 70
   128
 43
0.0
 10
6296.8362538523
 20
5885.8474205956
 10
6297.0014528241
 20
5885.6308898016
 10
6297.1279205189
 20
5885.4582539289
  0
ARC
  5
24B
330
1F
100
AcDbEntity
  8
0
  6
Continuous
 62
     7
370
    25
100
AcDbCircle
 10
6298.6749249184
 20
5886.359554777
 30
0.0
 40
1.790409403087689
100
AcDbArc
 50
210.2255225222
 51
226.7757849187
  0
LWPOLYLINE
  5
24C
330
1F
100
AcDbEntity
  8
0
  6
Continuous
 62
     7
370
    25
100
AcDbPolyline
 90
        5
 70
   128
 43
0.0
 10
6297.4487538523
 20
5885.0549205956
 10
6297.4690804878
 20
5885.0628561497
 10
6297.4807896402
 20
5885.0807751006
 10
6297.4879831197
 20
5885.1020977111
 10
6297.4954205189
 20
5885.1524205956
  0
ARC
  5
24D
330
1F
100
AcDbEntity
  8
0
  6
Continuous
 62
     7
370
    25
100
AcDbCircle
 10
6294.5729954291
 20
5884.4124080803
 30
0.0
 40
3.014661992387988
100
AcDbArc
 50
14.2096783254
 51
44.5979997107
  0
ARC
  5
24E
330
1F
100
AcDbEntity
  8
0
  6
Continuous
 62
     7
370
    25
100
AcDbCircle
 10
6298.1031214485
 20
5887.8013764638
 30
0.0
 40
1.879597528437958
100
AcDbArc
 50
208.9201795381
 51
222.6014412202
  0
ARC
  5
24F
330
1F
100
AcDbEntity
  8
0
  6
Continuous
 62
     7
370
    25
100
AcDbCircle
 10
6296.701497813
 20
5886.7559853815
 30
0.0
 40
0.2791853610752779
100
AcDbArc
 50
121.1484465023
 51
150.7454563911
  0
LWPOLYLINE
  5
250
330
1F
100
AcDbEntity
  8
0
  6
Continuous
 62
     7
370
    25
100
AcDbPolyline
 90
        3
 70
   128
 43
0.0
 10
6296.5570871856
 20
5886.9949205956
 10
6296.6444766307
 20
5887.0681352866
 10
6296.7137538523
 20
5887.1249205956
  0
ARC
  5
251
330
1F
100
AcDbEntity
  8
0
  6
Continuous
 62
     7
370
    25
100
AcDbCircle
 10
6295.6955248514
 20
5888.8194836641
 30
0.0
 40
1.976950755925848
100
AcDbArc
 50
301.0008144961
 51
329.3479110221
  0
LWPOLYLINE
  5
252
330
1F
100
AcDbEntity
  8
0
  6
Continuous
 62
     7
370
    25
100
AcDbPolyline
 90
        4
 70
   128
 43
0.0
 10
6297.3962538523
 20
5887.8115872623
 10
6297.3765088226
 20
5887.889334716
 10
6297.3597753403
 20
5887.9169600401
 10
6297.3320871856
 20
5887.9315872623
  0
LWPOLYLINE
  5
253
330
1F
100
AcDbEntity
  8
0
  6
Continuous
 62
     7
370
    25
100
AcDbPolyline
 90
        4
 70
   128
 43
0.0
 10
6286.0629205189
 20
5886.3240872623
 10
6286.1086607099
 20
5886.3071571688
 10
6286.1237455888
 20
5886.2951257388
 10
6286.1329205189
 20
5886.2782539289
  0
LWPOLYLINE
  5
254
330
1F
100
AcDbEntity
  8
0
  6
Continuous
 62
     7
370
    25
100
AcDbPolyline
 90
        4
 70
   128
 43
0.0
 10
6286.1329205189
 20
5886.2782539289
 10
6286.2467458586
 20
5886.0003807497
 10
6286.4598600888
 20
5885.7917636114
 10
6286.9154205189
 20
5885.6865872623
  0
ARC
  5
255
330
1F
100
AcDbEntity
  8
0
  6
Continuous
 62
     7
370
    25
100
AcDbCircle
 10
6286.9328547548
 20
5886.8884194865
 30
0.0
 40
1.201958671417033
100
AcDbArc
 50
269.1689038986
 51
319.2137894188
  0
ARC
  5
256
330
1F
100
AcDbEntity
  8
0
  6
Continuous
 62
     7
370
    25
100
AcDbCircle
 10
6287.786384319
 20
5886.1147545233
 30
0.0
 40
0.0576940688271429
100
AcDbArc
 50
348.5017764759
 51
91.7850156562
  0
LWPOLYLINE
  5
257
330
1F
100
AcDbEntity
  8
0
  6
Continuous
 62
     7
370
    25
100
AcDbPolyline
 90
        3
 70
   128
 43
0.0
 10
6287.7845871856
 20
5886.1724205956
 10
6287.6927109071
 20
5886.1418409299
 10
6287.6237538523
 20
5886.1090872623
  0
LWPOLYLINE
  5
258
330
1F
100
AcDbEntity
  8
0
  6
Continuous
 62
     7
370
    25
100
AcDbPolyline
 90
        3
 70
   128
 43
0.0
 10
6287.6237538523
 20
5886.1090872623
 10
6287.3254170081
 20
5885.989740657
 10
6287.0762538523
 20
5885.9532539289
  0
ARC
  5
259
330
1F
100
AcDbEntity
  8
0
  6
Continuous
 62
     7
370
    25
100
AcDbCircle
 10
6287.060158682
 20
5886.3977029087
 30
0.0
 40
0.4447403176626539
100
AcDbArc
 50
179.8216538069
 51
272.073989489
  0
LWPOLYLINE
  5
25A
330
1F
100
AcDbEntity
  8
0
  6
Continuous
 62
     7
370
    25
100
AcDbPolyline
 90
        4
 70
   128
 43
0.0
 10
6286.6154205189
 20
5886.3990872623
 10
6286.6318379163
 20
5886.4648688201
 10
6286.6851792997
 20
5886.5065670892
 10
6286.7812538523
 20
5886.5540872623
  0
ARC
  5
25B
330
1F
100
AcDbEntity
  8
0
  6
Continuous
 62
     7
370
    25
100
AcDbCircle
 10
6286.5142409783
 20
5887.974381759
 30
0.0
 40
1.445175536891899
100
AcDbArc
 50
280.647230635
 51
342.885290137
  0
ARC
  5
25C
330
1F
100
AcDbEntity
  8
0
  6
Continuous
 62
     7
370
    25
100
AcDbCircle
 10
6287.5155652236
 20
5887.550999496
 30
0.0
 40
0.3798601085137839
100
AcDbArc
 50
359.7115691121
 51
98.6013515167
  0
ARC
  5
25D
330
1F
100
AcDbEntity
  8
0
  6
Continuous
 62
     7
370
    25
100
AcDbCircle
 10
6287.6503957064
 20
5886.4629520967
 30
0.0
 40
1.476128211916716
100
AcDbArc
 50
97.4596172226
 51
172.2012440008
  0
ARC
  5
25E
330
1F
100
AcDbEntity
  8
0
  6
Continuous
 62
     7
370
    25
100
AcDbCircle
 10
6286.0541672277
 20
5886.6936738869
 30
0.0
 40
0.1371689351460159
100
AcDbArc
 50
282.813016277
 51
347.1869837221
  0
LWPOLYLINE
  5
25F
330
1F
100
AcDbEntity
  8
0
  6
Continuous
 62
     7
370
    25
100
AcDbPolyline
 90
        4
 70
   128
 43
0.0
 10
6286.0845871856
 20
5886.5599205956
 10
6285.9957190697
 20
5886.4941056432
 10
6285.9793248372
 20
5886.4536225977
 10
6285.9754205189
 20
5886.4099205956
  0
LWPOLYLINE
  5
260
330
1F
100
AcDbEntity
  8
0
  6
Continuous
 62
     7
370
    25
100
AcDbPolyline
 90
        4
 70
   128
 43
0.0
 10
6285.9754205189
 20
5886.4099205956
 10
6285.9805542015
 20
5886.3711712779
 10
6286.0037121837
 20
5886.3404709971
 10
6286.0629205189
 20
5886.3240872623
  0
LWPOLYLINE
  5
261
330
1F
100
AcDbEntity
  8
0
  6
Continuous
 62
     7
370
    25
100
AcDbPolyline
 90
        3
 70
   128
 43
0.0
 10
6313.4754783974
 20
5902.0642368117
 10
6314.1711947802
 20
5901.8643690913
 10
6314.6944294789
 20
5901.5809068892
  0
LWPOLYLINE
  5
262
330
1F
100
AcDbEntity
  8
0
  6
Continuous
 62
     7
370
    25
100
AcDbPolyline
 90
        3
 70
   128
 43
0.0
 10
6314.6944294789
 20
5901.5809068892
 10
6315.185476181
 20
5901.1950079064
 10
6315.5520801196
 20
5900.8215321137
  0
LWPOLYLINE
  5
263
330
1F
100
AcDbEntity
  8
0
  6
Continuous
 62
     7
370
    25
100
AcDbPolyline
 90
        3
 70
   128
 43
0.0
 10
6315.5520801196
 20
5900.8215321137
 10
6315.4178634592
 20
5900.7645425671
 10
6315.3178324438
 20
5900.7155063795
  0
LWPOLYLINE
  5
264
330
1F
100
AcDbEntity
  8
0
  6
Continuous
 62
     7
370
    25
100
AcDbPolyline
 90
        3
 70
   128
 43
0.0
 10
6315.3178324438
 20
5900.7155063795
 10
6314.9714408432
 20
5901.0487791345
 10
6314.6941237288
 20
5901.2831816072
  0
LWPOLYLINE
  5
265
330
1F
100
AcDbEntity
  8
0
  6
Continuous
 62
     7
370
    25
100
AcDbPolyline
 90
        3
 70
   128
 43
0.0
 10
6314.6941237288
 20
5901.2831816072
 10
6314.1446603437
 20
5901.6433378308
 10
6313.65993192
 20
5901.8656287892
  0
LWPOLYLINE
  5
266
330
1F
100
AcDbEntity
  8
0
  6
Continuous
 62
     7
370
    25
100
AcDbPolyline
 90
        3
 70
   128
 43
0.0
 10
6313.65993192
 20
5901.8656287892
 10
6313.8311761209
 20
5900.6694377586
 10
6314.2041659087
 20
5899.7734796283
  0
LINE
  5
267
330
1F
100
AcDbEntity
  8
0
  6
Continuous
 62
     7
370
    25
100
AcDbLine
 10
6314.2041659087
 20
5899.7734796283
 30
0.0
 11
6314.1181607575
 21
5899.6530397799
 31
0.0
  0
LWPOLYLINE
  5
268
330
1F
100
AcDbEntity
  8
0
  6
Continuous
 62
     7
370
    25
100
AcDbPolyline
 90
        3
 70
   128
 43
0.0
 10
6314.1181607575
 20
5899.6530397799
 10
6313.5664623501
 20
5901.0416875149
 10
6313.4754783974
 20
5902.0642368117
  0
LWPOLYLINE
  5
269
330
1F
100
AcDbEntity
  8
0
  6
Continuous
 62
     7
370
    25
100
AcDbPolyline
 90
        3
 70
   128
 43
0.0
 10
6314.6911704038
 20
5898.1779084144
 10
6314.2047963606
 20
5898.3197117434
 10
6313.8128567024
 20
5898.3699242201
  0
LWPOLYLINE
  5
26A
330
1F
100
AcDbEntity
  8
0
  6
Continuous
 62
     7
370
    25
100
AcDbPolyline
 90
        3
 70
   128
 43
0.0
 10
6313.8128567024
 20
5898.3699242201
 10
6314.2552386831
 20
5898.4123371845
 10
6314.6913047234
 20
5898.3476139887
  0
LWPOLYLINE
  5
26B
330
1F
100
AcDbEntity
  8
0
  6
Continuous
 62
     7
370
    25
100
AcDbPolyline
 90
        3
 70
   128
 43
0.0
 10
6314.6913047234
 20
5898.3476139887
 10
6315.3621520801
 20
5898.141287852
 10
6315.9390056277
 20
5897.90011262
  0
LWPOLYLINE
  5
26C
330
1F
100
AcDbEntity
  8
0
  6
Continuous
 62
     7
370
    25
100
AcDbPolyline
 90
        3
 70
   128
 43
0.0
 10
6315.9390056277
 20
5897.90011262
 10
6316.0397276049
 20
5898.0471570507
 10
6316.1093790989
 20
5898.1479553836
  0
LWPOLYLINE
  5
26D
330
1F
100
AcDbEntity
  8
0
  6
Continuous
 62
     7
370
    25
100
AcDbPolyline
 90
        3
 70
   128
 43
0.0
 10
6316.1093790989
 20
5898.1479553836
 10
6316.4921149189
 20
5898.5141843167
 10
6316.7833027493
 20
5898.6296069091
  0
ARC
  5
26E
330
1F
100
AcDbEntity
  8
0
  6
Continuous
 62
     7
370
    25
100
AcDbCircle
 10
6316.8281030636
 20
5897.5833195954
 30
0.0
 40
1.04724601258448
100
AcDbArc
 50
31.6363683456
 51
92.4518140566
  0
LWPOLYLINE
  5
26F
330
1F
100
AcDbEntity
  8
0
  6
Continuous
 62
     7
370
    25
100
AcDbPolyline
 90
        3
 70
   128
 43
0.0
 10
6317.7197222069
 20
5898.1326278096
 10
6317.7829183275
 20
5898.049007013
 10
6317.8322235423
 20
5897.9834585986
  0
LWPOLYLINE
  5
270
330
1F
100
AcDbEntity
  8
0
  6
Continuous
 62
     7
370
    25
100
AcDbPolyline
 90
        3
 70
   128
 43
0.0
 10
6317.8322235423
 20
5897.9834585986
 10
6317.9105317508
 20
5898.0191561936
 10
6317.9677006159
 20
5898.0469347049
  0
LWPOLYLINE
  5
271
330
1F
100
AcDbEntity
  8
0
  6
Continuous
 62
     7
370
    25
100
AcDbPolyline
 90
        3
 70
   128
 43
0.0
 10
6317.9677006159
 20
5898.0469347049
 10
6318.0374256417
 20
5898.0772708629
 10
6318.0879858604
 20
5898.0965981832
  0
LWPOLYLINE
  5
272
330
1F
100
AcDbEntity
  8
0
  6
Continuous
 62
     7
370
    25
100
AcDbPolyline
 90
        3
 70
   128
 43
0.0
 10
6318.0879858604
 20
5898.0965981832
 10
6318.3182865783
 20
5898.1838650324
 10
6318.4989842294
 20
5898.2380949715
  0
LWPOLYLINE
  5
273
330
1F
100
AcDbEntity
  8
0
  6
Continuous
 62
     7
370
    25
100
AcDbPolyline
 90
        3
 70
   128
 43
0.0
 10
6318.4989842294
 20
5898.2380949715
 10
6319.1851552582
 20
5898.3276741159
 10
6319.7470057077
 20
5898.2656039798
  0
LWPOLYLINE
  5
274
330
1F
100
AcDbEntity
  8
0
  6
Continuous
 62
     7
370
    25
100
AcDbPolyline
 90
        3
 70
   128
 43
0.0
 10
6319.7470057077
 20
5898.2656039798
 10
6319.0168097495
 20
5898.1615937637
 10
6318.4987815018
 20
5897.9830198472
  0
LWPOLYLINE
  5
275
330
1F
100
AcDbEntity
  8
0
  6
Continuous
 62
     7
370
    25
100
AcDbPolyline
 90
        3
 70
   128
 43
0.0
 10
6318.4987815018
 20
5897.9830198472
 10
6318.2660319423
 20
5897.8704463547
 10
6318.087628183
 20
5897.7773755681
  0
LWPOLYLINE
  5
276
330
1F
100
AcDbEntity
  8
0
  6
Continuous
 62
     7
370
    25
100
AcDbPolyline
 90
        3
 70
   128
 43
0.0
 10
6318.087628183
 20
5897.7773755681
 10
6318.0224490611
 20
5897.7313013561
 10
6317.9672758657
 20
5897.6999447012
  0
LWPOLYLINE
  5
277
330
1F
100
AcDbEntity
  8
0
  6
Continuous
 62
     7
370
    25
100
AcDbPolyline
 90
        3
 70
   128
 43
0.0
 10
6317.9672758657
 20
5897.6999447012
 10
6317.8282034779
 20
5897.6045483897
 10
6317.7190928982
 20
5897.5298047629
  0
ARC
  5
278
330
1F
100
AcDbEntity
  8
0
  6
Continuous
 62
     7
370
    25
100
AcDbCircle
 10
6317.1105004995
 20
5898.2347356233
 30
0.0
 40
0.931295992550913
100
AcDbArc
 50
262.8985040417
 51
310.8052348466
  0
LWPOLYLINE
  5
279
330
1F
100
AcDbEntity
  8
0
  6
Continuous
 62
     7
370
    25
100
AcDbPolyline
 90
       12
 70
   128
 43
0.0
 10
6316.9953668105
 20
5897.3105838721
 10
6316.981490065
 20
5897.3135359411
 10
6316.9692276669
 20
5897.3218610995
 10
6316.9586805087
 20
5897.3347914236
 10
6316.9499494832
 20
5897.35155899
 10
6316.9383394004
 20
5897.393534155
 10
6316.9352045598
 20
5897.4416432059
 10
6316.9413521025
 20
5897.4897427541
 10
6316.9575891696
 20
5897.531689411
 10
6316.9847229023
 20
5897.5613397881
 10
6317.0026282498
 20
5897.5696340628
 10
6317.0235604416
 20
5897.5725504968
  0
LINE
  5
27A
330
1F
100
AcDbEntity
  8
0
  6
Continuous
 62
     7
370
    25
100
AcDbLine
 10
6317.0235604416
 20
5897.5725504968
 30
0.0
 11
6317.186858157
 21
5897.5724316555
 31
0.0
  0
ARC
  5
27B
330
1F
100
AcDbEntity
  8
0
  6
Continuous
 62
     7
370
    25
100
AcDbCircle
 10
6317.1892739661
 20
5897.6699018811
 30
0.0
 40
0.0975001590173254
100
AcDbArc
 50
268.5802091607
 51
352.8105468347
  0
ARC
  5
27C
330
1F
100
AcDbEntity
  8
0
  6
Continuous
 62
     7
370
    25
100
AcDbCircle
 10
6317.1882282764
 20
5897.6443549551
 30
0.0
 40
0.0986857078580297
100
AcDbArc
 50
7.7715997926
 51
90.7162535464
  0
LINE
  5
27D
330
1F
100
AcDbEntity
  8
0
  6
Continuous
 62
     7
370
    25
100
AcDbLine
 10
6317.1869946402
 20
5897.743032952
 30
0.0
 11
6316.7825399457
 21
5897.7433209013
 31
0.0
  0
LINE
  5
27E
330
1F
100
AcDbEntity
  8
0
  6
Continuous
 62
     7
370
    25
100
AcDbLine
 10
6316.7825399457
 20
5897.7433209013
 30
0.0
 11
6316.5347682362
 21
5897.7434370852
 31
0.0
  0
ARC
  5
27F
330
1F
100
AcDbEntity
  8
0
  6
Continuous
 62
     7
370
    25
100
AcDbCircle
 10
6316.5399074743
 20
5897.6364357017
 30
0.0
 40
0.1071247302903975
100
AcDbArc
 50
92.749782635
 51
168.1433240335
  0
ARC
  5
280
330
1F
100
AcDbEntity
  8
0
  6
Continuous
 62
     7
370
    25
100
AcDbCircle
 10
6316.5269660469
 20
5897.6646212348
 30
0.0
 40
0.0921050008243451
100
AcDbArc
 50
183.8443123904
 51
274.7741301047
  0
LINE
  5
281
330
1F
100
AcDbEntity
  8
0
  6
Continuous
 62
     7
370
    25
100
AcDbLine
 10
6316.534631753
 20
5897.5728357887
 30
0.0
 11
6316.6907636906
 21
5897.5727342566
 31
0.0
  0
LWPOLYLINE
  5
282
330
1F
100
AcDbEntity
  8
0
  6
Continuous
 62
     7
370
    25
100
AcDbPolyline
 90
       11
 70
   128
 43
0.0
 10
6316.6907636906
 20
5897.5727342566
 10
6316.7081538096
 20
5897.5698678525
 10
6316.7232208035
 20
5897.5617783386
 10
6316.7463877832
 20
5897.5329155092
 10
6316.7602693635
 20
5897.4921168246
 10
6316.7648702785
 20
5897.4453533411
 10
6316.7601952619
 20
5897.3985961149
 10
6316.7462490477
 20
5897.3578162022
 10
6316.7230363696
 20
5897.3289846594
 10
6316.707956586
 20
5897.3209154817
 10
6316.6905619616
 20
5897.3180725426
  0
LWPOLYLINE
  5
283
330
1F
100
AcDbEntity
  8
0
  6
Continuous
 62
     7
370
    25
100
AcDbPolyline
 90
        3
 70
   128
 43
0.0
 10
6316.6905619616
 20
5897.3180725426
 10
6316.3802041006
 20
5897.3720439651
 10
6316.108854636
 20
5897.474438518
  0
LWPOLYLINE
  5
284
330
1F
100
AcDbEntity
  8
0
  6
Continuous
 62
     7
370
    25
100
AcDbPolyline
 90
        3
 70
   128
 43
0.0
 10
6316.108854636
 20
5897.474438518
 10
6315.6319516552
 20
5897.7145789572
 10
6315.2581500654
 20
5897.9146419381
  0
LWPOLYLINE
  5
285
330
1F
100
AcDbEntity
  8
0
  6
Continuous
 62
     7
370
    25
100
AcDbPolyline
 90
        3
 70
   128
 43
0.0
 10
6315.2581500654
 20
5897.9146419381
 10
6314.9411617559
 20
5898.0750495311
 10
6314.6911704038
 20
5898.1779084144
  0
LWPOLYLINE
  5
286
330
1F
100
AcDbEntity
  8
0
  6
Continuous
 62
     7
370
    25
100
AcDbPolyline
 90
        5
 70
   128
 43
0.0
 10
6318.4554205189
 20
5886.5490872623
 10
6318.5913770646
 20
5887.3071454137
 10
6318.8003233267
 20
5887.6295157817
 10
6318.9621891004
 20
5887.733883892
 10
6319.1520871856
 20
5887.7665872623
  0
LWPOLYLINE
  5
287
330
1F
100
AcDbEntity
  8
0
  6
Continuous
 62
     7
370
    25
100
AcDbPolyline
 90
        5
 70
   128
 43
0.0
 10
6319.1520871856
 20
5887.7665872623
 10
6319.26595463
 20
5887.750329856
 10
6319.3667927742
 20
5887.69554729
 10
6319.5008289696
 20
5887.5108361871
 10
6319.5754205189
 20
5887.0582539289
  0
LWPOLYLINE
  5
288
330
1F
100
AcDbEntity
  8
0
  6
Continuous
 62
     7
370
    25
100
AcDbPolyline
 90
        5
 70
   128
 43
0.0
 10
6319.5754205189
 20
5887.0582539289
 10
6319.4385170373
 20
5886.3024883779
 10
6319.2310399373
 20
5885.9805292531
 10
6319.0683777401
 20
5885.8783068292
 10
6318.8787538523
 20
5885.8465872623
  0
LWPOLYLINE
  5
289
330
1F
100
AcDbEntity
  8
0
  6
Continuous
 62
     7
370
    25
100
AcDbPolyline
 90
        5
 70
   128
 43
0.0
 10
6318.8787538523
 20
5885.8465872623
 10
6318.7650482055
 20
5885.8619371459
 10
6318.6632421243
 20
5885.9141364632
 10
6318.5289718346
 20
5886.0977107637
 10
6318.4554205189
 20
5886.5490872623
  0
LINE
  5
28A
330
1F
100
AcDbEntity
  8
0
  6
Continuous
 62
     7
370
    25
100
AcDbLine
 10
6313.7366808827
 20
5898.5534567414
 30
0.0
 11
6313.7324028187
 21
5898.550917697
 31
0.0
  0
LWPOLYLINE
  5
28B
330
1F
100
AcDbEntity
  8
0
  6
Continuous
 62
     7
370
    25
100
AcDbPolyline
 90
        3
 70
   128
 43
0.0
 10
6313.7324028187
 20
5898.550917697
 10
6314.2777286001
 20
5899.0179092353
 10
6314.6921702204
 20
5899.3334632985
  0
LWPOLYLINE
  5
28C
330
1F
100
AcDbEntity
  8
0
  6
Continuous
 62
     7
370
    25
100
AcDbPolyline
 90
        3
 70
   128
 43
0.0
 10
6314.6921702204
 20
5899.3334632985
 10
6315.2502349431
 20
5899.6993073672
 10
6315.7074842048
 20
5899.9496139326
  0
LWPOLYLINE
  5
28D
330
1F
100
AcDbEntity
  8
0
  6
Continuous
 62
     7
370
    25
100
AcDbPolyline
 90
        3
 70
   128
 43
0.0
 10
6315.7074842048
 20
5899.9496139326
 10
6315.9070653189
 20
5899.773276014
 10
6316.1106505504
 20
5899.644161647
  0
LWPOLYLINE
  5
28E
330
1F
100
AcDbEntity
  8
0
  6
Continuous
 62
     7
370
    25
100
AcDbPolyline
 90
        3
 70
   128
 43
0.0
 10
6316.1106505504
 20
5899.644161647
 10
6316.4591097244
 20
5899.4963490387
 10
6316.7841530895
 20
5899.4380333203
  0
LINE
  5
28F
330
1F
100
AcDbEntity
  8
0
  6
Continuous
 62
     7
370
    25
100
AcDbLine
 10
6316.7841530895
 20
5899.4380333203
 30
0.0
 11
6316.8694364287
 21
5899.430799301
 31
0.0
  0
LWPOLYLINE
  5
290
330
1F
100
AcDbEntity
  8
0
  6
Continuous
 62
     7
370
    25
100
AcDbPolyline
 90
        3
 70
   128
 43
0.0
 10
6316.8694364287
 20
5899.430799301
 10
6317.4379801139
 20
5899.5016892863
 10
6317.7208718326
 20
5899.6354489699
  0
LWPOLYLINE
  5
291
330
1F
100
AcDbEntity
  8
0
  6
Continuous
 62
     7
370
    25
100
AcDbPolyline
 90
        3
 70
   128
 43
0.0
 10
6317.7208718326
 20
5899.6354489699
 10
6317.8595262965
 20
5899.7450683568
 10
6317.969140347
 20
5899.8410043865
  0
LINE
  5
292
330
1F
100
AcDbEntity
  8
0
  6
Continuous
 62
     7
370
    25
100
AcDbLine
 10
6317.969140347
 20
5899.8410043865
 30
0.0
 11
6318.0042109857
 21
5899.8693073421
 31
0.0
  0
LWPOLYLINE
  5
293
330
1F
100
AcDbEntity
  8
0
  6
Continuous
 62
     7
370
    25
100
AcDbPolyline
 90
        3
 70
   128
 43
0.0
 10
6318.0042109857
 20
5899.8693073421
 10
6318.0570834362
 20
5899.8520337925
 10
6318.0897016938
 20
5899.8338229565
  0
LWPOLYLINE
  5
294
330
1F
100
AcDbEntity
  8
0
  6
Continuous
 62
     7
370
    25
100
AcDbPolyline
 90
        3
 70
   128
 43
0.0
 10
6318.0897016938
 20
5899.8338229565
 10
6318.3273424826
 20
5899.7197924427
 10
6318.5004284279
 20
5899.6346683654
  0
LWPOLYLINE
  5
295
330
1F
100
AcDbEntity
  8
0
  6
Continuous
 62
     7
370
    25
100
AcDbPolyline
 90
        3
 70
   128
 43
0.0
 10
6318.5004284279
 20
5899.6346683654
 10
6319.3888337665
 20
5899.0747845217
 10
6319.927501903
 20
5898.482485244
  0
ARC
  5
296
330
1F
100
AcDbEntity
  8
0
  6
Continuous
 62
     7
370
    25
100
AcDbCircle
 10
6319.6540584863
 20
5898.337931558
 30
0.0
 40
0.3093009380400648
100
AcDbArc
 50
335.7551758965
 51
27.8628129003
  0
LWPOLYLINE
  5
297
330
1F
100
AcDbEntity
  8
0
  6
Continuous
 62
     7
370
    25
100
AcDbPolyline
 90
        3
 70
   128
 43
0.0
 10
6319.9360788164
 20
5898.2109213078
 10
6319.271478138
 20
5898.6766942448
 10
6318.499835398
 20
5898.9898149436
  0
LWPOLYLINE
  5
298
330
1F
100
AcDbEntity
  8
0
  6
Continuous
 62
     7
370
    25
100
AcDbPolyline
 90
        3
 70
   128
 43
0.0
 10
6318.499835398
 20
5898.9898149436
 10
6318.2746649642
 20
5899.0558961195
 10
6318.0890404224
 20
5899.1036688864
  0
LWPOLYLINE
  5
299
330
1F
100
AcDbEntity
  8
0
  6
Continuous
 62
     7
370
    25
100
AcDbPolyline
 90
        3
 70
   128
 43
0.0
 10
6318.0890404224
 20
5899.1036688864
 10
6318.023770107
 20
5899.1156845466
 10
6317.9685133609
 20
5899.1250440683
  0
LWPOLYLINE
  5
29A
330
1F
100
AcDbEntity
  8
0
  6
Continuous
 62
     7
370
    25
100
AcDbPolyline
 90
        3
 70
   128
 43
0.0
 10
6317.9685133609
 20
5899.1250440683
 10
6317.8320265595
 20
5899.1517425603
 10
6317.7204309307
 20
5899.1676736051
  0
LWPOLYLINE
  5
29B
330
1F
100
AcDbEntity
  8
0
  6
Continuous
 62
     7
370
    25
100
AcDbPolyline
 90
        3
 70
   128
 43
0.0
 10
6317.7204309307
 20
5899.1676736051
 10
6317.2529947575
 20
5899.2195699427
 10
6316.8620669285
 20
5899.2323790233
  0
LINE
  5
29C
330
1F
100
AcDbEntity
  8
0
  6
Continuous
 62
     7
370
    25
100
AcDbLine
 10
6316.8620669285
 20
5899.2323790233
 30
0.0
 11
6316.783932058
 21
5899.2324299558
 31
0.0
  0
LWPOLYLINE
  5
29D
330
1F
100
AcDbEntity
  8
0
  6
Continuous
 62
     7
370
    25
100
AcDbPolyline
 90
        3
 70
   128
 43
0.0
 10
6316.783932058
 20
5899.2324299558
 10
6316.391367741
 20
5899.2246464705
 10
6316.1102773871
 20
5899.2044292777
  0
LWPOLYLINE
  5
29E
330
1F
100
AcDbEntity
  8
0
  6
Continuous
 62
     7
370
    25
100
AcDbPolyline
 90
        3
 70
   128
 43
0.0
 10
6316.1102773871
 20
5899.2044292777
 10
6315.2793733994
 20
5899.0618413714
 10
6314.6918667891
 20
5898.8655497974
  0
LWPOLYLINE
  5
29F
330
1F
100
AcDbEntity
  8
0
  6
Continuous
 62
     7
370
    25
100
AcDbPolyline
 90
        3
 70
   128
 43
0.0
 10
6314.6918667891
 20
5898.8655497974
 10
6314.1288875774
 20
5898.6112787822
 10
6313.6297003159
 20
5898.3638898405
  0
LWPOLYLINE
  5
2A0
330
1F
100
AcDbEntity
  8
0
  6
Continuous
 62
     7
370
    25
100
AcDbPolyline
 90
        3
 70
   128
 43
0.0
 10
6313.6297003159
 20
5898.3638898405
 10
6313.6660170535
 20
5898.4563566087
 10
6313.7366808827
 20
5898.5534567414
  0
LWPOLYLINE
  5
2A1
330
1F
100
AcDbEntity
  8
0
  6
Continuous
 62
     7
370
    25
100
AcDbPolyline
 90
        3
 70
   128
 43
0.0
 10
6316.8468818106
 20
5889.9222935987
 10
6316.7954451827
 20
5891.5352467825
 10
6316.7854677763
 20
5892.7940752149
  0
LINE
  5
2A2
330
1F
100
AcDbEntity
  8
0
  6
Continuous
 62
     7
370
    25
100
AcDbLine
 10
6316.7854677763
 20
5892.7940752149
 30
0.0
 11
6316.7781816669
 21
5892.7442765886
 31
0.0
  0
LWPOLYLINE
  5
2A3
330
1F
100
AcDbEntity
  8
0
  6
Continuous
 62
     7
370
    25
100
AcDbPolyline
 90
        3
 70
   128
 43
0.0
 10
6316.7781816669
 20
5892.7442765886
 10
6316.687881148
 20
5891.2469458893
 10
6316.7263212959
 20
5889.9298195372
  0
LWPOLYLINE
  5
2A4
330
1F
100
AcDbEntity
  8
0
  6
Continuous
 62
     7
370
    25
100
AcDbPolyline
 90
        3
 70
   128
 43
0.0
 10
6316.7263212959
 20
5889.9298195372
 10
6316.4600206557
 20
5889.9486662324
 10
6316.2296742881
 20
5889.9866232037
  0
LWPOLYLINE
  5
2A5
330
1F
100
AcDbEntity
  8
0
  6
Continuous
 62
     7
370
    25
100
AcDbPolyline
 90
        3
 70
   128
 43
0.0
 10
6316.2296742881
 20
5889.9866232037
 10
6316.255640168
 20
5893.5842224803
 10
6316.1070381027
 20
5895.5814263156
  0
ARC
  5
2A6
330
1F
100
AcDbEntity
  8
0
  6
Continuous
 62
     7
370
    25
100
AcDbCircle
 10
6312.9142764991
 20
5895.7039378469
 30
0.0
 40
3.195111223786653
100
AcDbArc
 50
357.8025444695
 51
38.7156519593
  0
ARC
  5
2A7
330
1F
100
AcDbEntity
  8
0
  6
Continuous
 62
     7
370
    25
100
AcDbCircle
 10
6314.8150195698
 20
5895.787038238
 30
0.0
 40
2.004785168143883
100
AcDbArc
 50
49.8101007467
 51
72.816694878
  0
LWPOLYLINE
  5
2A8
330
1F
100
AcDbEntity
  8
0
  6
Continuous
 62
     7
370
    25
100
AcDbPolyline
 90
        3
 70
   128
 43
0.0
 10
6316.1087536032
 20
5897.3185132855
 10
6316.4917599565
 20
5897.0975206563
 10
6316.7818606994
 20
5897.0057254466
  0
LINE
  5
2A9
330
1F
100
AcDbEntity
  8
0
  6
Continuous
 62
     7
370
    25
100
AcDbLine
 10
6316.7818606994
 20
5897.0057254466
 30
0.0
 11
6316.8318671959
 21
5896.9989211499
 31
0.0
  0
ARC
  5
2AA
330
1F
100
AcDbEntity
  8
0
  6
Continuous
 62
     7
370
    25
100
AcDbCircle
 10
6316.6237322282
 20
5898.6557742027
 30
0.0
 40
1.669874906524605
100
AcDbArc
 50
277.1600275581
 51
310.9897665289
  0
LWPOLYLINE
  5
2AB
330
1F
100
AcDbEntity
  8
0
  6
Continuous
 62
     7
370
    25
100
AcDbPolyline
 90
        3
 70
   128
 43
0.0
 10
6317.7190436263
 20
5897.3953079618
 10
6317.8605932038
 20
5897.4889494856
 10
6317.9672084525
 20
5897.5579376138
  0
LWPOLYLINE
  5
2AC
330
1F
100
AcDbEntity
  8
0
  6
Continuous
 62
     7
370
    25
100
AcDbPolyline
 90
        3
 70
   128
 43
0.0
 10
6317.9672084525
 20
5897.5579376138
 10
6318.0369620802
 20
5897.6001146617
 10
6318.0875456243
 20
5897.6290984252
  0
LWPOLYLINE
  5
2AD
330
1F
100
AcDbEntity
  8
0
  6
Continuous
 62
     7
370
    25
100
AcDbPolyline
 90
        3
 70
   128
 43
0.0
 10
6318.0875456243
 20
5897.6290984252
 10
6318.1456090134
 20
5897.6554385339
 10
6318.1865906683
 20
5897.6711650755
  0
LWPOLYLINE
  5
2AE
330
1F
100
AcDbEntity
  8
0
  6
Continuous
 62
     7
370
    25
100
AcDbPolyline
 90
        3
 70
   128
 43
0.0
 10
6318.1865906683
 20
5897.6711650755
 10
6318.1334781204
 20
5897.6180239026
 10
6318.0875442891
 20
5897.5714962639
  0
LWPOLYLINE
  5
2AF
330
1F
100
AcDbEntity
  8
0
  6
Continuous
 62
     7
370
    25
100
AcDbPolyline
 90
        3
 70
   128
 43
0.0
 10
6318.0875442891
 20
5897.5714962639
 10
6318.0198404783
 20
5897.4872706773
 10
6317.9670037352
 20
5897.4161375644
  0
LWPOLYLINE
  5
2B0
330
1F
100
AcDbEntity
  8
0
  6
Continuous
 62
     7
370
    25
100
AcDbPolyline
 90
        3
 70
   128
 43
0.0
 10
6317.9670037352
 20
5897.4161375644
 10
6317.8196467441
 20
5897.1740016297
 10
6317.7186701301
 20
5896.955437789
  0
ARC
  5
2B1
330
1F
100
AcDbEntity
  8
0
  6
Continuous
 62
     7
370
    25
100
AcDbCircle
 10
6334.2369540515
 20
5892.602615996
 30
0.0
 40
17.08217671345927
100
AcDbArc
 50
165.2372832645
 51
188.8346518228
  0
LWPOLYLINE
  5
2B2
330
1F
100
AcDbEntity
  8
0
  6
Continuous
 62
     7
370
    25
100
AcDbPolyline
 90
        3
 70
   128
 43
0.0
 10
6317.3574458059
 20
5889.979075896
 10
6317.1059067138
 20
5889.9369023441
 10
6316.8468818106
 20
5889.9222935987
  0
LWPOLYLINE
  5
2B3
330
1F
100
AcDbEntity
  8
0
  6
Continuous
 62
     7
370
    25
100
AcDbPolyline
 90
        4
 70
   128
 43
0.0
 10
6287.3845871856
 20
5887.7665872623
 10
6287.4757259652
 20
5887.750041856
 10
6287.5442043906
 20
5887.6888637398
 10
6287.5754205189
 20
5887.5474205956
  0
ARC
  5
2B4
330
1F
100
AcDbEntity
  8
0
  6
Continuous
 62
     7
370
    25
100
AcDbCircle
 10
6286.460950868
 20
5887.8944723332
 30
0.0
 40
1.167256403509441
100
AcDbArc
 50
282.5081681825
 51
342.7031354902
  0
ARC
  5
2B5
330
1F
100
AcDbEntity
  8
0
  6
Continuous
 62
     7
370
    25
100
AcDbCircle
 10
6286.7102311938
 20
5886.7949915972
 30
0.0
 40
0.0402255428421776
100
AcDbArc
 50
171.7640137137
 51
275.023980305
  0
ARC
  5
2B6
330
1F
100
AcDbEntity
  8
0
  6
Continuous
 62
     7
370
    25
100
AcDbCircle
 10
6287.7096956314
 20
5886.7792371575
 30
0.0
 40
1.039497826303029
100
AcDbArc
 50
108.2253558606
 51
178.8139386042
  0
LWPOLYLINE
  5
2B7
330
1F
100
AcDbEntity
  8
0
  6
Continuous
 62
     7
370
    25
100
AcDbPolyline
 90
        3
 70
   128
 43
0.0
 10
6316.1021367279
 20
5890.0152500414
 10
6315.1857680887
 20
5890.4699486482
 10
6314.6846399076
 20
5890.9104051571
  0
ARC
  5
2B8
330
1F
100
AcDbEntity
  8
0
  6
Continuous
 62
     7
370
    25
100
AcDbCircle
 10
6317.665832863
 20
5892.8929268817
 30
0.0
 40
3.580210025304367
100
AcDbArc
 50
146.2699313082
 51
213.624284727
  0
LWPOLYLINE
  5
2B9
330
1F
100
AcDbEntity
  8
0
  6
Continuous
 62
     7
370
    25
100
AcDbPolyline
 90
        3
 70
   128
 43
0.0
 10
6314.6883052738
 20
5894.8809493366
 10
6315.1084531376
 20
5895.7238269002
 10
6315.3066998545
 20
5896.1067399856
  0
LWPOLYLINE
  5
2BA
330
1F
100
AcDbEntity
  8
0
  6
Continuous
 62
     7
370
    25
100
AcDbPolyline
 90
        3
 70
   128
 43
0.0
 10
6315.3066998545
 20
5896.1067399856
 10
6315.5632647727
 20
5896.7748823872
 10
6315.6051000761
 20
5897.1560184579
  0
LWPOLYLINE
  5
2BB
330
1F
100
AcDbEntity
  8
0
  6
Continuous
 62
     7
370
    25
100
AcDbPolyline
 90
        3
 70
   128
 43
0.0
 10
6315.6051000761
 20
5897.1560184579
 10
6315.9838290045
 20
5895.614452133
 10
6316.1059878529
 20
5894.3479432661
  0
LWPOLYLINE
  5
2BC
330
1F
100
AcDbEntity
  8
0
  6
Continuous
 62
     7
370
    25
100
AcDbPolyline
 90
        3
 70
   128
 43
0.0
 10
6316.1059878529
 20
5894.3479432661
 10
6316.1276040094
 20
5891.9781155468
 10
6316.1091470602
 20
5890.007929484
  0
LINE
  5
2BD
330
1F
100
AcDbEntity
  8
0
  6
Continuous
 62
     7
370
    25
100
AcDbLine
 10
6316.1091470602
 20
5890.007929484
 30
0.0
 11
6316.1021367279
 21
5890.0152500414
 31
0.0
  0
LINE
  5
2BE
330
1F
100
AcDbEntity
  8
0
  6
Continuous
 62
     7
370
    25
100
AcDbLine
 10
6292.0785739919
 20
5896.1134451632
 30
0.0
 11
6292.0705337674
 21
5895.6944019471
 31
0.0
  0
LINE
  5
2BF
330
1F
100
AcDbEntity
  8
0
  6
Continuous
 62
     7
370
    25
100
AcDbLine
 10
6292.0705337674
 20
5895.6944019471
 30
0.0
 11
6291.1420108457
 21
5895.6951978728
 31
0.0
  0
LINE
  5
2C0
330
1F
100
AcDbEntity
  8
0
  6
Continuous
 62
     7
370
    25
100
AcDbLine
 10
6291.1420108457
 20
5895.6951978728
 30
0.0
 11
6290.1994321419
 21
5895.6960966528
 31
0.0
  0
LINE
  5
2C1
330
1F
100
AcDbEntity
  8
0
  6
Continuous
 62
     7
370
    25
100
AcDbLine
 10
6290.1994321419
 20
5895.6960966528
 30
0.0
 11
6290.1989635038
 21
5896.1011043917
 31
0.0
  0
LWPOLYLINE
  5
2C2
330
1F
100
AcDbEntity
  8
0
  6
Continuous
 62
     7
370
    25
100
AcDbPolyline
 90
        6
 70
   128
 43
0.0
 10
6290.1989635038
 20
5896.1011043917
 10
6290.3715653267
 20
5897.4461734351
 10
6290.4895815655
 20
5897.697760568
 10
6290.6446289076
 20
5897.8915128997
 10
6290.840249748
 20
5898.0154490549
 10
6291.0799864818
 20
5898.0575876586
  0
LINE
  5
2C3
330
1F
100
AcDbEntity
  8
0
  6
Continuous
 62
     7
370
    25
100
AcDbLine
 10
6291.0799864818
 20
5898.0575876586
 30
0.0
 11
6291.1448749152
 21
5898.0504029037
 31
0.0
  0
LINE
  5
2C4
330
1F
100
AcDbEntity
  8
0
  6
Continuous
 62
     7
370
    25
100
AcDbLine
 10
6291.1448749152
 20
5898.0504029037
 30
0.0
 11
6291.4411870454
 21
5898.0355622217
 31
0.0
  0
LWPOLYLINE
  5
2C5
330
1F
100
AcDbEntity
  8
0
  6
Continuous
 62
     7
370
    25
100
AcDbPolyline
 90
        7
 70
   128
 43
0.0
 10
6291.4411870454
 20
5898.0355622217
 10
6291.5772546013
 20
5898.029620617
 10
6291.6923471485
 20
5897.9826508615
 10
6291.7882325365
 20
5897.8985485923
 10
6291.899914365
 20
5897.7112934313
 10
6291.9783242373
 20
5897.4624030728
 10
6292.0785739919
 20
5896.1134451632
  0
LWPOLYLINE
  5
2C6
330
1F
100
AcDbEntity
  8
0
  6
Continuous
 62
     7
370
    25
100
AcDbPolyline
 90
        4
 70
   128
 43
0.0
 10
6298.8512538523
 20
5887.7665872623
 10
6298.9423926319
 20
5887.750041856
 10
6299.0108710573
 20
5887.6888637398
 10
6299.0420871856
 20
5887.5474205956
  0
ARC
  5
2C7
330
1F
100
AcDbEntity
  8
0
  6
Continuous
 62
     7
370
    25
100
AcDbCircle
 10
6297.9276175346
 20
5887.8944723332
 30
0.0
 40
1.167256403504347
100
AcDbArc
 50
282.5081681824
 51
342.7031354903
  0
ARC
  5
2C8
330
1F
100
AcDbEntity
  8
0
  6
Continuous
 62
     7
370
    25
100
AcDbCircle
 10
6298.1768978604
 20
5886.7949915972
 30
0.0
 40
0.0402255428407734
100
AcDbArc
 50
171.7640137133
 51
275.0239803102
  0
ARC
  5
2C9
330
1F
100
AcDbEntity
  8
0
  6
Continuous
 62
     7
370
    25
100
AcDbCircle
 10
6299.1763622981
 20
5886.7792371575
 30
0.0
 40
1.039497826303409
100
AcDbArc
 50
108.2253558606
 51
178.8139386042
  0
LWPOLYLINE
  5
2CA
330
1F
100
AcDbEntity
  8
0
  6
Continuous
 62
     7
370
    25
100
AcDbPolyline
 90
        3
 70
   128
 43
0.0
 10
6319.1071693565
 20
5896.663521795
 10
6319.4299279918
 20
5896.2568187639
 10
6319.5817757649
 20
5895.9825182449
  0
LWPOLYLINE
  5
2CB
330
1F
100
AcDbEntity
  8
0
  6
Continuous
 62
     7
370
    25
100
AcDbPolyline
 90
        3
 70
   128
 43
0.0
 10
6319.5817757649
 20
5895.9825182449
 10
6318.9631021982
 20
5895.8058633374
 10
6318.4969336601
 20
5895.7917993851
  0
LWPOLYLINE
  5
2CC
330
1F
100
AcDbEntity
  8
0
  6
Continuous
 62
     7
370
    25
100
AcDbPolyline
 90
        3
 70
   128
 43
0.0
 10
6318.4969336601
 20
5895.7917993851
 10
6318.2613383382
 20
5895.8149535206
 10
6318.0861225366
 20
5895.8419189145
  0
LWPOLYLINE
  5
2CD
330
1F
100
AcDbEntity
  8
0
  6
Continuous
 62
     7
370
    25
100
AcDbPolyline
 90
        3
 70
   128
 43
0.0
 10
6318.0861225366
 20
5895.8419189145
 10
6318.0327302223
 20
5895.8496665137
 10
6317.9868003916
 20
5895.8562837623
  0
LWPOLYLINE
  5
2CE
330
1F
100
AcDbEntity
  8
0
  6
Continuous
 62
     7
370
    25
100
AcDbPolyline
 90
        3
 70
   128
 43
0.0
 10
6317.9868003916
 20
5895.8562837623
 10
6318.0370577528
 20
5896.1206345241
 10
6318.086598556
 20
5896.3242325398
  0
LWPOLYLINE
  5
2CF
330
1F
100
AcDbEntity
  8
0
  6
Continuous
 62
     7
370
    25
100
AcDbPolyline
 90
        3
 70
   128
 43
0.0
 10
6318.086598556
 20
5896.3242325398
 10
6318.1353413119
 20
5896.4723073965
 10
6318.1786136436
 20
5896.5936931365
  0
LWPOLYLINE
  5
2D0
330
1F
100
AcDbEntity
  8
0
  6
Continuous
 62
     7
370
    25
100
AcDbPolyline
 90
        3
 70
   128
 43
0.0
 10
6318.1786136436
 20
5896.5936931365
 10
6318.3595313952
 20
5896.5881397301
 10
6318.4976295535
 20
5896.5933359584
  0
LWPOLYLINE
  5
2D1
330
1F
100
AcDbEntity
  8
0
  6
Continuous
 62
     7
370
    25
100
AcDbPolyline
 90
        3
 70
   128
 43
0.0
 10
6318.4976295535
 20
5896.5933359584
 10
6318.825574376
 20
5896.6224370056
 10
6319.1071693565
 20
5896.663521795
  0
LINE
  5
2D2
330
1F
100
AcDbEntity
  8
0
  6
Continuous
 62
     7
370
    25
100
AcDbLine
 10
6222.0187553361
 20
5905.1994545927
 30
0.0
 11
6222.0187553361
 21
5907.1994545927
 31
0.0
  0
LINE
  5
2D3
330
1F
100
AcDbEntity
  8
0
  6
Continuous
 62
     7
370
    25
100
AcDbLine
 10
6222.0187553361
 20
5907.1994545927
 30
0.0
 11
6326.0187553361
 21
5907.1994545927
 31
0.0
  0
LINE
  5
2D4
330
1F
100
AcDbEntity
  8
0
  6
Continuous
 62
     7
370
    25
100
AcDbLine
 10
6326.0187553361
 20
5905.1994545927
 30
0.0
 11
6326.0187553361
 21
5907.1994545927
 31
0.0
  0
LINE
  5
2D5
330
1F
100
AcDbEntity
  8
0
  6
Continuous
 62
     7
370
    25
100
AcDbLine
 10
6328.0187553361
 20
5905.1994545927
 30
0.0
 11
6328.0187553361
 21
5666.1994545927
 31
0.0
  0
LINE
  5
2D6
330
1F
100
AcDbEntity
  8
0
  6
Continuous
 62
     7
370
    25
100
AcDbLine
 10
6328.0187553361
 20
5666.1994545927
 30
0.0
 11
6326.0187553361
 21
5666.1994545927
 31
0.0
  0
LINE
  5
2D7
330
1F
100
AcDbEntity
  8
0
  6
Continuous
 62
     7
370
    25
100
AcDbLine
 10
6328.0187553361
 20
5905.1994545927
 30
0.0
 11
6326.0187553361
 21
5905.1994545927
 31
0.0
  0
LWPOLYLINE
  5
2D8
330
1F
100
AcDbEntity
  8
0
  6
Continuous
 62
     7
370
    25
100
AcDbPolyline
 90
        3
 70
   128
 43
0.0
 10
6318.0842539095
 20
5893.9273404772
 10
6318.0167620289
 20
5893.9408704004
 10
6317.9640199303
 20
5893.9559496729
  0
LWPOLYLINE
  5
2D9
330
1F
100
AcDbEntity
  8
0
  6
Continuous
 62
     7
370
    25
100
AcDbPolyline
 90
        3
 70
   128
 43
0.0
 10
6317.7366596073
 20
5894.0198888093
 10
6317.7727226993
 20
5894.5392649281
 10
6317.8437896728
 20
5894.898889869
  0
LWPOLYLINE
  5
2DA
330
1F
100
AcDbEntity
  8
0
  6
Continuous
 62
     7
370
    25
100
AcDbPolyline
 90
        3
 70
   128
 43
0.0
 10
6317.8437896728
 20
5894.898889869
 10
6317.9113491904
 20
5894.8819244048
 10
6317.9648346612
 20
5894.8637330138
  0
LWPOLYLINE
  5
2DB
330
1F
100
AcDbEntity
  8
0
  6
Continuous
 62
     7
370
    25
100
AcDbPolyline
 90
        3
 70
   128
 43
0.0
 10
6317.9648346612
 20
5894.8637330138
 10
6318.0316637548
 20
5894.847397419
 10
6318.0850684739
 20
5894.8350549164
  0
LWPOLYLINE
  5
2DC
330
1F
100
AcDbEntity
  8
0
  6
Continuous
 62
     7
370
    25
100
AcDbPolyline
 90
        3
 70
   128
 43
0.0
 10
6318.0850684739
 20
5894.8350549164
 10
6318.3102345231
 20
5894.7993106559
 10
6318.4961557035
 20
5894.7851414265
  0
ARC
  5
2DD
330
1F
100
AcDbEntity
  8
0
  6
Continuous
 62
     7
370
    25
100
AcDbCircle
 10
6318.9096720411
 20
5897.4541074375
 30
0.0
 40
2.700810124670756
100
AcDbArc
 50
261.1929020425
 51
294.1224162234
  0
LWPOLYLINE
  5
2DE
330
1F
100
AcDbEntity
  8
0
  6
Continuous
 62
     7
370
    25
100
AcDbPolyline
 90
        3
 70
   128
 43
0.0
 10
6320.0134595505
 20
5894.9891473032
 10
6320.1392379578
 20
5894.4326340091
 10
6320.1685192917
 20
5894.0887733822
  0
ARC
  5
2DF
330
1F
100
AcDbEntity
  8
0
  6
Continuous
 62
     7
370
    25
100
AcDbCircle
 10
6318.9724959342
 20
5896.6421201484
 30
0.0
 40
2.819583582804952
100
AcDbArc
 50
260.2534679432
 51
295.0990492192
  0
LWPOLYLINE
  5
2E0
330
1F
100
AcDbEntity
  8
0
  6
Continuous
 62
     7
370
    25
100
AcDbPolyline
 90
        3
 70
   128
 43
0.0
 10
6317.9640199303
 20
5893.9559496729
 10
6317.8340198419
 20
5893.9895312179
 10
6317.7366596073
 20
5894.0198888093
  0
LWPOLYLINE
  5
2E1
330
1F
100
AcDbEntity
  8
0
  6
Continuous
 62
     7
370
    25
100
AcDbPolyline
 90
        3
 70
   128
 43
0.0
 10
6318.4951690503
 20
5893.8632335681
 10
6318.2624768703
 20
5893.8938732542
 10
6318.0842539095
 20
5893.9273404772
  0
LWPOLYLINE
  5
2E2
330
1F
100
AcDbEntity
  8
0
  6
Continuous
 62
     7
370
    25
100
AcDbPolyline
 90
        5
 70
   128
 43
0.0
 10
6316.4254205189
 20
5885.8465872623
 10
6316.3117148721
 20
5885.8619371459
 10
6316.2099087909
 20
5885.9141364632
 10
6316.0756385013
 20
5886.0977107637
 10
6316.0020871856
 20
5886.5490872623
  0
LWPOLYLINE
  5
2E3
330
1F
100
AcDbEntity
  8
0
  6
Continuous
 62
     7
370
    25
100
AcDbPolyline
 90
        5
 70
   128
 43
0.0
 10
6316.0020871856
 20
5886.5490872623
 10
6316.1380437313
 20
5887.3071454137
 10
6316.3469899934
 20
5887.6295157817
 10
6316.5088557671
 20
5887.733883892
 10
6316.6987538523
 20
5887.7665872623
  0
LWPOLYLINE
  5
2E4
330
1F
100
AcDbEntity
  8
0
  6
Continuous
 62
     7
370
    25
100
AcDbPolyline
 90
        5
 70
   128
 43
0.0
 10
6317.1220871856
 20
5887.0582539289
 10
6316.9851837039
 20
5886.3024883779
 10
6316.777706604
 20
5885.9805292531
 10
6316.6150444068
 20
5885.8783068292
 10
6316.4254205189
 20
5885.8465872623
  0
LWPOLYLINE
  5
2E5
330
1F
100
AcDbEntity
  8
0
  6
Continuous
 62
     7
370
    25
100
AcDbPolyline
 90
        5
 70
   128
 43
0.0
 10
6316.6987538523
 20
5887.7665872623
 10
6316.8126212967
 20
5887.750329856
 10
6316.9134594408
 20
5887.69554729
 10
6317.0474956362
 20
5887.5108361871
 10
6317.1220871856
 20
5887.0582539289
  0
ARC
  5
2E6
330
1F
100
AcDbEntity
  8
0
  6
Continuous
 62
     7
370
    25
100
AcDbCircle
 10
6326.0187553361
 20
5905.1994545927
 30
0.0
 40
2.0
100
AcDbArc
 50
0.0
 51
90.0
  0
LINE
  5
2E7
330
1F
100
AcDbEntity
  8
0
  6
Continuous
 62
     7
370
    25
100
AcDbLine
 10
6310.9958310622
 20
5896.074846958
 30
0.0
 11
6310.9948221406
 21
5895.6571647998
 31
0.0
  0
LINE
  5
2E8
330
1F
100
AcDbEntity
  8
0
  6
Continuous
 62
     7
370
    25
100
AcDbLine
 10
6309.1153145066
 20
5895.6588798104
 30
0.0
 11
6309.1162893093
 21
5896.0624371183
 31
0.0
  0
LWPOLYLINE
  5
2E9
330
1F
100
AcDbEntity
  8
0
  6
Continuous
 62
     7
370
    25
100
AcDbPolyline
 90
        6
 70
   128
 43
0.0
 10
6309.1162893093
 20
5896.0624371183
 10
6309.292415126
 20
5897.4080747046
 10
6309.4071674606
 20
5897.659521286
 10
6309.557953663
 20
5897.8531169036
 10
6309.7486464908
 20
5897.9769286387
 10
6309.9831187018
 20
5898.0190235723
  0
LINE
  5
2EA
330
1F
100
AcDbEntity
  8
0
  6
Continuous
 62
     7
370
    25
100
AcDbLine
 10
6309.9831187018
 20
5898.0190235723
 30
0.0
 11
6310.0608398292
 21
5898.018835835
 31
0.0
  0
LINE
  5
2EB
330
1F
100
AcDbEntity
  8
0
  6
Continuous
 62
     7
370
    25
100
AcDbLine
 10
6310.0608398292
 20
5898.018835835
 30
0.0
 11
6310.3584610919
 21
5898.0039919908
 31
0.0
  0
LWPOLYLINE
  5
2EC
330
1F
100
AcDbEntity
  8
0
  6
Continuous
 62
     7
370
    25
100
AcDbPolyline
 90
        7
 70
   128
 43
0.0
 10
6310.3584610919
 20
5898.0039919908
 10
6310.494658991
 20
5897.9964472598
 10
6310.6101022701
 20
5897.9481903647
 10
6310.7064854753
 20
5897.8630776446
 10
6310.8190294635
 20
5897.6747396337
 10
6310.8982201058
 20
5897.4251679229
 10
6310.9958310622
 20
5896.074846958
  0
LINE
  5
2ED
330
1F
100
AcDbEntity
  8
0
  6
Continuous
 62
     7
370
    25
100
AcDbLine
 10
6310.0592712446
 20
5895.6579777018
 30
0.0
 11
6309.1153145066
 21
5895.6588798104
 31
0.0
  0
LINE
  5
2EE
330
1F
100
AcDbEntity
  8
0
  6
Continuous
 62
     7
370
    25
100
AcDbLine
 10
6310.9948221406
 20
5895.6571647998
 30
0.0
 11
6310.0592712446
 21
5895.6579777018
 31
0.0
  0
LWPOLYLINE
  5
2EF
330
1F
100
AcDbEntity
  8
0
  6
Continuous
 62
     7
370
    25
100
AcDbPolyline
 90
        3
 70
   128
 43
0.0
 10
6317.9606273529
 20
5890.1553863417
 10
6317.8239975168
 20
5890.1078930356
 10
6317.7125127935
 20
5890.0706159534
  0
LWPOLYLINE
  5
2F0
330
1F
100
AcDbEntity
  8
0
  6
Continuous
 62
     7
370
    25
100
AcDbPolyline
 90
        3
 70
   128
 43
0.0
 10
6317.7125127935
 20
5890.0706159534
 10
6317.5675176156
 20
5890.0270789129
 10
6317.4493941385
 20
5889.9927031168
  0
LWPOLYLINE
  5
2F1
330
1F
100
AcDbEntity
  8
0
  6
Continuous
 62
     7
370
    25
100
AcDbPolyline
 90
        3
 70
   128
 43
0.0
 10
6317.4493941385
 20
5889.9927031168
 10
6317.3443087512
 20
5893.4283407879
 10
6317.6470710667
 20
5896.4094237065
  0
LWPOLYLINE
  5
2F2
330
1F
100
AcDbEntity
  8
0
  6
Continuous
 62
     7
370
    25
100
AcDbPolyline
 90
        3
 70
   128
 43
0.0
 10
6317.6470710667
 20
5896.4094237065
 10
6317.6891521349
 20
5896.5220357342
 10
6317.7182280708
 20
5896.6012820077
  0
LWPOLYLINE
  5
2F3
330
1F
100
AcDbEntity
  8
0
  6
Continuous
 62
     7
370
    25
100
AcDbPolyline
 90
        3
 70
   128
 43
0.0
 10
6317.7182280708
 20
5896.6012820077
 10
6317.8545745499
 20
5896.9476061944
 10
6317.9668517699
 20
5897.1820774613
  0
LWPOLYLINE
  5
2F4
330
1F
100
AcDbEntity
  8
0
  6
Continuous
 62
     7
370
    25
100
AcDbPolyline
 90
        3
 70
   128
 43
0.0
 10
6317.9668517699
 20
5897.1820774613
 10
6318.0337117469
 20
5897.3065223906
 10
6318.0873931597
 20
5897.394831617
  0
LINE
  5
2F5
330
1F
100
AcDbEntity
  8
0
  6
Continuous
 62
     7
370
    25
100
AcDbLine
 10
6318.0873931597
 20
5897.394831617
 30
0.0
 11
6318.092647498
 21
5897.4021914509
 31
0.0
  0
LWPOLYLINE
  5
2F6
330
1F
100
AcDbEntity
  8
0
  6
Continuous
 62
     7
370
    25
100
AcDbPolyline
 90
        3
 70
   128
 43
0.0
 10
6318.092647498
 20
5897.4021914509
 10
6318.2124034821
 20
5897.3013086323
 10
6318.3066328932
 20
5897.2208754253
  0
LWPOLYLINE
  5
2F7
330
1F
100
AcDbEntity
  8
0
  6
Continuous
 62
     7
370
    25
100
AcDbPolyline
 90
        3
 70
   128
 43
0.0
 10
6318.0869202875
 20
5896.6856233335
 10
6318.0189354713
 20
5896.4514301704
 10
6317.9658484732
 20
5896.2532794321
  0
LWPOLYLINE
  5
2F8
330
1F
100
AcDbEntity
  8
0
  6
Continuous
 62
     7
370
    25
100
AcDbPolyline
 90
        3
 70
   128
 43
0.0
 10
6317.9658484732
 20
5896.2532794321
 10
6317.8128382801
 20
5895.5474638334
 10
6317.7166656893
 20
5894.9275846098
  0
LWPOLYLINE
  5
2F9
330
1F
100
AcDbEntity
  8
0
  6
Continuous
 62
     7
370
    25
100
AcDbPolyline
 90
        3
 70
   128
 43
0.0
 10
6317.7166656893
 20
5894.9275846098
 10
6317.5816552665
 20
5892.8541275898
 10
6317.7134092584
 20
5891.240433824
  0
LWPOLYLINE
  5
2FA
330
1F
100
AcDbEntity
  8
0
  6
Continuous
 62
     7
370
    25
100
AcDbPolyline
 90
        3
 70
   128
 43
0.0
 10
6317.7134092584
 20
5891.240433824
 10
6317.748514165
 20
5891.0458022926
 10
6317.7763734144
 20
5890.8930150944
  0
LWPOLYLINE
  5
2FB
330
1F
100
AcDbEntity
  8
0
  6
Continuous
 62
     7
370
    25
100
AcDbPolyline
 90
        3
 70
   128
 43
0.0
 10
6317.7763734144
 20
5890.8930150944
 10
6317.7436627839
 20
5891.52802118
 10
6317.7140362482
 20
5892.0134450898
  0
LWPOLYLINE
  5
2FC
330
1F
100
AcDbEntity
  8
0
  6
Continuous
 62
     7
370
    25
100
AcDbPolyline
 90
        3
 70
   128
 43
0.0
 10
6317.7140362482
 20
5892.0134450898
 10
6317.6852287114
 20
5892.5390120104
 10
6317.6722502542
 20
5892.9703207346
  0
LINE
  5
2FD
330
1F
100
AcDbEntity
  8
0
  6
Continuous
 62
     7
370
    25
100
AcDbLine
 10
6317.6722502542
 20
5892.9703207346
 30
0.0
 11
6317.7150914722
 21
5892.9637404522
 31
0.0
  0
LWPOLYLINE
  5
2FE
330
1F
100
AcDbEntity
  8
0
  6
Continuous
 62
     7
370
    25
100
AcDbPolyline
 90
        3
 70
   128
 43
0.0
 10
6317.7150914722
 20
5892.9637404522
 10
6317.8565137673
 20
5892.9288830705
 10
6317.9628623458
 20
5892.906228812
  0
LWPOLYLINE
  5
2FF
330
1F
100
AcDbEntity
  8
0
  6
Continuous
 62
     7
370
    25
100
AcDbPolyline
 90
        3
 70
   128
 43
0.0
 10
6317.9628623458
 20
5892.906228812
 10
6318.0327883156
 20
5892.8902760335
 10
6318.0835107338
 20
5892.878032028
  0
LWPOLYLINE
  5
300
330
1F
100
AcDbEntity
  8
0
  6
Continuous
 62
     7
370
    25
100
AcDbPolyline
 90
        3
 70
   128
 43
0.0
 10
6318.0835107338
 20
5892.878032028
 10
6318.3159930075
 20
5892.8413594229
 10
6318.4943058796
 20
5892.8212979346
  0
LWPOLYLINE
  5
301
330
1F
100
AcDbEntity
  8
0
  6
Continuous
 62
     7
370
    25
100
AcDbPolyline
 90
        3
 70
   128
 43
0.0
 10
6318.4943058796
 20
5892.8212979346
 10
6319.3161245058
 20
5892.8351742845
 10
6320.1748045859
 20
5892.9826037141
  0
ARC
  5
302
330
1F
100
AcDbEntity
  8
0
  6
Continuous
 62
     7
370
    25
100
AcDbCircle
 10
6316.6660898011
 20
5893.4331669861
 30
0.0
 40
3.53752550561628
100
AcDbArc
 50
301.075573644
 51
352.6825443943
  0
LWPOLYLINE
  5
303
330
1F
100
AcDbEntity
  8
0
  6
Continuous
 62
     7
370
    25
100
AcDbPolyline
 90
        3
 70
   128
 43
0.0
 10
6318.3066328932
 20
5897.2208754253
 10
6318.1830242816
 20
5896.948492462
 10
6318.0869202875
 20
5896.6856233335
  0
LWPOLYLINE
  5
304
330
1F
100
AcDbEntity
  8
0
  6
Continuous
 62
     7
370
    25
100
AcDbPolyline
 90
        3
 70
   128
 43
0.0
 10
6318.0809127638
 20
5890.2051187217
 10
6318.0156752982
 20
5890.1770617698
 10
6317.9606273529
 20
5890.1553863417
  0
LWPOLYLINE
  5
305
330
1F
100
AcDbEntity
  8
0
  6
Continuous
 62
     7
370
    25
100
AcDbPolyline
 90
        3
 70
   128
 43
0.0
 10
6318.4920481078
 20
5890.4033216163
 10
6318.2698002909
 20
5890.2896866981
 10
6318.0809127638
 20
5890.2051187217
  0
LWPOLYLINE
  5
306
330
1F
100
AcDbEntity
  8
0
  6
Continuous
 62
     7
370
    25
100
AcDbPolyline
 90
        3
 70
   128
 43
0.0
 10
6314.6931405594
 20
5900.1915678417
 10
6315.4357780688
 20
5900.6750996982
 10
6316.1118391028
 20
5900.8778510687
  0
LWPOLYLINE
  5
307
330
1F
100
AcDbEntity
  8
0
  6
Continuous
 62
     7
370
    25
100
AcDbPolyline
 90
        3
 70
   128
 43
0.0
 10
6316.7855964634
 20
5900.9483641011
 10
6317.3181850547
 20
5900.913902945
 10
6317.7220618792
 20
5900.8127075593
  0
LWPOLYLINE
  5
308
330
1F
100
AcDbEntity
  8
0
  6
Continuous
 62
     7
370
    25
100
AcDbPolyline
 90
        3
 70
   128
 43
0.0
 10
6317.7220618792
 20
5900.8127075593
 10
6317.8635313147
 20
5900.7637312827
 10
6317.9698858414
 20
5900.7201246166
  0
LWPOLYLINE
  5
309
330
1F
100
AcDbEntity
  8
0
  6
Continuous
 62
     7
370
    25
100
AcDbPolyline
 90
        3
 70
   128
 43
0.0
 10
6317.9698858414
 20
5900.7201246166
 10
6318.0397797654
 20
5900.6909052186
 10
6318.0904653258
 20
5900.6634025252
  0
LWPOLYLINE
  5
30A
330
1F
100
AcDbEntity
  8
0
  6
Continuous
 62
     7
370
    25
100
AcDbPolyline
 90
        3
 70
   128
 43
0.0
 10
6318.0904653258
 20
5900.6634025252
 10
6318.325819594
 20
5900.5440330238
 10
6318.5011243213
 20
5900.4362049387
  0
LWPOLYLINE
  5
30B
330
1F
100
AcDbEntity
  8
0
  6
Continuous
 62
     7
370
    25
100
AcDbPolyline
 90
        3
 70
   128
 43
0.0
 10
6318.5011243213
 20
5900.4362049387
 10
6319.3093178485
 20
5899.6702421697
 10
6319.6696875503
 20
5898.946061283
  0
LWPOLYLINE
  5
30C
330
1F
100
AcDbEntity
  8
0
  6
Continuous
 62
     7
370
    25
100
AcDbPolyline
 90
        3
 70
   128
 43
0.0
 10
6319.6696875503
 20
5898.946061283
 10
6319.123204549
 20
5899.4104957443
 10
6318.5004790313
 20
5899.7697163802
  0
LWPOLYLINE
  5
30D
330
1F
100
AcDbEntity
  8
0
  6
Continuous
 62
     7
370
    25
100
AcDbPolyline
 90
        3
 70
   128
 43
0.0
 10
6318.5004790313
 20
5899.7697163802
 10
6318.2731519408
 20
5899.8756844098
 10
6318.0897171797
 20
5899.9543327108
  0
LWPOLYLINE
  5
30E
330
1F
100
AcDbEntity
  8
0
  6
Continuous
 62
     7
370
    25
100
AcDbPolyline
 90
        3
 70
   128
 43
0.0
 10
6318.0897171797
 20
5899.9543327108
 10
6318.0363637635
 20
5899.9781836954
 10
6317.9904627732
 20
5899.996740554
  0
LWPOLYLINE
  5
30F
330
1F
100
AcDbEntity
  8
0
  6
Continuous
 62
     7
370
    25
100
AcDbPolyline
 90
        3
 70
   128
 43
0.0
 10
6317.720922436
 20
5899.7704969847
 10
6317.289396512
 20
5899.5821886466
 10
6316.8695559319
 20
5899.5373216755
  0
LINE
  5
310
330
1F
100
AcDbEntity
  8
0
  6
Continuous
 62
     7
370
    25
100
AcDbLine
 10
6316.8695559319
 20
5899.5373216755
 30
0.0
 11
6316.7842722599
 21
5899.5444178914
 31
0.0
  0
LWPOLYLINE
  5
311
330
1F
100
AcDbEntity
  8
0
  6
Continuous
 62
     7
370
    25
100
AcDbPolyline
 90
        3
 70
   128
 43
0.0
 10
6316.7842722599
 20
5899.5444178914
 10
6316.3858786689
 20
5899.6330866857
 10
6316.1108211488
 20
5899.7718368461
  0
LWPOLYLINE
  5
312
330
1F
100
AcDbEntity
  8
0
  6
Continuous
 62
     7
370
    25
100
AcDbPolyline
 90
        3
 70
   128
 43
0.0
 10
6316.1108211488
 20
5899.7718368461
 10
6315.8874632097
 20
5899.9363337011
 10
6315.749390931
 20
5900.0696090849
  0
LWPOLYLINE
  5
313
330
1F
100
AcDbEntity
  8
0
  6
Continuous
 62
     7
370
    25
100
AcDbPolyline
 90
        3
 70
   128
 43
0.0
 10
6315.749390931
 20
5900.0696090849
 10
6315.1912123915
 20
5899.7926665383
 10
6314.6923586272
 20
5899.4685109804
  0
LWPOLYLINE
  5
314
330
1F
100
AcDbEntity
  8
0
  6
Continuous
 62
     7
370
    25
100
AcDbPolyline
 90
        3
 70
   128
 43
0.0
 10
6314.6923586272
 20
5899.4685109804
 10
6314.2103353564
 20
5899.0964809208
 10
6313.826907185
 20
5898.766973145
  0
LWPOLYLINE
  5
315
330
1F
100
AcDbEntity
  8
0
  6
Continuous
 62
     7
370
    25
100
AcDbPolyline
 90
        3
 70
   128
 43
0.0
 10
6313.826907185
 20
5898.766973145
 10
6314.249707516
 20
5899.6668063401
 10
6314.6931405594
 20
5900.1915678417
  0
LINE
  5
316
330
1F
100
AcDbEntity
  8
0
  6
Continuous
 62
     7
370
    25
100
AcDbLine
 10
6316.7715405148
 20
5900.9483980536
 30
0.0
 11
6316.7855964634
 21
5900.9483641011
 31
0.0
  0
LWPOLYLINE
  5
317
330
1F
100
AcDbEntity
  8
0
  6
Continuous
 62
     7
370
    25
100
AcDbPolyline
 90
        3
 70
   128
 43
0.0
 10
6316.1118391028
 20
5900.8778510687
 10
6316.4762263152
 20
5900.9303430792
 10
6316.7715405148
 20
5900.9483980536
  0
LINE
  5
318
330
1F
100
AcDbEntity
  8
0
  6
Continuous
 62
     7
370
    25
100
AcDbLine
 10
6317.9904627732
 20
5899.996740554
 30
0.0
 11
6317.9691902846
 21
5899.9757767945
 31
0.0
  0
LWPOLYLINE
  5
319
330
1F
100
AcDbEntity
  8
0
  6
Continuous
 62
     7
370
    25
100
AcDbPolyline
 90
        3
 70
   128
 43
0.0
 10
6317.9691902846
 20
5899.9757767945
 10
6317.8326748752
 20
5899.8526179787
 10
6317.720922436
 20
5899.7704969847
  0
LWPOLYLINE
  5
31A
330
1F
100
AcDbEntity
  8
0
  6
Continuous
 62
     7
370
    25
100
AcDbPolyline
 90
        3
 70
   128
 43
0.0
 10
6316.0831570261
 20
5900.9841674058
 10
6315.8129430794
 20
5900.9234399797
 10
6315.6229972889
 20
5900.8570521049
  0
LWPOLYLINE
  5
31B
330
1F
100
AcDbEntity
  8
0
  6
Continuous
 62
     7
370
    25
100
AcDbPolyline
 90
        3
 70
   128
 43
0.0
 10
6315.6229972889
 20
5900.8570521049
 10
6315.1497796922
 20
5901.3499007796
 10
6314.6943938695
 20
5901.6802638189
  0
LWPOLYLINE
  5
31C
330
1F
100
AcDbEntity
  8
0
  6
Continuous
 62
     7
370
    25
100
AcDbPolyline
 90
        3
 70
   128
 43
0.0
 10
6314.6943938695
 20
5901.6802638189
 10
6314.3968267248
 20
5901.8407385882
 10
6314.1493249514
 20
5901.9434773692
  0
LWPOLYLINE
  5
31D
330
1F
100
AcDbEntity
  8
0
  6
Continuous
 62
     7
370
    25
100
AcDbPolyline
 90
        3
 70
   128
 43
0.0
 10
6314.1493249514
 20
5901.9434773692
 10
6314.4287354886
 20
5901.8737998552
 10
6314.6943407847
 20
5901.7723860691
  0
LWPOLYLINE
  5
31E
330
1F
100
AcDbEntity
  8
0
  6
Continuous
 62
     7
370
    25
100
AcDbPolyline
 90
        3
 70
   128
 43
0.0
 10
6314.6943407847
 20
5901.7723860691
 10
6315.4375203024
 20
5901.401443501
 10
6316.0831570261
 20
5900.9841674058
  0
ARC
  5
31F
330
1F
100
AcDbEntity
  8
0
  6
Continuous
 62
     7
370
    25
100
AcDbCircle
 10
6317.7165167974
 20
5898.803242429
 30
0.0
 40
0.2382723439828715
100
AcDbArc
 50
179.2940902796
 51
269.000528804
  0
LINE
  5
320
330
1F
100
AcDbEntity
  8
0
  6
Continuous
 62
     7
370
    25
100
AcDbLine
 10
6317.7126981206
 20
5899.047044688
 30
0.0
 11
6317.7202776415
 21
5899.0471641837
 31
0.0
  0
ARC
  5
321
330
1F
100
AcDbEntity
  8
0
  6
Continuous
 62
     7
370
    25
100
AcDbCircle
 10
6317.7198431926
 20
5898.8130685614
 30
0.0
 40
0.2340960255145312
100
AcDbArc
 50
358.2006955877
 51
89.8936671492
  0
LWPOLYLINE
  5
322
330
1F
100
AcDbEntity
  8
0
  6
Continuous
 62
     7
370
    25
100
AcDbPolyline
 90
       11
 70
   128
 43
0.0
 10
6317.7975196017
 20
5898.7916261891
 10
6317.7953325507
 20
5898.8193060367
 10
6317.7859948157
 20
5898.8419608621
 10
6317.7709346766
 20
5898.8595891294
 10
6317.7407393217
 20
5898.8766033735
 10
6317.7057026303
 20
5898.8822992212
 10
6317.670645046
 20
5898.876671488
 10
6317.6403870127
 20
5898.8597149897
 10
6317.6252618737
 20
5898.842114339
 10
6317.6158405675
 20
5898.8194748413
 10
6317.6135513738
 20
5898.7917949605
  0
LWPOLYLINE
  5
323
330
1F
100
AcDbEntity
  8
0
  6
Continuous
 62
     7
370
    25
100
AcDbPolyline
 90
       11
 70
   128
 43
0.0
 10
6317.6135513738
 20
5898.7917949605
 10
6317.6158017373
 20
5898.7641781203
 10
6317.6251912733
 20
5898.7415748463
 10
6317.6402917022
 20
5898.7239866746
 10
6317.6705259079
 20
5898.7070110941
 10
6317.7055755496
 20
5898.7013281343
 10
6317.7406201836
 20
5898.7069429796
 10
6317.7708393661
 20
5898.7238608143
 10
6317.7859242154
 20
5898.7414213694
 10
6317.7952937205
 20
5898.7640093157
 10
6317.7975196017
 20
5898.7916261891
  0
ARC
  5
324
330
1F
100
AcDbEntity
  8
0
  6
Continuous
 62
     7
370
    25
100
AcDbCircle
 10
6317.7115431637
 20
5898.807265856
 30
0.0
 40
0.242285574076934
100
AcDbArc
 50
271.986106161
 51
359.6340233765
  0
ARC
  5
325
330
1F
100
AcDbEntity
  8
0
  6
Continuous
 62
     7
370
    25
100
AcDbCircle
 10
6317.7155577943
 20
5898.8097399288
 30
0.0
 40
0.2373219890545195
100
AcDbArc
 50
90.6904172549
 51
180.8599812874
  0
LINE
  5
326
330
1F
100
AcDbEntity
  8
0
  6
Continuous
 62
     7
370
    25
100
AcDbLine
 10
6317.7199400912
 20
5898.5651258324
 30
0.0
 11
6317.7123605704
 21
5898.5650063367
 31
0.0
  0
LWPOLYLINE
  5
327
330
1F
100
AcDbEntity
  8
0
  6
Continuous
 62
     7
370
    25
100
AcDbPolyline
 90
        4
 70
   128
 43
0.0
 10
6309.5712538523
 20
5887.7665872623
 10
6309.6623926319
 20
5887.750041856
 10
6309.7308710573
 20
5887.6888637398
 10
6309.7620871856
 20
5887.5474205956
  0
ARC
  5
328
330
1F
100
AcDbEntity
  8
0
  6
Continuous
 62
     7
370
    25
100
AcDbCircle
 10
6308.6476175346
 20
5887.8944723332
 30
0.0
 40
1.16725640350632
100
AcDbArc
 50
282.5081681824
 51
342.7031354903
  0
ARC
  5
329
330
1F
100
AcDbEntity
  8
0
  6
Continuous
 62
     7
370
    25
100
AcDbCircle
 10
6308.8968978604
 20
5886.7949915972
 30
0.0
 40
0.0402255428433321
100
AcDbArc
 50
171.7640137164
 51
275.0239803073
  0
ARC
  5
32A
330
1F
100
AcDbEntity
  8
0
  6
Continuous
 62
     7
370
    25
100
AcDbCircle
 10
6309.8963622981
 20
5886.7792371575
 30
0.0
 40
1.03949782630561
100
AcDbArc
 50
108.2253558607
 51
178.8139386041
  0
ARC
  5
32B
330
1F
100
AcDbEntity
  8
0
  6
Continuous
 62
     7
370
    25
100
AcDbCircle
 10
6316.1100359766
 20
5898.7859689528
 30
0.0
 40
0.0853966842165506
100
AcDbArc
 50
175.1286705582
 51
4.7801044475
  0
ARC
  5
32C
330
1F
100
AcDbEntity
  8
0
  6
Continuous
 62
     7
370
    25
100
AcDbCircle
 10
6316.1100475174
 20
5898.8004658595
 30
0.0
 40
0.085407624609157
100
AcDbArc
 50
355.0425037089
 51
184.8662712967
  0
ARC
  5
32D
330
1F
100
AcDbEntity
  8
0
  6
Continuous
 62
     7
370
    25
100
AcDbCircle
 10
6316.1106453781
 20
5898.7992606841
 30
0.0
 40
0.242215874360969
100
AcDbArc
 50
90.1149626269
 51
178.0140246826
  0
ARC
  5
32E
330
1F
100
AcDbEntity
  8
0
  6
Continuous
 62
     7
370
    25
100
AcDbCircle
 10
6316.1101470098
 20
5898.8005084417
 30
0.0
 40
0.2409676294910246
100
AcDbArc
 50
1.5533393824
 51
89.99705916
  0
ARC
  5
32F
330
1F
100
AcDbEntity
  8
0
  6
Continuous
 62
     7
370
    25
100
AcDbCircle
 10
6316.1098045569
 20
5898.8105021281
 30
0.0
 40
0.2412463689935752
100
AcDbArc
 50
180.6762906088
 51
359.1778355013
  0
LWPOLYLINE
  5
330
330
1F
100
AcDbEntity
  8
0
  6
Continuous
 62
     7
370
    25
100
AcDbPolyline
 90
        3
 70
   128
 43
0.0
 10
6317.970566249
 20
5901.4011514356
 10
6318.0403949572
 20
5901.4407764325
 10
6318.0910400592
 20
5901.4718296022
  0
LWPOLYLINE
  5
331
330
1F
100
AcDbEntity
  8
0
  6
Continuous
 62
     7
370
    25
100
AcDbPolyline
 90
        3
 70
   128
 43
0.0
 10
6318.0910400592
 20
5901.4718296022
 10
6318.3236903155
 20
5901.5905241173
 10
6318.5021759025
 20
5901.6702392018
  0
LWPOLYLINE
  5
332
330
1F
100
AcDbEntity
  8
0
  6
Continuous
 62
     7
370
    25
100
AcDbPolyline
 90
        3
 70
   128
 43
0.0
 10
6318.5021759025
 20
5901.6702392018
 10
6318.8347739566
 20
5901.7883006973
 10
6319.0909052333
 20
5901.8536814747
  0
LWPOLYLINE
  5
333
330
1F
100
AcDbEntity
  8
0
  6
Continuous
 62
     7
370
    25
100
AcDbPolyline
 90
        3
 70
   128
 43
0.0
 10
6319.0909052333
 20
5901.8536814747
 10
6318.7478446012
 20
5901.6619081664
 10
6318.5018841403
 20
5901.4924035588
  0
LWPOLYLINE
  5
334
330
1F
100
AcDbEntity
  8
0
  6
Continuous
 62
     7
370
    25
100
AcDbPolyline
 90
        3
 70
   128
 43
0.0
 10
6318.5018841403
 20
5901.4924035588
 10
6318.2639249477
 20
5901.3116087379
 10
6318.0906998573
 20
5901.1598416665
  0
LWPOLYLINE
  5
335
330
1F
100
AcDbEntity
  8
0
  6
Continuous
 62
     7
370
    25
100
AcDbPolyline
 90
        3
 70
   128
 43
0.0
 10
6318.0906998573
 20
5901.1598416665
 10
6318.0230815131
 20
5901.0924430874
 10
6317.9702428532
 20
5901.0390716248
  0
LWPOLYLINE
  5
336
330
1F
100
AcDbEntity
  8
0
  6
Continuous
 62
     7
370
    25
100
AcDbPolyline
 90
        3
 70
   128
 43
0.0
 10
6317.9702428532
 20
5901.0390716248
 10
6317.8862926026
 20
5900.9481328751
 10
6317.8207454403
 20
5900.8762725413
  0
LWPOLYLINE
  5
337
330
1F
100
AcDbEntity
  8
0
  6
Continuous
 62
     7
370
    25
100
AcDbPolyline
 90
        3
 70
   128
 43
0.0
 10
6317.8207454403
 20
5900.8762725413
 10
6317.7680042984
 20
5900.8960233746
 10
6317.7221630747
 20
5900.9116507459
  0
LWPOLYLINE
  5
338
330
1F
100
AcDbEntity
  8
0
  6
Continuous
 62
     7
370
    25
100
AcDbPolyline
 90
        3
 70
   128
 43
0.0
 10
6317.7221630747
 20
5900.9116507459
 10
6317.5537422145
 20
5900.962588972
 10
6317.4167206406
 20
5900.9974826564
  0
LWPOLYLINE
  5
339
330
1F
100
AcDbEntity
  8
0
  6
Continuous
 62
     7
370
    25
100
AcDbPolyline
 90
        3
 70
   128
 43
0.0
 10
6317.4167206406
 20
5900.9974826564
 10
6317.5880335269
 20
5901.1346735445
 10
6317.7224002578
 20
5901.2380394715
  0
LWPOLYLINE
  5
33A
330
1F
100
AcDbEntity
  8
0
  6
Continuous
 62
     7
370
    25
100
AcDbPolyline
 90
        3
 70
   128
 43
0.0
 10
6317.7224002578
 20
5901.2380394715
 10
6317.8608580701
 20
5901.3320339399
 10
6317.970566249
 20
5901.4011514356
  0
LINE
  5
33B
330
1F
100
AcDbEntity
  8
0
  6
Continuous
 62
     7
370
    25
100
AcDbLine
 10
6322.125251086
 20
5901.3546663716
 30
0.0
 11
6322.111057334
 21
5901.3547006569
 31
0.0
  0
LINE
  5
33C
330
1F
100
AcDbEntity
  8
0
  6
Continuous
 62
     7
370
    25
100
AcDbLine
 10
6322.111057334
 20
5901.3547006569
 30
0.0
 11
6321.8909846106
 21
5901.3549566396
 31
0.0
  0
LINE
  5
33D
330
1F
100
AcDbEntity
  8
0
  6
Continuous
 62
     7
370
    25
100
AcDbLine
 10
6321.8909846106
 20
5901.3549566396
 30
0.0
 11
6321.8912395985
 21
5901.6316669004
 31
0.0
  0
LINE
  5
33E
330
1F
100
AcDbEntity
  8
0
  6
Continuous
 62
     7
370
    25
100
AcDbLine
 10
6321.8912395985
 20
5901.6316669004
 30
0.0
 11
6322.1113123218
 21
5901.6314109177
 31
0.0
  0
LINE
  5
33F
330
1F
100
AcDbEntity
  8
0
  6
Continuous
 62
     7
370
    25
100
AcDbLine
 10
6322.1113123218
 20
5901.6314109177
 30
0.0
 11
6322.1537561073
 21
5901.6314461979
 31
0.0
  0
LWPOLYLINE
  5
340
330
1F
100
AcDbEntity
  8
0
  6
Continuous
 62
     7
370
    25
100
AcDbPolyline
 90
        3
 70
   128
 43
0.0
 10
6322.1537561073
 20
5901.6314461979
 10
6322.242310881
 20
5901.6190722179
 10
6322.2884419697
 20
5901.5955673718
  0
LWPOLYLINE
  5
341
330
1F
100
AcDbEntity
  8
0
  6
Continuous
 62
     7
370
    25
100
AcDbPolyline
 90
        3
 70
   128
 43
0.0
 10
6322.2884419697
 20
5901.5955673718
 10
6322.3227486556
 20
5901.5456070743
 10
6322.330784726
 20
5901.4967283671
  0
LINE
  5
342
330
1F
100
AcDbEntity
  8
0
  6
Continuous
 62
     7
370
    25
100
AcDbLine
 10
6322.3096490385
 20
5901.4182999168
 30
0.0
 11
6322.2458631952
 21
5901.3684999628
 31
0.0
  0
LWPOLYLINE
  5
343
330
1F
100
AcDbEntity
  8
0
  6
Continuous
 62
     7
370
    25
100
AcDbPolyline
 90
        3
 70
   128
 43
0.0
 10
6322.2458631952
 20
5901.3684999628
 10
6322.1860761588
 20
5901.3581205647
 10
6322.125251086
 20
5901.3546663716
  0
LINE
  5
344
330
1F
100
AcDbEntity
  8
0
  6
Continuous
 62
     7
370
    25
100
AcDbLine
 10
6322.330784726
 20
5901.4967283671
 30
0.0
 11
6322.3096490385
 21
5901.4182999168
 31
0.0
  0
LINE
  5
345
330
1F
100
AcDbEntity
  8
0
  6
Continuous
 62
     7
370
    25
100
AcDbLine
 10
6322.2809368185
 20
5901.2268903061
 30
0.0
 11
6322.2101920746
 21
5901.2627524851
 31
0.0
  0
LWPOLYLINE
  5
346
330
1F
100
AcDbEntity
  8
0
  6
Continuous
 62
     7
370
    25
100
AcDbPolyline
 90
        3
 70
   128
 43
0.0
 10
6322.2101920746
 20
5901.2627524851
 10
6322.325515226
 20
5901.2982297887
 10
6322.3878706135
 20
5901.3400448791
  0
LWPOLYLINE
  5
347
330
1F
100
AcDbEntity
  8
0
  6
Continuous
 62
     7
370
    25
100
AcDbPolyline
 90
        3
 70
   128
 43
0.0
 10
6322.3878706135
 20
5901.3400448791
 10
6322.4390370287
 20
5901.4197327897
 10
6322.4515008526
 20
5901.4965745785
  0
LWPOLYLINE
  5
348
330
1F
100
AcDbEntity
  8
0
  6
Continuous
 62
     7
370
    25
100
AcDbPolyline
 90
        3
 70
   128
 43
0.0
 10
6322.4515008526
 20
5901.4965745785
 10
6322.4396660714
 20
5901.5707204232
 10
6322.416530248
 20
5901.6237834452
  0
LWPOLYLINE
  5
349
330
1F
100
AcDbEntity
  8
0
  6
Continuous
 62
     7
370
    25
100
AcDbPolyline
 90
        3
 70
   128
 43
0.0
 10
6322.416530248
 20
5901.6237834452
 10
6322.3662189419
 20
5901.675540837
 10
6322.3172249166
 20
5901.7021583133
  0
LINE
  5
34A
330
1F
100
AcDbEntity
  8
0
  6
Continuous
 62
     7
370
    25
100
AcDbLine
 10
6322.1468296613
 20
5901.7305441642
 30
0.0
 11
6322.1115519865
 21
5901.7306293783
 31
0.0
  0
LINE
  5
34B
330
1F
100
AcDbEntity
  8
0
  6
Continuous
 62
     7
370
    25
100
AcDbLine
 10
6322.1115519865
 20
5901.7306293783
 30
0.0
 11
6321.7782041883
 21
5901.7308833712
 31
0.0
  0
LINE
  5
34C
330
1F
100
AcDbEntity
  8
0
  6
Continuous
 62
     7
370
    25
100
AcDbLine
 10
6321.7782041883
 20
5901.7308833712
 30
0.0
 11
6321.7775442408
 21
5900.8871786194
 31
0.0
  0
LINE
  5
34D
330
1F
100
AcDbEntity
  8
0
  6
Continuous
 62
     7
370
    25
100
AcDbLine
 10
6321.8908827494
 20
5901.2557378462
 30
0.0
 11
6322.0186268502
 21
5901.2555670814
 31
0.0
  0
LINE
  5
34E
330
1F
100
AcDbEntity
  8
0
  6
Continuous
 62
     7
370
    25
100
AcDbLine
 10
6322.110921021
 20
5901.2412192098
 30
0.0
 11
6322.125097131
 21
5901.2338813433
 31
0.0
  0
LINE
  5
34F
330
1F
100
AcDbEntity
  8
0
  6
Continuous
 62
     7
370
    25
100
AcDbLine
 10
6322.2666242252
 20
5901.0636268761
 30
0.0
 11
6322.3800227789
 21
5900.8865501429
 31
0.0
  0
LWPOLYLINE
  5
350
330
1F
100
AcDbEntity
  8
0
  6
Continuous
 62
     7
370
    25
100
AcDbPolyline
 90
        3
 70
   128
 43
0.0
 10
6322.3730088001
 20
5901.1205586534
 10
6322.3213637613
 20
5901.1855115714
 10
6322.2809368185
 20
5901.2268903061
  0
ARC
  5
351
330
1F
100
AcDbEntity
  8
0
  6
Continuous
 62
     7
370
    25
100
AcDbCircle
 10
6322.0948026939
 20
5901.3001338548
 30
0.0
 40
0.8176283946650055
100
AcDbArc
 50
270.0643647037
 51
359.3040053995
  0
ARC
  5
352
330
1F
100
AcDbEntity
  8
0
  6
Continuous
 62
     7
370
    25
100
AcDbCircle
 10
6322.0908260273
 20
5901.291580107
 30
0.0
 40
0.8090889395607209
100
AcDbArc
 50
179.9894345794
 51
270.3466545022
  0
LINE
  5
353
330
1F
100
AcDbEntity
  8
0
  6
Continuous
 62
     7
370
    25
100
AcDbLine
 10
6322.3800227789
 20
5900.8865501429
 30
0.0
 11
6322.5146570506
 21
5900.8863627347
 31
0.0
  0
ARC
  5
354
330
1F
100
AcDbEntity
  8
0
  6
Continuous
 62
     7
370
    25
100
AcDbCircle
 10
6322.0916277605
 20
5901.292275155
 30
0.0
 40
0.820745622703275
100
AcDbArc
 50
359.8552770288
 51
89.6124524813
  0
LWPOLYLINE
  5
355
330
1F
100
AcDbEntity
  8
0
  6
Continuous
 62
     7
370
    25
100
AcDbPolyline
 90
        3
 70
   128
 43
0.0
 10
6322.3172249166
 20
5901.7021583133
 10
6322.2373977512
 20
5901.7234053738
 10
6322.1468296613
 20
5901.7305441642
  0
LINE
  5
356
330
1F
100
AcDbEntity
  8
0
  6
Continuous
 62
     7
370
    25
100
AcDbLine
 10
6322.5146570506
 20
5900.8863627347
 30
0.0
 11
6322.3730088001
 21
5901.1205586534
 31
0.0
  0
LINE
  5
357
330
1F
100
AcDbEntity
  8
0
  6
Continuous
 62
     7
370
    25
100
AcDbLine
 10
6322.0186268502
 20
5901.2555670814
 30
0.0
 11
6322.0752643877
 21
5901.2555680762
 31
0.0
  0
LINE
  5
358
330
1F
100
AcDbEntity
  8
0
  6
Continuous
 62
     7
370
    25
100
AcDbLine
 10
6322.0752643877
 20
5901.2555680762
 30
0.0
 11
6322.110921021
 21
5901.2412192098
 31
0.0
  0
LWPOLYLINE
  5
359
330
1F
100
AcDbEntity
  8
0
  6
Continuous
 62
     7
370
    25
100
AcDbPolyline
 90
        3
 70
   128
 43
0.0
 10
6322.1815980263
 20
5901.1773140353
 10
6322.2243769596
 20
5901.1241040946
 10
6322.2666242252
 20
5901.0636268761
  0
LINE
  5
35A
330
1F
100
AcDbEntity
  8
0
  6
Continuous
 62
     7
370
    25
100
AcDbLine
 10
6322.125097131
 20
5901.2338813433
 30
0.0
 11
6322.1815980263
 21
5901.1773140353
 31
0.0
  0
ARC
  5
35B
330
1F
100
AcDbEntity
  8
0
  6
Continuous
 62
     7
370
    25
100
AcDbCircle
 10
6322.0978625085
 20
5901.2968607495
 30
0.0
 40
0.8161415390737012
100
AcDbArc
 50
90.0479687003
 51
180.3602464606
  0
LINE
  5
35C
330
1F
100
AcDbEntity
  8
0
  6
Continuous
 62
     7
370
    25
100
AcDbLine
 10
6321.7775442408
 20
5900.8871786194
 30
0.0
 11
6321.8905433759
 21
5900.8870434714
 31
0.0
  0
LINE
  5
35D
330
1F
100
AcDbEntity
  8
0
  6
Continuous
 62
     7
370
    25
100
AcDbLine
 10
6321.8905433759
 20
5900.8870434714
 30
0.0
 11
6321.8908827494
 21
5901.2557378462
 31
0.0
  0
LWPOLYLINE
  5
35E
330
1F
100
AcDbEntity
  8
0
  6
Continuous
 62
     7
370
    25
100
AcDbPolyline
 90
        3
 70
   128
 43
0.0
 10
6319.4293642643
 20
5899.6907156836
 10
6319.3583682799
 20
5899.809360539
 10
6319.287526283
 20
5899.9034146021
  0
LWPOLYLINE
  5
35F
330
1F
100
AcDbEntity
  8
0
  6
Continuous
 62
     7
370
    25
100
AcDbPolyline
 90
        3
 70
   128
 43
0.0
 10
6319.287526283
 20
5899.9034146021
 10
6319.7997170748
 20
5900.9572674017
 10
6319.9635317247
 20
5901.8173981769
  0
LWPOLYLINE
  5
360
330
1F
100
AcDbEntity
  8
0
  6
Continuous
 62
     7
370
    25
100
AcDbPolyline
 90
        3
 70
   128
 43
0.0
 10
6319.9635317247
 20
5901.8173981769
 10
6319.1084005201
 20
5901.4898533999
 10
6318.5015625715
 20
5901.0740307191
  0
LWPOLYLINE
  5
361
330
1F
100
AcDbEntity
  8
0
  6
Continuous
 62
     7
370
    25
100
AcDbPolyline
 90
        3
 70
   128
 43
0.0
 10
6318.5015625715
 20
5901.0740307191
 10
6318.2914037443
 20
5900.8956464701
 10
6318.1257932674
 20
5900.7411765748
  0
LWPOLYLINE
  5
362
330
1F
100
AcDbEntity
  8
0
  6
Continuous
 62
     7
370
    25
100
AcDbPolyline
 90
        3
 70
   128
 43
0.0
 10
6318.0905675199
 20
5900.762759122
 10
6318.0199908108
 20
5900.794388502
 10
6317.9699877027
 20
5900.81934341
  0
LINE
  5
363
330
1F
100
AcDbEntity
  8
0
  6
Continuous
 62
     7
370
    25
100
AcDbLine
 10
6317.9699877027
 20
5900.81934341
 30
0.0
 11
6317.9060980122
 21
5900.8406506851
 31
0.0
  0
LINE
  5
364
330
1F
100
AcDbEntity
  8
0
  6
Continuous
 62
     7
370
    25
100
AcDbLine
 10
6317.9060980122
 20
5900.8406506851
 30
0.0
 11
6317.9700386352
 21
5900.8974782806
 31
0.0
  0
LWPOLYLINE
  5
365
330
1F
100
AcDbEntity
  8
0
  6
Continuous
 62
     7
370
    25
100
AcDbPolyline
 90
        3
 70
   128
 43
0.0
 10
6320.2113846689
 20
5902.0791098175
 10
6319.9624856393
 20
5900.7684746884
 10
6319.4293642643
 20
5899.6907156836
  0
LINE
  5
366
330
1F
100
AcDbEntity
  8
0
  6
Continuous
 62
     7
370
    25
100
AcDbLine
 10
6318.1257932674
 20
5900.7411765748
 30
0.0
 11
6318.0905675199
 21
5900.762759122
 31
0.0
  0
LWPOLYLINE
  5
367
330
1F
100
AcDbEntity
  8
0
  6
Continuous
 62
     7
370
    25
100
AcDbPolyline
 90
        3
 70
   128
 43
0.0
 10
6318.0907532713
 20
5901.010806272
 10
6318.3181593889
 20
5901.1999854927
 10
6318.5017999173
 20
5901.3434373988
  0
LWPOLYLINE
  5
368
330
1F
100
AcDbEntity
  8
0
  6
Continuous
 62
     7
370
    25
100
AcDbPolyline
 90
        3
 70
   128
 43
0.0
 10
6317.9700386352
 20
5900.8974782806
 10
6318.0399943766
 20
5900.9611196227
 10
6318.0907532713
 20
5901.010806272
  0
LWPOLYLINE
  5
369
330
1F
100
AcDbEntity
  8
0
  6
Continuous
 62
     7
370
    25
100
AcDbPolyline
 90
        3
 70
   128
 43
0.0
 10
6318.5017999173
 20
5901.3434373988
 10
6319.3932276117
 20
5901.8681868951
 10
6320.2113846689
 20
5902.0791098175
  0
LINE
  5
36A
330
1F
100
AcDbEntity
  8
0
  6
Continuous
 62
     7
370
    25
100
AcDbLine
 10
6222.0187553361
 20
5666.1994545927
 30
0.0
 11
6220.0187553361
 21
5666.1994545927
 31
0.0
  0
LINE
  5
36B
330
1F
100
AcDbEntity
  8
0
  6
Continuous
 62
     7
370
    25
100
AcDbLine
 10
6220.0187553361
 20
5666.1994545927
 30
0.0
 11
6220.0187553361
 21
5905.1994545927
 31
0.0
  0
LINE
  5
36C
330
1F
100
AcDbEntity
  8
0
  6
Continuous
 62
     7
370
    25
100
AcDbLine
 10
6222.0187553361
 20
5905.1994545927
 30
0.0
 11
6220.0187553361
 21
5905.1994545927
 31
0.0
  0
ARC
  5
36D
330
1F
100
AcDbEntity
  8
0
  6
Continuous
 62
     7
370
    25
100
AcDbCircle
 10
6222.0187553361
 20
5905.1994545927
 30
0.0
 40
2.0
100
AcDbArc
 50
90.0
 51
180.0
  0
LINE
  5
36E
330
1F
100
AcDbEntity
  8
0
  6
Continuous
 62
     7
370
    25
100
AcDbLine
 10
6326.0187553361
 20
5664.1994545927
 30
0.0
 11
6222.0187553361
 21
5664.1994545927
 31
0.0
  0
LINE
  5
36F
330
1F
100
AcDbEntity
  8
0
  6
Continuous
 62
     7
370
    25
100
AcDbLine
 10
6222.0187553361
 20
5664.1994545927
 30
0.0
 11
6222.0187553361
 21
5666.1994545927
 31
0.0
  0
LINE
  5
370
330
1F
100
AcDbEntity
  8
0
  6
Continuous
 62
     7
370
    25
100
AcDbLine
 10
6326.0187553361
 20
5664.1994545927
 30
0.0
 11
6326.0187553361
 21
5666.1994545927
 31
0.0
  0
ARC
  5
371
330
1F
100
AcDbEntity
  8
0
  6
Continuous
 62
     7
370
    25
100
AcDbCircle
 10
6326.0187553361
 20
5666.1994545927
 30
0.0
 40
2.0
100
AcDbArc
 50
270.0
 51
0.0
  0
ARC
  5
372
330
1F
100
AcDbEntity
  8
0
  6
Continuous
 62
     7
370
    25
100
AcDbCircle
 10
6222.0187553361
 20
5666.1994545927
 30
0.0
 40
2.0
100
AcDbArc
 50
180.0
 51
270.0
  0
LWPOLYLINE
  5
373
330
1F
100
AcDbEntity
  8
0
  6
Continuous
 62
     7
370
    25
100
AcDbPolyline
 90
        9
 70
   128
 43
0.0
 10
6326.0187553361
 20
5663.0049318213
 10
6326.4089359801
 20
5663.0204088403
 10
6326.7841222008
 20
5663.0662451244
 10
6327.1298958021
 20
5663.1406792109
 10
6327.4329688985
 20
5663.2408506394
 10
6327.6816945607
 20
5663.3629098782
 10
6327.8665144011
 20
5663.5021662593
 10
6327.9803258969
 20
5663.6532682379
 10
6328.0187553361
 20
5663.8104090498
  0
LINE
  5
374
330
1F
100
AcDbEntity
  8
0
  6
Continuous
 62
     7
370
    25
100
AcDbLine
 10
6326.0187553361
 20
5663.0049318213
 30
0.0
 11
6326.0187553361
 21
5664.1994545927
 31
0.0
  0
LINE
  5
375
330
1F
100
AcDbEntity
  8
0
  6
Continuous
 62
     7
370
    25
100
AcDbLine
 10
6328.0187553361
 20
5663.8104090498
 30
0.0
 11
6328.0187553361
 21
5666.1994545927
 31
0.0
  0
LINE
  5
376
330
1F
100
AcDbEntity
  8
0
  6
Continuous
 62
     7
370
    25
100
AcDbLine
 10
6222.0187553361
 20
5663.0049318213
 30
0.0
 11
6222.0187553361
 21
5664.1994545927
 31
0.0
  0
LWPOLYLINE
  5
377
330
1F
100
AcDbEntity
  8
0
  6
Continuous
 62
     7
370
    25
100
AcDbPolyline
 90
        9
 70
   128
 43
0.0
 10
6222.0187553361
 20
5663.0049318213
 10
6221.6285746921
 20
5663.0204088403
 10
6221.2533884714
 20
5663.0662451244
 10
6220.9076148701
 20
5663.1406792109
 10
6220.6045417737
 20
5663.2408506394
 10
6220.3558161115
 20
5663.3629098782
 10
6220.1709962711
 20
5663.5021662593
 10
6220.0571847753
 20
5663.6532682379
 10
6220.0187553361
 20
5663.8104090498
  0
LINE
  5
378
330
1F
100
AcDbEntity
  8
0
  6
Continuous
 62
     7
370
    25
100
AcDbLine
 10
6220.0187553361
 20
5666.1994545927
 30
0.0
 11
6220.0187553361
 21
5663.8104090498
 31
0.0
  0
LINE
  5
379
330
1F
100
AcDbEntity
  8
0
  6
Continuous
 62
     7
370
    25
100
AcDbLine
 10
6327.0187553361
 20
5639.1994545927
 30
0.0
 11
6327.0187553361
 21
5639.8647724513
 31
0.0
  0
ELLIPSE
  5
37A
330
1F
100
AcDbEntity
  8
0
  6
Continuous
 62
     7
370
    25
100
AcDbEllipse
 10
6326.0187553361
 20
5644.1654546959
 30
0.0
 11
0.0
 21
4.966000103180704
 31
3.552713678800501E-15
210
0.0
220
-7.154074919420564E-16
230
1.0
 40
0.4027386143
 41
3.394272908731615
 42
3.665191429188336
  0
LINE
  5
37B
330
1F
100
AcDbEntity
  8
0
  6
Continuous
 62
     7
370
    25
100
AcDbLine
 10
6326.5187553361
 20
5639.3571457717
 30
0.0
 11
6326.5187553361
 21
5641.6298730444
 31
0.0
  0
ELLIPSE
  5
37C
330
1F
100
AcDbEntity
  8
0
  6
Continuous
 62
     7
370
    25
100
AcDbEllipse
 10
6326.0187553361
 20
5646.4381819686
 30
0.0
 11
0.0
 21
4.966000103180704
 31
2.842170943040401E-14
210
0.0
220
-5.723259935536451E-15
230
1.0
 40
0.4027386143
 41
3.141592653589793
 42
3.394272908731569
  0
LINE
  5
37D
330
1F
100
AcDbEntity
  8
0
  6
Continuous
 62
     7
370
    25
100
AcDbLine
 10
6326.0187553361
 20
5641.4721818654
 30
0.0
 11
6326.0187553361
 21
5663.0049318213
 31
0.0
  0
LINE
  5
37E
330
1F
100
AcDbEntity
  8
0
  6
Continuous
 62
     7
370
    25
100
AcDbLine
 10
6328.0187553361
 20
5639.1994545927
 30
0.0
 11
6327.0187553361
 21
5639.1994545927
 31
0.0
  0
LINE
  5
37F
330
1F
100
AcDbEntity
  8
0
  6
Continuous
 62
     7
370
    25
100
AcDbLine
 10
6328.0187553361
 20
5663.8104090498
 30
0.0
 11
6328.0187553361
 21
5639.1994545927
 31
0.0
  0
LINE
  5
380
330
1F
100
AcDbEntity
  8
0
  6
Continuous
 62
     7
370
    25
100
AcDbLine
 10
6222.0187553361
 20
5641.4721818654
 30
0.0
 11
6326.0187553361
 21
5641.4721818654
 31
0.0
  0
LINE
  5
381
330
1F
100
AcDbEntity
  8
0
  6
Continuous
 62
     7
370
    25
100
AcDbLine
 10
6222.0187553361
 20
5663.0049318213
 30
0.0
 11
6222.0187553361
 21
5641.4721818654
 31
0.0
  0
LINE
  5
382
330
1F
100
AcDbEntity
  8
0
  6
Continuous
 62
     7
370
    25
100
AcDbLine
 10
6221.5187553361
 20
5641.6298730444
 30
0.0
 11
6221.5187553361
 21
5639.3571457717
 31
0.0
  0
ELLIPSE
  5
383
330
1F
100
AcDbEntity
  8
0
  6
Continuous
 62
     7
370
    25
100
AcDbEllipse
 10
6222.0187553361
 20
5644.1654546959
 30
0.0
 11
0.0
 21
-4.966000103181614
 31
-3.552713678800501E-15
210
0.0
220
-7.154074919419254E-16
230
1.0
 40
0.4027386143
 41
5.759586531580823
 42
6.030505052037501
  0
LINE
  5
384
330
1F
100
AcDbEntity
  8
0
  6
Continuous
 62
     7
370
    25
100
AcDbLine
 10
6221.0187553361
 20
5639.8647724514
 30
0.0
 11
6221.0187553361
 21
5639.1994545927
 31
0.0
  0
LINE
  5
385
330
1F
100
AcDbEntity
  8
0
  6
Continuous
 62
     7
370
    25
100
AcDbLine
 10
6221.0187553361
 20
5639.1994545927
 30
0.0
 11
6220.0187553361
 21
5639.1994545927
 31
0.0
  0
ELLIPSE
  5
386
330
1F
100
AcDbEntity
  8
0
  6
Continuous
 62
     7
370
    25
100
AcDbEllipse
 10
6222.0187553361
 20
5646.4381819686
 30
0.0
 11
0.0
 21
-4.966000103181614
 31
-3.197442310920451E-14
210
0.0
220
-6.438667427477328E-15
230
1.0
 40
0.4027386143
 41
6.030505052037547
 42
6.283185307179586
  0
LINE
  5
387
330
1F
100
AcDbEntity
  8
0
  6
Continuous
 62
     7
370
    25
100
AcDbLine
 10
6220.0187553361
 20
5639.1994545927
 30
0.0
 11
6220.0187553361
 21
5663.8104090498
 31
0.0
  0
LINE
  5
388
330
1F
100
AcDbEntity
  8
0
  6
Continuous
 62
     7
370
    25
100
AcDbLine
 10
6326.5187553361
 20
5640.1994545927
 30
0.0
 11
6221.5187553361
 21
5640.1994545927
 31
0.0
  0
LWPOLYLINE
  5
389
330
1F
100
AcDbEntity
  8
0
  6
Continuous
 62
     7
370
    25
100
AcDbPolyline
 90
        3
 70
   128
 43
0.0
 10
6330.3865244345
 20
5651.6996077445
 10
6330.572755936
 20
5651.0315880367
 10
6330.418916177
 20
5650.4495311686
  0
ARC
  5
38A
330
1F
100
AcDbEntity
  8
0
  6
Continuous
 62
     7
370
    25
100
AcDbCircle
 10
6325.8852724964
 20
5649.1994545927
 30
0.0
 40
4.702830686697896
100
AcDbArc
 50
344.5846945694
 51
15.4153054308
  0
LWPOLYLINE
  5
38B
330
1F
100
AcDbEntity
  8
0
  6
Continuous
 62
     7
370
    25
100
AcDbPolyline
 90
        3
 70
   128
 43
0.0
 10
6330.418916177
 20
5647.9493780168
 10
6330.5715228783
 20
5647.2979567471
 10
6330.3865244345
 20
5646.6993014409
  0
ARC
  5
38C
330
1F
100
AcDbEntity
  8
0
  6
Continuous
 62
     7
370
    25
100
AcDbCircle
 10
6222.1522381756
 20
5649.1994545927
 30
0.0
 40
4.702830686596915
100
AcDbArc
 50
164.5846945691
 51
195.415305431
  0
LWPOLYLINE
  5
38D
330
1F
100
AcDbEntity
  8
0
  6
Continuous
 62
     7
370
    25
100
AcDbPolyline
 90
        3
 70
   128
 43
0.0
 10
6217.6509862377
 20
5651.6996077445
 10
6217.4647547362
 20
5651.0315880367
 10
6217.6185944952
 20
5650.4495311686
  0
LWPOLYLINE
  5
38E
330
1F
100
AcDbEntity
  8
0
  6
Continuous
 62
     7
370
    25
100
AcDbPolyline
 90
        3
 70
   128
 43
0.0
 10
6217.6185944952
 20
5647.9493780168
 10
6217.4659877939
 20
5647.2979567471
 10
6217.6509862377
 20
5646.6993014409
  0
LINE
  5
38F
330
1F
100
AcDbEntity
  8
0
  6
Continuous
 62
     7
370
    25
100
AcDbLine
 10
6064.0187553361
 20
4523.1994545927
 30
0.0
 11
6064.0187553361
 21
4520.1994545927
 31
0.0
  0
LINE
  5
390
330
1F
100
AcDbEntity
  8
0
  6
Continuous
 62
     7
370
    25
100
AcDbLine
 10
6064.0187553361
 20
4523.1994545927
 30
0.0
 11
6484.0187553361
 21
4523.1994545927
 31
0.0
  0
LINE
  5
391
330
1F
100
AcDbEntity
  8
0
  6
Continuous
 62
     7
370
    25
100
AcDbLine
 10
6484.0187553361
 20
4520.1994545927
 30
0.0
 11
6484.0187553361
 21
4523.1994545927
 31
0.0
  0
LINE
  5
392
330
1F
100
AcDbEntity
  8
0
  6
Continuous
 62
     7
370
    25
100
AcDbLine
 10
6064.0187553361
 20
4520.1994545927
 30
0.0
 11
6484.0187553361
 21
4520.1994545927
 31
0.0
  0
LINE
  5
393
330
1F
100
AcDbEntity
  8
0
  6
Continuous
 62
     7
370
    25
100
AcDbLine
 10
6064.0187553361
 20
4520.1994545927
 30
0.0
 11
6024.0187553361
 21
4520.1994545927
 31
0.0
  0
LINE
  5
394
330
1F
100
AcDbEntity
  8
0
  6
Continuous
 62
     7
370
    25
100
AcDbLine
 10
6024.0187553361
 20
4520.1994545927
 30
0.0
 11
6024.0187553361
 21
4523.1994545927
 31
0.0
  0
LINE
  5
395
330
1F
100
AcDbEntity
  8
0
  6
Continuous
 62
     7
370
    25
100
AcDbLine
 10
6024.0187553361
 20
4523.1994545927
 30
0.0
 11
6064.0187553361
 21
4523.1994545927
 31
0.0
  0
LINE
  5
396
330
1F
100
AcDbEntity
  8
0
  6
Continuous
 62
     7
370
    25
100
AcDbLine
 10
6524.0187553361
 20
4523.1994545927
 30
0.0
 11
6524.0187553361
 21
4520.1994545927
 31
0.0
  0
LINE
  5
397
330
1F
100
AcDbEntity
  8
0
  6
Continuous
 62
     7
370
    25
100
AcDbLine
 10
6484.0187553361
 20
4523.1994545927
 30
0.0
 11
6524.0187553361
 21
4523.1994545927
 31
0.0
  0
LINE
  5
398
330
1F
100
AcDbEntity
  8
0
  6
Continuous
 62
     7
370
    25
100
AcDbLine
 10
6524.0187553361
 20
4520.1994545927
 30
0.0
 11
6484.0187553361
 21
4520.1994545927
 31
0.0
  0
LINE
  5
399
330
1F
100
AcDbEntity
  8
0
  6
Continuous
 62
     7
370
    25
100
AcDbLine
 10
6254.0187553361
 20
5640.1994545927
 30
0.0
 11
6254.0187553361
 21
4523.1994545927
 31
0.0
  0
LINE
  5
39A
330
1F
100
AcDbEntity
  8
0
  6
Continuous
 62
     7
370
    25
100
AcDbLine
 10
6294.0187553361
 20
5640.1994545927
 30
0.0
 11
6294.0187553361
 21
4523.1994545927
 31
0.0
  0
LINE
  5
39B
330
1F
100
AcDbEntity
  8
0
  6
Continuous
 62
     8
370
    25
100
AcDbLine
 10
6271.0187553361
 20
5658.1994545927
 30
0.0
 11
6277.0187553361
 21
5658.1994545927
 31
0.0
  0
LINE
  5
39C
330
1F
100
AcDbEntity
  8
0
  6
Continuous
 62
     8
370
    25
100
AcDbLine
 10
6326.0187553361
 20
5663.0049318213
 30
0.0
 11
6277.0187553361
 21
5663.0049318213
 31
0.0
  0
LINE
  5
39D
330
1F
100
AcDbEntity
  8
0
  6
Continuous
 62
     8
370
    25
100
AcDbLine
 10
6271.0187553361
 20
5663.0049318213
 30
0.0
 11
6222.0187553361
 21
5663.0049318213
 31
0.0
  0
LINE
  5
39E
330
1F
100
AcDbEntity
  8
0
  6
Continuous
 62
     8
370
    25
100
AcDbLine
 10
6256.5187553361
 20
5640.1994545927
 30
0.0
 11
6256.5187553361
 21
4523.1994545927
 31
0.0
  0
LINE
  5
39F
330
1F
100
AcDbEntity
  8
0
  6
Continuous
 62
     8
370
    25
100
AcDbLine
 10
6291.5187553361
 20
5640.1994545927
 30
0.0
 11
6291.5187553361
 21
4523.1994545927
 31
0.0
  0
ARC
  5
3A0
330
1F
100
AcDbEntity
  8
0
  6
Continuous
 62
     7
370
    25
100
AcDbCircle
 10
6991.3886717142
 20
5404.1994545927
 30
0.0
 40
5.417880890078748
100
AcDbArc
 50
31.1183292484
 51
75.6994942168
  0
ARC
  5
3A1
330
1F
100
AcDbEntity
  8
0
  6
Continuous
 62
     7
370
    25
100
AcDbCircle
 10
6991.3886717142
 20
5404.1994545927
 30
0.0
 40
5.417880890078748
100
AcDbArc
 50
284.3005057832
 51
328.8816707516
  0
LINE
  5
3A2
330
1F
100
AcDbEntity
  8
0
  6
Continuous
 62
     7
370
    25
100
AcDbLine
 10
6991.92692929
 20
5401.1994545927
 30
0.0
 11
6992.72692929
 21
5401.1994545927
 31
0.0
  0
LINE
  5
3A3
330
1F
100
AcDbEntity
  8
0
  6
Continuous
 62
     7
370
    25
100
AcDbLine
 10
6992.72692929
 20
5407.1994545927
 30
0.0
 11
6991.92692929
 21
5407.1994545927
 31
0.0
  0
ARC
  5
3A4
330
1F
100
AcDbEntity
  8
0
  6
Continuous
 62
     7
370
    25
100
AcDbCircle
 10
6991.3886717143
 20
5389.1994545927
 30
0.0
 40
5.417880890078497
100
AcDbArc
 50
284.3005057832
 51
328.8816707516
  0
ARC
  5
3A5
330
1F
100
AcDbEntity
  8
0
  6
Continuous
 62
     7
370
    25
100
AcDbCircle
 10
6991.3886717143
 20
5389.1994545927
 30
0.0
 40
5.417880890077969
100
AcDbArc
 50
31.1183292484
 51
75.6994942168
  0
LINE
  5
3A6
330
1F
100
AcDbEntity
  8
0
  6
Continuous
 62
     7
370
    25
100
AcDbLine
 10
6991.92692929
 20
5386.1994545927
 30
0.0
 11
6992.72692929
 21
5386.1994545927
 31
0.0
  0
LINE
  5
3A7
330
1F
100
AcDbEntity
  8
0
  6
Continuous
 62
     7
370
    25
100
AcDbLine
 10
6992.72692929
 20
5392.1994545927
 30
0.0
 11
6991.92692929
 21
5392.1994545927
 31
0.0
  0
LINE
  5
3A8
330
1F
100
AcDbEntity
  8
0
  6
Continuous
 62
     7
370
    25
100
AcDbLine
 10
7098.72692929
 20
5673.6994545927
 30
0.0
 11
7100.22692929
 21
5673.6994545927
 31
0.0
  0
LINE
  5
3A9
330
1F
100
AcDbEntity
  8
0
  6
Continuous
 62
     7
370
    25
100
AcDbLine
 10
7100.22692929
 20
5678.6994545927
 30
0.0
 11
7098.72692929
 21
5678.6994545927
 31
0.0
  0
ARC
  5
3AA
330
1F
100
AcDbEntity
  8
0
  6
Continuous
 62
     7
370
    25
100
AcDbCircle
 10
7100.22692929
 20
5678.1994545927
 30
0.0
 40
0.5000000000009095
100
AcDbArc
 50
0.0
 51
90.0
  0
ARC
  5
3AB
330
1F
100
AcDbEntity
  8
0
  6
Continuous
 62
     7
370
    25
100
AcDbCircle
 10
7100.22692929
 20
5674.1994545927
 30
0.0
 40
0.5000000000009095
100
AcDbArc
 50
270.0
 51
0.0
  0
ARC
  5
3AC
330
1F
100
AcDbEntity
  8
0
  6
Continuous
 62
     7
370
    25
100
AcDbCircle
 10
7098.7269435295
 20
5819.1990635118
 30
0.0
 40
0.9999857498070898
100
AcDbArc
 50
359.957633584
 51
90.0008158776
  0
ARC
  5
3AD
330
1F
100
AcDbEntity
  8
0
  6
Continuous
 62
     7
370
    25
100
AcDbCircle
 10
7098.726935337
 20
5759.1996183681
 30
0.0
 40
0.9999939511349901
100
AcDbArc
 50
270.1057853618
 51
0.0177532631
  0
LINE
  5
3AE
330
1F
100
AcDbEntity
  8
0
  6
Continuous
 62
     7
370
    25
100
AcDbLine
 10
7067.72692929
 20
5664.1994545927
 30
0.0
 11
7067.72692929
 21
5658.1994545927
 31
0.0
  0
LINE
  5
3AF
330
1F
100
AcDbEntity
  8
0
  6
Continuous
 62
     7
370
    25
100
AcDbLine
 10
7073.72692929
 20
5658.1994545927
 30
0.0
 11
7073.72692929
 21
5664.1994545927
 31
0.0
  0
ARC
  5
3B0
330
1F
100
AcDbEntity
  8
0
  6
Continuous
 62
     7
370
    25
100
AcDbCircle
 10
7070.72692929
 20
5658.1994545927
 30
0.0
 40
3.0
100
AcDbArc
 50
180.0
 51
0.0
  0
LINE
  5
3B1
330
1F
100
AcDbEntity
  8
0
  6
Continuous
 62
     7
370
    25
100
AcDbLine
 10
7098.73942929
 20
5898.4156612441
 30
0.0
 11
7098.72692929
 21
5898.4156612441
 31
0.0
  0
LINE
  5
3B2
330
1F
100
AcDbEntity
  8
0
  6
Continuous
 62
     7
370
    25
100
AcDbLine
 10
7098.72692929
 20
5898.5664655033
 30
0.0
 11
7098.73942929
 21
5898.5664655033
 31
0.0
  0
LINE
  5
3B3
330
1F
100
AcDbEntity
  8
0
  6
Continuous
 62
     7
370
    25
100
AcDbLine
 10
7098.73942929
 20
5902.1130023372
 30
0.0
 11
7098.72692929
 21
5902.1130023372
 31
0.0
  0
LINE
  5
3B4
330
1F
100
AcDbEntity
  8
0
  6
Continuous
 62
     7
370
    25
100
AcDbLine
 10
6991.92692929
 20
5392.6994545927
 30
0.0
 11
6991.72692929
 21
5392.4994545927
 31
0.0
  0
LINE
  5
3B5
330
1F
100
AcDbEntity
  8
0
  6
Continuous
 62
     7
370
    25
100
AcDbLine
 10
6991.72692929
 20
5385.8994545927
 30
0.0
 11
6991.92692929
 21
5385.6994545927
 31
0.0
  0
LINE
  5
3B6
330
1F
100
AcDbEntity
  8
0
  6
Continuous
 62
     7
370
    25
100
AcDbLine
 10
6991.92692929
 20
5407.6994545927
 30
0.0
 11
6991.72692929
 21
5407.4994545927
 31
0.0
  0
LINE
  5
3B7
330
1F
100
AcDbEntity
  8
0
  6
Continuous
 62
     7
370
    25
100
AcDbLine
 10
6991.72692929
 20
5400.8994545927
 30
0.0
 11
6991.92692929
 21
5400.6994545927
 31
0.0
  0
LINE
  5
3B8
330
1F
100
AcDbEntity
  8
0
  6
Continuous
 62
     7
370
    25
100
AcDbLine
 10
6992.72692929
 20
5403.8899583836
 30
0.0
 11
6992.72692929
 21
5409.4494545927
 31
0.0
  0
LINE
  5
3B9
330
1F
100
AcDbEntity
  8
0
  6
Continuous
 62
     7
370
    25
100
AcDbLine
 10
6992.72692929
 20
5398.9494545927
 30
0.0
 11
6992.72692929
 21
5403.8899583836
 31
0.0
  0
LINE
  5
3BA
330
1F
100
AcDbEntity
  8
0
  6
Continuous
 62
     7
370
    25
100
AcDbLine
 10
6996.02692929
 20
5401.6962683819
 30
0.0
 11
6996.02692929
 21
5404.0343899479
 31
0.0
  0
LINE
  5
3BB
330
1F
100
AcDbEntity
  8
0
  6
Continuous
 62
     7
370
    25
100
AcDbLine
 10
6996.02692929
 20
5401.3994545927
 30
0.0
 11
6996.02692929
 21
5401.6962683819
 31
0.0
  0
LINE
  5
3BC
330
1F
100
AcDbEntity
  8
0
  6
Continuous
 62
     7
370
    25
100
AcDbLine
 10
6996.02692929
 20
5406.5375761587
 30
0.0
 11
6996.02692929
 21
5406.9994545927
 31
0.0
  0
LINE
  5
3BD
330
1F
100
AcDbEntity
  8
0
  6
Continuous
 62
     7
370
    25
100
AcDbLine
 10
6996.02692929
 20
5404.0343899479
 30
0.0
 11
6996.02692929
 21
5406.5375761587
 31
0.0
  0
LINE
  5
3BE
330
1F
100
AcDbEntity
  8
0
  6
Continuous
 62
     7
370
    25
100
AcDbLine
 10
6992.72692929
 20
5383.9494545927
 30
0.0
 11
6992.72692929
 21
5394.4494545927
 31
0.0
  0
LINE
  5
3BF
330
1F
100
AcDbEntity
  8
0
  6
Continuous
 62
     7
370
    25
100
AcDbLine
 10
6996.02692929
 20
5390.5994545927
 30
0.0
 11
6996.02692929
 21
5391.9994545927
 31
0.0
  0
LINE
  5
3C0
330
1F
100
AcDbEntity
  8
0
  6
Continuous
 62
     7
370
    25
100
AcDbLine
 10
6996.02692929
 20
5387.7994545927
 30
0.0
 11
6996.02692929
 21
5390.5994545927
 31
0.0
  0
LINE
  5
3C1
330
1F
100
AcDbEntity
  8
0
  6
Continuous
 62
     7
370
    25
100
AcDbLine
 10
6996.02692929
 20
5386.3994545927
 30
0.0
 11
6996.02692929
 21
5387.7994545927
 31
0.0
  0
LINE
  5
3C2
330
1F
100
AcDbEntity
  8
0
  6
Continuous
 62
     7
370
    25
100
AcDbLine
 10
7002.8247011277
 20
5650.4495311686
 30
0.0
 11
7002.8247011277
 21
5647.9493780168
 31
0.0
  0
LINE
  5
3C3
330
1F
100
AcDbEntity
  8
0
  6
Continuous
 62
     7
370
    25
100
AcDbLine
 10
7000.6595049849
 20
5651.6996077445
 30
0.0
 11
7002.8247011277
 21
5650.4495311686
 31
0.0
  0
LINE
  5
3C4
330
1F
100
AcDbEntity
  8
0
  6
Continuous
 62
     7
370
    25
100
AcDbLine
 10
6998.4943088421
 20
5650.4495311686
 30
0.0
 11
7000.6595049849
 21
5651.6996077445
 31
0.0
  0
LINE
  5
3C5
330
1F
100
AcDbEntity
  8
0
  6
Continuous
 62
     7
370
    25
100
AcDbLine
 10
6998.4943088421
 20
5647.9493780168
 30
0.0
 11
6998.4943088421
 21
5650.4495311686
 31
0.0
  0
LINE
  5
3C6
330
1F
100
AcDbEntity
  8
0
  6
Continuous
 62
     7
370
    25
100
AcDbLine
 10
7000.6595049849
 20
5646.6993014409
 30
0.0
 11
6998.4943088421
 21
5647.9493780168
 31
0.0
  0
LINE
  5
3C7
330
1F
100
AcDbEntity
  8
0
  6
Continuous
 62
     7
370
    25
100
AcDbLine
 10
7002.8247011277
 20
5647.9493780168
 30
0.0
 11
7000.6595049849
 21
5646.6993014409
 31
0.0
  0
CIRCLE
  5
3C8
330
1F
100
AcDbEntity
  8
0
  6
Continuous
 62
     7
370
    25
100
AcDbCircle
 10
7000.72692929
 20
5649.1994545927
 30
0.0
 40
4.649999999999636
  0
ARC
  5
3C9
330
1F
100
AcDbEntity
  8
0
  6
Continuous
 62
     7
370
    25
100
AcDbCircle
 10
7000.72692929
 20
5649.1994545927
 30
0.0
 40
10.00000000000091
100
AcDbArc
 50
180.0
 51
270.0
  0
LINE
  5
3CA
330
1F
100
AcDbEntity
  8
0
  6
Continuous
 62
     7
370
    25
100
AcDbLine
 10
6990.72692929
 20
5905.1994545927
 30
0.0
 11
6990.72692929
 21
5649.1994545927
 31
0.0
  0
LINE
  5
3CB
330
1F
100
AcDbEntity
  8
0
  6
Continuous
 62
     7
370
    25
100
AcDbLine
 10
7096.72692929
 20
5905.1994545927
 30
0.0
 11
6990.72692929
 21
5905.1994545927
 31
0.0
  0
LINE
  5
3CC
330
1F
100
AcDbEntity
  8
0
  6
Continuous
 62
     7
370
    25
100
AcDbLine
 10
7096.72692929
 20
5666.1994545927
 30
0.0
 11
7096.72692929
 21
5905.1994545927
 31
0.0
  0
LINE
  5
3CD
330
1F
100
AcDbEntity
  8
0
  6
Continuous
 62
     7
370
    25
100
AcDbLine
 10
7033.0319693354
 20
5666.1994545927
 30
0.0
 11
7096.72692929
 21
5666.1994545927
 31
0.0
  0
ARC
  5
3CE
330
1F
100
AcDbEntity
  8
0
  6
Continuous
 62
     7
370
    25
100
AcDbCircle
 10
7033.0319693354
 20
5662.1994545927
 30
0.0
 40
4.0
100
AcDbArc
 50
90.0
 51
156.2505055071
  0
LINE
  5
3CF
330
1F
100
AcDbEntity
  8
0
  6
Continuous
 62
     7
370
    25
100
AcDbLine
 10
7018.5418892446
 20
5639.1994545927
 30
0.0
 11
7029.3707092057
 21
5663.8104090498
 31
0.0
  0
LINE
  5
3D0
330
1F
100
AcDbEntity
  8
0
  6
Continuous
 62
     7
370
    25
100
AcDbLine
 10
7000.72692929
 20
5639.1994545927
 30
0.0
 11
7018.5418892446
 21
5639.1994545927
 31
0.0
  0
ARC
  5
3D1
330
1F
100
AcDbEntity
  8
0
  6
Continuous
 62
     7
370
    25
100
AcDbCircle
 10
7033.0319693354
 20
5662.1994545927
 30
0.0
 40
2.000000000000926
100
AcDbArc
 50
90.0
 51
156.2505055071
  0
LINE
  5
3D2
330
1F
100
AcDbEntity
  8
0
  6
Continuous
 62
     7
370
    25
100
AcDbLine
 10
7031.2013392705
 20
5663.0049318213
 30
0.0
 11
7029.3707092057
 21
5663.8104090498
 31
0.0
  0
LINE
  5
3D3
330
1F
100
AcDbEntity
  8
0
  6
Continuous
 62
     7
370
    25
100
AcDbLine
 10
7033.0319693354
 20
5664.1994545927
 30
0.0
 11
7033.0319693354
 21
5666.1994545927
 31
0.0
  0
LINE
  5
3D4
330
1F
100
AcDbEntity
  8
0
  6
Continuous
 62
     7
370
    25
100
AcDbLine
 10
7021.72692929
 20
5641.6298730444
 30
0.0
 11
7020.72692929
 21
5639.3571457717
 31
0.0
  0
LINE
  5
3D5
330
1F
100
AcDbEntity
  8
0
  6
Continuous
 62
     7
370
    25
100
AcDbLine
 10
7020.72692929
 20
5639.3571457717
 30
0.0
 11
7020.72692929
 21
5639.8647724514
 31
0.0
  0
LINE
  5
3D6
330
1F
100
AcDbEntity
  8
0
  6
Continuous
 62
     7
370
    25
100
AcDbLine
 10
7020.72692929
 20
5639.8647724514
 30
0.0
 11
7020.4341894322
 21
5639.1994545927
 31
0.0
  0
LINE
  5
3D7
330
1F
100
AcDbEntity
  8
0
  6
Continuous
 62
     7
370
    25
100
AcDbLine
 10
7031.2013392705
 20
5663.0049318213
 30
0.0
 11
7021.72692929
 21
5641.4721818654
 31
0.0
  0
LINE
  5
3D8
330
1F
100
AcDbEntity
  8
0
  6
Continuous
 62
     7
370
    25
100
AcDbLine
 10
7021.72692929
 20
5641.4721818654
 30
0.0
 11
7021.72692929
 21
5641.6298730444
 31
0.0
  0
LINE
  5
3D9
330
1F
100
AcDbEntity
  8
0
  6
Continuous
 62
     7
370
    25
100
AcDbLine
 10
7020.4341894322
 20
5639.1994545927
 30
0.0
 11
7018.5418892446
 21
5639.1994545927
 31
0.0
  0
LINE
  5
3DA
330
1F
100
AcDbEntity
  8
0
  6
Continuous
 62
     7
370
    25
100
AcDbLine
 10
7096.72692929
 20
5664.1994545927
 30
0.0
 11
7033.0319693354
 21
5664.1994545927
 31
0.0
  0
LINE
  5
3DB
330
1F
100
AcDbEntity
  8
0
  6
Continuous
 62
     7
370
    25
100
AcDbLine
 10
7096.72692929
 20
5664.1994545927
 30
0.0
 11
7096.72692929
 21
5666.1994545927
 31
0.0
  0
LINE
  5
3DC
330
1F
100
AcDbEntity
  8
0
  6
Continuous
 62
     7
370
    25
100
AcDbLine
 10
6990.72692929
 20
5907.1994545927
 30
0.0
 11
7096.72692929
 21
5907.1994545927
 31
0.0
  0
LINE
  5
3DD
330
1F
100
AcDbEntity
  8
0
  6
Continuous
 62
     7
370
    25
100
AcDbLine
 10
7096.72692929
 20
5907.1994545927
 30
0.0
 11
7096.72692929
 21
5905.1994545927
 31
0.0
  0
LINE
  5
3DE
330
1F
100
AcDbEntity
  8
0
  6
Continuous
 62
     7
370
    25
100
AcDbLine
 10
6990.72692929
 20
5905.1994545927
 30
0.0
 11
6990.72692929
 21
5907.1994545927
 31
0.0
  0
LINE
  5
3DF
330
1F
100
AcDbEntity
  8
0
  6
Continuous
 62
     7
370
    25
100
AcDbLine
 10
7098.72692929
 20
5666.1994545927
 30
0.0
 11
7096.72692929
 21
5666.1994545927
 31
0.0
  0
ARC
  5
3E0
330
1F
100
AcDbEntity
  8
0
  6
Continuous
 62
     7
370
    25
100
AcDbCircle
 10
7096.72692929
 20
5666.1994545927
 30
0.0
 40
2.0
100
AcDbArc
 50
270.0
 51
0.0
  0
LINE
  5
3E1
330
1F
100
AcDbEntity
  8
0
  6
Continuous
 62
     7
370
    25
100
AcDbLine
 10
7098.72692929
 20
5905.1994545927
 30
0.0
 11
7098.72692929
 21
5666.1994545927
 31
0.0
  0
LINE
  5
3E2
330
1F
100
AcDbEntity
  8
0
  6
Continuous
 62
     7
370
    25
100
AcDbLine
 10
7098.72692929
 20
5905.1994545927
 30
0.0
 11
7096.72692929
 21
5905.1994545927
 31
0.0
  0
ARC
  5
3E3
330
1F
100
AcDbEntity
  8
0
  6
Continuous
 62
     7
370
    25
100
AcDbCircle
 10
7096.72692929
 20
5905.1994545927
 30
0.0
 40
2.0
100
AcDbArc
 50
0.0
 51
90.0
  0
LINE
  5
3E4
330
1F
100
AcDbEntity
  8
0
  6
Continuous
 62
     7
370
    25
100
AcDbLine
 10
7100.72692929
 20
5678.1994545927
 30
0.0
 11
7100.72692929
 21
5674.1994545927
 31
0.0
  0
LINE
  5
3E5
330
1F
100
AcDbEntity
  8
0
  6
Continuous
 62
     7
370
    25
100
AcDbLine
 10
7099.72692929
 20
5819.1994545927
 30
0.0
 11
7099.72692929
 21
5759.1994545927
 31
0.0
  0
ELLIPSE
  5
3E6
330
1F
100
AcDbEntity
  8
0
  6
Continuous
 62
     7
370
    25
100
AcDbEllipse
 10
6954.72692929
 20
5903.1994545927
 30
0.0
 11
0.0
 21
3.0
 31
0.0
210
0.0
220
0.0
230
1.0
 40
0.1666666667
 41
0.0
 42
1.570796326794897
  0
ARC
  5
3E7
330
1F
100
AcDbEntity
  8
0
  6
Continuous
 62
     7
370
    25
100
AcDbCircle
 10
6954.72692929
 20
5903.1994545927
 30
0.0
 40
3.0
100
AcDbArc
 50
90.0
 51
180.0
  0
LINE
  5
3E8
330
1F
100
AcDbEntity
  8
0
  6
Continuous
 62
     7
370
    25
100
AcDbLine
 10
6951.72692929
 20
5903.1994545927
 30
0.0
 11
6954.22692929
 21
5903.1994545927
 31
0.0
  0
LINE
  5
3E9
330
1F
100
AcDbEntity
  8
0
  6
Continuous
 62
     7
370
    25
100
AcDbLine
 10
6954.72692929
 20
5906.1994545927
 30
0.0
 11
6988.72692929
 21
5906.1994545927
 31
0.0
  0
ELLIPSE
  5
3EA
330
1F
100
AcDbEntity
  8
0
  6
Continuous
 62
     7
370
    25
100
AcDbEllipse
 10
6988.72692929
 20
5903.1994545927
 30
0.0
 11
0.0
 21
3.0
 31
0.0
210
0.0
220
0.0
230
1.0
 40
0.1666666667
 41
4.712388980384691
 42
6.283185307179586
  0
LINE
  5
3EB
330
1F
100
AcDbEntity
  8
0
  6
Continuous
 62
     7
370
    25
100
AcDbLine
 10
6954.22692929
 20
5903.1994545927
 30
0.0
 11
6989.22692929
 21
5903.1994545927
 31
0.0
  0
ARC
  5
3EC
330
1F
100
AcDbEntity
  8
0
  6
Continuous
 62
     7
370
    25
100
AcDbCircle
 10
6988.72692929
 20
5903.1994545927
 30
0.0
 40
3.0
100
AcDbArc
 50
48.1896851042
 51
90.0
  0
LINE
  5
3ED
330
1F
100
AcDbEntity
  8
0
  6
Continuous
 62
     7
370
    25
100
AcDbLine
 10
6989.22692929
 20
5903.1994545927
 30
0.0
 11
6990.72692929
 21
5903.1994545927
 31
0.0
  0
LINE
  5
3EE
330
1F
100
AcDbEntity
  8
0
  6
Continuous
 62
     7
370
    25
100
AcDbLine
 10
6991.92692929
 20
5392.4325026674
 30
0.0
 11
6991.92692929
 21
5385.6994545927
 31
0.0
  0
LINE
  5
3EF
330
1F
100
AcDbEntity
  8
0
  6
Continuous
 62
     7
370
    25
100
AcDbLine
 10
6991.92692929
 20
5392.6994545927
 30
0.0
 11
6991.92692929
 21
5392.4325026674
 31
0.0
  0
LINE
  5
3F0
330
1F
100
AcDbEntity
  8
0
  6
Continuous
 62
     7
370
    25
100
AcDbLine
 10
6991.92692929
 20
5407.4325026674
 30
0.0
 11
6991.92692929
 21
5400.6994545927
 31
0.0
  0
LINE
  5
3F1
330
1F
100
AcDbEntity
  8
0
  6
Continuous
 62
     7
370
    25
100
AcDbLine
 10
6991.92692929
 20
5407.6994545927
 30
0.0
 11
6991.92692929
 21
5407.4325026674
 31
0.0
  0
LINE
  5
3F2
330
1F
100
AcDbEntity
  8
0
  6
Continuous
 62
     7
370
    25
100
AcDbLine
 10
6891.72692929
 20
4523.1994545927
 30
0.0
 11
6891.72692929
 21
4520.1994545927
 31
0.0
  0
LINE
  5
3F3
330
1F
100
AcDbEntity
  8
0
  6
Continuous
 62
     7
370
    25
100
AcDbLine
 10
6891.72692929
 20
4520.1994545927
 30
0.0
 11
6851.72692929
 21
4520.1994545927
 31
0.0
  0
LINE
  5
3F4
330
1F
100
AcDbEntity
  8
0
  6
Continuous
 62
     7
370
    25
100
AcDbLine
 10
6851.72692929
 20
4520.1994545927
 30
0.0
 11
6851.72692929
 21
4523.1994545927
 31
0.0
  0
LINE
  5
3F5
330
1F
100
AcDbEntity
  8
0
  6
Continuous
 62
     7
370
    25
100
AcDbLine
 10
6851.72692929
 20
4523.1994545927
 30
0.0
 11
6891.72692929
 21
4523.1994545927
 31
0.0
  0
LINE
  5
3F6
330
1F
100
AcDbEntity
  8
0
  6
Continuous
 62
     7
370
    25
100
AcDbLine
 10
7211.72692929
 20
4520.1994545927
 30
0.0
 11
7211.72692929
 21
4523.1994545927
 31
0.0
  0
LINE
  5
3F7
330
1F
100
AcDbEntity
  8
0
  6
Continuous
 62
     7
370
    25
100
AcDbLine
 10
6891.72692929
 20
4520.1994545927
 30
0.0
 11
7211.72692929
 21
4520.1994545927
 31
0.0
  0
LINE
  5
3F8
330
1F
100
AcDbEntity
  8
0
  6
Continuous
 62
     7
370
    25
100
AcDbLine
 10
6891.72692929
 20
4523.1994545927
 30
0.0
 11
7211.72692929
 21
4523.1994545927
 31
0.0
  0
LINE
  5
3F9
330
1F
100
AcDbEntity
  8
0
  6
Continuous
 62
     7
370
    25
100
AcDbLine
 10
7251.72692929
 20
4523.1994545927
 30
0.0
 11
7251.72692929
 21
4520.1994545927
 31
0.0
  0
LINE
  5
3FA
330
1F
100
AcDbEntity
  8
0
  6
Continuous
 62
     7
370
    25
100
AcDbLine
 10
7251.72692929
 20
4520.1994545927
 30
0.0
 11
7211.72692929
 21
4520.1994545927
 31
0.0
  0
LINE
  5
3FB
330
1F
100
AcDbEntity
  8
0
  6
Continuous
 62
     7
370
    25
100
AcDbLine
 10
7211.72692929
 20
4523.1994545927
 30
0.0
 11
7251.72692929
 21
4523.1994545927
 31
0.0
  0
LINE
  5
3FC
330
1F
100
AcDbEntity
  8
0
  6
Continuous
 62
     7
370
    25
100
AcDbLine
 10
6951.72692929
 20
5903.1994545927
 30
0.0
 11
6951.72692929
 21
4523.1994545927
 31
0.0
  0
LINE
  5
3FD
330
1F
100
AcDbEntity
  8
0
  6
Continuous
 62
     7
370
    25
100
AcDbLine
 10
6954.22692929
 20
5903.1994545927
 30
0.0
 11
6954.22692929
 21
4523.1994545927
 31
0.0
  0
LINE
  5
3FE
330
1F
100
AcDbEntity
  8
0
  6
Continuous
 62
     7
370
    25
100
AcDbLine
 10
6989.22692929
 20
5903.1994545927
 30
0.0
 11
6989.22692929
 21
4523.1994545927
 31
0.0
  0
LINE
  5
3FF
330
1F
100
AcDbEntity
  8
0
  6
Continuous
 62
     7
370
    25
100
AcDbLine
 10
6991.72692929
 20
5644.8405556492
 30
0.0
 11
6991.72692929
 21
4523.1994545927
 31
0.0
  0
LINE
  5
400
330
1F
100
AcDbEntity
  8
0
  6
Continuous
 62
     8
370
    25
100
AcDbLine
 10
7100.22692929
 20
5673.6994545927
 30
0.0
 11
7100.22692929
 21
5678.6994545927
 31
0.0
  0
LINE
  5
401
330
1F
100
AcDbEntity
  8
0
  6
Continuous
 62
     8
370
    25
100
AcDbLine
 10
7067.72692929
 20
5658.1994545927
 30
0.0
 11
7073.72692929
 21
5658.1994545927
 31
0.0
  0
LINE
  5
402
330
1F
100
AcDbEntity
  8
0
  6
Continuous
 62
     7
370
    25
100
AcDbLine
 10
6322.9123713671
 20
3931.7471889248
 30
0.0
 11
6322.9123713671
 21
3931.7596889248
 31
0.0
  0
LINE
  5
403
330
1F
100
AcDbEntity
  8
0
  6
Continuous
 62
     7
370
    25
100
AcDbLine
 10
6321.2817367857
 20
3931.7596889248
 30
0.0
 11
6321.2817367857
 21
3931.7471889248
 31
0.0
  0
LINE
  5
404
330
1F
100
AcDbEntity
  8
0
  6
Continuous
 62
     7
370
    25
100
AcDbLine
 10
6317.953824063
 20
3931.7471889248
 30
0.0
 11
6317.953824063
 21
3931.7596889248
 31
0.0
  0
LINE
  5
405
330
1F
100
AcDbEntity
  8
0
  6
Continuous
 62
     7
370
    25
100
AcDbLine
 10
6316.3510267157
 20
3931.7471889248
 30
0.0
 11
6316.3510267157
 21
3931.7596889248
 31
0.0
  0
LINE
  5
406
330
1F
100
AcDbEntity
  8
0
  6
Continuous
 62
     7
370
    25
100
AcDbLine
 10
6317.4782625205
 20
3931.7596889248
 30
0.0
 11
6317.4782625205
 21
3931.7471889248
 31
0.0
  0
LINE
  5
407
330
1F
100
AcDbEntity
  8
0
  6
Continuous
 62
     7
370
    25
100
AcDbLine
 10
6316.2762213377
 20
3931.7471889248
 30
0.0
 11
6316.2762213377
 21
3931.7596889248
 31
0.0
  0
LINE
  5
408
330
1F
100
AcDbEntity
  8
0
  6
Continuous
 62
     7
370
    25
100
AcDbLine
 10
6316.7756360859
 20
3931.7596889248
 30
0.0
 11
6316.7756360859
 21
3931.7471889248
 31
0.0
  0
ARC
  5
409
330
1F
100
AcDbEntity
  8
0
  6
Continuous
 62
     7
370
    25
100
AcDbCircle
 10
6294.0186045958
 20
3931.7596873398
 30
0.0
 40
0.9999984233729112
100
AcDbArc
 50
270.2803277681
 51
1.0174454853
  0
ARC
  5
40A
330
1F
100
AcDbEntity
  8
0
  6
Continuous
 62
     7
370
    25
100
AcDbCircle
 10
6254.0188538819
 20
3931.7596878665
 30
0.0
 40
0.9999989460515283
100
AcDbArc
 50
179.4500352463
 51
269.7751406396
  0
LINE
  5
40B
330
1F
100
AcDbEntity
  8
0
  6
Continuous
 62
     7
370
    25
100
AcDbLine
 10
6231.5187553361
 20
3931.7596889248
 30
0.0
 11
6231.5187553361
 21
3930.2596889248
 31
0.0
  0
LINE
  5
40C
330
1F
100
AcDbEntity
  8
0
  6
Continuous
 62
     7
370
    25
100
AcDbLine
 10
6236.5187553361
 20
3930.2596889248
 30
0.0
 11
6236.5187553361
 21
3931.7596889248
 31
0.0
  0
ARC
  5
40D
330
1F
100
AcDbEntity
  8
0
  6
Continuous
 62
     7
370
    25
100
AcDbCircle
 10
6236.0187553361
 20
3930.2596889248
 30
0.0
 40
0.5
100
AcDbArc
 50
270.0
 51
0.0
  0
ARC
  5
40E
330
1F
100
AcDbEntity
  8
0
  6
Continuous
 62
     7
370
    25
100
AcDbCircle
 10
6232.0187553361
 20
3930.2596889248
 30
0.0
 40
0.5
100
AcDbArc
 50
179.9999999999
 51
270.0
  0
ARC
  5
40F
330
1F
100
AcDbEntity
  8
0
  6
Continuous
 62
     7
370
    25
100
AcDbCircle
 10
6222.0187553361
 20
4029.8271132298
 30
0.0
 40
4.999999999999971
100
AcDbArc
 50
113.5781784782
 51
154.3594025331
  0
ARC
  5
410
330
1F
100
AcDbEntity
  8
0
  6
Continuous
 62
     7
370
    25
100
AcDbCircle
 10
6222.0187553361
 20
4029.6922646197
 30
0.0
 40
4.999999999999907
100
AcDbArc
 50
203.9480518851
 51
246.4218215218
  0
ARC
  5
411
330
1F
100
AcDbEntity
  8
0
  6
Continuous
 62
     7
370
    25
100
AcDbCircle
 10
6326.0187553361
 20
4029.6922646197
 30
0.0
 40
4.999999999999527
100
AcDbArc
 50
293.5781784782
 51
336.0655543015
  0
ARC
  5
412
330
1F
100
AcDbEntity
  8
0
  6
Continuous
 62
     7
370
    25
100
AcDbCircle
 10
6326.0187553361
 20
4029.8271132298
 30
0.0
 40
5.00000000000056
100
AcDbArc
 50
25.6384601728
 51
66.4218215218
  0
LINE
  5
413
330
1F
100
AcDbEntity
  8
0
  6
Continuous
 62
     7
370
    25
100
AcDbLine
 10
6222.0187553361
 20
4039.7596889248
 30
0.0
 11
6222.0187553361
 21
3933.7596889248
 31
0.0
  0
LINE
  5
414
330
1F
100
AcDbEntity
  8
0
  6
Continuous
 62
     7
370
    25
100
AcDbLine
 10
6222.0187553361
 20
3933.7596889248
 30
0.0
 11
6220.0187553361
 21
3933.7596889248
 31
0.0
  0
LINE
  5
415
330
1F
100
AcDbEntity
  8
0
  6
Continuous
 62
     7
370
    25
100
AcDbLine
 10
6220.0187553361
 20
3933.7596889248
 30
0.0
 11
6220.0187553361
 21
4039.7596889248
 31
0.0
  0
LINE
  5
416
330
1F
100
AcDbEntity
  8
0
  6
Continuous
 62
     7
370
    25
100
AcDbLine
 10
6220.0187553361
 20
4039.7596889248
 30
0.0
 11
6222.0187553361
 21
4039.7596889248
 31
0.0
  0
LINE
  5
417
330
1F
100
AcDbEntity
  8
0
  6
Continuous
 62
     7
370
    25
100
AcDbLine
 10
6326.0187553361
 20
3933.7596889248
 30
0.0
 11
6326.0187553361
 21
4039.7596889248
 31
0.0
  0
LINE
  5
418
330
1F
100
AcDbEntity
  8
0
  6
Continuous
 62
     7
370
    25
100
AcDbLine
 10
6222.0187553361
 20
3933.7596889248
 30
0.0
 11
6326.0187553361
 21
3933.7596889248
 31
0.0
  0
LINE
  5
419
330
1F
100
AcDbEntity
  8
0
  6
Continuous
 62
     7
370
    25
100
AcDbLine
 10
6222.0187553361
 20
4039.7596889248
 30
0.0
 11
6326.0187553361
 21
4039.7596889248
 31
0.0
  0
LINE
  5
41A
330
1F
100
AcDbEntity
  8
0
  6
Continuous
 62
     7
370
    25
100
AcDbLine
 10
6328.0187553361
 20
4039.7596889248
 30
0.0
 11
6328.0187553361
 21
3933.7596889248
 31
0.0
  0
LINE
  5
41B
330
1F
100
AcDbEntity
  8
0
  6
Continuous
 62
     7
370
    25
100
AcDbLine
 10
6328.0187553361
 20
3933.7596889248
 30
0.0
 11
6326.0187553361
 21
3933.7596889248
 31
0.0
  0
LINE
  5
41C
330
1F
100
AcDbEntity
  8
0
  6
Continuous
 62
     7
370
    25
100
AcDbLine
 10
6326.0187553361
 20
4039.7596889248
 30
0.0
 11
6328.0187553361
 21
4039.7596889248
 31
0.0
  0
LINE
  5
41D
330
1F
100
AcDbEntity
  8
0
  6
Continuous
 62
     7
370
    25
100
AcDbLine
 10
6326.0187553361
 20
3931.7596889248
 30
0.0
 11
6222.0187553361
 21
3931.7596889248
 31
0.0
  0
LINE
  5
41E
330
1F
100
AcDbEntity
  8
0
  6
Continuous
 62
     7
370
    25
100
AcDbLine
 10
6222.0187553361
 20
3931.7596889248
 30
0.0
 11
6222.0187553361
 21
3933.7596889248
 31
0.0
  0
LINE
  5
41F
330
1F
100
AcDbEntity
  8
0
  6
Continuous
 62
     7
370
    25
100
AcDbLine
 10
6326.0187553361
 20
3931.7596889248
 30
0.0
 11
6326.0187553361
 21
3933.7596889248
 31
0.0
  0
ARC
  5
420
330
1F
100
AcDbEntity
  8
0
  6
Continuous
 62
     7
370
    25
100
AcDbCircle
 10
6222.0187553361
 20
3933.7596889248
 30
0.0
 40
2.0
100
AcDbArc
 50
180.0
 51
270.0
  0
ARC
  5
421
330
1F
100
AcDbEntity
  8
0
  6
Continuous
 62
     7
370
    25
100
AcDbCircle
 10
6326.0187553361
 20
3933.7596889248
 30
0.0
 40
2.0
100
AcDbArc
 50
270.0
 51
0.0
  0
LINE
  5
422
330
1F
100
AcDbEntity
  8
0
  6
Continuous
 62
     7
370
    25
100
AcDbLine
 10
6293.9079490169
 20
3930.7596889248
 30
0.0
 11
6254.019608611
 21
3930.7596889248
 31
0.0
  0
LINE
  5
423
330
1F
100
AcDbEntity
  8
0
  6
Continuous
 62
     7
370
    25
100
AcDbLine
 10
6236.0187553361
 20
3929.7596889248
 30
0.0
 11
6232.0187553361
 21
3929.7596889248
 31
0.0
  0
LINE
  5
424
330
1F
100
AcDbEntity
  8
0
  6
Continuous
 62
     7
370
    25
100
AcDbLine
 10
6217.6185944952
 20
4027.661917087
 30
0.0
 11
6217.4495443652
 21
4027.661917087
 31
0.0
  0
LWPOLYLINE
  5
425
330
1F
100
AcDbEntity
  8
0
  6
Continuous
 62
     7
370
    25
100
AcDbPolyline
 90
        3
 70
   128
 43
0.0
 10
6217.6509862377
 20
4029.8271132298
 10
6217.4647547362
 20
4028.6700691554
 10
6217.6185944952
 20
4027.661917087
  0
LWPOLYLINE
  5
426
330
1F
100
AcDbEntity
  8
0
  6
Continuous
 62
     7
370
    25
100
AcDbPolyline
 90
        3
 70
   128
 43
0.0
 10
6217.6836412031
 20
4031.9923093726
 10
6217.4962881776
 20
4030.8030488587
 10
6217.6509862377
 20
4029.8271132298
  0
LINE
  5
427
330
1F
100
AcDbEntity
  8
0
  6
Continuous
 62
     7
370
    25
100
AcDbLine
 10
6217.5131603508
 20
4031.9923093726
 30
0.0
 11
6217.6836412031
 21
4031.9923093726
 31
0.0
  0
LINE
  5
428
330
1F
100
AcDbEntity
  8
0
  6
Continuous
 62
     7
370
    25
100
AcDbLine
 10
6330.3538694691
 20
4031.9923093726
 30
0.0
 11
6330.525630713
 21
4031.9923093726
 31
0.0
  0
LWPOLYLINE
  5
429
330
1F
100
AcDbEntity
  8
0
  6
Continuous
 62
     7
370
    25
100
AcDbPolyline
 90
        3
 70
   128
 43
0.0
 10
6330.3538694691
 20
4031.9923093726
 10
6330.5412224946
 20
4030.8030488587
 10
6330.3865244345
 20
4029.8271132298
  0
LWPOLYLINE
  5
42A
330
1F
100
AcDbEntity
  8
0
  6
Continuous
 62
     7
370
    25
100
AcDbPolyline
 90
        3
 70
   128
 43
0.0
 10
6330.3865244345
 20
4029.8271132298
 10
6330.572755936
 20
4028.6700691554
 10
6330.418916177
 20
4027.661917087
  0
LINE
  5
42B
330
1F
100
AcDbEntity
  8
0
  6
Continuous
 62
     7
370
    25
100
AcDbLine
 10
6330.418916177
 20
4027.661917087
 30
0.0
 11
6330.587966307
 21
4027.661917087
 31
0.0
  0
LINE
  5
42C
330
1F
100
AcDbEntity
  8
0
  6
Continuous
 62
     7
370
    25
100
AcDbLine
 10
6291.0187553361
 20
4075.7596889248
 30
0.0
 11
6291.5187553361
 21
4078.7596889248
 31
0.0
  0
ARC
  5
42D
330
1F
100
AcDbEntity
  8
0
  6
Continuous
 62
     7
370
    25
100
AcDbCircle
 10
6291.5187553361
 20
4076.2596889248
 30
0.0
 40
2.500000000000455
100
AcDbArc
 50
0.0
 51
90.0
  0
LINE
  5
42E
330
1F
100
AcDbEntity
  8
0
  6
Continuous
 62
     7
370
    25
100
AcDbLine
 10
6294.0187553361
 20
4076.2596889248
 30
0.0
 11
6291.0187553361
 21
4075.7596889248
 31
0.0
  0
LINE
  5
42F
330
1F
100
AcDbEntity
  8
0
  6
Continuous
 62
     7
370
    25
100
AcDbLine
 10
6294.0187553361
 20
4041.2596889248
 30
0.0
 11
6294.0187553361
 21
4076.2596889248
 31
0.0
  0
LINE
  5
430
330
1F
100
AcDbEntity
  8
0
  6
Continuous
 62
     7
370
    25
100
AcDbLine
 10
6294.0187553361
 20
4041.2596889248
 30
0.0
 11
6291.0187553361
 21
4041.7596889248
 31
0.0
  0
LINE
  5
431
330
1F
100
AcDbEntity
  8
0
  6
Continuous
 62
     7
370
    25
100
AcDbLine
 10
6291.0187553361
 20
4041.7596889248
 30
0.0
 11
6291.0187553361
 21
4075.7596889248
 31
0.0
  0
ARC
  5
432
330
1F
100
AcDbEntity
  8
0
  6
Continuous
 62
     7
370
    25
100
AcDbCircle
 10
6291.5187553361
 20
4041.2596889248
 30
0.0
 40
2.5
100
AcDbArc
 50
323.1301023542
 51
0.0
  0
LINE
  5
433
330
1F
100
AcDbEntity
  8
0
  6
Continuous
 62
     7
370
    25
100
AcDbLine
 10
6291.0187553361
 20
4075.7596889248
 30
0.0
 11
6257.0187553361
 21
4075.7596889248
 31
0.0
  0
LINE
  5
434
330
1F
100
AcDbEntity
  8
0
  6
Continuous
 62
     7
370
    25
100
AcDbLine
 10
6257.0187553361
 20
4075.7596889248
 30
0.0
 11
6256.5187553361
 21
4078.7596889248
 31
0.0
  0
LINE
  5
435
330
1F
100
AcDbEntity
  8
0
  6
Continuous
 62
     7
370
    25
100
AcDbLine
 10
6291.5187553361
 20
4078.7596889248
 30
0.0
 11
6256.5187553361
 21
4078.7596889248
 31
0.0
  0
LINE
  5
436
330
1F
100
AcDbEntity
  8
0
  6
Continuous
 62
     7
370
    25
100
AcDbLine
 10
6257.0187553361
 20
4041.7596889248
 30
0.0
 11
6291.0187553361
 21
4041.7596889248
 31
0.0
  0
LINE
  5
437
330
1F
100
AcDbEntity
  8
0
  6
Continuous
 62
     7
370
    25
100
AcDbLine
 10
6257.0187553361
 20
4041.7596889248
 30
0.0
 11
6254.0187553361
 21
4041.2596889248
 31
0.0
  0
ARC
  5
438
330
1F
100
AcDbEntity
  8
0
  6
Continuous
 62
     7
370
    25
100
AcDbCircle
 10
6256.5187553361
 20
4041.2596889248
 30
0.0
 40
2.500000000000909
100
AcDbArc
 50
180.0
 51
216.8698976458
  0
LINE
  5
439
330
1F
100
AcDbEntity
  8
0
  6
Continuous
 62
     7
370
    25
100
AcDbLine
 10
6257.0187553361
 20
4075.7596889248
 30
0.0
 11
6257.0187553361
 21
4041.7596889248
 31
0.0
  0
LINE
  5
43A
330
1F
100
AcDbEntity
  8
0
  6
Continuous
 62
     7
370
    25
100
AcDbLine
 10
6254.0187553361
 20
4076.2596889248
 30
0.0
 11
6254.0187553361
 21
4041.2596889248
 31
0.0
  0
LINE
  5
43B
330
1F
100
AcDbEntity
  8
0
  6
Continuous
 62
     7
370
    25
100
AcDbLine
 10
6257.0187553361
 20
4075.7596889248
 30
0.0
 11
6254.0187553361
 21
4076.2596889248
 31
0.0
  0
ARC
  5
43C
330
1F
100
AcDbEntity
  8
0
  6
Continuous
 62
     7
370
    25
100
AcDbCircle
 10
6256.5187553361
 20
4076.2596889248
 30
0.0
 40
2.500000000000909
100
AcDbArc
 50
90.0
 51
180.0
  0
ARC
  5
43D
330
1F
100
AcDbEntity
  8
0
  6
Continuous
 62
     7
370
    25
100
AcDbCircle
 10
6064.0187553361
 20
3818.7596889248
 30
0.0
 40
40.0
100
AcDbArc
 50
180.0
 51
270.0
  0
LINE
  5
43E
330
1F
100
AcDbEntity
  8
0
  6
Continuous
 62
     7
370
    25
100
AcDbLine
 10
6024.0187553361
 20
4138.7596889248
 30
0.0
 11
6024.0187553361
 21
3818.7596889248
 31
0.0
  0
LINE
  5
43F
330
1F
100
AcDbEntity
  8
0
  6
Continuous
 62
     7
370
    25
100
AcDbLine
 10
6524.0187553361
 20
3818.7596889248
 30
0.0
 11
6524.0187553361
 21
4138.7596889248
 31
0.0
  0
ARC
  5
440
330
1F
100
AcDbEntity
  8
0
  6
Continuous
 62
     7
370
    25
100
AcDbCircle
 10
6484.0187553361
 20
3818.7596889248
 30
0.0
 40
40.0
100
AcDbArc
 50
270.0
 51
0.0
  0
LINE
  5
441
330
1F
100
AcDbEntity
  8
0
  6
Continuous
 62
     7
370
    25
100
AcDbLine
 10
6064.0187553361
 20
3778.7596889248
 30
0.0
 11
6484.0187553361
 21
3778.7596889248
 31
0.0
  0
CIRCLE
  5
442
330
1F
100
AcDbEntity
  8
0
  6
Continuous
 62
     7
370
    25
100
AcDbCircle
 10
6064.0187553361
 20
4138.7596889248
 30
0.0
 40
5.0
  0
CIRCLE
  5
443
330
1F
100
AcDbEntity
  8
0
  6
Continuous
 62
     7
370
    25
100
AcDbCircle
 10
6484.0187553361
 20
4138.7596889248
 30
0.0
 40
5.0
  0
CIRCLE
  5
444
330
1F
100
AcDbEntity
  8
0
  6
Continuous
 62
     7
370
    25
100
AcDbCircle
 10
6484.0187553361
 20
3818.7596889248
 30
0.0
 40
5.0
  0
CIRCLE
  5
445
330
1F
100
AcDbEntity
  8
0
  6
Continuous
 62
     7
370
    25
100
AcDbCircle
 10
6064.0187553361
 20
3818.7596889248
 30
0.0
 40
5.000000000000455
  0
LINE
  5
446
330
1F
100
AcDbEntity
  8
0
  6
Continuous
 62
     7
370
    25
100
AcDbLine
 10
6484.0187553361
 20
4178.7596889248
 30
0.0
 11
6064.0187553361
 21
4178.7596889248
 31
0.0
  0
ARC
  5
447
330
1F
100
AcDbEntity
  8
0
  6
Continuous
 62
     7
370
    25
100
AcDbCircle
 10
6484.0187553361
 20
4138.7596889248
 30
0.0
 40
40.0
100
AcDbArc
 50
0.0
 51
90.0
  0
ARC
  5
448
330
1F
100
AcDbEntity
  8
0
  6
Continuous
 62
     7
370
    25
100
AcDbCircle
 10
6064.0187553361
 20
4138.7596889248
 30
0.0
 40
40.0
100
AcDbArc
 50
90.0
 51
180.0
  0
LINE
  5
449
330
1F
100
AcDbEntity
  8
0
  6
Continuous
 62
     8
370
    25
100
AcDbLine
 10
6231.5187553361
 20
3930.2596889248
 30
0.0
 11
6236.5187553361
 21
3930.2596889248
 31
0.0
  0
LINE
  5
44A
330
1F
100
AcDbEntity
  8
0
  6
Continuous
 62
     8
370
    25
100
AcDbLine
 10
6291.3520886694
 20
4039.7596889248
 30
0.0
 11
6291.0187553361
 21
4041.7596889248
 31
0.0
  0
LINE
  5
44B
330
1F
100
AcDbEntity
  8
0
  6
Continuous
 62
     8
370
    25
100
AcDbLine
 10
6256.6854220028
 20
4039.7596889248
 30
0.0
 11
6257.0187553361
 21
4041.7596889248
 31
0.0
  0
ENDSEC
  0
SECTION
  2
OBJECTS
  0
DICTIONARY
  5
C
330
0
100
AcDbDictionary
281
     1
  3
ACAD_GROUP
350
D
  3
ACAD_LAYOUT
350
1A
  3
ACAD_MLINESTYLE
350
17
  3
ACAD_PLOTSETTINGS
350
19
  3
ACAD_PLOTSTYLENAME
350
E
  3
ACAD_SCALELIST
350
47
  3
DWGPROPS
350
44C
  0
DICTIONARY
  5
D
102
{ACAD_REACTORS
330
C
102
}
330
C
100
AcDbDictionary
281
     1
  0
DICTIONARY
  5
1A
102
{ACAD_REACTORS
330
C
102
}
330
C
100
AcDbDictionary
281
     1
  3
Layout1
350
1E
  3
Layout2
350
26
  3
Model
350
22
  0
DICTIONARY
  5
17
102
{ACAD_REACTORS
330
C
102
}
330
C
100
AcDbDictionary
281
     1
  3
Standard
350
18
  0
DICTIONARY
  5
19
102
{ACAD_REACTORS
330
C
102
}
330
C
100
AcDbDictionary
281
     1
  0
ACDBDICTIONARYWDFLT
  5
E
102
{ACAD_REACTORS
330
C
102
}
330
C
100
AcDbDictionary
281
     1
  3
Normal
350
F
100
AcDbDictionaryWithDefault
340
F
  0
DICTIONARY
  5
47
102
{ACAD_REACTORS
330
C
102
}
330
C
100
AcDbDictionary
281
     1
  3
A0
350
48
  3
A1
350
49
  3
A2
350
4A
  3
A3
350
4B
  3
A4
350
4C
  3
A5
350
4D
  3
A6
350
4E
  3
A7
350
4F
  3
A8
350
50
  3
A9
350
51
  3
B0
350
52
  3
B1
350
53
  3
B2
350
54
  3
B3
350
55
  3
B4
350
56
  3
B5
350
57
  3
B6
350
58
  3
B7
350
59
  3
B8
350
5A
  3
B9
350
5B
  3
C0
350
5C
  3
C1
350
5D
  3
C2
350
5E
  3
C3
350
5F
  3
C4
350
60
  3
C5
350
61
  3
C6
350
62
  3
C7
350
63
  3
C8
350
64
  3
C9
350
65
  3
D0
350
66
  3
D1
350
67
  3
D2
350
68
  0
XRECORD
  5
44C
102
{ACAD_REACTORS
330
C
102
}
330
C
100
AcDbXrecord
280
     1
  1
DWGPROPS COOKIE
  2

  3

  4

  6

  7

  8
radek.stransky
  9

300
=
301
=
302
=
303
=
304
=
305
=
306
=
307
=
308
=
309
=
 40
0.0
 41
2459123.21670735
 42
2459123.216707651
  1

 90
        0
  0
LAYOUT
  5
1E
102
{ACAD_REACTORS
330
1A
102
}
330
1A
100
AcDbPlotSettings
  1

  2
none_device
  4

  6

 40
0.0
 41
0.0
 42
0.0
 43
0.0
 44
0.0
 45
0.0
 46
0.0
 47
0.0
 48
0.0
 49
0.0
140
0.0
141
0.0
142
1.0
143
1.0
 70
   688
 72
     1
 73
     0
 74
     5
  7

 75
    16
147
1.0
148
0.0
149
0.0
100
AcDbLayout
  1
Layout1
 70
     1
 71
     1
 10
0.0
 20
0.0
 11
420.0
 21
297.0
 12
0.0
 22
0.0
 32
0.0
 14
1.0000000000E+20
 24
1.0000000000E+20
 34
1.0000000000E+20
 15
-1.0000000000E+20
 25
-1.0000000000E+20
 35
-1.0000000000E+20
146
0.0
 13
0.0
 23
0.0
 33
0.0
 16
1.0
 26
0.0
 36
0.0
 17
0.0
 27
1.0
 37
0.0
 76
     0
330
1B
  0
LAYOUT
  5
26
102
{ACAD_REACTORS
330
1A
102
}
330
1A
100
AcDbPlotSettings
  1

  2
none_device
  4

  6

 40
0.0
 41
0.0
 42
0.0
 43
0.0
 44
0.0
 45
0.0
 46
0.0
 47
0.0
 48
0.0
 49
0.0
140
0.0
141
0.0
142
1.0
143
1.0
 70
   688
 72
     1
 73
     0
 74
     5
  7

 75
    16
147
1.0
148
0.0
149
0.0
100
AcDbLayout
  1
Layout2
 70
     1
 71
     2
 10
0.0
 20
0.0
 11
0.0
 21
0.0
 12
0.0
 22
0.0
 32
0.0
 14
0.0
 24
0.0
 34
0.0
 15
0.0
 25
0.0
 35
0.0
146
0.0
 13
0.0
 23
0.0
 33
0.0
 16
1.0
 26
0.0
 36
0.0
 17
0.0
 27
1.0
 37
0.0
 76
     0
330
23
  0
LAYOUT
  5
22
102
{ACAD_REACTORS
330
1A
102
}
330
1A
100
AcDbPlotSettings
  1

  2
none_device
  4
Letter_(8.50_x_11.00_Inches)
  6

 40
6.35
 41
6.35
 42
6.35000508
 43
6.35000508
 44
215.9
 45
279.4
 46
0.0
 47
0.0
 48
0.0
 49
0.0
140
0.0
141
0.0
142
1.0
143
1.0
 70
  1712
 72
     1
 73
     0
 74
     0
  7

 75
     0
147
1.0
148
0.0
149
0.0
100
AcDbLayout
  1
Model
 70
     1
 71
     0
 10
0.0
 20
0.0
 11
20000.0
 21
10000.0
 12
0.0
 22
0.0
 32
0.0
 14
0.0
 24
0.0
 34
0.0
 15
20000.0
 25
10000.0
 35
0.0
146
0.0
 13
0.0
 23
0.0
 33
0.0
 16
1.0
 26
0.0
 36
0.0
 17
0.0
 27
1.0
 37
0.0
 76
     0
330
1F
331
29
  0
MLINESTYLE
  5
18
102
{ACAD_REACTORS
330
17
102
}
330
17
100
AcDbMlineStyle
  2
Standard
 70
     0
  3

 62
   256
 51
90.0
 52
90.0
 71
     2
 49
0.5
 62
   256
  6
BYLAYER
 49
-0.5
 62
   256
  6
BYLAYER
  0
ACDBPLACEHOLDER
  5
F
102
{ACAD_REACTORS
330
E
102
}
330
E
  0
SCALE
  5
48
102
{ACAD_REACTORS
330
47
102
}
330
47
100
AcDbScale
 70
     0
300
1:1
140
1.0
141
1.0
290
     1
  0
SCALE
  5
49
102
{ACAD_REACTORS
330
47
102
}
330
47
100
AcDbScale
 70
     0
300
1:2
140
1.0
141
2.0
290
     0
  0
SCALE
  5
4A
102
{ACAD_REACTORS
330
47
102
}
330
47
100
AcDbScale
 70
     0
300
1:4
140
1.0
141
4.0
290
     0
  0
SCALE
  5
4B
102
{ACAD_REACTORS
330
47
102
}
330
47
100
AcDbScale
 70
     0
300
1:5
140
1.0
141
5.0
290
     0
  0
SCALE
  5
4C
102
{ACAD_REACTORS
330
47
102
}
330
47
100
AcDbScale
 70
     0
300
1:8
140
1.0
141
8.0
290
     0
  0
SCALE
  5
4D
102
{ACAD_REACTORS
330
47
102
}
330
47
100
AcDbScale
 70
     0
300
1:10
140
1.0
141
10.0
290
     0
  0
SCALE
  5
4E
102
{ACAD_REACTORS
330
47
102
}
330
47
100
AcDbScale
 70
     0
300
1:16
140
1.0
141
16.0
290
     0
  0
SCALE
  5
4F
102
{ACAD_REACTORS
330
47
102
}
330
47
100
AcDbScale
 70
     0
300
1:20
140
1.0
141
20.0
290
     0
  0
SCALE
  5
50
102
{ACAD_REACTORS
330
47
102
}
330
47
100
AcDbScale
 70
     0
300
1:30
140
1.0
141
30.0
290
     0
  0
SCALE
  5
51
102
{ACAD_REACTORS
330
47
102
}
330
47
100
AcDbScale
 70
     0
300
1:40
140
1.0
141
40.0
290
     0
  0
SCALE
  5
52
102
{ACAD_REACTORS
330
47
102
}
330
47
100
AcDbScale
 70
     0
300
1:50
140
1.0
141
50.0
290
     0
  0
SCALE
  5
53
102
{ACAD_REACTORS
330
47
102
}
330
47
100
AcDbScale
 70
     0
300
1:100
140
1.0
141
100.0
290
     0
  0
SCALE
  5
54
102
{ACAD_REACTORS
330
47
102
}
330
47
100
AcDbScale
 70
     0
300
2:1
140
2.0
141
1.0
290
     0
  0
SCALE
  5
55
102
{ACAD_REACTORS
330
47
102
}
330
47
100
AcDbScale
 70
     0
300
4:1
140
4.0
141
1.0
290
     0
  0
SCALE
  5
56
102
{ACAD_REACTORS
330
47
102
}
330
47
100
AcDbScale
 70
     0
300
8:1
140
8.0
141
1.0
290
     0
  0
SCALE
  5
57
102
{ACAD_REACTORS
330
47
102
}
330
47
100
AcDbScale
 70
     0
300
10:1
140
10.0
141
1.0
290
     0
  0
SCALE
  5
58
102
{ACAD_REACTORS
330
47
102
}
330
47
100
AcDbScale
 70
     0
300
100:1
140
100.0
141
1.0
290
     0
  0
SCALE
  5
59
102
{ACAD_REACTORS
330
47
102
}
330
47
100
AcDbScale
 70
     0
300
1/128" = 1'-0"
140
0.0078125
141
12.0
290
     0
  0
SCALE
  5
5A
102
{ACAD_REACTORS
330
47
102
}
330
47
100
AcDbScale
 70
     0
300
1/64" = 1'-0"
140
0.015625
141
12.0
290
     0
  0
SCALE
  5
5B
102
{ACAD_REACTORS
330
47
102
}
330
47
100
AcDbScale
 70
     0
300
1/32" = 1'-0"
140
0.03125
141
12.0
290
     0
  0
SCALE
  5
5C
102
{ACAD_REACTORS
330
47
102
}
330
47
100
AcDbScale
 70
     0
300
1/16" = 1'-0"
140
0.0625
141
12.0
290
     0
  0
SCALE
  5
5D
102
{ACAD_REACTORS
330
47
102
}
330
47
100
AcDbScale
 70
     0
300
3/32" = 1'-0"
140
0.09375
141
12.0
290
     0
  0
SCALE
  5
5E
102
{ACAD_REACTORS
330
47
102
}
330
47
100
AcDbScale
 70
     0
300
1/8" = 1'-0"
140
0.125
141
12.0
290
     0
  0
SCALE
  5
5F
102
{ACAD_REACTORS
330
47
102
}
330
47
100
AcDbScale
 70
     0
300
3/16" = 1'-0"
140
0.1875
141
12.0
290
     0
  0
SCALE
  5
60
102
{ACAD_REACTORS
330
47
102
}
330
47
100
AcDbScale
 70
     0
300
1/4" = 1'-0"
140
0.25
141
12.0
290
     0
  0
SCALE
  5
61
102
{ACAD_REACTORS
330
47
102
}
330
47
100
AcDbScale
 70
     0
300
3/8" = 1'-0"
140
0.375
141
12.0
290
     0
  0
SCALE
  5
62
102
{ACAD_REACTORS
330
47
102
}
330
47
100
AcDbScale
 70
     0
300
1/2" = 1'-0"
140
0.5
141
12.0
290
     0
  0
SCALE
  5
63
102
{ACAD_REACTORS
330
47
102
}
330
47
100
AcDbScale
 70
     0
300
3/4" = 1'-0"
140
0.75
141
12.0
290
     0
  0
SCALE
  5
64
102
{ACAD_REACTORS
330
47
102
}
330
47
100
AcDbScale
 70
     0
300
1" = 1'-0"
140
1.0
141
12.0
290
     0
  0
SCALE
  5
65
102
{ACAD_REACTORS
330
47
102
}
330
47
100
AcDbScale
 70
     0
300
1-1/2" = 1'-0"
140
1.5
141
12.0
290
     0
  0
SCALE
  5
66
102
{ACAD_REACTORS
330
47
102
}
330
47
100
AcDbScale
 70
     0
300
3" = 1'-0"
140
3.0
141
12.0
290
     0
  0
SCALE
  5
67
102
{ACAD_REACTORS
330
47
102
}
330
47
100
AcDbScale
 70
     0
300
6" = 1'-0"
140
6.0
141
12.0
290
     0
  0
SCALE
  5
68
102
{ACAD_REACTORS
330
47
102
}
330
47
100
AcDbScale
 70
     0
300
1'-0" = 1'-0"
140
12.0
141
12.0
290
     0
  0
ENDSEC
  0
EOF
