  0
SECTION
  2
HEADER
  9
$ACADVER
  1
AC1015
  9
$ACADMAINTVER
 70
     6
  9
$DWGCODEPAGE
  3
ANSI_1250
  9
$INSBASE
 10
0.0
 20
0.0
 30
0.0
  9
$EXTMIN
 10
5901.4447390506
 20
4885.4072992708
 30
0.0
  9
$EXTMAX
 10
6323.3587713871
 20
5246.1122795117
 30
0.0
  9
$LIMMIN
 10
0.0
 20
0.0
  9
$LIMMAX
 10
420.0
 20
297.0
  9
$ORTHOMODE
 70
     0
  9
$REGENMODE
 70
     1
  9
$FILLMODE
 70
     1
  9
$QTEXTMODE
 70
     0
  9
$MIRRTEXT
 70
     1
  9
$LTSCALE
 40
1.0
  9
$ATTMODE
 70
     1
  9
$TEXTSIZE
 40
3.5
  9
$TRACEWID
 40
1.0
  9
$TEXTSTYLE
  7
Standard
  9
$CLAYER
  8
0
  9
$CELTYPE
  6
ByLayer
  9
$CECOLOR
 62
   256
  9
$CELTSCALE
 40
1.0
  9
$DISPSILH
 70
     0
  9
$DIMSCALE
 40
1.0
  9
$DIMASZ
 40
3.302
  9
$DIMEXO
 40
0.0
  9
$DIMDLI
 40
3.75
  9
$DIMRND
 40
0.0
  9
$DIMDLE
 40
0.0
  9
$DIMEXE
 40
1.0
  9
$DIMTP
 40
0.0
  9
$DIMTM
 40
0.0
  9
$DIMTXT
 40
3.5
  9
$DIMCEN
 40
2.5
  9
$DIMTSZ
 40
0.0
  9
$DIMTOL
 70
     0
  9
$DIMLIM
 70
     0
  9
$DIMTIH
 70
     1
  9
$DIMTOH
 70
     1
  9
$DIMSE1
 70
     0
  9
$DIMSE2
 70
     0
  9
$DIMTAD
 70
     1
  9
$DIMZIN
 70
     0
  9
$DIMBLK
  1

  9
$DIMASO
 70
     1
  9
$DIMSHO
 70
     1
  9
$DIMPOST
  1

  9
$DIMAPOST
  1

  9
$DIMALT
 70
     0
  9
$DIMALTD
 70
     3
  9
$DIMALTF
 40
0.0393700787
  9
$DIMLFAC
 40
1.0
  9
$DIMTOFL
 70
     1
  9
$DIMTVP
 40
0.0
  9
$DIMTIX
 70
     0
  9
$DIMSOXD
 70
     0
  9
$DIMSAH
 70
     0
  9
$DIMBLK1
  1

  9
$DIMBLK2
  1

  9
$DIMSTYLE
  2
ISO-25
  9
$DIMCLRD
 70
     0
  9
$DIMCLRE
 70
     0
  9
$DIMCLRT
 70
     0
  9
$DIMTFAC
 40
1.0
  9
$DIMGAP
 40
1.524
  9
$DIMJUST
 70
     0
  9
$DIMSD1
 70
     0
  9
$DIMSD2
 70
     0
  9
$DIMTOLJ
 70
     0
  9
$DIMTZIN
 70
     0
  9
$DIMALTZ
 70
     0
  9
$DIMALTTZ
 70
     0
  9
$DIMUPT
 70
     0
  9
$DIMDEC
 70
     2
  9
$DIMTDEC
 70
     2
  9
$DIMALTU
 70
     2
  9
$DIMALTTD
 70
     3
  9
$DIMTXSTY
  7
Standard
  9
$DIMAUNIT
 70
     0
  9
$DIMADEC
 70
     2
  9
$DIMALTRND
 40
0.0
  9
$DIMAZIN
 70
     0
  9
$DIMDSEP
 70
    44
  9
$DIMATFIT
 70
     3
  9
$DIMFRAC
 70
     0
  9
$DIMLDRBLK
  1

  9
$DIMLUNIT
 70
     2
  9
$DIMLWD
 70
    -2
  9
$DIMLWE
 70
    -2
  9
$DIMTMOVE
 70
     0
  9
$LUNITS
 70
     2
  9
$LUPREC
 70
     2
  9
$SKETCHINC
 40
1.0
  9
$FILLETRAD
 40
10.0
  9
$AUNITS
 70
     0
  9
$AUPREC
 70
     2
  9
$MENU
  1
.
  9
$ELEVATION
 40
0.0
  9
$PELEVATION
 40
0.0
  9
$THICKNESS
 40
0.0
  9
$LIMCHECK
 70
     0
  9
$CHAMFERA
 40
0.0
  9
$CHAMFERB
 40
0.0
  9
$CHAMFERC
 40
0.0
  9
$CHAMFERD
 40
0.0
  9
$SKPOLY
 70
     0
  9
$TDCREATE
 40
2459103.531924537
  9
$TDUCREATE
 40
2459103.448591204
  9
$TDUPDATE
 40
2459103.531966956
  9
$TDUUPDATE
 40
2459103.448633623
  9
$TDINDWG
 40
0.0000000116
  9
$TDUSRTIMER
 40
0.0000000116
  9
$USRTIMER
 70
     1
  9
$ANGBASE
 50
0.0
  9
$ANGDIR
 70
     0
  9
$PDMODE
 70
     0
  9
$PDSIZE
 40
-1.0
  9
$PLINEWID
 40
0.0
  9
$SPLFRAME
 70
     0
  9
$SPLINETYPE
 70
     6
  9
$SPLINESEGS
 70
     8
  9
$HANDSEED
  5
2D7
  9
$SURFTAB1
 70
     6
  9
$SURFTAB2
 70
     6
  9
$SURFTYPE
 70
     6
  9
$SURFU
 70
     6
  9
$SURFV
 70
     6
  9
$UCSBASE
  2

  9
$UCSNAME
  2

  9
$UCSORG
 10
0.0
 20
0.0
 30
0.0
  9
$UCSXDIR
 10
1.0
 20
0.0
 30
0.0
  9
$UCSYDIR
 10
0.0
 20
1.0
 30
0.0
  9
$UCSORTHOREF
  2

  9
$UCSORTHOVIEW
 70
     0
  9
$UCSORGTOP
 10
0.0
 20
0.0
 30
0.0
  9
$UCSORGBOTTOM
 10
0.0
 20
0.0
 30
0.0
  9
$UCSORGLEFT
 10
0.0
 20
0.0
 30
0.0
  9
$UCSORGRIGHT
 10
0.0
 20
0.0
 30
0.0
  9
$UCSORGFRONT
 10
0.0
 20
0.0
 30
0.0
  9
$UCSORGBACK
 10
0.0
 20
0.0
 30
0.0
  9
$PUCSBASE
  2

  9
$PUCSNAME
  2

  9
$PUCSORG
 10
0.0
 20
0.0
 30
0.0
  9
$PUCSXDIR
 10
1.0
 20
0.0
 30
0.0
  9
$PUCSYDIR
 10
0.0
 20
1.0
 30
0.0
  9
$PUCSORTHOREF
  2

  9
$PUCSORTHOVIEW
 70
     0
  9
$PUCSORGTOP
 10
0.0
 20
0.0
 30
0.0
  9
$PUCSORGBOTTOM
 10
0.0
 20
0.0
 30
0.0
  9
$PUCSORGLEFT
 10
0.0
 20
0.0
 30
0.0
  9
$PUCSORGRIGHT
 10
0.0
 20
0.0
 30
0.0
  9
$PUCSORGFRONT
 10
0.0
 20
0.0
 30
0.0
  9
$PUCSORGBACK
 10
0.0
 20
0.0
 30
0.0
  9
$USERI1
 70
     0
  9
$USERI2
 70
     0
  9
$USERI3
 70
     0
  9
$USERI4
 70
     0
  9
$USERI5
 70
     0
  9
$USERR1
 40
0.0
  9
$USERR2
 40
0.0
  9
$USERR3
 40
0.0
  9
$USERR4
 40
0.0
  9
$USERR5
 40
0.0
  9
$WORLDVIEW
 70
     1
  9
$SHADEDGE
 70
     3
  9
$SHADEDIF
 70
    70
  9
$TILEMODE
 70
     1
  9
$MAXACTVP
 70
    64
  9
$PINSBASE
 10
0.0
 20
0.0
 30
0.0
  9
$PLIMCHECK
 70
     0
  9
$PEXTMIN
 10
1.0000000000E+20
 20
1.0000000000E+20
 30
1.0000000000E+20
  9
$PEXTMAX
 10
-1.0000000000E+20
 20
-1.0000000000E+20
 30
-1.0000000000E+20
  9
$PLIMMIN
 10
0.0
 20
0.0
  9
$PLIMMAX
 10
420.0
 20
297.0
  9
$UNITMODE
 70
     0
  9
$VISRETAIN
 70
     1
  9
$PLINEGEN
 70
     0
  9
$PSLTSCALE
 70
     1
  9
$TREEDEPTH
 70
  3020
  9
$CMLSTYLE
  2
Standard
  9
$CMLJUST
 70
     0
  9
$CMLSCALE
 40
20.0
  9
$PROXYGRAPHICS
 70
     1
  9
$MEASUREMENT
 70
     1
  9
$CELWEIGHT
370
    -1
  9
$ENDCAPS
280
     0
  9
$JOINSTYLE
280
     0
  9
$LWDISPLAY
290
     1
  9
$INSUNITS
 70
     4
  9
$HYPERLINKBASE
  1

  9
$STYLESHEET
  1

  9
$XEDIT
290
     1
  9
$CEPSNTYPE
380
     0
  9
$PSTYLEMODE
290
     1
  9
$FINGERPRINTGUID
  2
{5e86ed9a-a1ce-450b-b685-f5f1f66abee6}
  9
$VERSIONGUID
  2
{FAEB1C32-E019-11D5-929B-00C0DF256EC4}
  9
$EXTNAMES
290
     1
  9
$PSVPSCALE
 40
0.0
  9
$OLESTARTUP
290
     0
  0
ENDSEC
  0
SECTION
  2
CLASSES
  0
CLASS
  1
ACDBDICTIONARYWDFLT
  2
AcDbDictionaryWithDefault
  3
ObjectDBX Classes
 90
        0
280
     0
281
     0
  0
CLASS
  1
VISUALSTYLE
  2
AcDbVisualStyle
  3
ObjectDBX Classes
 90
     4095
280
     0
281
     0
  0
CLASS
  1
MATERIAL
  2
AcDbMaterial
  3
ObjectDBX Classes
 90
     1153
280
     0
281
     0
  0
CLASS
  1
SCALE
  2
AcDbScale
  3
ObjectDBX Classes
 90
     1153
280
     0
281
     0
  0
CLASS
  1
TABLESTYLE
  2
AcDbTableStyle
  3
ObjectDBX Classes
 90
     4095
280
     0
281
     0
  0
CLASS
  1
MLEADERSTYLE
  2
AcDbMLeaderStyle
  3
ACDB_MLEADERSTYLE_CLASS
 90
     4095
280
     0
281
     0
  0
CLASS
  1
SUN
  2
AcDbSun
  3
SCENEOE
 90
     1153
280
     0
281
     0
  0
CLASS
  1
ACDBPLACEHOLDER
  2
AcDbPlaceHolder
  3
ObjectDBX Classes
 90
        0
280
     0
281
     0
  0
CLASS
  1
LAYOUT
  2
AcDbLayout
  3
ObjectDBX Classes
 90
        0
280
     0
281
     0
  0
ENDSEC
  0
SECTION
  2
TABLES
  0
TABLE
  2
VPORT
  5
8
330
0
100
AcDbSymbolTable
 70
     1
  0
VPORT
  5
29
330
8
100
AcDbSymbolTableRecord
100
AcDbViewportTableRecord
  2
*Active
 70
     0
 10
0.0
 20
0.0
 11
1.0
 21
1.0
 12
6112.4017552188
 22
5065.7597893912
 13
0.0
 23
0.0
 14
10.0
 24
10.0
 15
10.0
 25
10.0
 16
0.0
 26
0.0
 36
1.0
 17
0.0
 27
0.0
 37
0.0
 40
367.9190798457
 41
1.1696928389
 42
50.0
 43
0.0
 44
0.0
 50
0.0
 51
0.0
 71
     0
 72
   100
 73
     1
 74
     3
 75
     0
 76
     0
 77
     0
 78
     0
281
     0
 65
     1
110
0.0
120
0.0
130
0.0
111
1.0
121
0.0
131
0.0
112
0.0
122
1.0
132
0.0
 79
     0
146
0.0
  0
ENDTAB
  0
TABLE
  2
LTYPE
  5
5
330
0
100
AcDbSymbolTable
 70
     6
  0
LTYPE
  5
14
330
5
100
AcDbSymbolTableRecord
100
AcDbLinetypeTableRecord
  2
ByBlock
 70
     0
  3

 72
    65
 73
     0
 40
0.0
  0
LTYPE
  5
15
330
5
100
AcDbSymbolTableRecord
100
AcDbLinetypeTableRecord
  2
ByLayer
 70
     0
  3

 72
    65
 73
     0
 40
0.0
  0
LTYPE
  5
16
330
5
100
AcDbSymbolTableRecord
100
AcDbLinetypeTableRecord
  2
Continuous
 70
     0
  3
Solid line
 72
    65
 73
     0
 40
0.0
  0
LTYPE
  5
6E
330
5
100
AcDbSymbolTableRecord
100
AcDbLinetypeTableRecord
  2
HIDDEN
 70
     0
  3
Hidden __ __ __ __ __ __ __ __ __ __ __ __ __ __
 72
    65
 73
     2
 40
1.905
 49
1.27
 74
     0
 49
-0.635
 74
     0
  0
LTYPE
  5
6F
330
5
100
AcDbSymbolTableRecord
100
AcDbLinetypeTableRecord
  2
PHANTOM
 70
     0
  3
Phantom ______  __  __  ______  __  __  ______
 72
    65
 73
     6
 40
12.7
 49
6.35
 74
     0
 49
-1.27
 74
     0
 49
1.27
 74
     0
 49
-1.27
 74
     0
 49
1.27
 74
     0
 49
-1.27
 74
     0
  0
LTYPE
  5
70
330
5
100
AcDbSymbolTableRecord
100
AcDbLinetypeTableRecord
  2
CENTER
 70
     0
  3
Center ____ _ ____ _ ____ _ ____ _ ____ _ ____
 72
    65
 73
     4
 40
10.16
 49
6.35
 74
     0
 49
-1.27
 74
     0
 49
1.27
 74
     0
 49
-1.27
 74
     0
  0
LTYPE
  5
71
330
5
100
AcDbSymbolTableRecord
100
AcDbLinetypeTableRecord
  2
CENTERX2
 70
     0
  3
Center (2x) ________  __  ________  __  _____
 72
    65
 73
     4
 40
20.32
 49
12.7
 74
     0
 49
-2.54
 74
     0
 49
2.54
 74
     0
 49
-2.54
 74
     0
  0
LTYPE
  5
72
330
5
100
AcDbSymbolTableRecord
100
AcDbLinetypeTableRecord
  2
DOT2
 70
     0
  3
Dot (.5x) ........................................
 72
    65
 73
     2
 40
0.635
 49
0.0
 74
     0
 49
-0.635
 74
     0
  0
ENDTAB
  0
TABLE
  2
LAYER
  5
2
330
0
100
AcDbSymbolTable
 70
     1
  0
LAYER
  5
10
330
2
100
AcDbSymbolTableRecord
100
AcDbLayerTableRecord
  2
0
 70
     0
 62
     7
  6
Continuous
370
    -3
390
F
  0
ENDTAB
  0
TABLE
  2
STYLE
  5
3
330
0
100
AcDbSymbolTable
 70
     1
  0
STYLE
  5
11
330
3
100
AcDbSymbolTableRecord
100
AcDbTextStyleTableRecord
  2
Standard
 70
     0
 40
0.0
 41
1.0
 50
0.0
 71
     0
 42
3.5
  3
txt
  4

  0
ENDTAB
  0
TABLE
  2
VIEW
  5
6
330
0
100
AcDbSymbolTable
 70
     0
  0
ENDTAB
  0
TABLE
  2
UCS
  5
7
330
0
100
AcDbSymbolTable
 70
     0
  0
ENDTAB
  0
TABLE
  2
APPID
  5
9
330
0
100
AcDbSymbolTable
 70
     1
  0
APPID
  5
12
330
9
100
AcDbSymbolTableRecord
100
AcDbRegAppTableRecord
  2
ACAD
 70
     0
  0
ENDTAB
  0
TABLE
  2
DIMSTYLE
  5
A
330
0
100
AcDbSymbolTable
 70
     1
100
AcDbDimStyleTable
  0
DIMSTYLE
105
27
330
A
100
AcDbSymbolTableRecord
100
AcDbDimStyleTableRecord
  2
ISO-25
 70
     0
 41
2.5
 42
0.625
 43
3.75
 44
1.25
 73
     0
 74
     0
 77
     1
 78
     8
140
2.5
141
2.5
143
0.0393700787
147
0.625
171
     3
172
     1
178
     0
271
     2
272
     2
274
     3
278
    44
283
     0
284
     8
340
11
  0
ENDTAB
  0
TABLE
  2
BLOCK_RECORD
  5
1
330
0
100
AcDbSymbolTable
 70
     1
  0
BLOCK_RECORD
  5
1F
330
1
100
AcDbSymbolTableRecord
100
AcDbBlockTableRecord
  2
*Model_Space
340
22
  0
BLOCK_RECORD
  5
1B
330
1
100
AcDbSymbolTableRecord
100
AcDbBlockTableRecord
  2
*Paper_Space
340
1E
  0
BLOCK_RECORD
  5
23
330
1
100
AcDbSymbolTableRecord
100
AcDbBlockTableRecord
  2
*Paper_Space0
340
26
  0
ENDTAB
  0
ENDSEC
  0
SECTION
  2
BLOCKS
  0
BLOCK
  5
20
330
1F
100
AcDbEntity
  8
0
100
AcDbBlockBegin
  2
*Model_Space
 70
     0
 10
0.0
 20
0.0
 30
0.0
  3
*Model_Space
  1

  0
ENDBLK
  5
21
330
1F
100
AcDbEntity
  8
0
100
AcDbBlockEnd
  0
BLOCK
  5
1C
330
1B
100
AcDbEntity
 67
     1
  8
0
100
AcDbBlockBegin
  2
*Paper_Space
 70
     0
 10
0.0
 20
0.0
 30
0.0
  3
*Paper_Space
  1

  0
ENDBLK
  5
1D
330
1B
100
AcDbEntity
 67
     1
  8
0
100
AcDbBlockEnd
  0
BLOCK
  5
24
330
23
100
AcDbEntity
  8
0
100
AcDbBlockBegin
  2
*Paper_Space0
 70
     0
 10
0.0
 20
0.0
 30
0.0
  3
*Paper_Space0
  1

  0
ENDBLK
  5
25
330
23
100
AcDbEntity
  8
0
100
AcDbBlockEnd
  0
ENDSEC
  0
SECTION
  2
ENTITIES
  0
ARC
  5
73
330
1F
100
AcDbEntity
  8
0
  6
Continuous
 62
     7
100
AcDbCircle
 10
6236.8128034591
 20
5218.2963121893
 30
0.0
 40
1.950000000058236
100
AcDbArc
 50
130.0000000025
 51
190.000000002
  0
ARC
  5
74
330
1F
100
AcDbEntity
  8
0
  6
Continuous
 62
     7
100
AcDbCircle
 10
6235.2320158487
 20
5218.0175766828
 30
0.0
 40
0.3448261926578158
100
AcDbArc
 50
113.4990784113
 51
190.0000000128
  0
ARC
  5
75
330
1F
100
AcDbEntity
  8
0
  6
Continuous
 62
     7
100
AcDbCircle
 10
6235.7810176243
 20
5219.5259466647
 30
0.0
 40
0.3448261925639908
100
AcDbArc
 50
130.0000000134
 51
206.5009215987
  0
ARC
  5
76
330
1F
100
AcDbEntity
  8
0
  6
Continuous
 62
     7
100
AcDbCircle
 10
6234.7908449583
 20
5219.0322448985
 30
0.0
 40
0.7616019987307274
100
AcDbArc
 50
293.4990784037
 51
26.5009215964
  0
ARC
  5
77
330
1F
100
AcDbEntity
  8
0
  6
Continuous
 62
     7
100
AcDbCircle
 10
6236.4391606304
 20
5220.415345971
 30
0.0
 40
0.7616019987314425
100
AcDbArc
 50
233.4990784032
 51
326.5009215963
  0
ARC
  5
78
330
1F
100
AcDbEntity
  8
0
  6
Continuous
 62
     7
100
AcDbCircle
 10
6236.8128034591
 20
5218.2963121893
 30
0.0
 40
1.9499999999999
100
AcDbArc
 50
70.0
 51
130.0000000025
  0
ARC
  5
79
330
1F
100
AcDbEntity
  8
0
  6
Continuous
 62
     7
100
AcDbCircle
 10
6237.3618052348
 20
5219.8046821712
 30
0.0
 40
0.3448261925752346
100
AcDbArc
 50
69.9999999958
 51
146.5009215962
  0
ARC
  5
7A
330
1F
100
AcDbEntity
  8
0
  6
Continuous
 62
     7
100
AcDbCircle
 10
6235.7810176243
 20
5219.5259466647
 30
0.0
 40
0.3448261925429897
100
AcDbArc
 50
53.4990784048
 51
130.0000000134
  0
CIRCLE
  5
7B
330
1F
100
AcDbEntity
  8
0
  6
Continuous
 62
     7
100
AcDbCircle
 10
6236.8128034591
 20
5218.2963121893
 30
0.0
 40
3.799999999953798
  0
ARC
  5
7C
330
1F
100
AcDbEntity
  8
0
  6
Continuous
 62
     7
100
AcDbCircle
 10
6236.8128034591
 20
5218.2963121893
 30
0.0
 40
1.950000000058236
100
AcDbArc
 50
190.000000002
 51
250.0
  0
ARC
  5
7D
330
1F
100
AcDbEntity
  8
0
  6
Continuous
 62
     7
100
AcDbCircle
 10
6236.8128034591
 20
5218.2963121893
 30
0.0
 40
1.95000000000174
100
AcDbArc
 50
250.0
 51
310.0
  0
ARC
  5
7E
330
1F
100
AcDbEntity
  8
0
  6
Continuous
 62
     7
100
AcDbCircle
 10
6236.8128034591
 20
5218.2963121893
 30
0.0
 40
1.95000000000174
100
AcDbArc
 50
310.0
 51
10.0
  0
ARC
  5
7F
330
1F
100
AcDbEntity
  8
0
  6
Continuous
 62
     7
100
AcDbCircle
 10
6236.8128034591
 20
5218.2963121893
 30
0.0
 40
1.950000000000923
100
AcDbArc
 50
10.0
 51
70.0
  0
ARC
  5
80
330
1F
100
AcDbEntity
  8
0
  6
Continuous
 62
     7
100
AcDbCircle
 10
6238.4611191312
 20
5219.6794132618
 30
0.0
 40
0.7616019987324404
100
AcDbArc
 50
173.4990784037
 51
266.5009216025
  0
ARC
  5
81
330
1F
100
AcDbEntity
  8
0
  6
Continuous
 62
     7
100
AcDbCircle
 10
6238.3935910696
 20
5218.5750476958
 30
0.0
 40
0.3448261925610958
100
AcDbArc
 50
10.0
 51
86.5009215964
  0
ARC
  5
82
330
1F
100
AcDbEntity
  8
0
  6
Continuous
 62
     7
100
AcDbCircle
 10
6237.3618052348
 20
5219.8046821712
 30
0.0
 40
0.3448261925752346
100
AcDbArc
 50
353.4990784037
 51
69.9999999958
  0
CIRCLE
  5
83
330
1F
100
AcDbEntity
  8
0
  6
Continuous
 62
     7
100
AcDbCircle
 10
6236.8128034591
 20
5218.2963121893
 30
0.0
 40
0.5499999999537977
  0
ARC
  5
84
330
1F
100
AcDbEntity
  8
0
  6
Continuous
 62
     7
100
AcDbCircle
 10
6236.2638016835
 20
5216.7879422073
 30
0.0
 40
0.3448261925634261
100
AcDbArc
 50
249.9999999977
 51
326.5009215958
  0
ARC
  5
85
330
1F
100
AcDbEntity
  8
0
  6
Continuous
 62
     7
100
AcDbCircle
 10
6237.1864462879
 20
5216.1772784075
 30
0.0
 40
0.7616019987316653
100
AcDbArc
 50
53.4990784008
 51
146.5009215974
  0
ARC
  5
86
330
1F
100
AcDbEntity
  8
0
  6
Continuous
 62
     7
100
AcDbCircle
 10
6237.844589294
 20
5217.0666777138
 30
0.0
 40
0.344826192562963
100
AcDbArc
 50
233.4990784039
 51
310.0000000001
  0
ARC
  5
87
330
1F
100
AcDbEntity
  8
0
  6
Continuous
 62
     7
100
AcDbCircle
 10
6238.83476196
 20
5217.56037948
 30
0.0
 40
0.761601998732282
100
AcDbArc
 50
113.4990784008
 51
206.5009216009
  0
ARC
  5
88
330
1F
100
AcDbEntity
  8
0
  6
Continuous
 62
     7
100
AcDbCircle
 10
6238.3935910696
 20
5218.5750476958
 30
0.0
 40
0.3448261925610958
100
AcDbArc
 50
293.4990784037
 51
10.0
  0
ARC
  5
89
330
1F
100
AcDbEntity
  8
0
  6
Continuous
 62
     7
100
AcDbCircle
 10
6237.844589294
 20
5217.0666777138
 30
0.0
 40
0.3448261925648207
100
AcDbArc
 50
310.0000000001
 51
26.5009215963
  0
ARC
  5
8A
330
1F
100
AcDbEntity
  8
0
  6
Continuous
 62
     7
100
AcDbCircle
 10
6235.1644877871
 20
5216.9132111167
 30
0.0
 40
0.7616019987312839
100
AcDbArc
 50
353.4990784058
 51
86.5009215949
  0
ARC
  5
8B
330
1F
100
AcDbEntity
  8
0
  6
Continuous
 62
     7
100
AcDbCircle
 10
6236.2638016835
 20
5216.7879422073
 30
0.0
 40
0.3448261925323389
100
AcDbArc
 50
173.4990784051
 51
249.9999999977
  0
ARC
  5
8C
330
1F
100
AcDbEntity
  8
0
  6
Continuous
 62
     7
100
AcDbCircle
 10
6235.2320158487
 20
5218.0175766828
 30
0.0
 40
0.3448261926578158
100
AcDbArc
 50
190.0000000128
 51
266.5009216
  0
ARC
  5
8D
330
1F
100
AcDbEntity
  8
0
  6
Continuous
 62
     7
100
AcDbCircle
 10
6302.5912869142
 20
5194.3549021565
 30
0.0
 40
1.949999999998383
100
AcDbArc
 50
130.0000000011
 51
190.0000000023
  0
ARC
  5
8E
330
1F
100
AcDbEntity
  8
0
  6
Continuous
 62
     7
100
AcDbCircle
 10
6301.0104993037
 20
5194.07616665
 30
0.0
 40
0.3448261925647811
100
AcDbArc
 50
113.4990784112
 51
190.0000000153
  0
ARC
  5
8F
330
1F
100
AcDbEntity
  8
0
  6
Continuous
 62
     7
100
AcDbCircle
 10
6301.5595010793
 20
5195.5845366319
 30
0.0
 40
0.3448261925643943
100
AcDbArc
 50
130.0000000009
 51
206.5009215992
  0
ARC
  5
90
330
1F
100
AcDbEntity
  8
0
  6
Continuous
 62
     7
100
AcDbCircle
 10
6300.5693284133
 20
5195.0908348657
 30
0.0
 40
0.7616019987317747
100
AcDbArc
 50
293.4990784038
 51
26.5009215962
  0
ARC
  5
91
330
1F
100
AcDbEntity
  8
0
  6
Continuous
 62
     7
100
AcDbCircle
 10
6302.2176440853
 20
5196.4739359381
 30
0.0
 40
0.7616019987311197
100
AcDbArc
 50
233.4990784035
 51
326.5009215965
  0
ARC
  5
92
330
1F
100
AcDbEntity
  8
0
  6
Continuous
 62
     7
100
AcDbCircle
 10
6302.5912869142
 20
5194.3549021565
 30
0.0
 40
1.950000000000987
100
AcDbArc
 50
70.0
 51
130.0000000011
  0
ARC
  5
93
330
1F
100
AcDbEntity
  8
0
  6
Continuous
 62
     7
100
AcDbCircle
 10
6303.1402886898
 20
5195.8632721384
 30
0.0
 40
0.3448261925902412
100
AcDbArc
 50
69.9999999902
 51
146.5009216099
  0
ARC
  5
94
330
1F
100
AcDbEntity
  8
0
  6
Continuous
 62
     7
100
AcDbCircle
 10
6301.5595010793
 20
5195.5845366319
 30
0.0
 40
0.3448261924580224
100
AcDbArc
 50
53.4990784043
 51
130.0000000009
  0
CIRCLE
  5
95
330
1F
100
AcDbEntity
  8
0
  6
Continuous
 62
     7
100
AcDbCircle
 10
6302.5912869142
 20
5194.3549021565
 30
0.0
 40
3.800000000015643
  0
ARC
  5
96
330
1F
100
AcDbEntity
  8
0
  6
Continuous
 62
     7
100
AcDbCircle
 10
6302.5912869142
 20
5194.3549021565
 30
0.0
 40
1.950000000000211
100
AcDbArc
 50
190.0000000023
 51
250.0
  0
ARC
  5
97
330
1F
100
AcDbEntity
  8
0
  6
Continuous
 62
     7
100
AcDbCircle
 10
6302.5912869142
 20
5194.3549021565
 30
0.0
 40
1.950000000000459
100
AcDbArc
 50
250.0
 51
310.0
  0
ARC
  5
98
330
1F
100
AcDbEntity
  8
0
  6
Continuous
 62
     7
100
AcDbCircle
 10
6302.5912869142
 20
5194.3549021565
 30
0.0
 40
1.950000000000459
100
AcDbArc
 50
310.0
 51
10.0
  0
ARC
  5
99
330
1F
100
AcDbEntity
  8
0
  6
Continuous
 62
     7
100
AcDbCircle
 10
6302.5912869142
 20
5194.3549021565
 30
0.0
 40
1.950000000000987
100
AcDbArc
 50
10.0
 51
70.0
  0
ARC
  5
9A
330
1F
100
AcDbEntity
  8
0
  6
Continuous
 62
     7
100
AcDbCircle
 10
6304.2396025862
 20
5195.738003229
 30
0.0
 40
0.7616019987339229
100
AcDbArc
 50
173.4990784042
 51
266.5009216029
  0
ARC
  5
9B
330
1F
100
AcDbEntity
  8
0
  6
Continuous
 62
     7
100
AcDbCircle
 10
6304.1720745247
 20
5194.633637663
 30
0.0
 40
0.3448261925614117
100
AcDbArc
 50
10.0000000003
 51
86.5009215964
  0
ARC
  5
9C
330
1F
100
AcDbEntity
  8
0
  6
Continuous
 62
     7
100
AcDbCircle
 10
6303.1402886898
 20
5195.8632721384
 30
0.0
 40
0.3448261925902412
100
AcDbArc
 50
353.4990784038
 51
69.9999999902
  0
ARC
  5
9D
330
1F
100
AcDbEntity
  8
0
  6
Continuous
 62
     7
100
AcDbCircle
 10
6303.623072749
 20
5193.125267681
 30
0.0
 40
0.344826192562771
100
AcDbArc
 50
310.0000000088
 51
26.5009215986
  0
ARC
  5
9E
330
1F
100
AcDbEntity
  8
0
  6
Continuous
 62
     7
100
AcDbCircle
 10
6304.613245415
 20
5193.6189694472
 30
0.0
 40
0.7616019987416688
100
AcDbArc
 50
113.4990784011
 51
206.5009215991
  0
ARC
  5
9F
330
1F
100
AcDbEntity
  8
0
  6
Continuous
 62
     7
100
AcDbCircle
 10
6304.1720745247
 20
5194.633637663
 30
0.0
 40
0.3448261925614117
100
AcDbArc
 50
293.4990784037
 51
10.0000000003
  0
CIRCLE
  5
A0
330
1F
100
AcDbEntity
  8
0
  6
Continuous
 62
     7
100
AcDbCircle
 10
6302.5912869142
 20
5194.3549021565
 30
0.0
 40
0.5500000000165528
  0
ARC
  5
A1
330
1F
100
AcDbEntity
  8
0
  6
Continuous
 62
     7
100
AcDbCircle
 10
6300.9429712421
 20
5192.971801084
 30
0.0
 40
0.761601998731168
100
AcDbArc
 50
353.4990784056
 51
86.500921595
  0
ARC
  5
A2
330
1F
100
AcDbEntity
  8
0
  6
Continuous
 62
     7
100
AcDbCircle
 10
6302.0422851385
 20
5192.8465321745
 30
0.0
 40
0.3448261925691266
100
AcDbArc
 50
173.4990783886
 51
249.9999999974
  0
ARC
  5
A3
330
1F
100
AcDbEntity
  8
0
  6
Continuous
 62
     7
100
AcDbCircle
 10
6301.0104993037
 20
5194.07616665
 30
0.0
 40
0.3448261925607668
100
AcDbArc
 50
190.0000000153
 51
266.5009215995
  0
ARC
  5
A4
330
1F
100
AcDbEntity
  8
0
  6
Continuous
 62
     7
100
AcDbCircle
 10
6302.0422851385
 20
5192.8465321745
 30
0.0
 40
0.3448261925300992
100
AcDbArc
 50
249.9999999974
 51
326.5009215943
  0
ARC
  5
A5
330
1F
100
AcDbEntity
  8
0
  6
Continuous
 62
     7
100
AcDbCircle
 10
6302.9649297429
 20
5192.2358683747
 30
0.0
 40
0.7616019987310475
100
AcDbArc
 50
53.4990784007
 51
146.5009215974
  0
ARC
  5
A6
330
1F
100
AcDbEntity
  8
0
  6
Continuous
 62
     7
100
AcDbCircle
 10
6303.623072749
 20
5193.125267681
 30
0.0
 40
0.3448261925424487
100
AcDbArc
 50
233.4990784049
 51
310.0000000088
  0
ARC
  5
A7
330
1F
100
AcDbEntity
  8
0
  6
Continuous
 62
     7
100
AcDbCircle
 10
6229.6787408686
 20
5241.1122793418
 30
0.0
 40
4.000000000000855
100
AcDbArc
 50
70.0000088884
 51
180.0000359864
  0
ARC
  5
A8
330
1F
100
AcDbEntity
  8
0
  6
Continuous
 62
     7
100
AcDbCircle
 10
6229.6787408686
 20
5241.1122793418
 30
0.0
 40
4.999998301300088
100
AcDbArc
 50
69.9999884865
 51
180.0000287891
  0
ARC
  5
A9
330
1F
100
AcDbEntity
  8
0
  6
Continuous
 62
     7
100
AcDbCircle
 10
6318.3587694806
 20
5208.8353837659
 30
0.0
 40
5.000001906448304
100
AcDbArc
 50
0.000009655
 51
70.0000225372
  0
ARC
  5
AA
330
1F
100
AcDbEntity
  8
0
  6
Continuous
 62
     7
100
AcDbCircle
 10
6318.3587694806
 20
5208.8353837659
 30
0.0
 40
4.000000741559695
100
AcDbArc
 50
0.000039603
 51
70.0000081303
  0
ARC
  5
AB
330
1F
100
AcDbEntity
  8
0
  6
Continuous
 62
     7
100
AcDbCircle
 10
6229.6787408686
 20
5186.28663298
 30
0.0
 40
4.000000000000963
100
AcDbArc
 50
180.0000022818
 51
270.0000093922
  0
ARC
  5
AC
330
1F
100
AcDbEntity
  8
0
  6
Continuous
 62
     7
100
AcDbCircle
 10
6229.6787408686
 20
5186.28663298
 30
0.0
 40
4.999998301300408
100
AcDbArc
 50
180.0000018255
 51
270.0000075138
  0
ARC
  5
AD
330
1F
100
AcDbEntity
  8
0
  6
Continuous
 62
     7
100
AcDbCircle
 10
6318.3587693966
 20
5186.2866338056
 30
0.0
 40
4.999999126900657
100
AcDbArc
 50
270.000011953
 51
359.9999987189
  0
ARC
  5
AE
330
1F
100
AcDbEntity
  8
0
  6
Continuous
 62
     7
100
AcDbCircle
 10
6318.3587693966
 20
5186.2866338056
 30
0.0
 40
4.000000825601227
100
AcDbArc
 50
270.0000149413
 51
359.9999983986
  0
ARC
  5
AF
330
1F
100
AcDbEntity
  8
0
  6
Continuous
 62
     7
100
AcDbCircle
 10
6260.6568108659
 20
5214.5130196157
 30
0.0
 40
1.500000000002009
100
AcDbArc
 50
159.9999636969
 51
250.0000144778
  0
ARC
  5
B0
330
1F
100
AcDbEntity
  8
0
  6
Continuous
 62
     7
100
AcDbCircle
 10
6271.4632764381
 20
5210.579789161
 30
0.0
 40
1.49999999999999
100
AcDbArc
 50
250.000010048
 51
340.0000378292
  0
ARC
  5
B1
330
1F
100
AcDbEntity
  8
0
  6
Continuous
 62
     7
100
AcDbCircle
 10
6272.674028107
 20
5213.9063019767
 30
0.0
 40
1.500000000000924
100
AcDbArc
 50
339.9999644523
 51
70.0000165646
  0
ARC
  5
B2
330
1F
100
AcDbEntity
  8
0
  6
Continuous
 62
     7
100
AcDbCircle
 10
6261.8675628773
 20
5217.8395342752
 30
0.0
 40
1.499999999999767
100
AcDbArc
 50
70.000014226
 51
160.0000363085
  0
ARC
  5
B3
330
1F
100
AcDbEntity
  8
0
  6
Continuous
 62
     7
100
AcDbCircle
 10
5933.1447402527
 20
5186.2186523393
 30
0.0
 40
4.021952970229554
100
AcDbArc
 50
291.4505712908
 51
316.3286502606
  0
ARC
  5
B4
330
1F
100
AcDbEntity
  8
0
  6
Continuous
 62
     7
100
AcDbCircle
 10
5933.1447402527
 20
5186.2186523393
 30
0.0
 40
4.021952487598941
100
AcDbArc
 50
223.6713540288
 51
248.5494522726
  0
ARC
  5
B5
330
1F
100
AcDbEntity
  8
0
  6
Continuous
 62
     7
100
AcDbCircle
 10
5993.1447409836
 20
5186.2186529939
 30
0.0
 40
4.021952970227747
100
AcDbArc
 50
291.4505384436
 51
316.3286336543
  0
ARC
  5
B6
330
1F
100
AcDbEntity
  8
0
  6
Continuous
 62
     7
100
AcDbCircle
 10
5993.1447409836
 20
5186.2186529939
 30
0.0
 40
4.021953854590035
100
AcDbArc
 50
223.6713547987
 51
248.5494282106
  0
ARC
  5
B7
330
1F
100
AcDbEntity
  8
0
  6
Continuous
 62
     7
100
AcDbCircle
 10
6021.3271267732
 20
5194.3549021564
 30
0.0
 40
4.021952970229385
100
AcDbArc
 50
29.0019302679
 51
70.8765008164
  0
ARC
  5
B8
330
1F
100
AcDbEntity
  8
0
  6
Continuous
 62
     7
100
AcDbCircle
 10
6021.3271267732
 20
5194.3549021564
 30
0.0
 40
4.021952970228685
100
AcDbArc
 50
289.1234991836
 51
330.9980697322
  0
ARC
  5
B9
330
1F
100
AcDbEntity
  8
0
  6
Continuous
 62
     7
100
AcDbCircle
 10
5904.9623523641
 20
5218.2963127784
 30
0.0
 40
4.021952952729771
100
AcDbArc
 50
209.0019393038
 51
250.8765257398
  0
ARC
  5
BA
330
1F
100
AcDbEntity
  8
0
  6
Continuous
 62
     7
100
AcDbCircle
 10
5904.9623523641
 20
5218.2963127784
 30
0.0
 40
4.02195192020026
100
AcDbArc
 50
109.12347961
 51
150.9980872302
  0
ARC
  5
BB
330
1F
100
AcDbEntity
  8
0
  6
Continuous
 62
     7
100
AcDbCircle
 10
5904.9623522592
 20
5194.3549028406
 30
0.0
 40
4.021952781656625
100
AcDbArc
 50
209.0019379901
 51
250.876523064
  0
ARC
  5
BC
330
1F
100
AcDbEntity
  8
0
  6
Continuous
 62
     7
100
AcDbCircle
 10
5904.9623522592
 20
5194.3549028406
 30
0.0
 40
4.021952359343631
100
AcDbArc
 50
109.1234817114
 51
150.9980728626
  0
ARC
  5
BD
330
1F
100
AcDbEntity
  8
0
  6
Continuous
 62
     7
100
AcDbCircle
 10
6021.3271267732
 20
5218.2963121892
 30
0.0
 40
4.021952970228944
100
AcDbArc
 50
29.0019302679
 51
70.8765008164
  0
ARC
  5
BE
330
1F
100
AcDbEntity
  8
0
  6
Continuous
 62
     7
100
AcDbCircle
 10
6021.3271267732
 20
5218.2963121892
 30
0.0
 40
4.021952970229416
100
AcDbArc
 50
289.1234991836
 51
330.9980697322
  0
ARC
  5
BF
330
1F
100
AcDbEntity
  8
0
  6
Continuous
 62
     7
100
AcDbCircle
 10
5933.5966925737
 20
5185.1417960532
 30
0.0
 40
2.854534814491077
100
AcDbArc
 50
280.5581966083
 51
290.9117854093
  0
ARC
  5
C0
330
1F
100
AcDbEntity
  8
0
  6
Continuous
 62
     7
100
AcDbCircle
 10
5933.1447410802
 20
5187.5532213452
 30
0.0
 40
5.307946495917318
100
AcDbArc
 50
259.4154200189
 51
280.5845799813
  0
ARC
  5
C1
330
1F
100
AcDbEntity
  8
0
  6
Continuous
 62
     7
100
AcDbCircle
 10
5932.6927709982
 20
5185.1417326036
 30
0.0
 40
2.854469033090982
100
AcDbArc
 50
249.0881108084
 51
259.4419368241
  0
ARC
  5
C2
330
1F
100
AcDbEntity
  8
0
  6
Continuous
 62
     7
100
AcDbCircle
 10
5993.5967099636
 20
5185.1417326302
 30
0.0
 40
2.854469033092627
100
AcDbArc
 50
280.558060265
 51
290.9118858491
  0
ARC
  5
C3
330
1F
100
AcDbEntity
  8
0
  6
Continuous
 62
     7
100
AcDbCircle
 10
5993.1447397392
 20
5187.5532213452
 30
0.0
 40
5.307946495918226
100
AcDbArc
 50
259.4154200177
 51
280.5845799801
  0
ARC
  5
C4
330
1F
100
AcDbEntity
  8
0
  6
Continuous
 62
     7
100
AcDbCircle
 10
5992.6927875693
 20
5185.1417961793
 30
0.0
 40
2.854534814489925
100
AcDbArc
 50
249.0882304336
 51
259.4418171989
  0
ARC
  5
C5
330
1F
100
AcDbEntity
  8
0
  6
Continuous
 62
     7
100
AcDbCircle
 10
6021.3271295678
 20
4906.1747806758
 30
0.0
 40
4.021952653663015
100
AcDbArc
 50
29.0019643131
 51
70.8765350743
  0
ARC
  5
C6
330
1F
100
AcDbEntity
  8
0
  6
Continuous
 62
     7
100
AcDbCircle
 10
6021.3271295678
 20
4906.1747806758
 30
0.0
 40
4.021952078996493
100
AcDbArc
 50
289.1234722792
 51
330.9980504547
  0
ARC
  5
C7
330
1F
100
AcDbEntity
  8
0
  6
Continuous
 62
     7
100
AcDbCircle
 10
5904.9623516976
 20
4971.9532660588
 30
0.0
 40
4.021952864407849
100
AcDbArc
 50
209.0019566182
 51
250.8765335914
  0
ARC
  5
C8
330
1F
100
AcDbEntity
  8
0
  6
Continuous
 62
     7
100
AcDbCircle
 10
5904.9623516976
 20
4971.9532660588
 30
0.0
 40
4.021951745695056
100
AcDbArc
 50
109.1234734437
 51
150.9980721305
  0
ARC
  5
C9
330
1F
100
AcDbEntity
  8
0
  6
Continuous
 62
     7
100
AcDbCircle
 10
5904.9623509043
 20
4906.174782885
 30
0.0
 40
4.021952846539111
100
AcDbArc
 50
209.0019794684
 51
250.8765451081
  0
ARC
  5
CA
330
1F
100
AcDbEntity
  8
0
  6
Continuous
 62
     7
100
AcDbCircle
 10
5904.9623509043
 20
4906.174782885
 30
0.0
 40
4.021951278962874
100
AcDbArc
 50
109.1234643991
 51
150.9980608152
  0
ARC
  5
CB
330
1F
100
AcDbEntity
  8
0
  6
Continuous
 62
     7
100
AcDbCircle
 10
6021.3271289046
 20
4971.9532643917
 30
0.0
 40
4.021952743815086
100
AcDbArc
 50
29.0019471424
 51
70.8765273178
  0
ARC
  5
CC
330
1F
100
AcDbEntity
  8
0
  6
Continuous
 62
     7
100
AcDbCircle
 10
6021.3271289046
 20
4971.9532643917
 30
0.0
 40
4.021952245911899
100
AcDbArc
 50
289.1234783707
 51
330.9980656527
  0
LINE
  5
CD
330
1F
100
AcDbEntity
  8
0
  6
Continuous
 62
     7
100
AcDbLine
 10
6225.6787408686
 20
5241.1122768295
 30
0.0
 11
6224.6787425673
 21
5241.1122768295
 31
0.0
  0
LINE
  5
CE
330
1F
100
AcDbEntity
  8
0
  6
Continuous
 62
     7
100
AcDbLine
 10
6231.0468208588
 20
5244.8710500372
 30
0.0
 11
6231.3888419484
 21
5245.8107405059
 31
0.0
  0
LINE
  5
CF
330
1F
100
AcDbEntity
  8
0
  6
Continuous
 62
     7
100
AcDbLine
 10
6323.3587713871
 20
5208.8353846084
 30
0.0
 11
6322.3587702222
 21
5208.8353865307
 31
0.0
  0
LINE
  5
D0
330
1F
100
AcDbEntity
  8
0
  6
Continuous
 62
     7
100
AcDbLine
 10
6320.0688690012
 20
5213.533849334
 30
0.0
 11
6319.7268497742
 21
5212.59415514
 31
0.0
  0
LINE
  5
D1
330
1F
100
AcDbEntity
  8
0
  6
Continuous
 62
     7
100
AcDbLine
 10
6319.7268497742
 20
5212.59415514
 30
0.0
 11
6231.0468208588
 21
5244.8710500372
 31
0.0
  0
LINE
  5
D2
330
1F
100
AcDbEntity
  8
0
  6
Continuous
 62
     7
100
AcDbLine
 10
6231.3888419484
 20
5245.8107405059
 30
0.0
 11
6320.0688690012
 21
5213.533849334
 31
0.0
  0
LINE
  5
D3
330
1F
100
AcDbEntity
  8
0
  6
Continuous
 62
     7
100
AcDbLine
 10
6229.6787415243
 20
5182.28663298
 30
0.0
 11
6229.6787415243
 21
5181.2866346787
 31
0.0
  0
LINE
  5
D4
330
1F
100
AcDbEntity
  8
0
  6
Continuous
 62
     7
100
AcDbLine
 10
6225.6787408686
 20
5186.2866328207
 30
0.0
 11
6224.6787425673
 21
5186.2866328207
 31
0.0
  0
LINE
  5
D5
330
1F
100
AcDbEntity
  8
0
  6
Continuous
 62
     7
100
AcDbLine
 10
6318.3587704397
 20
5181.2866346787
 30
0.0
 11
6318.3587704397
 21
5182.28663298
 31
0.0
  0
LINE
  5
D6
330
1F
100
AcDbEntity
  8
0
  6
Continuous
 62
     7
100
AcDbLine
 10
6323.3587685235
 20
5186.2866336938
 30
0.0
 11
6322.3587702222
 21
5186.2866336938
 31
0.0
  0
LINE
  5
D7
330
1F
100
AcDbEntity
  8
0
  6
Continuous
 62
     7
100
AcDbLine
 10
6229.6787415243
 20
5182.28663298
 30
0.0
 11
6318.3587704397
 21
5182.28663298
 31
0.0
  0
LINE
  5
D8
330
1F
100
AcDbEntity
  8
0
  6
Continuous
 62
     7
100
AcDbLine
 10
6318.3587704397
 20
5181.2866346787
 30
0.0
 11
6229.6787415243
 21
5181.2866346787
 31
0.0
  0
LINE
  5
D9
330
1F
100
AcDbEntity
  8
0
  6
Continuous
 62
     7
100
AcDbLine
 10
6225.6787408686
 20
5241.1122768295
 30
0.0
 11
6225.6787408686
 21
5186.2866328207
 31
0.0
  0
LINE
  5
DA
330
1F
100
AcDbEntity
  8
0
  6
Continuous
 62
     7
100
AcDbLine
 10
6224.6787425673
 20
5186.2866328207
 30
0.0
 11
6224.6787425673
 21
5241.1122768295
 31
0.0
  0
LINE
  5
DB
330
1F
100
AcDbEntity
  8
0
  6
Continuous
 62
     7
100
AcDbLine
 10
6322.3587702222
 20
5186.2866336938
 30
0.0
 11
6322.3587702222
 21
5208.8353865307
 31
0.0
  0
LINE
  5
DC
330
1F
100
AcDbEntity
  8
0
  6
Continuous
 62
     7
100
AcDbLine
 10
6272.872815708
 20
5210.0667598767
 30
0.0
 11
6274.0835667199
 21
5213.3932708872
 31
0.0
  0
LINE
  5
DD
330
1F
100
AcDbEntity
  8
0
  6
Continuous
 62
     7
100
AcDbLine
 10
6273.1870579145
 20
5215.3158410562
 30
0.0
 11
6262.3805927423
 21
5219.2490733338
 31
0.0
  0
LINE
  5
DE
330
1F
100
AcDbEntity
  8
0
  6
Continuous
 62
     7
100
AcDbLine
 10
6260.458023621
 20
5218.352563597
 30
0.0
 11
6259.2472722598
 21
5215.0260507238
 31
0.0
  0
LINE
  5
DF
330
1F
100
AcDbEntity
  8
0
  6
Continuous
 62
     7
100
AcDbLine
 10
6260.1437810071
 20
5213.1034805549
 30
0.0
 11
6270.9502464703
 21
5209.1702501399
 31
0.0
  0
LINE
  5
E0
330
1F
100
AcDbEntity
  8
0
  6
Continuous
 62
     7
100
AcDbLine
 10
6323.3587713871
 20
5208.8353846084
 30
0.0
 11
6323.3587685235
 21
5186.2866336938
 31
0.0
  0
LINE
  5
E1
330
1F
100
AcDbEntity
  8
0
  6
Continuous
 62
     7
100
AcDbLine
 10
5965.0154006373
 20
5213.7658855987
 30
0.0
 11
5965.0154006373
 21
5213.777631439
 31
0.0
  0
LINE
  5
E2
330
1F
100
AcDbEntity
  8
0
  6
Continuous
 62
     7
100
AcDbLine
 10
5906.6447413931
 20
5246.1122795117
 30
0.0
 11
5904.6447410653
 21
5246.1122795117
 31
0.0
  0
LINE
  5
E3
330
1F
100
AcDbEntity
  8
0
  6
Continuous
 62
     7
100
AcDbLine
 10
5904.6447410653
 20
5246.1122795117
 30
0.0
 11
5903.6447390387
 21
5245.1122774852
 31
0.0
  0
LINE
  5
E4
330
1F
100
AcDbEntity
  8
0
  6
Continuous
 62
     7
100
AcDbLine
 10
6022.6447417805
 20
5245.1122774852
 30
0.0
 11
6021.644739754
 21
5246.1122795117
 31
0.0
  0
LINE
  5
E5
330
1F
100
AcDbEntity
  8
0
  6
Continuous
 62
     7
100
AcDbLine
 10
6021.644739754
 20
5246.1122795117
 30
0.0
 11
6019.6447394261
 21
5246.1122795117
 31
0.0
  0
LINE
  5
E6
330
1F
100
AcDbEntity
  8
0
  6
Continuous
 62
     7
100
AcDbLine
 10
5906.6447413931
 20
5185.0574700271
 30
0.0
 11
6019.6447394261
 21
5185.0574700271
 31
0.0
  0
LINE
  5
E7
330
1F
100
AcDbEntity
  8
0
  6
Continuous
 62
     7
100
AcDbLine
 10
6019.6447394261
 20
5241.0501427126
 30
0.0
 11
5906.6447413931
 21
5241.0501427126
 31
0.0
  0
LINE
  5
E8
330
1F
100
AcDbEntity
  8
0
  6
Continuous
 62
     7
100
AcDbLine
 10
6019.3947389195
 20
5184.3379185644
 30
0.0
 11
6019.3947389195
 21
5185.0574700271
 31
0.0
  0
LINE
  5
E9
330
1F
100
AcDbEntity
  8
0
  6
Continuous
 62
     7
100
AcDbLine
 10
5906.8947418997
 20
5184.3379185644
 30
0.0
 11
6019.3947389195
 21
5184.3379185644
 31
0.0
  0
LINE
  5
EA
330
1F
100
AcDbEntity
  8
0
  6
Continuous
 62
     7
100
AcDbLine
 10
5906.8947418997
 20
5184.3379185644
 30
0.0
 11
5906.8947418997
 21
5185.0574700271
 31
0.0
  0
LINE
  5
EB
330
1F
100
AcDbEntity
  8
0
  6
Continuous
 62
     7
100
AcDbLine
 10
6019.3947389195
 20
5183.4414099918
 30
0.0
 11
5906.8947418997
 21
5183.4414099918
 31
0.0
  0
LINE
  5
EC
330
1F
100
AcDbEntity
  8
0
  6
Continuous
 62
     7
100
AcDbLine
 10
5906.8947418997
 20
5183.4414099918
 30
0.0
 11
5906.8947418997
 21
5184.3379185644
 31
0.0
  0
LINE
  5
ED
330
1F
100
AcDbEntity
  8
0
  6
Continuous
 62
     7
100
AcDbLine
 10
6019.3947389195
 20
5184.3379185644
 30
0.0
 11
6019.3947389195
 21
5183.4414099918
 31
0.0
  0
LINE
  5
EE
330
1F
100
AcDbEntity
  8
0
  6
Continuous
 62
     7
100
AcDbLine
 10
5958.4940554047
 20
5213.8362526072
 30
0.0
 11
5958.4940554047
 21
5214.9631193948
 31
0.0
  0
LINE
  5
EF
330
1F
100
AcDbEntity
  8
0
  6
Continuous
 62
     7
100
AcDbLine
 10
5960.0844877711
 20
5213.8093485606
 30
0.0
 11
5958.5779596525
 21
5213.8093485606
 31
0.0
  0
LINE
  5
F0
330
1F
100
AcDbEntity
  8
0
  6
Continuous
 62
     7
100
AcDbLine
 10
5960.118948569
 20
5213.8149849248
 30
0.0
 11
5960.0844877711
 21
5213.8093485606
 31
0.0
  0
LINE
  5
F1
330
1F
100
AcDbEntity
  8
0
  6
Continuous
 62
     7
100
AcDbLine
 10
5958.7337815607
 20
5213.8913422001
 30
0.0
 11
5960.0762471961
 21
5213.8913422001
 31
0.0
  0
LINE
  5
F2
330
1F
100
AcDbEntity
  8
0
  6
Continuous
 62
     7
100
AcDbLine
 10
5958.7337815607
 20
5214.9649112595
 30
0.0
 11
5958.7337815607
 21
5213.8913422001
 31
0.0
  0
LINE
  5
F3
330
1F
100
AcDbEntity
  8
0
  6
Continuous
 62
     7
100
AcDbLine
 10
5958.7173004108
 20
5214.976698078
 30
0.0
 11
5958.7337815607
 21
5214.9649112595
 31
0.0
  0
LINE
  5
F4
330
1F
100
AcDbEntity
  8
0
  6
Continuous
 62
     7
100
AcDbLine
 10
5961.0351513544
 20
5214.088886894
 30
0.0
 11
5961.0351513544
 21
5214.3492101801
 31
0.0
  0
LINE
  5
F5
330
1F
100
AcDbEntity
  8
0
  6
Continuous
 62
     7
100
AcDbLine
 10
5962.7132335733
 20
5214.3287136329
 30
0.0
 11
5962.7132335733
 21
5214.0532731188
 31
0.0
  0
LINE
  5
F6
330
1F
100
AcDbEntity
  8
0
  6
Continuous
 62
     7
100
AcDbLine
 10
5966.1173432539
 20
5214.088886894
 30
0.0
 11
5966.1173432539
 21
5214.3492101801
 31
0.0
  0
LINE
  5
F7
330
1F
100
AcDbEntity
  8
0
  6
Continuous
 62
     7
100
AcDbLine
 10
5967.7954254145
 20
5214.3287136329
 30
0.0
 11
5967.7954254145
 21
5214.0532731188
 31
0.0
  0
LINE
  5
F8
330
1F
100
AcDbEntity
  8
0
  6
Continuous
 62
     7
100
AcDbLine
 10
5972.6447401041
 20
5215.3006344212
 30
0.0
 11
5953.6447407151
 21
5215.3006344212
 31
0.0
  0
LINE
  5
F9
330
1F
100
AcDbEntity
  8
0
  6
Continuous
 62
     7
100
AcDbLine
 10
5953.6447407151
 20
5213.2635227514
 30
0.0
 11
5972.6447401041
 21
5213.2635227514
 31
0.0
  0
LINE
  5
FA
330
1F
100
AcDbEntity
  8
0
  6
Continuous
 62
     7
100
AcDbLine
 10
5953.6447407151
 20
5215.3006344212
 30
0.0
 11
5953.6447407151
 21
5213.2635227514
 31
0.0
  0
LINE
  5
FB
330
1F
100
AcDbEntity
  8
0
  6
Continuous
 62
     7
100
AcDbLine
 10
5963.5762472459
 20
5214.0799201203
 30
0.0
 11
5963.5762472459
 21
5214.3822609556
 31
0.0
  0
LINE
  5
FC
330
1F
100
AcDbEntity
  8
0
  6
Continuous
 62
     7
100
AcDbLine
 10
5965.0146034252
 20
5213.8093485606
 30
0.0
 11
5964.2414869447
 21
5213.8093485606
 31
0.0
  0
LINE
  5
FD
330
1F
100
AcDbEntity
  8
0
  6
Continuous
 62
     7
100
AcDbLine
 10
5965.0153525578
 20
5213.7857786489
 30
0.0
 11
5965.0146034252
 21
5213.8093485606
 31
0.0
  0
LINE
  5
FE
330
1F
100
AcDbEntity
  8
0
  6
Continuous
 62
     7
100
AcDbLine
 10
5965.0146034252
 20
5213.7114740086
 30
0.0
 11
5965.0146034252
 21
5213.7486263288
 31
0.0
  0
LINE
  5
FF
330
1F
100
AcDbEntity
  8
0
  6
Continuous
 62
     7
100
AcDbLine
 10
5963.8481864528
 20
5213.5141826344
 30
0.0
 11
5964.5486359656
 21
5213.5141826344
 31
0.0
  0
LINE
  5
100
330
1F
100
AcDbEntity
  8
0
  6
Continuous
 62
     7
100
AcDbLine
 10
5963.8137258295
 20
5213.5085462702
 30
0.0
 11
5963.8481864528
 21
5213.5141826344
 31
0.0
  0
LINE
  5
101
330
1F
100
AcDbEntity
  8
0
  6
Continuous
 62
     7
100
AcDbLine
 10
5964.4445050214
 20
5213.4321889949
 30
0.0
 11
5963.8444407316
 21
5213.4321889949
 31
0.0
  0
LINE
  5
102
330
1F
100
AcDbEntity
  8
0
  6
Continuous
 62
     7
100
AcDbLine
 10
5965.2543294648
 20
5214.587498374
 30
0.0
 11
5965.2543294648
 21
5213.6594577802
 31
0.0
  0
LINE
  5
103
330
1F
100
AcDbEntity
  8
0
  6
Continuous
 62
     7
100
AcDbLine
 10
5964.3104081912
 20
5214.6128638757
 30
0.0
 11
5965.1741709965
 21
5214.6128638757
 31
0.0
  0
LINE
  5
104
330
1F
100
AcDbEntity
  8
0
  6
Continuous
 62
     7
100
AcDbLine
 10
5972.6447401041
 20
5213.2635227514
 30
0.0
 11
5972.6447401041
 21
5215.3006344212
 31
0.0
  0
LINE
  5
105
330
1F
100
AcDbEntity
  8
0
  6
Continuous
 62
     7
100
AcDbLine
 10
5953.6447407151
 20
5213.2635227514
 30
0.0
 11
5953.6447407151
 21
5213.1695523036
 31
0.0
  0
LINE
  5
106
330
1F
100
AcDbEntity
  8
0
  6
Continuous
 62
     7
100
AcDbLine
 10
5953.6447407151
 20
5213.1695523036
 30
0.0
 11
5972.6447401041
 21
5213.1695523036
 31
0.0
  0
LINE
  5
107
330
1F
100
AcDbEntity
  8
0
  6
Continuous
 62
     7
100
AcDbLine
 10
5972.6447401041
 20
5213.2635227514
 30
0.0
 11
5972.6447401041
 21
5213.1695523036
 31
0.0
  0
LINE
  5
108
330
1F
100
AcDbEntity
  8
0
  6
Continuous
 62
     7
100
AcDbLine
 10
5963.8137258295
 20
5213.4991473628
 30
0.0
 11
5963.8481864528
 21
5213.504783727
 31
0.0
  0
LINE
  5
109
330
1F
100
AcDbEntity
  8
0
  6
Continuous
 62
     7
100
AcDbLine
 10
5963.8481864528
 20
5213.504783727
 30
0.0
 11
5964.5486359656
 21
5213.504783727
 31
0.0
  0
LINE
  5
10A
330
1F
100
AcDbEntity
  8
0
  6
Continuous
 62
     7
100
AcDbLine
 10
5964.3104081912
 20
5214.6034649683
 30
0.0
 11
5965.1741709965
 21
5214.6034649683
 31
0.0
  0
LINE
  5
10B
330
1F
100
AcDbEntity
  8
0
  6
Continuous
 62
     7
100
AcDbLine
 10
5964.265459537
 20
5213.8819432927
 30
0.0
 11
5965.0146034252
 21
5213.8819432927
 31
0.0
  0
LINE
  5
10C
330
1F
100
AcDbEntity
  8
0
  6
Continuous
 62
     7
100
AcDbLine
 10
5963.8137258295
 20
5213.4991473628
 30
0.0
 11
5963.8137258295
 21
5213.5085462702
 31
0.0
  0
LINE
  5
10D
330
1F
100
AcDbEntity
  8
0
  6
Continuous
 62
     7
100
AcDbLine
 10
5963.8481864528
 20
5213.504783727
 30
0.0
 11
5963.8481864528
 21
5213.5141826344
 31
0.0
  0
LINE
  5
10E
330
1F
100
AcDbEntity
  8
0
  6
Continuous
 62
     7
100
AcDbLine
 10
5964.5486359656
 20
5213.504783727
 30
0.0
 11
5964.5486359656
 21
5213.5141826344
 31
0.0
  0
LINE
  5
10F
330
1F
100
AcDbEntity
  8
0
  6
Continuous
 62
     7
100
AcDbLine
 10
5964.9801428601
 20
5213.6211096418
 30
0.0
 11
5964.9801428601
 21
5213.630504824
 31
0.0
  0
LINE
  5
110
330
1F
100
AcDbEntity
  8
0
  6
Continuous
 62
     7
100
AcDbLine
 10
5965.0146034252
 20
5213.7020751012
 30
0.0
 11
5965.0146034252
 21
5213.7114740086
 31
0.0
  0
LINE
  5
111
330
1F
100
AcDbEntity
  8
0
  6
Continuous
 62
     7
100
AcDbLine
 10
5958.7173004108
 20
5214.9673028958
 30
0.0
 11
5958.7337815607
 21
5214.9555160773
 31
0.0
  0
LINE
  5
112
330
1F
100
AcDbEntity
  8
0
  6
Continuous
 62
     7
100
AcDbLine
 10
5958.7337815607
 20
5213.8819432927
 30
0.0
 11
5960.0762471961
 21
5213.8819432927
 31
0.0
  0
LINE
  5
113
330
1F
100
AcDbEntity
  8
0
  6
Continuous
 62
     7
100
AcDbLine
 10
5960.1594021948
 20
5213.8458154274
 30
0.0
 11
5960.1607526126
 21
5213.8446345103
 31
0.0
  0
LINE
  5
114
330
1F
100
AcDbEntity
  8
0
  6
Continuous
 62
     7
100
AcDbLine
 10
5960.1594021948
 20
5213.8458154274
 30
0.0
 11
5960.1594021948
 21
5213.8552143348
 31
0.0
  0
LINE
  5
115
330
1F
100
AcDbEntity
  8
0
  6
Continuous
 62
     7
100
AcDbLine
 10
5960.1594021948
 20
5213.8552143348
 30
0.0
 11
5960.1594021948
 21
5213.860850699
 31
0.0
  0
LINE
  5
116
330
1F
100
AcDbEntity
  8
0
  6
Continuous
 62
     7
100
AcDbLine
 10
5960.0762471961
 20
5213.8819432927
 30
0.0
 11
5960.0762471961
 21
5213.8913422001
 31
0.0
  0
LINE
  5
117
330
1F
100
AcDbEntity
  8
0
  6
Continuous
 62
     7
100
AcDbLine
 10
5962.4735075337
 20
5214.0469513012
 30
0.0
 11
5962.4735075337
 21
5214.0563464833
 31
0.0
  0
LINE
  5
118
330
1F
100
AcDbEntity
  8
0
  6
Continuous
 62
     7
100
AcDbLine
 10
5961.871945037
 20
5213.8655445648
 30
0.0
 11
5961.871945037
 21
5213.8749434722
 31
0.0
  0
LINE
  5
119
330
1F
100
AcDbEntity
  8
0
  6
Continuous
 62
     7
100
AcDbLine
 10
5966.95413682
 20
5213.8655445648
 30
0.0
 11
5966.95413682
 21
5213.8749434722
 31
0.0
  0
LINE
  5
11A
330
1F
100
AcDbEntity
  8
0
  6
Continuous
 62
     7
100
AcDbLine
 10
5966.6290083839
 20
5213.9003909302
 30
0.0
 11
5966.6290083839
 21
5213.9097898377
 31
0.0
  0
LINE
  5
11B
330
1F
100
AcDbEntity
  8
0
  6
Continuous
 62
     7
100
AcDbLine
 10
5966.357069177
 20
5214.3461368156
 30
0.0
 11
5966.357069177
 21
5214.0681333018
 31
0.0
  0
LINE
  5
11C
330
1F
100
AcDbEntity
  8
0
  6
Continuous
 62
     7
100
AcDbLine
 10
5967.5556992585
 20
5214.0563464833
 30
0.0
 11
5967.5556992585
 21
5214.3476716352
 31
0.0
  0
LINE
  5
11D
330
1F
100
AcDbEntity
  8
0
  6
Continuous
 62
     7
100
AcDbLine
 10
5967.5556992585
 20
5214.0469513012
 30
0.0
 11
5967.5556992585
 21
5214.0563464833
 31
0.0
  0
LINE
  5
11E
330
1F
100
AcDbEntity
  8
0
  6
Continuous
 62
     7
100
AcDbLine
 10
5961.274877394
 20
5214.3461368156
 30
0.0
 11
5961.274877394
 21
5214.0681333018
 31
0.0
  0
LINE
  5
11F
330
1F
100
AcDbEntity
  8
0
  6
Continuous
 62
     7
100
AcDbLine
 10
5962.4735075337
 20
5214.0563464833
 30
0.0
 11
5962.4735075337
 21
5214.3476716352
 31
0.0
  0
LINE
  5
120
330
1F
100
AcDbEntity
  8
0
  6
Continuous
 62
     7
100
AcDbLine
 10
5961.5468166009
 20
5213.9003909302
 30
0.0
 11
5961.5468166009
 21
5213.9097898377
 31
0.0
  0
LINE
  5
121
330
1F
100
AcDbEntity
  8
0
  6
Continuous
 62
     7
100
AcDbLine
 10
5965.0146034252
 20
5213.8819432927
 30
0.0
 11
5965.0146034252
 21
5213.8913422001
 31
0.0
  0
LINE
  5
122
330
1F
100
AcDbEntity
  8
0
  6
Continuous
 62
     7
100
AcDbLine
 10
5964.265459537
 20
5213.8819432927
 30
0.0
 11
5964.265459537
 21
5213.8913422001
 31
0.0
  0
LINE
  5
123
330
1F
100
AcDbEntity
  8
0
  6
Continuous
 62
     7
100
AcDbLine
 10
5964.265459537
 20
5213.8913422001
 30
0.0
 11
5965.0146034252
 21
5213.8913422001
 31
0.0
  0
LINE
  5
124
330
1F
100
AcDbEntity
  8
0
  6
Continuous
 62
     7
100
AcDbLine
 10
5963.8691625147
 20
5213.9780259801
 30
0.0
 11
5963.8691625147
 21
5213.9874248875
 31
0.0
  0
LINE
  5
125
330
1F
100
AcDbEntity
  8
0
  6
Continuous
 62
     7
100
AcDbLine
 10
5963.8159732855
 20
5214.3779060913
 30
0.0
 11
5963.8159732855
 21
5214.0555790735
 31
0.0
  0
LINE
  5
126
330
1F
100
AcDbEntity
  8
0
  6
Continuous
 62
     7
100
AcDbLine
 10
5965.0146034252
 20
5214.5308702362
 30
0.0
 11
5964.2961744391
 21
5214.5308702362
 31
0.0
  0
LINE
  5
127
330
1F
100
AcDbEntity
  8
0
  6
Continuous
 62
     7
100
AcDbLine
 10
5965.0146034252
 20
5213.8913422001
 30
0.0
 11
5965.0146034252
 21
5214.5308702362
 31
0.0
  0
LINE
  5
128
330
1F
100
AcDbEntity
  8
0
  6
Continuous
 62
     7
100
AcDbLine
 10
5958.7337815607
 20
5213.8819432927
 30
0.0
 11
5958.7337815607
 21
5213.8913422001
 31
0.0
  0
LINE
  5
129
330
1F
100
AcDbEntity
  8
0
  6
Continuous
 62
     7
100
AcDbLine
 10
5966.357069177
 20
5214.0587381197
 30
0.0
 11
5966.357069177
 21
5214.0681333018
 31
0.0
  0
LINE
  5
12A
330
1F
100
AcDbEntity
  8
0
  6
Continuous
 62
     7
100
AcDbLine
 10
5961.274877394
 20
5214.0587381197
 30
0.0
 11
5961.274877394
 21
5214.0681333018
 31
0.0
  0
LINE
  5
12B
330
1F
100
AcDbEntity
  8
0
  6
Continuous
 62
     7
100
AcDbLine
 10
5963.8159732855
 20
5214.0461838914
 30
0.0
 11
5963.8159732855
 21
5214.0555790735
 31
0.0
  0
LINE
  5
12C
330
1F
100
AcDbEntity
  8
0
  6
Continuous
 62
     7
100
AcDbLine
 10
5967.7309988471
 20
5214.4266738666
 30
0.0
 11
5967.7309988471
 21
5214.4360690487
 31
0.0
  0
LINE
  5
12D
330
1F
100
AcDbEntity
  8
0
  6
Continuous
 62
     7
100
AcDbLine
 10
5962.6488071805
 20
5214.4266738666
 30
0.0
 11
5962.6488071805
 21
5214.4360690487
 31
0.0
  0
LINE
  5
12E
330
1F
100
AcDbEntity
  8
0
  6
Continuous
 62
     7
100
AcDbLine
 10
5966.5653310655
 20
5214.5727201474
 30
0.0
 11
5966.5653310655
 21
5214.5821153296
 31
0.0
  0
LINE
  5
12F
330
1F
100
AcDbEntity
  8
0
  6
Continuous
 62
     7
100
AcDbLine
 10
5961.4831393989
 20
5214.5727201474
 30
0.0
 11
5961.4831393989
 21
5214.5821153296
 31
0.0
  0
LINE
  5
130
330
1F
100
AcDbEntity
  8
0
  6
Continuous
 62
     7
100
AcDbLine
 10
5964.0654381653
 20
5214.5883477402
 30
0.0
 11
5964.0654381653
 21
5214.5977466477
 31
0.0
  0
LINE
  5
131
330
1F
100
AcDbEntity
  8
0
  6
Continuous
 62
     7
100
AcDbLine
 10
5961.871945037
 20
5214.6034649683
 30
0.0
 11
5961.871945037
 21
5214.6128638757
 31
0.0
  0
LINE
  5
132
330
1F
100
AcDbEntity
  8
0
  6
Continuous
 62
     7
100
AcDbLine
 10
5966.95413682
 20
5214.6034649683
 30
0.0
 11
5966.95413682
 21
5214.6128638757
 31
0.0
  0
LINE
  5
133
330
1F
100
AcDbEntity
  8
0
  6
Continuous
 62
     7
100
AcDbLine
 10
5965.1741709965
 20
5214.6034649683
 30
0.0
 11
5965.1741709965
 21
5214.6128638757
 31
0.0
  0
LINE
  5
134
330
1F
100
AcDbEntity
  8
0
  6
Continuous
 62
     7
100
AcDbLine
 10
5964.3104081912
 20
5214.6034649683
 30
0.0
 11
5964.3104081912
 21
5214.6128638757
 31
0.0
  0
LINE
  5
135
330
1F
100
AcDbEntity
  8
0
  6
Continuous
 62
     7
100
AcDbLine
 10
5958.5869492436
 20
5214.9806245339
 30
0.0
 11
5958.5869492436
 21
5214.9900234414
 31
0.0
  0
LINE
  5
136
330
1F
100
AcDbEntity
  8
0
  6
Continuous
 62
     7
100
AcDbLine
 10
5958.7173004108
 20
5214.9673028958
 30
0.0
 11
5958.7173004108
 21
5214.976698078
 31
0.0
  0
LINE
  5
137
330
1F
100
AcDbEntity
  8
0
  6
Continuous
 62
     7
100
AcDbLine
 10
6024.8447417686
 20
5195.403287105
 30
0.0
 11
6024.8447417686
 21
5196.3030126986
 31
0.0
  0
LINE
  5
138
330
1F
100
AcDbEntity
  8
0
  6
Continuous
 62
     7
100
AcDbLine
 10
6024.8447417686
 20
5193.4551772771
 30
0.0
 11
6024.8447417686
 21
5195.403287105
 31
0.0
  0
LINE
  5
139
330
1F
100
AcDbEntity
  8
0
  6
Continuous
 62
     7
100
AcDbLine
 10
6024.8447417686
 20
5192.4067921115
 30
0.0
 11
6024.8447417686
 21
5193.4551772771
 31
0.0
  0
LINE
  5
13A
330
1F
100
AcDbEntity
  8
0
  6
Continuous
 62
     7
100
AcDbLine
 10
6024.8447417686
 20
5192.4064577666
 30
0.0
 11
6024.8447417686
 21
5192.4067921115
 31
0.0
  0
LINE
  5
13B
330
1F
100
AcDbEntity
  8
0
  6
Continuous
 62
     7
100
AcDbLine
 10
5901.4447390506
 20
5220.246311195
 30
0.0
 11
5901.4447390506
 21
5220.1287112308
 31
0.0
  0
LINE
  5
13C
330
1F
100
AcDbEntity
  8
0
  6
Continuous
 62
     7
100
AcDbLine
 10
5901.4447390506
 20
5216.8025261832
 30
0.0
 11
5901.4447390506
 21
5216.3463122321
 31
0.0
  0
LINE
  5
13D
330
1F
100
AcDbEntity
  8
0
  6
Continuous
 62
     7
100
AcDbLine
 10
5901.4447390506
 20
5218.6349257005
 30
0.0
 11
5901.4447390506
 21
5216.8025261832
 31
0.0
  0
LINE
  5
13E
330
1F
100
AcDbEntity
  8
0
  6
Continuous
 62
     7
100
AcDbLine
 10
5901.4447390506
 20
5220.1287112308
 30
0.0
 11
5901.4447390506
 21
5218.6349257005
 31
0.0
  0
LINE
  5
13F
330
1F
100
AcDbEntity
  8
0
  6
Continuous
 62
     7
100
AcDbLine
 10
5901.4447390506
 20
5196.3049023522
 30
0.0
 11
5901.4447390506
 21
5196.187302388
 31
0.0
  0
LINE
  5
140
330
1F
100
AcDbEntity
  8
0
  6
Continuous
 62
     7
100
AcDbLine
 10
5901.4447390506
 20
5192.8611154777
 30
0.0
 11
5901.4447390506
 21
5192.4049024579
 31
0.0
  0
LINE
  5
141
330
1F
100
AcDbEntity
  8
0
  6
Continuous
 62
     7
100
AcDbLine
 10
5901.4447390506
 20
5194.6935159264
 30
0.0
 11
5901.4447390506
 21
5192.8611154777
 31
0.0
  0
LINE
  5
142
330
1F
100
AcDbEntity
  8
0
  6
Continuous
 62
     7
100
AcDbLine
 10
5901.4447390506
 20
5196.187302388
 30
0.0
 11
5901.4447390506
 21
5194.6935159264
 31
0.0
  0
LINE
  5
143
330
1F
100
AcDbEntity
  8
0
  6
Continuous
 62
     7
100
AcDbLine
 10
6024.8447417686
 20
5219.3446978105
 30
0.0
 11
6024.8447417686
 21
5220.2444224728
 31
0.0
  0
LINE
  5
144
330
1F
100
AcDbEntity
  8
0
  6
Continuous
 62
     7
100
AcDbLine
 10
6024.8447417686
 20
5217.3965870512
 30
0.0
 11
6024.8447417686
 21
5219.3446978105
 31
0.0
  0
LINE
  5
145
330
1F
100
AcDbEntity
  8
0
  6
Continuous
 62
     7
100
AcDbLine
 10
6024.8447417686
 20
5216.3482009543
 30
0.0
 11
6024.8447417686
 21
5217.3965870512
 31
0.0
  0
LINE
  5
146
330
1F
100
AcDbEntity
  8
0
  6
Continuous
 62
     7
100
AcDbLine
 10
6024.8447417686
 20
5216.3478694034
 30
0.0
 11
6024.8447417686
 21
5216.3482009543
 31
0.0
  0
LINE
  5
147
330
1F
100
AcDbEntity
  8
0
  6
Continuous
 62
     7
100
AcDbLine
 10
5906.6447413931
 20
5186.2866328207
 30
0.0
 11
5906.6447413931
 21
5208.8353856576
 31
0.0
  0
LINE
  5
148
330
1F
100
AcDbEntity
  8
0
  6
Continuous
 62
     7
100
AcDbLine
 10
5904.6447410653
 20
5186.2866328207
 30
0.0
 11
5906.6447413931
 21
5186.2866328207
 31
0.0
  0
LINE
  5
149
330
1F
100
AcDbEntity
  8
0
  6
Continuous
 62
     7
100
AcDbLine
 10
5904.6447410653
 20
5208.8353856576
 30
0.0
 11
5904.6447410653
 21
5186.2866328207
 31
0.0
  0
LINE
  5
14A
330
1F
100
AcDbEntity
  8
0
  6
Continuous
 62
     7
100
AcDbLine
 10
5904.6447410653
 20
5208.8353856576
 30
0.0
 11
5906.6447413931
 21
5208.8353856576
 31
0.0
  0
LINE
  5
14B
330
1F
100
AcDbEntity
  8
0
  6
Continuous
 62
     7
100
AcDbLine
 10
5904.6447410653
 20
5213.5338484419
 30
0.0
 11
5904.6447410653
 21
5208.8353856576
 31
0.0
  0
LINE
  5
14C
330
1F
100
AcDbEntity
  8
0
  6
Continuous
 62
     7
100
AcDbLine
 10
5904.6447410653
 20
5213.5338484419
 30
0.0
 11
5906.6447413931
 21
5213.5338484419
 31
0.0
  0
LINE
  5
14D
330
1F
100
AcDbEntity
  8
0
  6
Continuous
 62
     7
100
AcDbLine
 10
5906.6447413931
 20
5208.8353856576
 30
0.0
 11
5906.6447413931
 21
5213.5338484419
 31
0.0
  0
LINE
  5
14E
330
1F
100
AcDbEntity
  8
0
  6
Continuous
 62
     7
100
AcDbLine
 10
5904.6447410653
 20
5181.2866329325
 30
0.0
 11
5906.6447413931
 21
5181.2866329325
 31
0.0
  0
LINE
  5
14F
330
1F
100
AcDbEntity
  8
0
  6
Continuous
 62
     7
100
AcDbLine
 10
5904.6447410653
 20
5186.2866328207
 30
0.0
 11
5904.6447410653
 21
5181.2866329325
 31
0.0
  0
LINE
  5
150
330
1F
100
AcDbEntity
  8
0
  6
Continuous
 62
     7
100
AcDbLine
 10
5906.6447413931
 20
5181.2866329325
 30
0.0
 11
5906.6447413931
 21
5186.2866328207
 31
0.0
  0
LINE
  5
151
330
1F
100
AcDbEntity
  8
0
  6
Continuous
 62
     7
100
AcDbLine
 10
5904.6447410653
 20
5208.8353856576
 30
0.0
 11
5903.6447390387
 21
5208.8353856576
 31
0.0
  0
LINE
  5
152
330
1F
100
AcDbEntity
  8
0
  6
Continuous
 62
     7
100
AcDbLine
 10
5903.6447390387
 20
5208.8353856576
 30
0.0
 11
5903.6447390387
 21
5212.59415514
 31
0.0
  0
LINE
  5
153
330
1F
100
AcDbEntity
  8
0
  6
Continuous
 62
     7
100
AcDbLine
 10
5904.6447410653
 20
5213.5338484419
 30
0.0
 11
5903.6447390387
 21
5212.59415514
 31
0.0
  0
LINE
  5
154
330
1F
100
AcDbEntity
  8
0
  6
Continuous
 62
     7
100
AcDbLine
 10
5904.6447410653
 20
5186.2866328207
 30
0.0
 11
5903.6447390387
 21
5186.2866328207
 31
0.0
  0
LINE
  5
155
330
1F
100
AcDbEntity
  8
0
  6
Continuous
 62
     7
100
AcDbLine
 10
5903.6447390387
 20
5186.2866328207
 30
0.0
 11
5903.6447390387
 21
5208.8353856576
 31
0.0
  0
LINE
  5
156
330
1F
100
AcDbEntity
  8
0
  6
Continuous
 62
     7
100
AcDbLine
 10
5904.6447410653
 20
5181.2866329325
 30
0.0
 11
5903.6447390387
 21
5182.28663298
 31
0.0
  0
LINE
  5
157
330
1F
100
AcDbEntity
  8
0
  6
Continuous
 62
     7
100
AcDbLine
 10
5903.6447390387
 20
5182.28663298
 30
0.0
 11
5903.6447390387
 21
5186.2866328207
 31
0.0
  0
LINE
  5
158
330
1F
100
AcDbEntity
  8
0
  6
Continuous
 62
     7
100
AcDbLine
 10
5904.6447410653
 20
5245.8107396138
 30
0.0
 11
5904.6447410653
 21
5213.5338484419
 31
0.0
  0
LINE
  5
159
330
1F
100
AcDbEntity
  8
0
  6
Continuous
 62
     7
100
AcDbLine
 10
5904.6447410653
 20
5245.8107396138
 30
0.0
 11
5906.6447413931
 21
5245.8107396138
 31
0.0
  0
LINE
  5
15A
330
1F
100
AcDbEntity
  8
0
  6
Continuous
 62
     7
100
AcDbLine
 10
5906.6447413931
 20
5213.5338484419
 30
0.0
 11
5906.6447413931
 21
5245.8107396138
 31
0.0
  0
LINE
  5
15B
330
1F
100
AcDbEntity
  8
0
  6
Continuous
 62
     7
100
AcDbLine
 10
5903.6447390387
 20
5244.8710500372
 30
0.0
 11
5904.6447410653
 21
5245.8107396138
 31
0.0
  0
LINE
  5
15C
330
1F
100
AcDbEntity
  8
0
  6
Continuous
 62
     7
100
AcDbLine
 10
5903.6447390387
 20
5212.59415514
 30
0.0
 11
5903.6447390387
 21
5244.8710500372
 31
0.0
  0
LINE
  5
15D
330
1F
100
AcDbEntity
  8
0
  6
Continuous
 62
     7
100
AcDbLine
 10
5904.6447410653
 20
5246.1122795117
 30
0.0
 11
5904.6447410653
 21
5245.8107396138
 31
0.0
  0
LINE
  5
15E
330
1F
100
AcDbEntity
  8
0
  6
Continuous
 62
     7
100
AcDbLine
 10
5906.6447413931
 20
5246.1122795117
 30
0.0
 11
5906.6447413931
 21
5245.8107396138
 31
0.0
  0
LINE
  5
15F
330
1F
100
AcDbEntity
  8
0
  6
Continuous
 62
     7
100
AcDbLine
 10
5903.6447390387
 20
5244.8710500372
 30
0.0
 11
5903.6447390387
 21
5245.1122774852
 31
0.0
  0
LINE
  5
160
330
1F
100
AcDbEntity
  8
0
  6
Continuous
 62
     7
100
AcDbLine
 10
6022.6447417805
 20
5186.2866328207
 30
0.0
 11
6022.6447417805
 21
5182.28663298
 31
0.0
  0
LINE
  5
161
330
1F
100
AcDbEntity
  8
0
  6
Continuous
 62
     7
100
AcDbLine
 10
6022.6447417805
 20
5182.28663298
 30
0.0
 11
6021.644739754
 21
5181.2866329325
 31
0.0
  0
LINE
  5
162
330
1F
100
AcDbEntity
  8
0
  6
Continuous
 62
     7
100
AcDbLine
 10
6021.644739754
 20
5181.2866329325
 30
0.0
 11
6021.644739754
 21
5186.2866328207
 31
0.0
  0
LINE
  5
163
330
1F
100
AcDbEntity
  8
0
  6
Continuous
 62
     7
100
AcDbLine
 10
6022.6447417805
 20
5186.2866328207
 30
0.0
 11
6021.644739754
 21
5186.2866328207
 31
0.0
  0
LINE
  5
164
330
1F
100
AcDbEntity
  8
0
  6
Continuous
 62
     7
100
AcDbLine
 10
6022.6447417805
 20
5208.8353856576
 30
0.0
 11
6022.6447417805
 21
5186.2866328207
 31
0.0
  0
LINE
  5
165
330
1F
100
AcDbEntity
  8
0
  6
Continuous
 62
     7
100
AcDbLine
 10
6021.644739754
 20
5186.2866328207
 30
0.0
 11
6021.644739754
 21
5208.8353856576
 31
0.0
  0
LINE
  5
166
330
1F
100
AcDbEntity
  8
0
  6
Continuous
 62
     7
100
AcDbLine
 10
6022.6447417805
 20
5208.8353856576
 30
0.0
 11
6021.644739754
 21
5208.8353856576
 31
0.0
  0
LINE
  5
167
330
1F
100
AcDbEntity
  8
0
  6
Continuous
 62
     7
100
AcDbLine
 10
6022.6447417805
 20
5212.59415514
 30
0.0
 11
6022.6447417805
 21
5208.8353856576
 31
0.0
  0
LINE
  5
168
330
1F
100
AcDbEntity
  8
0
  6
Continuous
 62
     7
100
AcDbLine
 10
6021.644739754
 20
5208.8353856576
 30
0.0
 11
6021.644739754
 21
5213.5338484419
 31
0.0
  0
LINE
  5
169
330
1F
100
AcDbEntity
  8
0
  6
Continuous
 62
     7
100
AcDbLine
 10
6022.6447417805
 20
5212.59415514
 30
0.0
 11
6021.644739754
 21
5213.5338484419
 31
0.0
  0
LINE
  5
16A
330
1F
100
AcDbEntity
  8
0
  6
Continuous
 62
     7
100
AcDbLine
 10
6019.6447394261
 20
5186.2866328207
 30
0.0
 11
6019.6447394261
 21
5208.8353856576
 31
0.0
  0
LINE
  5
16B
330
1F
100
AcDbEntity
  8
0
  6
Continuous
 62
     7
100
AcDbLine
 10
6019.6447394261
 20
5208.8353856576
 30
0.0
 11
6021.644739754
 21
5208.8353856576
 31
0.0
  0
LINE
  5
16C
330
1F
100
AcDbEntity
  8
0
  6
Continuous
 62
     7
100
AcDbLine
 10
6019.6447394261
 20
5186.2866328207
 30
0.0
 11
6021.644739754
 21
5186.2866328207
 31
0.0
  0
LINE
  5
16D
330
1F
100
AcDbEntity
  8
0
  6
Continuous
 62
     7
100
AcDbLine
 10
6019.6447394261
 20
5181.2866329325
 30
0.0
 11
6019.6447394261
 21
5186.2866328207
 31
0.0
  0
LINE
  5
16E
330
1F
100
AcDbEntity
  8
0
  6
Continuous
 62
     7
100
AcDbLine
 10
6019.6447394261
 20
5181.2866329325
 30
0.0
 11
6021.644739754
 21
5181.2866329325
 31
0.0
  0
LINE
  5
16F
330
1F
100
AcDbEntity
  8
0
  6
Continuous
 62
     7
100
AcDbLine
 10
6019.6447394261
 20
5208.8353856576
 30
0.0
 11
6019.6447394261
 21
5213.5338484419
 31
0.0
  0
LINE
  5
170
330
1F
100
AcDbEntity
  8
0
  6
Continuous
 62
     7
100
AcDbLine
 10
6019.6447394261
 20
5213.5338484419
 30
0.0
 11
6021.644739754
 21
5213.5338484419
 31
0.0
  0
LINE
  5
171
330
1F
100
AcDbEntity
  8
0
  6
Continuous
 62
     7
100
AcDbLine
 10
6021.644739754
 20
5213.5338484419
 30
0.0
 11
6021.644739754
 21
5245.8107396138
 31
0.0
  0
LINE
  5
172
330
1F
100
AcDbEntity
  8
0
  6
Continuous
 62
     7
100
AcDbLine
 10
6021.644739754
 20
5245.8107396138
 30
0.0
 11
6022.6447417805
 21
5244.8710500372
 31
0.0
  0
LINE
  5
173
330
1F
100
AcDbEntity
  8
0
  6
Continuous
 62
     7
100
AcDbLine
 10
6022.6447417805
 20
5244.8710500372
 30
0.0
 11
6022.6447417805
 21
5212.59415514
 31
0.0
  0
LINE
  5
174
330
1F
100
AcDbEntity
  8
0
  6
Continuous
 62
     7
100
AcDbLine
 10
6019.6447394261
 20
5245.8107396138
 30
0.0
 11
6021.644739754
 21
5245.8107396138
 31
0.0
  0
LINE
  5
175
330
1F
100
AcDbEntity
  8
0
  6
Continuous
 62
     7
100
AcDbLine
 10
6019.6447394261
 20
5213.5338484419
 30
0.0
 11
6019.6447394261
 21
5245.8107396138
 31
0.0
  0
LINE
  5
176
330
1F
100
AcDbEntity
  8
0
  6
Continuous
 62
     7
100
AcDbLine
 10
6021.644739754
 20
5245.8107396138
 30
0.0
 11
6021.644739754
 21
5246.1122795117
 31
0.0
  0
LINE
  5
177
330
1F
100
AcDbEntity
  8
0
  6
Continuous
 62
     7
100
AcDbLine
 10
6022.6447417805
 20
5245.1122774852
 30
0.0
 11
6022.6447417805
 21
5244.8710500372
 31
0.0
  0
LINE
  5
178
330
1F
100
AcDbEntity
  8
0
  6
Continuous
 62
     7
100
AcDbLine
 10
6019.6447394261
 20
5246.1122795117
 30
0.0
 11
6019.6447394261
 21
5245.8107396138
 31
0.0
  0
LINE
  5
179
330
1F
100
AcDbEntity
  8
0
  6
Continuous
 62
     7
100
AcDbLine
 10
5906.6447413931
 20
5210.1100272608
 30
0.0
 11
6019.6447394261
 21
5210.1100272608
 31
0.0
  0
LINE
  5
17A
330
1F
100
AcDbEntity
  8
0
  6
Continuous
 62
     7
100
AcDbLine
 10
5906.6447413931
 20
5212.4171088559
 30
0.0
 11
6019.6447394261
 21
5212.4171088559
 31
0.0
  0
LINE
  5
17B
330
1F
100
AcDbEntity
  8
0
  6
Continuous
 62
     7
100
AcDbLine
 10
5906.6447413931
 20
5186.2418338766
 30
0.0
 11
6019.6447394261
 21
5186.2418338766
 31
0.0
  0
LINE
  5
17C
330
1F
100
AcDbEntity
  8
0
  6
Continuous
 62
     7
100
AcDbLine
 10
5906.6447413931
 20
5240.9415877534
 30
0.0
 11
6019.6447394261
 21
5240.9415877534
 31
0.0
  0
LINE
  5
17D
330
1F
100
AcDbEntity
  8
0
  6
Continuous
 62
     7
100
AcDbLine
 10
5914.4447393188
 20
5217.9578355623
 30
0.0
 11
6011.8447415004
 21
5217.9578355623
 31
0.0
  0
LINE
  5
17E
330
1F
100
AcDbEntity
  8
0
  6
Continuous
 62
     7
100
AcDbLine
 10
6011.8447415004
 20
5217.9578355623
 30
0.0
 11
6011.8447415004
 21
5237.2477724326
 31
0.0
  0
LINE
  5
17F
330
1F
100
AcDbEntity
  8
0
  6
Continuous
 62
     7
100
AcDbLine
 10
6011.8447415004
 20
5237.2477724326
 30
0.0
 11
5914.4447393188
 21
5237.2477724326
 31
0.0
  0
LINE
  5
180
330
1F
100
AcDbEntity
  8
0
  6
Continuous
 62
     7
100
AcDbLine
 10
5914.4447393188
 20
5237.2477724326
 30
0.0
 11
5914.4447393188
 21
5217.9578355623
 31
0.0
  0
LINE
  5
181
330
1F
100
AcDbEntity
  8
0
  6
Continuous
 62
     7
100
AcDbLine
 10
5914.4447393188
 20
5236.3080791307
 30
0.0
 11
6011.8447415004
 21
5236.3080791307
 31
0.0
  0
LINE
  5
182
330
1F
100
AcDbEntity
  8
0
  6
Continuous
 62
     7
100
AcDbLine
 10
5965.0154006373
 20
4895.9126551654
 30
0.0
 11
5965.0154006373
 21
4895.9169317987
 31
0.0
  0
LINE
  5
183
330
1F
100
AcDbEntity
  8
0
  6
Continuous
 62
     7
100
AcDbLine
 10
6019.6447394261
 20
4981.9439989533
 30
0.0
 11
5906.6447413931
 21
4981.9439989533
 31
0.0
  0
LINE
  5
184
330
1F
100
AcDbEntity
  8
0
  6
Continuous
 62
     7
100
AcDbLine
 10
5906.6447413931
 20
4891.2863214519
 30
0.0
 11
6019.6447394261
 21
4891.2863214519
 31
0.0
  0
LINE
  5
185
330
1F
100
AcDbEntity
  8
0
  6
Continuous
 62
     7
100
AcDbLine
 10
5972.6447401041
 20
4900.1007233765
 30
0.0
 11
5972.6447401041
 21
4900.1349252667
 31
0.0
  0
LINE
  5
186
330
1F
100
AcDbEntity
  8
0
  6
Continuous
 62
     7
100
AcDbLine
 10
5972.6447401041
 20
4900.1007233765
 30
0.0
 11
5953.6447407151
 21
4900.1007233765
 31
0.0
  0
LINE
  5
187
330
1F
100
AcDbEntity
  8
0
  6
Continuous
 62
     7
100
AcDbLine
 10
5953.6447407151
 20
4900.1007233765
 30
0.0
 11
5953.6447407151
 21
4900.1349252667
 31
0.0
  0
LINE
  5
188
330
1F
100
AcDbEntity
  8
0
  6
Continuous
 62
     7
100
AcDbLine
 10
5972.6447401041
 20
4900.1349252667
 30
0.0
 11
5953.6447407151
 21
4900.1349252667
 31
0.0
  0
LINE
  5
189
330
1F
100
AcDbEntity
  8
0
  6
Continuous
 62
     7
100
AcDbLine
 10
5958.4940554047
 20
4896.0773688759
 30
0.0
 11
5958.4940554047
 21
4899.1734054889
 31
0.0
  0
LINE
  5
18A
330
1F
100
AcDbEntity
  8
0
  6
Continuous
 62
     7
100
AcDbLine
 10
5960.0844877711
 20
4896.0034516658
 30
0.0
 11
5958.5779596525
 21
4896.0034516658
 31
0.0
  0
LINE
  5
18B
330
1F
100
AcDbEntity
  8
0
  6
Continuous
 62
     7
100
AcDbLine
 10
5960.118948569
 20
4896.0189414229
 30
0.0
 11
5960.0844877711
 21
4896.0034516658
 31
0.0
  0
LINE
  5
18C
330
1F
100
AcDbEntity
  8
0
  6
Continuous
 62
     7
100
AcDbLine
 10
5958.7337815607
 20
4896.2287236955
 30
0.0
 11
5960.0762471961
 21
4896.2287236955
 31
0.0
  0
LINE
  5
18D
330
1F
100
AcDbEntity
  8
0
  6
Continuous
 62
     7
100
AcDbLine
 10
5958.7337815607
 20
4899.178334048
 30
0.0
 11
5958.7337815607
 21
4896.2287236955
 31
0.0
  0
LINE
  5
18E
330
1F
100
AcDbEntity
  8
0
  6
Continuous
 62
     7
100
AcDbLine
 10
5958.7173004108
 20
4899.2107179966
 30
0.0
 11
5958.7337815607
 21
4899.178334048
 31
0.0
  0
LINE
  5
18F
330
1F
100
AcDbEntity
  8
0
  6
Continuous
 62
     7
100
AcDbLine
 10
5961.0351513544
 20
4896.7714798655
 30
0.0
 11
5961.0351513544
 21
4897.4867058005
 31
0.0
  0
LINE
  5
190
330
1F
100
AcDbEntity
  8
0
  6
Continuous
 62
     7
100
AcDbLine
 10
5962.7132335733
 20
4897.4303905871
 30
0.0
 11
5962.7132335733
 21
4896.6736276652
 31
0.0
  0
LINE
  5
191
330
1F
100
AcDbEntity
  8
0
  6
Continuous
 62
     7
100
AcDbLine
 10
5966.1173432539
 20
4896.7714798655
 30
0.0
 11
5966.1173432539
 21
4897.4867058005
 31
0.0
  0
LINE
  5
192
330
1F
100
AcDbEntity
  8
0
  6
Continuous
 62
     7
100
AcDbLine
 10
5967.7954254145
 20
4897.4303905871
 30
0.0
 11
5967.7954254145
 21
4896.6736276652
 31
0.0
  0
LINE
  5
193
330
1F
100
AcDbEntity
  8
0
  6
Continuous
 62
     7
100
AcDbLine
 10
5972.6447401041
 20
4894.5038062539
 30
0.0
 11
5972.6447401041
 21
4900.1007233765
 31
0.0
  0
LINE
  5
194
330
1F
100
AcDbEntity
  8
0
  6
Continuous
 62
     7
100
AcDbLine
 10
5953.6447407151
 20
4894.5038062539
 30
0.0
 11
5972.6447401041
 21
4894.5038062539
 31
0.0
  0
LINE
  5
195
330
1F
100
AcDbEntity
  8
0
  6
Continuous
 62
     7
100
AcDbLine
 10
5953.6447407151
 20
4900.1007233765
 30
0.0
 11
5953.6447407151
 21
4894.5038062539
 31
0.0
  0
LINE
  5
196
330
1F
100
AcDbEntity
  8
0
  6
Continuous
 62
     7
100
AcDbLine
 10
5963.5762472459
 20
4896.7468407955
 30
0.0
 11
5963.5762472459
 21
4897.5775172021
 31
0.0
  0
LINE
  5
197
330
1F
100
AcDbEntity
  8
0
  6
Continuous
 62
     7
100
AcDbLine
 10
5965.0146034252
 20
4896.0034516658
 30
0.0
 11
5964.2414869447
 21
4896.0034516658
 31
0.0
  0
LINE
  5
198
330
1F
100
AcDbEntity
  8
0
  6
Continuous
 62
     7
100
AcDbLine
 10
5965.0153525578
 20
4895.938687494
 30
0.0
 11
5965.0146034252
 21
4896.0034516658
 31
0.0
  0
LINE
  5
199
330
1F
100
AcDbEntity
  8
0
  6
Continuous
 62
     7
100
AcDbLine
 10
5965.0146034252
 20
4895.7345378604
 30
0.0
 11
5965.0146034252
 21
4895.8366145398
 31
0.0
  0
LINE
  5
19A
330
1F
100
AcDbEntity
  8
0
  6
Continuous
 62
     7
100
AcDbLine
 10
5963.8481864528
 20
4895.1924857702
 30
0.0
 11
5964.5486359656
 21
4895.1924857702
 31
0.0
  0
LINE
  5
19B
330
1F
100
AcDbEntity
  8
0
  6
Continuous
 62
     7
100
AcDbLine
 10
5963.8137258295
 20
4895.1769997384
 30
0.0
 11
5963.8481864528
 21
4895.1924857702
 31
0.0
  0
LINE
  5
19C
330
1F
100
AcDbEntity
  8
0
  6
Continuous
 62
     7
100
AcDbLine
 10
5964.4445050214
 20
4894.9672174658
 30
0.0
 11
5963.8444407316
 21
4894.9672174658
 31
0.0
  0
LINE
  5
19D
330
1F
100
AcDbEntity
  8
0
  6
Continuous
 62
     7
100
AcDbLine
 10
5965.2543294648
 20
4898.1413957681
 30
0.0
 11
5965.2543294648
 21
4895.5916319992
 31
0.0
  0
LINE
  5
19E
330
1F
100
AcDbEntity
  8
0
  6
Continuous
 62
     7
100
AcDbLine
 10
5964.3104081912
 20
4898.211088499
 30
0.0
 11
5965.1741709965
 21
4898.211088499
 31
0.0
  0
LINE
  5
19F
330
1F
100
AcDbEntity
  8
0
  6
Continuous
 62
     7
100
AcDbLine
 10
5960.159976588
 20
4896.1382028665
 30
0.0
 11
5960.1594021948
 21
4896.132883152
 31
0.0
  0
LINE
  5
1A0
330
1F
100
AcDbEntity
  8
0
  6
Continuous
 62
     7
100
AcDbLine
 10
5960.118948569
 20
4896.0223612394
 30
0.0
 11
5960.0844877711
 21
4896.0068714823
 31
0.0
  0
LINE
  5
1A1
330
1F
100
AcDbEntity
  8
0
  6
Continuous
 62
     7
100
AcDbLine
 10
5960.0844877711
 20
4896.0068714823
 30
0.0
 11
5958.5779596525
 21
4896.0068714823
 31
0.0
  0
LINE
  5
1A2
330
1F
100
AcDbEntity
  8
0
  6
Continuous
 62
     7
100
AcDbLine
 10
5964.4445050214
 20
4894.9706372823
 30
0.0
 11
5963.8444407316
 21
4894.9706372823
 31
0.0
  0
LINE
  5
1A3
330
1F
100
AcDbEntity
  8
0
  6
Continuous
 62
     7
100
AcDbLine
 10
5965.0146034252
 20
4896.0068714823
 30
0.0
 11
5964.2414869447
 21
4896.0068714823
 31
0.0
  0
LINE
  5
1A4
330
1F
100
AcDbEntity
  8
0
  6
Continuous
 62
     7
100
AcDbLine
 10
5965.0146034252
 20
4897.9892400112
 30
0.0
 11
5964.2961744391
 21
4897.9892400112
 31
0.0
  0
LINE
  5
1A5
330
1F
100
AcDbEntity
  8
0
  6
Continuous
 62
     7
100
AcDbLine
 10
5963.8159732855
 20
4897.5655515697
 30
0.0
 11
5963.8159732855
 21
4896.679964384
 31
0.0
  0
LINE
  5
1A6
330
1F
100
AcDbEntity
  8
0
  6
Continuous
 62
     7
100
AcDbLine
 10
5965.0146034252
 20
4897.9858201947
 30
0.0
 11
5964.2961744391
 21
4897.9858201947
 31
0.0
  0
LINE
  5
1A7
330
1F
100
AcDbEntity
  8
0
  6
Continuous
 62
     7
100
AcDbLine
 10
5965.0146034252
 20
4896.2287236955
 30
0.0
 11
5965.0146034252
 21
4897.9858201947
 31
0.0
  0
LINE
  5
1A8
330
1F
100
AcDbEntity
  8
0
  6
Continuous
 62
     7
100
AcDbLine
 10
5964.265459537
 20
4896.2287236955
 30
0.0
 11
5965.0146034252
 21
4896.2287236955
 31
0.0
  0
LINE
  5
1A9
330
1F
100
AcDbEntity
  8
0
  6
Continuous
 62
     7
100
AcDbLine
 10
5961.274877394
 20
4897.4782605674
 30
0.0
 11
5961.274877394
 21
4896.7144568469
 31
0.0
  0
LINE
  5
1AA
330
1F
100
AcDbEntity
  8
0
  6
Continuous
 62
     7
100
AcDbLine
 10
5962.4735075337
 20
4896.6820766236
 30
0.0
 11
5962.4735075337
 21
4897.4824850466
 31
0.0
  0
LINE
  5
1AB
330
1F
100
AcDbEntity
  8
0
  6
Continuous
 62
     7
100
AcDbLine
 10
5966.357069177
 20
4897.4782605674
 30
0.0
 11
5966.357069177
 21
4896.7144568469
 31
0.0
  0
LINE
  5
1AC
330
1F
100
AcDbEntity
  8
0
  6
Continuous
 62
     7
100
AcDbLine
 10
5967.5556992585
 20
4896.6820766236
 30
0.0
 11
5967.5556992585
 21
4897.4824850466
 31
0.0
  0
LINE
  5
1AD
330
1F
100
AcDbEntity
  8
0
  6
Continuous
 62
     7
100
AcDbLine
 10
5961.8667009924
 20
4897.9892400112
 30
0.0
 11
5961.8667009924
 21
4897.9858201947
 31
0.0
  0
LINE
  5
1AE
330
1F
100
AcDbEntity
  8
0
  6
Continuous
 62
     7
100
AcDbLine
 10
5962.2937130331
 20
4897.8294399585
 30
0.0
 11
5962.2937130331
 21
4897.826020142
 31
0.0
  0
LINE
  5
1AF
330
1F
100
AcDbEntity
  8
0
  6
Continuous
 62
     7
100
AcDbLine
 10
5964.2961744391
 20
4897.9892400112
 30
0.0
 11
5964.2961744391
 21
4897.9858201947
 31
0.0
  0
LINE
  5
1B0
330
1F
100
AcDbEntity
  8
0
  6
Continuous
 62
     7
100
AcDbLine
 10
5965.0146034252
 20
4897.9892400112
 30
0.0
 11
5965.0146034252
 21
4897.9858201947
 31
0.0
  0
LINE
  5
1B1
330
1F
100
AcDbEntity
  8
0
  6
Continuous
 62
     7
100
AcDbLine
 10
5964.0684347539
 20
4897.9265843536
 30
0.0
 11
5964.0684347539
 21
4897.9231645372
 31
0.0
  0
LINE
  5
1B2
330
1F
100
AcDbEntity
  8
0
  6
Continuous
 62
     7
100
AcDbLine
 10
5961.6337172626
 20
4897.9434822704
 30
0.0
 11
5961.6337172626
 21
4897.9400624539
 31
0.0
  0
LINE
  5
1B3
330
1F
100
AcDbEntity
  8
0
  6
Continuous
 62
     7
100
AcDbLine
 10
5966.715909162
 20
4897.9434822704
 30
0.0
 11
5966.715909162
 21
4897.9400624539
 31
0.0
  0
LINE
  5
1B4
330
1F
100
AcDbEntity
  8
0
  6
Continuous
 62
     7
100
AcDbLine
 10
5966.9488927754
 20
4897.9892400112
 30
0.0
 11
5966.9488927754
 21
4897.9858201947
 31
0.0
  0
LINE
  5
1B5
330
1F
100
AcDbEntity
  8
0
  6
Continuous
 62
     7
100
AcDbLine
 10
5967.3759046415
 20
4897.8294399585
 30
0.0
 11
5967.3759046415
 21
4897.826020142
 31
0.0
  0
LINE
  5
1B6
330
1F
100
AcDbEntity
  8
0
  6
Continuous
 62
     7
100
AcDbLine
 10
5961.274877394
 20
4897.4816803839
 30
0.0
 11
5961.274877394
 21
4897.4782605674
 31
0.0
  0
LINE
  5
1B7
330
1F
100
AcDbEntity
  8
0
  6
Continuous
 62
     7
100
AcDbLine
 10
5966.357069177
 20
4897.4816803839
 30
0.0
 11
5966.357069177
 21
4897.4782605674
 31
0.0
  0
LINE
  5
1B8
330
1F
100
AcDbEntity
  8
0
  6
Continuous
 62
     7
100
AcDbLine
 10
5963.8159732855
 20
4897.5689713862
 30
0.0
 11
5963.8159732855
 21
4897.5655515697
 31
0.0
  0
LINE
  5
1B9
330
1F
100
AcDbEntity
  8
0
  6
Continuous
 62
     7
100
AcDbLine
 10
5962.4735075337
 20
4897.4859048631
 30
0.0
 11
5962.4735075337
 21
4897.4824850466
 31
0.0
  0
LINE
  5
1BA
330
1F
100
AcDbEntity
  8
0
  6
Continuous
 62
     7
100
AcDbLine
 10
5967.5556992585
 20
4897.4859048631
 30
0.0
 11
5967.5556992585
 21
4897.4824850466
 31
0.0
  0
LINE
  5
1BB
330
1F
100
AcDbEntity
  8
0
  6
Continuous
 62
     7
100
AcDbLine
 10
5961.2988499863
 20
4896.1814572122
 30
0.0
 11
5961.2988499863
 21
4896.1780373957
 31
0.0
  0
LINE
  5
1BC
330
1F
100
AcDbEntity
  8
0
  6
Continuous
 62
     7
100
AcDbLine
 10
5966.3810418857
 20
4896.1814572122
 30
0.0
 11
5966.3810418857
 21
4896.1780373957
 31
0.0
  0
LINE
  5
1BD
330
1F
100
AcDbEntity
  8
0
  6
Continuous
 62
     7
100
AcDbLine
 10
5963.5912301307
 20
4896.5573725309
 30
0.0
 11
5963.5912301307
 21
4896.5539527144
 31
0.0
  0
LINE
  5
1BE
330
1F
100
AcDbEntity
  8
0
  6
Continuous
 62
     7
100
AcDbLine
 10
5962.1903311633
 20
4896.0181367602
 30
0.0
 11
5962.1903311633
 21
4896.0147169437
 31
0.0
  0
LINE
  5
1BF
330
1F
100
AcDbEntity
  8
0
  6
Continuous
 62
     7
100
AcDbLine
 10
5967.2725227135
 20
4896.0181367602
 30
0.0
 11
5967.2725227135
 21
4896.0147169437
 31
0.0
  0
LINE
  5
1C0
330
1F
100
AcDbEntity
  8
0
  6
Continuous
 62
     7
100
AcDbLine
 10
5963.8174715507
 20
4896.1814572122
 30
0.0
 11
5963.8174715507
 21
4896.1780373957
 31
0.0
  0
LINE
  5
1C1
330
1F
100
AcDbEntity
  8
0
  6
Continuous
 62
     7
100
AcDbLine
 10
5964.2414869447
 20
4896.0068714823
 30
0.0
 11
5964.2414869447
 21
4896.0034516658
 31
0.0
  0
LINE
  5
1C2
330
1F
100
AcDbEntity
  8
0
  6
Continuous
 62
     7
100
AcDbLine
 10
5961.8869279217
 20
4895.9618178215
 30
0.0
 11
5961.8869279217
 21
4895.958398005
 31
0.0
  0
LINE
  5
1C3
330
1F
100
AcDbEntity
  8
0
  6
Continuous
 62
     7
100
AcDbLine
 10
5966.9691197047
 20
4895.9618178215
 30
0.0
 11
5966.9691197047
 21
4895.958398005
 31
0.0
  0
LINE
  5
1C4
330
1F
100
AcDbEntity
  8
0
  6
Continuous
 62
     7
100
AcDbLine
 10
5960.1594021948
 20
4896.132883152
 30
0.0
 11
5960.1594021948
 21
4896.1294633355
 31
0.0
  0
LINE
  5
1C5
330
1F
100
AcDbEntity
  8
0
  6
Continuous
 62
     7
100
AcDbLine
 10
5960.118948569
 20
4896.0223612394
 30
0.0
 11
5960.118948569
 21
4896.0189414229
 31
0.0
  0
LINE
  5
1C6
330
1F
100
AcDbEntity
  8
0
  6
Continuous
 62
     7
100
AcDbLine
 10
5958.5779596525
 20
4896.0068714823
 30
0.0
 11
5958.5779596525
 21
4896.0034516658
 31
0.0
  0
LINE
  5
1C7
330
1F
100
AcDbEntity
  8
0
  6
Continuous
 62
     7
100
AcDbLine
 10
5960.0844877711
 20
4896.0068714823
 30
0.0
 11
5960.0844877711
 21
4896.0034516658
 31
0.0
  0
LINE
  5
1C8
330
1F
100
AcDbEntity
  8
0
  6
Continuous
 62
     7
100
AcDbLine
 10
5965.0146034252
 20
4896.0068714823
 30
0.0
 11
5965.0146034252
 21
4896.0034516658
 31
0.0
  0
LINE
  5
1C9
330
1F
100
AcDbEntity
  8
0
  6
Continuous
 62
     7
100
AcDbLine
 10
5964.7344236434
 20
4895.0030175056
 30
0.0
 11
5964.7344236434
 21
4894.9995976891
 31
0.0
  0
LINE
  5
1CA
330
1F
100
AcDbEntity
  8
0
  6
Continuous
 62
     7
100
AcDbLine
 10
5963.8444407316
 20
4894.9706372823
 30
0.0
 11
5963.8444407316
 21
4894.9672174658
 31
0.0
  0
LINE
  5
1CB
330
1F
100
AcDbEntity
  8
0
  6
Continuous
 62
     7
100
AcDbLine
 10
5964.4445050214
 20
4894.9706372823
 30
0.0
 11
5964.4445050214
 21
4894.9672174658
 31
0.0
  0
LINE
  5
1CC
330
1F
100
AcDbEntity
  8
0
  6
Continuous
 62
     7
100
AcDbLine
 10
6024.8447417686
 20
4904.5305815544
 30
0.0
 11
6024.8447417686
 21
4906.2606100943
 31
0.0
  0
LINE
  5
1CD
330
1F
100
AcDbEntity
  8
0
  6
Continuous
 62
     7
100
AcDbLine
 10
6024.8447417686
 20
4904.2247799244
 30
0.0
 11
6024.8447417686
 21
4904.5305815544
 31
0.0
  0
LINE
  5
1CE
330
1F
100
AcDbEntity
  8
0
  6
Continuous
 62
     7
100
AcDbLine
 10
6024.8447417686
 20
4907.9048079457
 30
0.0
 11
6024.8447417686
 21
4908.1247826125
 31
0.0
  0
LINE
  5
1CF
330
1F
100
AcDbEntity
  8
0
  6
Continuous
 62
     7
100
AcDbLine
 10
6024.8447417686
 20
4906.2606100943
 30
0.0
 11
6024.8447417686
 21
4907.9048079457
 31
0.0
  0
LINE
  5
1D0
330
1F
100
AcDbEntity
  8
0
  6
Continuous
 62
     7
100
AcDbLine
 10
5901.4447390506
 20
4973.2067012246
 30
0.0
 11
5901.4447390506
 21
4971.2863252517
 31
0.0
  0
LINE
  5
1D1
330
1F
100
AcDbEntity
  8
0
  6
Continuous
 62
     7
100
AcDbLine
 10
5901.4447390506
 20
4973.9032653179
 30
0.0
 11
5901.4447390506
 21
4973.2067012246
 31
0.0
  0
LINE
  5
1D2
330
1F
100
AcDbEntity
  8
0
  6
Continuous
 62
     7
100
AcDbLine
 10
5901.4447390506
 20
4970.0328898635
 30
0.0
 11
5901.4447390506
 21
4970.0032644924
 31
0.0
  0
LINE
  5
1D3
330
1F
100
AcDbEntity
  8
0
  6
Continuous
 62
     7
100
AcDbLine
 10
5901.4447390506
 20
4971.2863252517
 30
0.0
 11
5901.4447390506
 21
4970.0328898635
 31
0.0
  0
LINE
  5
1D4
330
1F
100
AcDbEntity
  8
0
  6
Continuous
 62
     7
100
AcDbLine
 10
5901.4447390506
 20
4907.4282166566
 30
0.0
 11
5901.4447390506
 21
4905.5078406837
 31
0.0
  0
LINE
  5
1D5
330
1F
100
AcDbEntity
  8
0
  6
Continuous
 62
     7
100
AcDbLine
 10
5901.4447390506
 20
4908.1247826125
 30
0.0
 11
5901.4447390506
 21
4907.4282166566
 31
0.0
  0
LINE
  5
1D6
330
1F
100
AcDbEntity
  8
0
  6
Continuous
 62
     7
100
AcDbLine
 10
5901.4447390506
 20
4904.2544071581
 30
0.0
 11
5901.4447390506
 21
4904.2247799244
 31
0.0
  0
LINE
  5
1D7
330
1F
100
AcDbEntity
  8
0
  6
Continuous
 62
     7
100
AcDbLine
 10
5901.4447390506
 20
4905.5078406837
 30
0.0
 11
5901.4447390506
 21
4904.2544071581
 31
0.0
  0
LINE
  5
1D8
330
1F
100
AcDbEntity
  8
0
  6
Continuous
 62
     7
100
AcDbLine
 10
6024.8447417686
 20
4970.3090661224
 30
0.0
 11
6024.8447417686
 21
4972.0390946623
 31
0.0
  0
LINE
  5
1D9
330
1F
100
AcDbEntity
  8
0
  6
Continuous
 62
     7
100
AcDbLine
 10
6024.8447417686
 20
4970.0032644924
 30
0.0
 11
6024.8447417686
 21
4970.3090661224
 31
0.0
  0
LINE
  5
1DA
330
1F
100
AcDbEntity
  8
0
  6
Continuous
 62
     7
100
AcDbLine
 10
6024.8447417686
 20
4973.6832925137
 30
0.0
 11
6024.8447417686
 21
4973.9032653179
 31
0.0
  0
LINE
  5
1DB
330
1F
100
AcDbEntity
  8
0
  6
Continuous
 62
     7
100
AcDbLine
 10
6024.8447417686
 20
4972.0390946623
 30
0.0
 11
6024.8447417686
 21
4973.6832925137
 31
0.0
  0
LINE
  5
1DC
330
1F
100
AcDbEntity
  8
0
  6
Continuous
 62
     7
100
AcDbLine
 10
5903.6447390387
 20
4977.7192478087
 30
0.0
 11
5903.6447390387
 21
4983.0873277988
 31
0.0
  0
LINE
  5
1DD
330
1F
100
AcDbEntity
  8
0
  6
Continuous
 62
     7
100
AcDbLine
 10
5903.6447390387
 20
4983.0873277988
 30
0.0
 11
5904.6447410653
 21
4984.0873261001
 31
0.0
  0
LINE
  5
1DE
330
1F
100
AcDbEntity
  8
0
  6
Continuous
 62
     7
100
AcDbLine
 10
5904.6447410653
 20
4984.0873261001
 30
0.0
 11
5904.6447410653
 21
4977.3772270437
 31
0.0
  0
LINE
  5
1DF
330
1F
100
AcDbEntity
  8
0
  6
Continuous
 62
     7
100
AcDbLine
 10
5903.6447390387
 20
4977.7192478087
 30
0.0
 11
5904.6447410653
 21
4977.3772270437
 31
0.0
  0
LINE
  5
1E0
330
1F
100
AcDbEntity
  8
0
  6
Continuous
 62
     7
100
AcDbLine
 10
5904.6447410653
 20
4977.3772270437
 30
0.0
 11
5906.6447413931
 21
4977.3772270437
 31
0.0
  0
LINE
  5
1E1
330
1F
100
AcDbEntity
  8
0
  6
Continuous
 62
     7
100
AcDbLine
 10
5904.6447410653
 20
4984.0873261001
 30
0.0
 11
5906.6447413931
 21
4984.0873261001
 31
0.0
  0
LINE
  5
1E2
330
1F
100
AcDbEntity
  8
0
  6
Continuous
 62
     7
100
AcDbLine
 10
5906.6447413931
 20
4984.0873261001
 30
0.0
 11
5906.6447413931
 21
4977.3772270437
 31
0.0
  0
LINE
  5
1E3
330
1F
100
AcDbEntity
  8
0
  6
Continuous
 62
     7
100
AcDbLine
 10
5903.6447390387
 20
4889.0392188933
 30
0.0
 11
5903.6447390387
 21
4977.7192478087
 31
0.0
  0
LINE
  5
1E4
330
1F
100
AcDbEntity
  8
0
  6
Continuous
 62
     7
100
AcDbLine
 10
5904.6447410653
 20
4977.3772270437
 30
0.0
 11
5904.6447410653
 21
4888.697199991
 31
0.0
  0
LINE
  5
1E5
330
1F
100
AcDbEntity
  8
0
  6
Continuous
 62
     7
100
AcDbLine
 10
5904.6447410653
 20
4888.697199991
 30
0.0
 11
5903.6447390387
 21
4889.0392188933
 31
0.0
  0
LINE
  5
1E6
330
1F
100
AcDbEntity
  8
0
  6
Continuous
 62
     7
100
AcDbLine
 10
5904.6447410653
 20
4888.697199991
 30
0.0
 11
5906.6447413931
 21
4888.697199991
 31
0.0
  0
LINE
  5
1E7
330
1F
100
AcDbEntity
  8
0
  6
Continuous
 62
     7
100
AcDbLine
 10
5906.6447413931
 20
4888.697199991
 30
0.0
 11
5906.6447413931
 21
4977.3772270437
 31
0.0
  0
LINE
  5
1E8
330
1F
100
AcDbEntity
  8
0
  6
Continuous
 62
     7
100
AcDbLine
 10
5904.6447410653
 20
4888.697199991
 30
0.0
 11
5904.6447410653
 21
4885.4072992708
 31
0.0
  0
LINE
  5
1E9
330
1F
100
AcDbEntity
  8
0
  6
Continuous
 62
     7
100
AcDbLine
 10
5904.6447410653
 20
4885.4072992708
 30
0.0
 11
5903.6447390387
 21
4886.4072975721
 31
0.0
  0
LINE
  5
1EA
330
1F
100
AcDbEntity
  8
0
  6
Continuous
 62
     7
100
AcDbLine
 10
5903.6447390387
 20
4886.4072975721
 30
0.0
 11
5903.6447390387
 21
4889.0392188933
 31
0.0
  0
LINE
  5
1EB
330
1F
100
AcDbEntity
  8
0
  6
Continuous
 62
     7
100
AcDbLine
 10
5904.6447410653
 20
4885.4072992708
 30
0.0
 11
5906.6447413931
 21
4885.4072992708
 31
0.0
  0
LINE
  5
1EC
330
1F
100
AcDbEntity
  8
0
  6
Continuous
 62
     7
100
AcDbLine
 10
5906.6447413931
 20
4885.4072992708
 30
0.0
 11
5906.6447413931
 21
4888.697199991
 31
0.0
  0
LINE
  5
1ED
330
1F
100
AcDbEntity
  8
0
  6
Continuous
 62
     7
100
AcDbLine
 10
6021.644739754
 20
4977.3772270437
 30
0.0
 11
6021.644739754
 21
4984.0873261001
 31
0.0
  0
LINE
  5
1EE
330
1F
100
AcDbEntity
  8
0
  6
Continuous
 62
     7
100
AcDbLine
 10
6021.644739754
 20
4984.0873261001
 30
0.0
 11
6022.6447417805
 21
4983.0873277988
 31
0.0
  0
LINE
  5
1EF
330
1F
100
AcDbEntity
  8
0
  6
Continuous
 62
     7
100
AcDbLine
 10
6022.6447417805
 20
4983.0873277988
 30
0.0
 11
6022.6447417805
 21
4977.7192478087
 31
0.0
  0
LINE
  5
1F0
330
1F
100
AcDbEntity
  8
0
  6
Continuous
 62
     7
100
AcDbLine
 10
6021.644739754
 20
4977.3772270437
 30
0.0
 11
6022.6447417805
 21
4977.7192478087
 31
0.0
  0
LINE
  5
1F1
330
1F
100
AcDbEntity
  8
0
  6
Continuous
 62
     7
100
AcDbLine
 10
6019.6447394261
 20
4984.0873261001
 30
0.0
 11
6021.644739754
 21
4984.0873261001
 31
0.0
  0
LINE
  5
1F2
330
1F
100
AcDbEntity
  8
0
  6
Continuous
 62
     7
100
AcDbLine
 10
6019.6447394261
 20
4977.3772270437
 30
0.0
 11
6021.644739754
 21
4977.3772270437
 31
0.0
  0
LINE
  5
1F3
330
1F
100
AcDbEntity
  8
0
  6
Continuous
 62
     7
100
AcDbLine
 10
6019.6447394261
 20
4984.0873261001
 30
0.0
 11
6019.6447394261
 21
4977.3772270437
 31
0.0
  0
LINE
  5
1F4
330
1F
100
AcDbEntity
  8
0
  6
Continuous
 62
     7
100
AcDbLine
 10
6021.644739754
 20
4888.697199991
 30
0.0
 11
6021.644739754
 21
4977.3772270437
 31
0.0
  0
LINE
  5
1F5
330
1F
100
AcDbEntity
  8
0
  6
Continuous
 62
     7
100
AcDbLine
 10
6022.6447417805
 20
4977.7192478087
 30
0.0
 11
6022.6447417805
 21
4889.0392188933
 31
0.0
  0
LINE
  5
1F6
330
1F
100
AcDbEntity
  8
0
  6
Continuous
 62
     7
100
AcDbLine
 10
6022.6447417805
 20
4889.0392188933
 30
0.0
 11
6021.644739754
 21
4888.697199991
 31
0.0
  0
LINE
  5
1F7
330
1F
100
AcDbEntity
  8
0
  6
Continuous
 62
     7
100
AcDbLine
 10
6019.6447394261
 20
4888.697199991
 30
0.0
 11
6021.644739754
 21
4888.697199991
 31
0.0
  0
LINE
  5
1F8
330
1F
100
AcDbEntity
  8
0
  6
Continuous
 62
     7
100
AcDbLine
 10
6019.6447394261
 20
4888.697199991
 30
0.0
 11
6019.6447394261
 21
4977.3772270437
 31
0.0
  0
LINE
  5
1F9
330
1F
100
AcDbEntity
  8
0
  6
Continuous
 62
     7
100
AcDbLine
 10
6022.6447417805
 20
4886.4072975721
 30
0.0
 11
6021.644739754
 21
4885.4072992708
 31
0.0
  0
LINE
  5
1FA
330
1F
100
AcDbEntity
  8
0
  6
Continuous
 62
     7
100
AcDbLine
 10
6021.644739754
 20
4885.4072992708
 30
0.0
 11
6021.644739754
 21
4888.697199991
 31
0.0
  0
LINE
  5
1FB
330
1F
100
AcDbEntity
  8
0
  6
Continuous
 62
     7
100
AcDbLine
 10
6022.6447417805
 20
4889.0392188933
 30
0.0
 11
6022.6447417805
 21
4886.4072975721
 31
0.0
  0
LINE
  5
1FC
330
1F
100
AcDbEntity
  8
0
  6
Continuous
 62
     7
100
AcDbLine
 10
6019.6447394261
 20
4885.4072992708
 30
0.0
 11
6021.644739754
 21
4885.4072992708
 31
0.0
  0
LINE
  5
1FD
330
1F
100
AcDbEntity
  8
0
  6
Continuous
 62
     7
100
AcDbLine
 10
6019.6447394261
 20
4885.4072992708
 30
0.0
 11
6019.6447394261
 21
4888.697199991
 31
0.0
  0
LINE
  5
1FE
330
1F
100
AcDbEntity
  8
0
  6
Continuous
 62
     7
100
AcDbLine
 10
5906.6447413931
 20
4970.8410487529
 30
0.0
 11
6019.6447394261
 21
4970.8410487529
 31
0.0
  0
LINE
  5
1FF
330
1F
100
AcDbEntity
  8
0
  6
Continuous
 62
     7
100
AcDbLine
 10
5906.6447413931
 20
4973.1481322106
 30
0.0
 11
6019.6447394261
 21
4973.1481322106
 31
0.0
  0
LINE
  5
200
330
1F
100
AcDbEntity
  8
0
  6
Continuous
 62
     7
100
AcDbLine
 10
5906.6447413931
 20
4892.47068437
 30
0.0
 11
6019.6447394261
 21
4892.47068437
 31
0.0
  0
LINE
  5
201
330
1F
100
AcDbEntity
  8
0
  6
Continuous
 62
     7
100
AcDbLine
 10
5914.4447393188
 20
4907.6937069203
 30
0.0
 11
6011.8447415004
 21
4907.6937069203
 31
0.0
  0
LINE
  5
202
330
1F
100
AcDbEntity
  8
0
  6
Continuous
 62
     7
100
AcDbLine
 10
6011.8447415004
 20
4907.6937069203
 30
0.0
 11
6011.8447415004
 21
4960.6923689153
 31
0.0
  0
LINE
  5
203
330
1F
100
AcDbEntity
  8
0
  6
Continuous
 62
     7
100
AcDbLine
 10
6011.8447415004
 20
4960.6923689153
 30
0.0
 11
5914.4447393188
 21
4960.6923689153
 31
0.0
  0
LINE
  5
204
330
1F
100
AcDbEntity
  8
0
  6
Continuous
 62
     7
100
AcDbLine
 10
5914.4447393188
 20
4960.6923689153
 30
0.0
 11
5914.4447393188
 21
4907.6937069203
 31
0.0
  0
LINE
  5
205
330
1F
100
AcDbEntity
  8
0
  6
Continuous
 62
     7
100
AcDbLine
 10
5906.6447413931
 20
4981.835443994
 30
0.0
 11
6019.6447394261
 21
4981.835443994
 31
0.0
  0
LINE
  5
206
330
1F
100
AcDbEntity
  8
0
  6
Continuous
 62
     7
100
AcDbLine
 10
5926.8447406063
 20
4977.1497682687
 30
0.0
 11
5926.8828018973
 21
4977.084326094
 31
0.0
  0
LINE
  5
207
330
1F
100
AcDbEntity
  8
0
  6
Continuous
 62
     7
100
AcDbLine
 10
5926.8828018973
 20
4977.084326094
 30
0.0
 11
5926.9911854932
 21
4977.0288453456
 31
0.0
  0
LINE
  5
208
330
1F
100
AcDbEntity
  8
0
  6
Continuous
 62
     7
100
AcDbLine
 10
5926.9911854932
 20
4977.0288453456
 30
0.0
 11
5927.153399534
 21
4976.9917749818
 31
0.0
  0
LINE
  5
209
330
1F
100
AcDbEntity
  8
0
  6
Continuous
 62
     7
100
AcDbLine
 10
5927.153399534
 20
4976.9917749818
 30
0.0
 11
5927.3447416196
 21
4976.9787588175
 31
0.0
  0
LINE
  5
20A
330
1F
100
AcDbEntity
  8
0
  6
Continuous
 62
     7
100
AcDbLine
 10
5927.3447416196
 20
4976.9787588175
 30
0.0
 11
5927.5360837052
 21
4976.9917749818
 31
0.0
  0
LINE
  5
20B
330
1F
100
AcDbEntity
  8
0
  6
Continuous
 62
     7
100
AcDbLine
 10
5927.5360837052
 20
4976.9917749818
 30
0.0
 11
5927.6982940207
 21
4977.0288453456
 31
0.0
  0
LINE
  5
20C
330
1F
100
AcDbEntity
  8
0
  6
Continuous
 62
     7
100
AcDbLine
 10
5927.6982940207
 20
4977.0288453456
 30
0.0
 11
5927.8066813419
 21
4977.084326094
 31
0.0
  0
LINE
  5
20D
330
1F
100
AcDbEntity
  8
0
  6
Continuous
 62
     7
100
AcDbLine
 10
5927.8066813419
 20
4977.084326094
 30
0.0
 11
5927.8447389076
 21
4977.1497682687
 31
0.0
  0
LINE
  5
20E
330
1F
100
AcDbEntity
  8
0
  6
Continuous
 62
     7
100
AcDbLine
 10
5927.8447389076
 20
4977.1497682687
 30
0.0
 11
5927.8066813419
 21
4977.2152104433
 31
0.0
  0
LINE
  5
20F
330
1F
100
AcDbEntity
  8
0
  6
Continuous
 62
     7
100
AcDbLine
 10
5927.8066813419
 20
4977.2152104433
 30
0.0
 11
5927.6982940207
 21
4977.2706911918
 31
0.0
  0
LINE
  5
210
330
1F
100
AcDbEntity
  8
0
  6
Continuous
 62
     7
100
AcDbLine
 10
5927.6982940207
 20
4977.2706911918
 30
0.0
 11
5927.5360837052
 21
4977.3077615555
 31
0.0
  0
LINE
  5
211
330
1F
100
AcDbEntity
  8
0
  6
Continuous
 62
     7
100
AcDbLine
 10
5927.5360837052
 20
4977.3077615555
 30
0.0
 11
5927.3447416196
 21
4977.3207777198
 31
0.0
  0
LINE
  5
212
330
1F
100
AcDbEntity
  8
0
  6
Continuous
 62
     7
100
AcDbLine
 10
5927.3447416196
 20
4977.3207777198
 30
0.0
 11
5927.153399534
 21
4977.3077615555
 31
0.0
  0
LINE
  5
213
330
1F
100
AcDbEntity
  8
0
  6
Continuous
 62
     7
100
AcDbLine
 10
5927.153399534
 20
4977.3077615555
 30
0.0
 11
5926.9911854932
 21
4977.2706911918
 31
0.0
  0
LINE
  5
214
330
1F
100
AcDbEntity
  8
0
  6
Continuous
 62
     7
100
AcDbLine
 10
5926.9911854932
 20
4977.2706911918
 30
0.0
 11
5926.8828018973
 21
4977.2152104433
 31
0.0
  0
LINE
  5
215
330
1F
100
AcDbEntity
  8
0
  6
Continuous
 62
     7
100
AcDbLine
 10
5926.8828018973
 20
4977.2152104433
 30
0.0
 11
5926.8447406063
 21
4977.1497682687
 31
0.0
  0
LINE
  5
216
330
1F
100
AcDbEntity
  8
0
  6
Continuous
 62
     7
100
AcDbLine
 10
5936.5447408924
 20
4977.6627984848
 30
0.0
 11
5931.5447419355
 21
4977.6627984848
 31
0.0
  0
LINE
  5
217
330
1F
100
AcDbEntity
  8
0
  6
Continuous
 62
     7
100
AcDbLine
 10
5931.5447419355
 20
4977.6627984848
 30
0.0
 11
5931.1221412787
 21
4977.6420169528
 31
0.0
  0
LINE
  5
218
330
1F
100
AcDbEntity
  8
0
  6
Continuous
 62
     7
100
AcDbLine
 10
5931.1221412787
 20
4977.6420169528
 30
0.0
 11
5930.7337797651
 21
4977.5813561883
 31
0.0
  0
LINE
  5
219
330
1F
100
AcDbEntity
  8
0
  6
Continuous
 62
     7
100
AcDbLine
 10
5930.7337797651
 20
4977.5813561883
 30
0.0
 11
5930.4111174712
 21
4977.4857317116
 31
0.0
  0
LINE
  5
21A
330
1F
100
AcDbEntity
  8
0
  6
Continuous
 62
     7
100
AcDbLine
 10
5930.4111174712
 20
4977.4857317116
 30
0.0
 11
5930.1802910337
 21
4977.3628884014
 31
0.0
  0
LINE
  5
21B
330
1F
100
AcDbEntity
  8
0
  6
Continuous
 62
     7
100
AcDbLine
 10
5930.1802910337
 20
4977.3628884014
 30
0.0
 11
5930.0600088606
 21
4977.2227802332
 31
0.0
  0
LINE
  5
21C
330
1F
100
AcDbEntity
  8
0
  6
Continuous
 62
     7
100
AcDbLine
 10
5930.0600088606
 20
4977.2227802332
 30
0.0
 11
5930.0600088606
 21
4977.0767563041
 31
0.0
  0
LINE
  5
21D
330
1F
100
AcDbEntity
  8
0
  6
Continuous
 62
     7
100
AcDbLine
 10
5930.0600088606
 20
4977.0767563041
 30
0.0
 11
5930.1802910337
 21
4976.936648136
 31
0.0
  0
LINE
  5
21E
330
1F
100
AcDbEntity
  8
0
  6
Continuous
 62
     7
100
AcDbLine
 10
5930.1802910337
 20
4976.936648136
 30
0.0
 11
5930.4111174712
 21
4976.8138048257
 31
0.0
  0
LINE
  5
21F
330
1F
100
AcDbEntity
  8
0
  6
Continuous
 62
     7
100
AcDbLine
 10
5930.4111174712
 20
4976.8138048257
 30
0.0
 11
5930.7337797651
 21
4976.7181803491
 31
0.0
  0
LINE
  5
220
330
1F
100
AcDbEntity
  8
0
  6
Continuous
 62
     7
100
AcDbLine
 10
5930.7337797651
 20
4976.7181803491
 30
0.0
 11
5931.1221412787
 21
4976.6575195845
 31
0.0
  0
LINE
  5
221
330
1F
100
AcDbEntity
  8
0
  6
Continuous
 62
     7
100
AcDbLine
 10
5931.1221412787
 20
4976.6575195845
 30
0.0
 11
5931.5447419355
 21
4976.6367380526
 31
0.0
  0
LINE
  5
222
330
1F
100
AcDbEntity
  8
0
  6
Continuous
 62
     7
100
AcDbLine
 10
5931.5447419355
 20
4976.6367380526
 30
0.0
 11
5936.5447408924
 21
4976.6367380526
 31
0.0
  0
LINE
  5
223
330
1F
100
AcDbEntity
  8
0
  6
Continuous
 62
     7
100
AcDbLine
 10
5936.5447408924
 20
4976.6367380526
 30
0.0
 11
5936.9673396865
 21
4976.6575195845
 31
0.0
  0
LINE
  5
224
330
1F
100
AcDbEntity
  8
0
  6
Continuous
 62
     7
100
AcDbLine
 10
5936.9673396865
 20
4976.6575195845
 30
0.0
 11
5937.3557012001
 21
4976.7181803491
 31
0.0
  0
LINE
  5
225
330
1F
100
AcDbEntity
  8
0
  6
Continuous
 62
     7
100
AcDbLine
 10
5937.3557012001
 20
4976.7181803491
 30
0.0
 11
5937.6783653567
 21
4976.8138048257
 31
0.0
  0
LINE
  5
226
330
1F
100
AcDbEntity
  8
0
  6
Continuous
 62
     7
100
AcDbLine
 10
5937.6783653567
 20
4976.8138048257
 30
0.0
 11
5937.9091880689
 21
4976.936648136
 31
0.0
  0
LINE
  5
227
330
1F
100
AcDbEntity
  8
0
  6
Continuous
 62
     7
100
AcDbLine
 10
5937.9091880689
 20
4976.936648136
 30
0.0
 11
5938.0294721047
 21
4977.0767563041
 31
0.0
  0
LINE
  5
228
330
1F
100
AcDbEntity
  8
0
  6
Continuous
 62
     7
100
AcDbLine
 10
5938.0294721047
 20
4977.0767563041
 30
0.0
 11
5938.0294721047
 21
4977.2227802332
 31
0.0
  0
LINE
  5
229
330
1F
100
AcDbEntity
  8
0
  6
Continuous
 62
     7
100
AcDbLine
 10
5938.0294721047
 20
4977.2227802332
 30
0.0
 11
5937.9091880689
 21
4977.3628884014
 31
0.0
  0
LINE
  5
22A
330
1F
100
AcDbEntity
  8
0
  6
Continuous
 62
     7
100
AcDbLine
 10
5937.9091880689
 20
4977.3628884014
 30
0.0
 11
5937.6783653567
 21
4977.4857317116
 31
0.0
  0
LINE
  5
22B
330
1F
100
AcDbEntity
  8
0
  6
Continuous
 62
     7
100
AcDbLine
 10
5937.6783653567
 20
4977.4857317116
 30
0.0
 11
5937.3557012001
 21
4977.5813561883
 31
0.0
  0
LINE
  5
22C
330
1F
100
AcDbEntity
  8
0
  6
Continuous
 62
     7
100
AcDbLine
 10
5937.3557012001
 20
4977.5813561883
 30
0.0
 11
5936.9673396865
 21
4977.6420169528
 31
0.0
  0
LINE
  5
22D
330
1F
100
AcDbEntity
  8
0
  6
Continuous
 62
     7
100
AcDbLine
 10
5936.9673396865
 20
4977.6420169528
 30
0.0
 11
5936.5447408924
 21
4977.6627984848
 31
0.0
  0
LINE
  5
22E
330
1F
100
AcDbEntity
  8
0
  6
Continuous
 62
     7
100
AcDbLine
 10
5936.5447408924
 20
4976.7231051829
 30
0.0
 11
5936.5447408924
 21
4977.6627984848
 31
0.0
  0
LINE
  5
22F
330
1F
100
AcDbEntity
  8
0
  6
Continuous
 62
     7
100
AcDbLine
 10
5936.5447408924
 20
4976.7231051829
 30
0.0
 11
5936.9673396865
 21
4976.7023236509
 31
0.0
  0
LINE
  5
230
330
1F
100
AcDbEntity
  8
0
  6
Continuous
 62
     7
100
AcDbLine
 10
5936.9673396865
 20
4976.7023236509
 30
0.0
 11
5937.1471035699
 21
4976.6799216177
 31
0.0
  0
LINE
  5
231
330
1F
100
AcDbEntity
  8
0
  6
Continuous
 62
     7
100
AcDbLine
 10
5931.5447419355
 20
4976.7231051829
 30
0.0
 11
5931.5447419355
 21
4977.6627984848
 31
0.0
  0
LINE
  5
232
330
1F
100
AcDbEntity
  8
0
  6
Continuous
 62
     7
100
AcDbLine
 10
5930.9423773954
 20
4976.6799216177
 30
0.0
 11
5931.1221412787
 21
4976.7023236509
 31
0.0
  0
LINE
  5
233
330
1F
100
AcDbEntity
  8
0
  6
Continuous
 62
     7
100
AcDbLine
 10
5931.1221412787
 20
4976.7023236509
 30
0.0
 11
5931.5447419355
 21
4976.7231051829
 31
0.0
  0
LINE
  5
234
330
1F
100
AcDbEntity
  8
0
  6
Continuous
 62
     7
100
AcDbLine
 10
5931.5447419355
 20
4976.7231051829
 30
0.0
 11
5936.5447408924
 21
4976.7231051829
 31
0.0
  0
LINE
  5
235
330
1F
100
AcDbEntity
  8
0
  6
Continuous
 62
     7
100
AcDbLine
 10
6011.8447415004
 20
4908.0357258227
 30
0.0
 11
5914.4447393188
 21
4908.0357258227
 31
0.0
  0
LWPOLYLINE
  5
236
330
1F
100
AcDbEntity
  8
0
  6
Continuous
 62
     7
100
AcDbPolyline
 90
        3
 70
   128
 43
0.0
 10
5958.5762023926
 20
5213.8093485606
 10
5958.5184259496
 20
5213.8200097177
 10
5958.4940554047
 20
5213.8362526072
  0
LWPOLYLINE
  5
237
330
1F
100
AcDbEntity
  8
0
  6
Continuous
 62
     7
100
AcDbPolyline
 90
        3
 70
   128
 43
0.0
 10
5960.1631164551
 20
5213.8493209255
 10
5960.1497575659
 20
5213.8282821945
 10
5960.118948569
 20
5213.8149849248
  0
LWPOLYLINE
  5
238
330
1F
100
AcDbEntity
  8
0
  6
Continuous
 62
     7
100
AcDbPolyline
 90
        3
 70
   128
 43
0.0
 10
5960.1593017578
 20
5213.8552143348
 10
5960.1630654183
 20
5213.8520091702
 10
5960.1638969904
 20
5213.8493209255
  0
LWPOLYLINE
  5
239
330
1F
100
AcDbEntity
  8
0
  6
Continuous
 62
     7
100
AcDbPolyline
 90
        3
 70
   128
 43
0.0
 10
5960.1593017578
 20
5213.860850699
 10
5960.1601389095
 20
5213.8576923607
 10
5960.1594021948
 20
5213.8552143348
  0
LWPOLYLINE
  5
23A
330
1F
100
AcDbEntity
  8
0
  6
Continuous
 62
     7
100
AcDbPolyline
 90
        3
 70
   128
 43
0.0
 10
5960.075378418
 20
5213.8913422001
 10
5960.1340725958
 20
5213.8778244139
 10
5960.1594021948
 20
5213.860850699
  0
LWPOLYLINE
  5
23B
330
1F
100
AcDbEntity
  8
0
  6
Continuous
 62
     7
100
AcDbPolyline
 90
        3
 70
   128
 43
0.0
 10
5958.5838317871
 20
5214.9900234414
 10
5958.6638136431
 20
5214.9866450318
 10
5958.7173004108
 20
5214.976698078
  0
LWPOLYLINE
  5
23C
330
1F
100
AcDbEntity
  8
0
  6
Continuous
 62
     7
100
AcDbPolyline
 90
        3
 70
   128
 43
0.0
 10
5958.4922790527
 20
5214.9631193948
 10
5958.5342014195
 20
5214.9830539291
 10
5958.5869492436
 20
5214.9900234414
  0
LWPOLYLINE
  5
23D
330
1F
100
AcDbEntity
  8
0
  6
Continuous
 62
     7
100
AcDbPolyline
 90
        3
 70
   128
 43
0.0
 10
5961.0328674316
 20
5214.3492101801
 10
5961.1944561188
 20
5214.5008442945
 10
5961.4831393989
 20
5214.5821153296
  0
LWPOLYLINE
  5
23E
330
1F
100
AcDbEntity
  8
0
  6
Continuous
 62
     7
100
AcDbPolyline
 90
        3
 70
   128
 43
0.0
 10
5961.296081543
 20
5213.8728945625
 10
5961.0853943854
 20
5213.9851014075
 10
5961.0351513544
 20
5214.088886894
  0
LWPOLYLINE
  5
23F
330
1F
100
AcDbEntity
  8
0
  6
Continuous
 62
     7
100
AcDbPolyline
 90
        3
 70
   128
 43
0.0
 10
5961.8835449219
 20
5213.7929498327
 10
5961.5326814625
 20
5213.8176987
 10
5961.2988499863
 20
5213.8728945625
  0
LWPOLYLINE
  5
240
330
1F
100
AcDbEntity
  8
0
  6
Continuous
 62
     7
100
AcDbPolyline
 90
        3
 70
   128
 43
0.0
 10
5962.1887207031
 20
5213.8134501052
 10
5962.0230525306
 20
5213.7971326092
 10
5961.8869279217
 20
5213.7929498327
  0
LWPOLYLINE
  5
241
330
1F
100
AcDbEntity
  8
0
  6
Continuous
 62
     7
100
AcDbPolyline
 90
        3
 70
   128
 43
0.0
 10
5962.7113342285
 20
5214.0532731188
 10
5962.5214692128
 20
5213.8930208068
 10
5962.1903311633
 20
5213.8134501052
  0
LWPOLYLINE
  5
242
330
1F
100
AcDbEntity
  8
0
  6
Continuous
 62
     7
100
AcDbPolyline
 90
        3
 70
   128
 43
0.0
 10
5962.646484375
 20
5214.4360690487
 10
5962.6985913395
 20
5214.3768602107
 10
5962.7132335733
 20
5214.3287136329
  0
LWPOLYLINE
  5
243
330
1F
100
AcDbEntity
  8
0
  6
Continuous
 62
     7
100
AcDbPolyline
 90
        3
 70
   128
 43
0.0
 10
5961.8682861328
 20
5214.6128638757
 10
5962.3902311976
 20
5214.55364583
 10
5962.6488071805
 20
5214.4360690487
  0
LWPOLYLINE
  5
244
330
1F
100
AcDbEntity
  8
0
  6
Continuous
 62
     7
100
AcDbPolyline
 90
        3
 70
   128
 43
0.0
 10
5961.483001709
 20
5214.5821153296
 10
5961.6957714889
 20
5214.6074137377
 10
5961.871945037
 20
5214.6128638757
  0
LWPOLYLINE
  5
245
330
1F
100
AcDbEntity
  8
0
  6
Continuous
 62
     7
100
AcDbPolyline
 90
        3
 70
   128
 43
0.0
 10
5966.1140441895
 20
5214.3492101801
 10
5966.276647938
 20
5214.5008442604
 10
5966.5653310655
 20
5214.5821153296
  0
LWPOLYLINE
  5
246
330
1F
100
AcDbEntity
  8
0
  6
Continuous
 62
     7
100
AcDbPolyline
 90
        3
 70
   128
 43
0.0
 10
5966.3772583008
 20
5213.8728945625
 10
5966.1675860778
 20
5213.9851013832
 10
5966.1173432539
 20
5214.088886894
  0
LWPOLYLINE
  5
247
330
1F
100
AcDbEntity
  8
0
  6
Continuous
 62
     7
100
AcDbPolyline
 90
        3
 70
   128
 43
0.0
 10
5966.968536377
 20
5213.7929498327
 10
5966.6148732697
 20
5213.8176986782
 10
5966.3810418857
 20
5213.8728945625
  0
LWPOLYLINE
  5
248
330
1F
100
AcDbEntity
  8
0
  6
Continuous
 62
     7
100
AcDbPolyline
 90
        3
 70
   128
 43
0.0
 10
5967.2698974609
 20
5213.8134501052
 10
5967.1052442082
 20
5213.7971326167
 10
5966.9691197047
 20
5213.7929498327
  0
LWPOLYLINE
  5
249
330
1F
100
AcDbEntity
  8
0
  6
Continuous
 62
     7
100
AcDbPolyline
 90
        3
 70
   128
 43
0.0
 10
5967.7925109863
 20
5214.0532731188
 10
5967.6036609141
 20
5213.893020798
 10
5967.2725227135
 20
5213.8134501052
  0
LWPOLYLINE
  5
24A
330
1F
100
AcDbEntity
  8
0
  6
Continuous
 62
     7
100
AcDbPolyline
 90
        3
 70
   128
 43
0.0
 10
5967.7276611328
 20
5214.4360690487
 10
5967.7807830642
 20
5214.3768602109
 10
5967.7954254145
 20
5214.3287136329
  0
LWPOLYLINE
  5
24B
330
1F
100
AcDbEntity
  8
0
  6
Continuous
 62
     7
100
AcDbPolyline
 90
        3
 70
   128
 43
0.0
 10
5966.9532775879
 20
5214.6128638757
 10
5967.4724229743
 20
5214.5536458464
 10
5967.7309988471
 20
5214.4360690487
  0
LWPOLYLINE
  5
24C
330
1F
100
AcDbEntity
  8
0
  6
Continuous
 62
     7
100
AcDbPolyline
 90
        3
 70
   128
 43
0.0
 10
5966.5641784668
 20
5214.5821153296
 10
5966.7779632186
 20
5214.6074137421
 10
5966.95413682
 20
5214.6128638757
  0
LWPOLYLINE
  5
24D
330
1F
100
AcDbEntity
  8
0
  6
Continuous
 62
     7
100
AcDbPolyline
 90
        3
 70
   128
 43
0.0
 10
5963.5734558105
 20
5214.3822609556
 10
5963.7565355759
 20
5214.5280706977
 10
5964.0654381653
 20
5214.5977466477
  0
LWPOLYLINE
  5
24E
330
1F
100
AcDbEntity
  8
0
  6
Continuous
 62
     7
100
AcDbPolyline
 90
        3
 70
   128
 43
0.0
 10
5963.5887145996
 20
5214.0097170246
 10
5963.57872591
 20
5214.0489363761
 10
5963.5762472459
 20
5214.0799201203
  0
LWPOLYLINE
  5
24F
330
1F
100
AcDbEntity
  8
0
  6
Continuous
 62
     7
100
AcDbPolyline
 90
        3
 70
   128
 43
0.0
 10
5963.8137817383
 20
5213.8728945625
 10
5963.65851978
 20
5213.9435536927
 10
5963.5912301307
 20
5214.0097170246
  0
LWPOLYLINE
  5
250
330
1F
100
AcDbEntity
  8
0
  6
Continuous
 62
     7
100
AcDbPolyline
 90
        3
 70
   128
 43
0.0
 10
5964.241027832
 20
5213.8093485606
 10
5963.9854158102
 20
5213.8312476708
 10
5963.8174715507
 20
5213.8728945625
  0
LWPOLYLINE
  5
251
330
1F
100
AcDbEntity
  8
0
  6
Continuous
 62
     7
100
AcDbPolyline
 90
        3
 70
   128
 43
0.0
 10
5965.0115966797
 20
5213.7486263288
 10
5965.0153493124
 20
5213.7694292424
 10
5965.0153525578
 20
5213.7857786489
  0
LWPOLYLINE
  5
252
330
1F
100
AcDbEntity
  8
0
  6
Continuous
 62
     7
100
AcDbPolyline
 90
        3
 70
   128
 43
0.0
 10
5964.9772644043
 20
5213.630504824
 10
5965.0094301255
 20
5213.675384254
 10
5965.0146034252
 20
5213.7114740086
  0
LWPOLYLINE
  5
253
330
1F
100
AcDbEntity
  8
0
  6
Continuous
 62
     7
100
AcDbPolyline
 90
        3
 70
   128
 43
0.0
 10
5964.5462036133
 20
5213.5141826344
 10
5964.8368906179
 20
5213.5594515277
 10
5964.9801428601
 20
5213.630504824
  0
LWPOLYLINE
  5
254
330
1F
100
AcDbEntity
  8
0
  6
Continuous
 62
     7
100
AcDbPolyline
 90
        3
 70
   128
 43
0.0
 10
5963.7565612793
 20
5213.4639619959
 10
5963.7721545176
 20
5213.4919486419
 10
5963.8137258295
 20
5213.5085462702
  0
LWPOLYLINE
  5
255
330
1F
100
AcDbEntity
  8
0
  6
Continuous
 62
     7
100
AcDbPolyline
 90
        3
 70
   128
 43
0.0
 10
5963.8442993164
 20
5213.4321889949
 10
5963.7799173793
 20
5213.4447296046
 10
5963.7597875259
 20
5213.4639619959
  0
LWPOLYLINE
  5
256
330
1F
100
AcDbEntity
  8
0
  6
Continuous
 62
     7
100
AcDbPolyline
 90
        3
 70
   128
 43
0.0
 10
5964.7331237793
 20
5213.4439758134
 10
5964.5732215044
 20
5213.4337928978
 10
5964.4445050214
 20
5213.4321889949
  0
LWPOLYLINE
  5
257
330
1F
100
AcDbEntity
  8
0
  6
Continuous
 62
     7
100
AcDbPolyline
 90
        3
 70
   128
 43
0.0
 10
5965.2519226074
 20
5213.6594577802
 10
5965.0585442579
 20
5213.511661633
 10
5964.7344236434
 20
5213.4439758134
  0
LWPOLYLINE
  5
258
330
1F
100
AcDbEntity
  8
0
  6
Continuous
 62
     7
100
AcDbPolyline
 90
        3
 70
   128
 43
0.0
 10
5965.1718139648
 20
5214.6128638757
 10
5965.2316930961
 20
5214.6031788048
 10
5965.2543294648
 20
5214.587498374
  0
LWPOLYLINE
  5
259
330
1F
100
AcDbEntity
  8
0
  6
Continuous
 62
     7
100
AcDbPolyline
 90
        3
 70
   128
 43
0.0
 10
5964.0617370605
 20
5214.5977466477
 10
5964.2010183816
 20
5214.6094215193
 10
5964.3104081912
 20
5214.6128638757
  0
LWPOLYLINE
  5
25A
330
1F
100
AcDbEntity
  8
0
  6
Continuous
 62
     7
100
AcDbPolyline
 90
        3
 70
   128
 43
0.0
 10
5965.1718139648
 20
5214.6034649683
 10
5965.2316948323
 20
5214.5937792138
 10
5965.2543294648
 20
5214.5780994666
  0
LWPOLYLINE
  5
25B
330
1F
100
AcDbEntity
  8
0
  6
Continuous
 62
     7
100
AcDbPolyline
 90
        3
 70
   128
 43
0.0
 10
5963.7565612793
 20
5213.4545668138
 10
5963.7721544607
 20
5213.4825533978
 10
5963.8137258295
 20
5213.4991473628
  0
LWPOLYLINE
  5
25C
330
1F
100
AcDbEntity
  8
0
  6
Continuous
 62
     7
100
AcDbPolyline
 90
        3
 70
   128
 43
0.0
 10
5964.5462036133
 20
5213.504783727
 10
5964.8368903974
 20
5213.550056254
 10
5964.9801428601
 20
5213.6211096418
  0
LWPOLYLINE
  5
25D
330
1F
100
AcDbEntity
  8
0
  6
Continuous
 62
     7
100
AcDbPolyline
 90
        3
 70
   128
 43
0.0
 10
5964.9772644043
 20
5213.6211096418
 10
5965.0094300377
 20
5213.6659888291
 10
5965.0146034252
 20
5213.7020751012
  0
LWPOLYLINE
  5
25E
330
1F
100
AcDbEntity
  8
0
  6
Continuous
 62
     7
100
AcDbPolyline
 90
        3
 70
   128
 43
0.0
 10
5965.0115966797
 20
5213.7392274213
 10
5965.015253319
 20
5213.7548142919
 10
5965.0153506952
 20
5213.7670590652
  0
LWPOLYLINE
  5
25F
330
1F
100
AcDbEntity
  8
0
  6
Continuous
 62
     7
100
AcDbPolyline
 90
        3
 70
   128
 43
0.0
 10
5963.5734558105
 20
5214.3728657735
 10
5963.7565361225
 20
5214.5186756899
 10
5964.0654381653
 20
5214.5883477402
  0
LWPOLYLINE
  5
260
330
1F
100
AcDbEntity
  8
0
  6
Continuous
 62
     7
100
AcDbPolyline
 90
        3
 70
   128
 43
0.0
 10
5964.0617370605
 20
5214.5883477402
 10
5964.2010187517
 20
5214.6000226322
 10
5964.3104081912
 20
5214.6034649683
  0
LWPOLYLINE
  5
261
330
1F
100
AcDbEntity
  8
0
  6
Continuous
 62
     7
100
AcDbPolyline
 90
        3
 70
   128
 43
0.0
 10
5963.8137817383
 20
5214.0461838914
 10
5963.8385207964
 20
5214.007332641
 10
5963.8691625147
 20
5213.9780259801
  0
LWPOLYLINE
  5
262
330
1F
100
AcDbEntity
  8
0
  6
Continuous
 62
     7
100
AcDbPolyline
 90
        3
 70
   128
 43
0.0
 10
5963.8671875
 20
5213.9780259801
 10
5964.055721424
 20
5213.9059644803
 10
5964.265459537
 20
5213.8819432927
  0
LWPOLYLINE
  5
263
330
1F
100
AcDbEntity
  8
0
  6
Continuous
 62
     7
100
AcDbPolyline
 90
        3
 70
   128
 43
0.0
 10
5967.7276611328
 20
5214.4266738666
 10
5967.7807829675
 20
5214.3674614844
 10
5967.7954254145
 20
5214.3193147255
  0
LWPOLYLINE
  5
264
330
1F
100
AcDbEntity
  8
0
  6
Continuous
 62
     7
100
AcDbPolyline
 90
        3
 70
   128
 43
0.0
 10
5966.1140441895
 20
5214.3398112727
 10
5966.2766476327
 20
5214.4914489342
 10
5966.5653310655
 20
5214.5727201474
  0
LWPOLYLINE
  5
265
330
1F
100
AcDbEntity
  8
0
  6
Continuous
 62
     7
100
AcDbPolyline
 90
        3
 70
   128
 43
0.0
 10
5966.5641784668
 20
5214.5727201474
 10
5966.7779631561
 20
5214.5980185537
 10
5966.95413682
 20
5214.6034649683
  0
LWPOLYLINE
  5
266
330
1F
100
AcDbEntity
  8
0
  6
Continuous
 62
     7
100
AcDbPolyline
 90
        3
 70
   128
 43
0.0
 10
5966.9532775879
 20
5214.6034649683
 10
5967.4724230469
 20
5214.5442506455
 10
5967.7309988471
 20
5214.4266738666
  0
LWPOLYLINE
  5
267
330
1F
100
AcDbEntity
  8
0
  6
Continuous
 62
     7
100
AcDbPolyline
 90
        3
 70
   128
 43
0.0
 10
5966.3543701172
 20
5214.0587381197
 10
5966.4531885227
 20
5213.9587305378
 10
5966.6290083839
 20
5213.9003909302
  0
LWPOLYLINE
  5
268
330
1F
100
AcDbEntity
  8
0
  6
Continuous
 62
     7
100
AcDbPolyline
 90
        3
 70
   128
 43
0.0
 10
5966.625213623
 20
5213.9003909302
 10
5966.8036751223
 20
5213.8722320384
 10
5966.95413682
 20
5213.8655445648
  0
LWPOLYLINE
  5
269
330
1F
100
AcDbEntity
  8
0
  6
Continuous
 62
     7
100
AcDbPolyline
 90
        3
 70
   128
 43
0.0
 10
5966.9532775879
 20
5213.8655445648
 10
5967.391470706
 20
5213.9306633709
 10
5967.5556992585
 20
5214.0469513012
  0
LWPOLYLINE
  5
26A
330
1F
100
AcDbEntity
  8
0
  6
Continuous
 62
     7
100
AcDbPolyline
 90
        3
 70
   128
 43
0.0
 10
5962.646484375
 20
5214.4266738666
 10
5962.6985912428
 20
5214.3674614843
 10
5962.7132335733
 20
5214.3193147255
  0
LWPOLYLINE
  5
26B
330
1F
100
AcDbEntity
  8
0
  6
Continuous
 62
     7
100
AcDbPolyline
 90
        3
 70
   128
 43
0.0
 10
5961.0328674316
 20
5214.3398112727
 10
5961.1944558135
 20
5214.4914489683
 10
5961.4831393989
 20
5214.5727201474
  0
LWPOLYLINE
  5
26C
330
1F
100
AcDbEntity
  8
0
  6
Continuous
 62
     7
100
AcDbPolyline
 90
        3
 70
   128
 43
0.0
 10
5961.483001709
 20
5214.5727201474
 10
5961.6957714263
 20
5214.5980185494
 10
5961.871945037
 20
5214.6034649683
  0
LWPOLYLINE
  5
26D
330
1F
100
AcDbEntity
  8
0
  6
Continuous
 62
     7
100
AcDbPolyline
 90
        3
 70
   128
 43
0.0
 10
5961.8682861328
 20
5214.6034649683
 10
5962.3902312702
 20
5214.544250629
 10
5962.6488071805
 20
5214.4266738666
  0
LWPOLYLINE
  5
26E
330
1F
100
AcDbEntity
  8
0
  6
Continuous
 62
     7
100
AcDbPolyline
 90
        3
 70
   128
 43
0.0
 10
5961.2731933594
 20
5214.0587381197
 10
5961.3709968138
 20
5213.9587305571
 10
5961.5468166009
 20
5213.9003909302
  0
LWPOLYLINE
  5
26F
330
1F
100
AcDbEntity
  8
0
  6
Continuous
 62
     7
100
AcDbPolyline
 90
        3
 70
   128
 43
0.0
 10
5961.5440368652
 20
5213.9003909302
 10
5961.7214833287
 20
5213.8722320286
 10
5961.871945037
 20
5213.8655445648
  0
LWPOLYLINE
  5
270
330
1F
100
AcDbEntity
  8
0
  6
Continuous
 62
     7
100
AcDbPolyline
 90
        3
 70
   128
 43
0.0
 10
5961.8682861328
 20
5213.8655445648
 10
5962.3092789467
 20
5213.9306633588
 10
5962.4735075337
 20
5214.0469513012
  0
LWPOLYLINE
  5
271
330
1F
100
AcDbEntity
  8
0
  6
Continuous
 62
     7
100
AcDbPolyline
 90
        3
 70
   128
 43
0.0
 10
5960.075378418
 20
5213.8819432927
 10
5960.1340725958
 20
5213.8684255065
 10
5960.1594021948
 20
5213.8514517916
  0
LWPOLYLINE
  5
272
330
1F
100
AcDbEntity
  8
0
  6
Continuous
 62
     7
100
AcDbPolyline
 90
        3
 70
   128
 43
0.0
 10
5958.4922790527
 20
5214.9537204874
 10
5958.5342020502
 20
5214.9736588839
 10
5958.5869492436
 20
5214.9806245339
  0
LWPOLYLINE
  5
273
330
1F
100
AcDbEntity
  8
0
  6
Continuous
 62
     7
100
AcDbPolyline
 90
        3
 70
   128
 43
0.0
 10
5958.5838317871
 20
5214.9806245339
 10
5958.6638137094
 20
5214.9772498396
 10
5958.7173004108
 20
5214.9673028958
  0
LWPOLYLINE
  5
274
330
1F
100
AcDbEntity
  8
0
  6
Continuous
 62
     7
100
AcDbPolyline
 90
        3
 70
   128
 43
0.0
 10
5961.8682861328
 20
5213.8749434722
 10
5962.3092780932
 20
5213.9400619703
 10
5962.4735075337
 20
5214.0563464833
  0
LWPOLYLINE
  5
275
330
1F
100
AcDbEntity
  8
0
  6
Continuous
 62
     7
100
AcDbPolyline
 90
        3
 70
   128
 43
0.0
 10
5966.625213623
 20
5213.9097898377
 10
5966.8036741798
 20
5213.8816273093
 10
5966.95413682
 20
5213.8749434722
  0
LWPOLYLINE
  5
276
330
1F
100
AcDbEntity
  8
0
  6
Continuous
 62
     7
100
AcDbPolyline
 90
        3
 70
   128
 43
0.0
 10
5966.9532775879
 20
5213.8749434722
 10
5967.3914698526
 20
5213.9400619824
 10
5967.5556992585
 20
5214.0563464833
  0
LWPOLYLINE
  5
277
330
1F
100
AcDbEntity
  8
0
  6
Continuous
 62
     7
100
AcDbPolyline
 90
        3
 70
   128
 43
0.0
 10
5966.3543701172
 20
5214.0681333018
 10
5966.4531871802
 20
5213.9681300568
 10
5966.6290083839
 20
5213.9097898377
  0
LWPOLYLINE
  5
278
330
1F
100
AcDbEntity
  8
0
  6
Continuous
 62
     7
100
AcDbPolyline
 90
        3
 70
   128
 43
0.0
 10
5966.7129516602
 20
5214.5142181886
 10
5966.4444528746
 20
5214.4371441178
 10
5966.357069177
 20
5214.3461368156
  0
LWPOLYLINE
  5
279
330
1F
100
AcDbEntity
  8
0
  6
Continuous
 62
     7
100
AcDbPolyline
 90
        3
 70
   128
 43
0.0
 10
5966.9456481934
 20
5214.5308702362
 10
5966.8156183906
 20
5214.5258519413
 10
5966.715909162
 20
5214.5142181886
  0
LWPOLYLINE
  5
27A
330
1F
100
AcDbEntity
  8
0
  6
Continuous
 62
     7
100
AcDbPolyline
 90
        3
 70
   128
 43
0.0
 10
5967.3728942871
 20
5214.4727072788
 10
5967.1524289036
 20
5214.519698309
 10
5966.9488927754
 20
5214.5308702362
  0
LWPOLYLINE
  5
27B
330
1F
100
AcDbEntity
  8
0
  6
Continuous
 62
     7
100
AcDbPolyline
 90
        3
 70
   128
 43
0.0
 10
5967.5521850586
 20
5214.3476716352
 10
5967.4865876332
 20
5214.4232927006
 10
5967.3759046415
 20
5214.4727072788
  0
LWPOLYLINE
  5
27C
330
1F
100
AcDbEntity
  8
0
  6
Continuous
 62
     7
100
AcDbPolyline
 90
        3
 70
   128
 43
0.0
 10
5961.5440368652
 20
5213.9097898377
 10
5961.7214823861
 20
5213.8816272994
 10
5961.871945037
 20
5213.8749434722
  0
LWPOLYLINE
  5
27D
330
1F
100
AcDbEntity
  8
0
  6
Continuous
 62
     7
100
AcDbPolyline
 90
        3
 70
   128
 43
0.0
 10
5961.2731933594
 20
5214.0681333018
 10
5961.3709954713
 20
5213.9681300761
 10
5961.5468166009
 20
5213.9097898377
  0
LWPOLYLINE
  5
27E
330
1F
100
AcDbEntity
  8
0
  6
Continuous
 62
     7
100
AcDbPolyline
 90
        3
 70
   128
 43
0.0
 10
5961.6317749023
 20
5214.5142181886
 10
5961.3622609855
 20
5214.4371441237
 10
5961.274877394
 20
5214.3461368156
  0
LWPOLYLINE
  5
27F
330
1F
100
AcDbEntity
  8
0
  6
Continuous
 62
     7
100
AcDbPolyline
 90
        3
 70
   128
 43
0.0
 10
5961.8644714355
 20
5214.5308702362
 10
5961.7334265479
 20
5214.5258519365
 10
5961.6337172626
 20
5214.5142181886
  0
LWPOLYLINE
  5
280
330
1F
100
AcDbEntity
  8
0
  6
Continuous
 62
     7
100
AcDbPolyline
 90
        3
 70
   128
 43
0.0
 10
5962.2917175293
 20
5214.4727072788
 10
5962.070237165
 20
5214.51969829
 10
5961.8667009924
 20
5214.5308702362
  0
LWPOLYLINE
  5
281
330
1F
100
AcDbEntity
  8
0
  6
Continuous
 62
     7
100
AcDbPolyline
 90
        3
 70
   128
 43
0.0
 10
5962.4710083008
 20
5214.3476716352
 10
5962.4043957914
 20
5214.4232926645
 10
5962.2937130331
 20
5214.4727072788
  0
LWPOLYLINE
  5
282
330
1F
100
AcDbEntity
  8
0
  6
Continuous
 62
     7
100
AcDbPolyline
 90
        3
 70
   128
 43
0.0
 10
5963.8671875
 20
5213.9874248875
 10
5964.0557208918
 20
5213.9153597769
 10
5964.265459537
 20
5213.8913422001
  0
LWPOLYLINE
  5
283
330
1F
100
AcDbEntity
  8
0
  6
Continuous
 62
     7
100
AcDbPolyline
 90
        3
 70
   128
 43
0.0
 10
5963.8137817383
 20
5214.0555790735
 10
5963.8385206121
 20
5214.0167280428
 10
5963.8691625147
 20
5213.9874248875
  0
LWPOLYLINE
  5
284
330
1F
100
AcDbEntity
  8
0
  6
Continuous
 62
     7
100
AcDbPolyline
 90
        3
 70
   128
 43
0.0
 10
5964.0655517578
 20
5214.5080677343
 10
5963.8803254912
 20
5214.4451298718
 10
5963.8159732855
 20
5214.3779060913
  0
LWPOLYLINE
  5
285
330
1F
100
AcDbEntity
  8
0
  6
Continuous
 62
     7
100
AcDbPolyline
 90
        3
 70
   128
 43
0.0
 10
5964.2944335938
 20
5214.5308702362
 10
5964.1640867848
 20
5214.5231271453
 10
5964.0684347539
 20
5214.5080677343
  0
LWPOLYLINE
  5
286
330
1F
100
AcDbEntity
  8
0
  6
Continuous
 62
     7
100
AcDbPolyline
 90
        3
 70
   128
 43
0.0
 10
5958.5762023926
 20
4896.0034516658
 10
5958.5184259496
 20
4896.032742903
 10
5958.4940554047
 20
4896.0773688759
  0
LWPOLYLINE
  5
287
330
1F
100
AcDbEntity
  8
0
  6
Continuous
 62
     7
100
AcDbPolyline
 90
        3
 70
   128
 43
0.0
 10
5960.1631164551
 20
4896.1132732238
 10
5960.1497575659
 20
4896.0554680036
 10
5960.118948569
 20
4896.0189414229
  0
LWPOLYLINE
  5
288
330
1F
100
AcDbEntity
  8
0
  6
Continuous
 62
     7
100
AcDbPolyline
 90
        3
 70
   128
 43
0.0
 10
5960.1593017578
 20
4896.1294633355
 10
5960.1630654183
 20
4896.120659371
 10
5960.1638969904
 20
4896.1132732238
  0
LWPOLYLINE
  5
289
330
1F
100
AcDbEntity
  8
0
  6
Continuous
 62
     7
100
AcDbPolyline
 90
        3
 70
   128
 43
0.0
 10
5960.1593017578
 20
4896.1449493672
 10
5960.1601389095
 20
4896.1362695429
 10
5960.1594021948
 20
4896.1294633355
  0
LWPOLYLINE
  5
28A
330
1F
100
AcDbEntity
  8
0
  6
Continuous
 62
     7
100
AcDbPolyline
 90
        3
 70
   128
 43
0.0
 10
5960.075378418
 20
4896.2287236955
 10
5960.1340725958
 20
4896.1915832426
 10
5960.1594021948
 20
4896.1449493672
  0
LWPOLYLINE
  5
28B
330
1F
100
AcDbEntity
  8
0
  6
Continuous
 62
     7
100
AcDbPolyline
 90
        3
 70
   128
 43
0.0
 10
5958.5838317871
 20
4899.247322699
 10
5958.6638136431
 20
4899.2380488042
 10
5958.7173004108
 20
4899.2107179966
  0
LWPOLYLINE
  5
28C
330
1F
100
AcDbEntity
  8
0
  6
Continuous
 62
     7
100
AcDbPolyline
 90
        3
 70
   128
 43
0.0
 10
5958.4922790527
 20
4899.1734054889
 10
5958.5342014195
 20
4899.2281807935
 10
5958.5869492436
 20
4899.247322699
  0
LWPOLYLINE
  5
28D
330
1F
100
AcDbEntity
  8
0
  6
Continuous
 62
     7
100
AcDbPolyline
 90
        3
 70
   128
 43
0.0
 10
5961.0328674316
 20
4897.4867058005
 10
5961.1944561188
 20
4897.903320345
 10
5961.4831393989
 20
4898.1266100909
  0
LWPOLYLINE
  5
28E
330
1F
100
AcDbEntity
  8
0
  6
Continuous
 62
     7
100
AcDbPolyline
 90
        3
 70
   128
 43
0.0
 10
5961.296081543
 20
4896.1780373957
 10
5961.0853943854
 20
4896.4863290858
 10
5961.0351513544
 20
4896.7714798655
  0
LWPOLYLINE
  5
28F
330
1F
100
AcDbEntity
  8
0
  6
Continuous
 62
     7
100
AcDbPolyline
 90
        3
 70
   128
 43
0.0
 10
5961.8835449219
 20
4895.958398005
 10
5961.5326814625
 20
4896.0263948502
 10
5961.2988499863
 20
4896.1780373957
  0
LWPOLYLINE
  5
290
330
1F
100
AcDbEntity
  8
0
  6
Continuous
 62
     7
100
AcDbPolyline
 90
        3
 70
   128
 43
0.0
 10
5962.1887207031
 20
4896.0147169437
 10
5962.0230525306
 20
4895.9698922602
 10
5961.8869279217
 20
4895.958398005
  0
LWPOLYLINE
  5
291
330
1F
100
AcDbEntity
  8
0
  6
Continuous
 62
     7
100
AcDbPolyline
 90
        3
 70
   128
 43
0.0
 10
5962.7113342285
 20
4896.6736276652
 10
5962.5214692128
 20
4896.2333355023
 10
5962.1903311633
 20
4896.0147169437
  0
LWPOLYLINE
  5
292
330
1F
100
AcDbEntity
  8
0
  6
Continuous
 62
     7
100
AcDbPolyline
 90
        3
 70
   128
 43
0.0
 10
5962.646484375
 20
4897.7253516223
 10
5962.6985913395
 20
4897.5626744277
 10
5962.7132335733
 20
4897.4303905871
  0
LWPOLYLINE
  5
293
330
1F
100
AcDbEntity
  8
0
  6
Continuous
 62
     7
100
AcDbPolyline
 90
        3
 70
   128
 43
0.0
 10
5961.8682861328
 20
4898.211088499
 10
5962.3902311976
 20
4898.0483945073
 10
5962.6488071805
 20
4897.7253516223
  0
LWPOLYLINE
  5
294
330
1F
100
AcDbEntity
  8
0
  6
Continuous
 62
     7
100
AcDbPolyline
 90
        3
 70
   128
 43
0.0
 10
5961.483001709
 20
4898.1266100909
 10
5961.6957714889
 20
4898.196117354
 10
5961.871945037
 20
4898.211088499
  0
LWPOLYLINE
  5
295
330
1F
100
AcDbEntity
  8
0
  6
Continuous
 62
     7
100
AcDbPolyline
 90
        3
 70
   128
 43
0.0
 10
5966.1140441895
 20
4897.4867058005
 10
5966.276647938
 20
4897.9033202514
 10
5966.5653310655
 20
4898.1266100909
  0
LWPOLYLINE
  5
296
330
1F
100
AcDbEntity
  8
0
  6
Continuous
 62
     7
100
AcDbPolyline
 90
        3
 70
   128
 43
0.0
 10
5966.3772583008
 20
4896.1780373957
 10
5966.1675860778
 20
4896.4863290189
 10
5966.1173432539
 20
4896.7714798655
  0
LWPOLYLINE
  5
297
330
1F
100
AcDbEntity
  8
0
  6
Continuous
 62
     7
100
AcDbPolyline
 90
        3
 70
   128
 43
0.0
 10
5966.968536377
 20
4895.958398005
 10
5966.6148732697
 20
4896.0263947901
 10
5966.3810418857
 20
4896.1780373957
  0
LWPOLYLINE
  5
298
330
1F
100
AcDbEntity
  8
0
  6
Continuous
 62
     7
100
AcDbPolyline
 90
        3
 70
   128
 43
0.0
 10
5967.2698974609
 20
4896.0147169437
 10
5967.1052442082
 20
4895.969892281
 10
5966.9691197047
 20
4895.958398005
  0
LWPOLYLINE
  5
299
330
1F
100
AcDbEntity
  8
0
  6
Continuous
 62
     7
100
AcDbPolyline
 90
        3
 70
   128
 43
0.0
 10
5967.7925109863
 20
4896.6736276652
 10
5967.6036609141
 20
4896.2333354783
 10
5967.2725227135
 20
4896.0147169437
  0
LWPOLYLINE
  5
29A
330
1F
100
AcDbEntity
  8
0
  6
Continuous
 62
     7
100
AcDbPolyline
 90
        3
 70
   128
 43
0.0
 10
5967.7276611328
 20
4897.7253516223
 10
5967.7807830642
 20
4897.562674428
 10
5967.7954254145
 20
4897.4303905871
  0
LWPOLYLINE
  5
29B
330
1F
100
AcDbEntity
  8
0
  6
Continuous
 62
     7
100
AcDbPolyline
 90
        3
 70
   128
 43
0.0
 10
5966.9532775879
 20
4898.211088499
 10
5967.4724229743
 20
4898.0483945526
 10
5967.7309988471
 20
4897.7253516223
  0
LWPOLYLINE
  5
29C
330
1F
100
AcDbEntity
  8
0
  6
Continuous
 62
     7
100
AcDbPolyline
 90
        3
 70
   128
 43
0.0
 10
5966.5641784668
 20
4898.1266100909
 10
5966.7779632186
 20
4898.1961173659
 10
5966.95413682
 20
4898.211088499
  0
LWPOLYLINE
  5
29D
330
1F
100
AcDbEntity
  8
0
  6
Continuous
 62
     7
100
AcDbPolyline
 90
        3
 70
   128
 43
0.0
 10
5963.5734558105
 20
4897.5775172021
 10
5963.7565355759
 20
4897.9781296068
 10
5964.0654381653
 20
4898.1695515122
  0
LWPOLYLINE
  5
29E
330
1F
100
AcDbEntity
  8
0
  6
Continuous
 62
     7
100
AcDbPolyline
 90
        3
 70
   128
 43
0.0
 10
5963.5887145996
 20
4896.5539527144
 10
5963.57872591
 20
4896.6617062539
 10
5963.5762472459
 20
4896.7468407955
  0
LWPOLYLINE
  5
29F
330
1F
100
AcDbEntity
  8
0
  6
Continuous
 62
     7
100
AcDbPolyline
 90
        3
 70
   128
 43
0.0
 10
5963.8137817383
 20
4896.1780373957
 10
5963.65851978
 20
4896.3721739039
 10
5963.5912301307
 20
4896.5539527144
  0
LWPOLYLINE
  5
2A0
330
1F
100
AcDbEntity
  8
0
  6
Continuous
 62
     7
100
AcDbPolyline
 90
        3
 70
   128
 43
0.0
 10
5964.241027832
 20
4896.0034516658
 10
5963.9854158102
 20
4896.0636189826
 10
5963.8174715507
 20
4896.1780373957
  0
LWPOLYLINE
  5
2A1
330
1F
100
AcDbEntity
  8
0
  6
Continuous
 62
     7
100
AcDbPolyline
 90
        3
 70
   128
 43
0.0
 10
5965.0115966797
 20
4895.8366145398
 10
5965.0153493124
 20
4895.8937741212
 10
5965.0153525578
 20
4895.938687494
  0
LWPOLYLINE
  5
2A2
330
1F
100
AcDbEntity
  8
0
  6
Continuous
 62
     7
100
AcDbPolyline
 90
        3
 70
   128
 43
0.0
 10
5964.9772644043
 20
4895.5120858755
 10
5965.0094301255
 20
4895.6353905951
 10
5965.0146034252
 20
4895.7345378604
  0
LWPOLYLINE
  5
2A3
330
1F
100
AcDbEntity
  8
0
  6
Continuous
 62
     7
100
AcDbPolyline
 90
        3
 70
   128
 43
0.0
 10
5964.5462036133
 20
4895.1924857702
 10
5964.8368906179
 20
4895.3168686697
 10
5964.9801428601
 20
4895.5120858755
  0
LWPOLYLINE
  5
2A4
330
1F
100
AcDbEntity
  8
0
  6
Continuous
 62
     7
100
AcDbPolyline
 90
        3
 70
   128
 43
0.0
 10
5963.7565612793
 20
4895.0545084681
 10
5963.7721545176
 20
4895.1314027043
 10
5963.8137258295
 20
4895.1769997384
  0
LWPOLYLINE
  5
2A5
330
1F
100
AcDbEntity
  8
0
  6
Continuous
 62
     7
100
AcDbPolyline
 90
        3
 70
   128
 43
0.0
 10
5963.8442993164
 20
4894.9672174658
 10
5963.7799173793
 20
4895.0016642716
 10
5963.7597875259
 20
4895.0545084681
  0
LWPOLYLINE
  5
2A6
330
1F
100
AcDbEntity
  8
0
  6
Continuous
 62
     7
100
AcDbPolyline
 90
        3
 70
   128
 43
0.0
 10
5964.7331237793
 20
4894.9995976891
 10
5964.5732215044
 20
4894.9716244885
 10
5964.4445050214
 20
4894.9672174658
  0
LWPOLYLINE
  5
2A7
330
1F
100
AcDbEntity
  8
0
  6
Continuous
 62
     7
100
AcDbPolyline
 90
        3
 70
   128
 43
0.0
 10
5965.2519226074
 20
4895.5916319992
 10
5965.0585442579
 20
4895.1855586679
 10
5964.7344236434
 20
4894.9995976891
  0
LWPOLYLINE
  5
2A8
330
1F
100
AcDbEntity
  8
0
  6
Continuous
 62
     7
100
AcDbPolyline
 90
        3
 70
   128
 43
0.0
 10
5965.1718139648
 20
4898.211088499
 10
5965.2316930961
 20
4898.1844758501
 10
5965.2543294648
 20
4898.1413957681
  0
LWPOLYLINE
  5
2A9
330
1F
100
AcDbEntity
  8
0
  6
Continuous
 62
     7
100
AcDbPolyline
 90
        3
 70
   128
 43
0.0
 10
5964.0617370605
 20
4898.1695515122
 10
5964.2010183816
 20
4898.2016294699
 10
5964.3104081912
 20
4898.211088499
  0
LWPOLYLINE
  5
2AA
330
1F
100
AcDbEntity
  8
0
  6
Continuous
 62
     7
100
AcDbPolyline
 90
        3
 70
   128
 43
0.0
 10
5960.1631164551
 20
4896.1166930403
 10
5960.1497578151
 20
4896.0588882755
 10
5960.118948569
 20
4896.0223612394
  0
LWPOLYLINE
  5
2AB
330
1F
100
AcDbEntity
  8
0
  6
Continuous
 62
     7
100
AcDbPolyline
 90
        3
 70
   128
 43
0.0
 10
5958.5762023926
 20
4896.0068714823
 10
5958.5184260444
 20
4896.0361626185
 10
5958.4940554047
 20
4896.0807886924
  0
LWPOLYLINE
  5
2AC
330
1F
100
AcDbEntity
  8
0
  6
Continuous
 62
     7
100
AcDbPolyline
 90
        3
 70
   128
 43
0.0
 10
5962.7113342285
 20
4896.6770474817
 10
5962.5214695388
 20
4896.2367556353
 10
5962.1903311633
 20
4896.0181367602
  0
LWPOLYLINE
  5
2AD
330
1F
100
AcDbEntity
  8
0
  6
Continuous
 62
     7
100
AcDbPolyline
 90
        3
 70
   128
 43
0.0
 10
5962.1887207031
 20
4896.0181367602
 10
5962.0230523798
 20
4895.973312052
 10
5961.8869279217
 20
4895.9618178215
  0
LWPOLYLINE
  5
2AE
330
1F
100
AcDbEntity
  8
0
  6
Continuous
 62
     7
100
AcDbPolyline
 90
        3
 70
   128
 43
0.0
 10
5961.8835449219
 20
4895.9618178215
 10
5961.5326818234
 20
4896.0298145123
 10
5961.2988499863
 20
4896.1814572122
  0
LWPOLYLINE
  5
2AF
330
1F
100
AcDbEntity
  8
0
  6
Continuous
 62
     7
100
AcDbPolyline
 90
        3
 70
   128
 43
0.0
 10
5961.296081543
 20
4896.1814572122
 10
5961.0853956108
 20
4896.489749429
 10
5961.0351513544
 20
4896.774899682
  0
LWPOLYLINE
  5
2B0
330
1F
100
AcDbEntity
  8
0
  6
Continuous
 62
     7
100
AcDbPolyline
 90
        3
 70
   128
 43
0.0
 10
5962.4710083008
 20
4897.4859048631
 10
5962.4043952717
 20
4897.6936661172
 10
5962.2937130331
 20
4897.8294399585
  0
LWPOLYLINE
  5
2B1
330
1F
100
AcDbEntity
  8
0
  6
Continuous
 62
     7
100
AcDbPolyline
 90
        3
 70
   128
 43
0.0
 10
5962.2917175293
 20
4897.8294399585
 10
5962.070237165
 20
4897.9585412704
 10
5961.8667009924
 20
4897.9892400112
  0
LWPOLYLINE
  5
2B2
330
1F
100
AcDbEntity
  8
0
  6
Continuous
 62
     7
100
AcDbPolyline
 90
        3
 70
   128
 43
0.0
 10
5961.8644714355
 20
4897.9892400112
 10
5961.7334266073
 20
4897.9754415723
 10
5961.6337172626
 20
4897.9434822704
  0
LWPOLYLINE
  5
2B3
330
1F
100
AcDbEntity
  8
0
  6
Continuous
 62
     7
100
AcDbPolyline
 90
        3
 70
   128
 43
0.0
 10
5961.6317749023
 20
4897.9434822704
 10
5961.3622604271
 20
4897.7317300435
 10
5961.274877394
 20
4897.4816803839
  0
LWPOLYLINE
  5
2B4
330
1F
100
AcDbEntity
  8
0
  6
Continuous
 62
     7
100
AcDbPolyline
 90
        3
 70
   128
 43
0.0
 10
5965.2519226074
 20
4895.595055541
 10
5965.0585460318
 20
4895.18898004
 10
5964.7344236434
 20
4895.0030175056
  0
LWPOLYLINE
  5
2B5
330
1F
100
AcDbEntity
  8
0
  6
Continuous
 62
     7
100
AcDbPolyline
 90
        3
 70
   128
 43
0.0
 10
5964.7331237793
 20
4895.0030175056
 10
5964.5732215044
 20
4894.975044305
 10
5964.4445050214
 20
4894.9706372823
  0
LWPOLYLINE
  5
2B6
330
1F
100
AcDbEntity
  8
0
  6
Continuous
 62
     7
100
AcDbPolyline
 90
        3
 70
   128
 43
0.0
 10
5963.8442993164
 20
4894.9706372823
 10
5963.7799165923
 20
4895.0050852182
 10
5963.7597875259
 20
4895.0579282846
  0
LWPOLYLINE
  5
2B7
330
1F
100
AcDbEntity
  8
0
  6
Continuous
 62
     7
100
AcDbPolyline
 90
        3
 70
   128
 43
0.0
 10
5964.241027832
 20
4896.0068714823
 10
5963.9854161773
 20
4896.0670386287
 10
5963.8174715507
 20
4896.1814572122
  0
LWPOLYLINE
  5
2B8
330
1F
100
AcDbEntity
  8
0
  6
Continuous
 62
     7
100
AcDbPolyline
 90
        3
 70
   128
 43
0.0
 10
5963.8137817383
 20
4896.1814572122
 10
5963.65851978
 20
4896.3755937203
 10
5963.5912301307
 20
4896.5573725309
  0
LWPOLYLINE
  5
2B9
330
1F
100
AcDbEntity
  8
0
  6
Continuous
 62
     7
100
AcDbPolyline
 90
        3
 70
   128
 43
0.0
 10
5963.5887145996
 20
4896.5573725309
 10
5963.5787258651
 20
4896.6651267385
 10
5963.5762472459
 20
4896.750260612
  0
LWPOLYLINE
  5
2BA
330
1F
100
AcDbEntity
  8
0
  6
Continuous
 62
     7
100
AcDbPolyline
 90
        3
 70
   128
 43
0.0
 10
5964.2944335938
 20
4897.9892400112
 10
5964.1640867848
 20
4897.9679623735
 10
5964.0684347539
 20
4897.9265843536
  0
LWPOLYLINE
  5
2BB
330
1F
100
AcDbEntity
  8
0
  6
Continuous
 62
     7
100
AcDbPolyline
 90
        3
 70
   128
 43
0.0
 10
5964.0655517578
 20
4897.9265843536
 10
5963.8803254912
 20
4897.7536658248
 10
5963.8159732855
 20
4897.5689713862
  0
LWPOLYLINE
  5
2BC
330
1F
100
AcDbEntity
  8
0
  6
Continuous
 62
     7
100
AcDbPolyline
 90
        3
 70
   128
 43
0.0
 10
5967.7925109863
 20
4896.6770474817
 10
5967.6036612401
 20
4896.2367556113
 10
5967.2725227135
 20
4896.0181367602
  0
LWPOLYLINE
  5
2BD
330
1F
100
AcDbEntity
  8
0
  6
Continuous
 62
     7
100
AcDbPolyline
 90
        3
 70
   128
 43
0.0
 10
5967.2698974609
 20
4896.0181367602
 10
5967.1052440573
 20
4895.9733120728
 10
5966.9691197047
 20
4895.9618178215
  0
LWPOLYLINE
  5
2BE
330
1F
100
AcDbEntity
  8
0
  6
Continuous
 62
     7
100
AcDbPolyline
 90
        3
 70
   128
 43
0.0
 10
5966.968536377
 20
4895.9618178215
 10
5966.6148736306
 20
4896.0298144523
 10
5966.3810418857
 20
4896.1814572122
  0
LWPOLYLINE
  5
2BF
330
1F
100
AcDbEntity
  8
0
  6
Continuous
 62
     7
100
AcDbPolyline
 90
        3
 70
   128
 43
0.0
 10
5966.3772583008
 20
4896.1814572122
 10
5966.1675873031
 20
4896.4897493621
 10
5966.1173432539
 20
4896.774899682
  0
LWPOLYLINE
  5
2C0
330
1F
100
AcDbEntity
  8
0
  6
Continuous
 62
     7
100
AcDbPolyline
 90
        3
 70
   128
 43
0.0
 10
5967.5521850586
 20
4897.4859048631
 10
5967.4865871135
 20
4897.6936662163
 10
5967.3759046415
 20
4897.8294399585
  0
LWPOLYLINE
  5
2C1
330
1F
100
AcDbEntity
  8
0
  6
Continuous
 62
     7
100
AcDbPolyline
 90
        3
 70
   128
 43
0.0
 10
5967.3728942871
 20
4897.8294399585
 10
5967.1524289036
 20
4897.9585413224
 10
5966.9488927754
 20
4897.9892400112
  0
LWPOLYLINE
  5
2C2
330
1F
100
AcDbEntity
  8
0
  6
Continuous
 62
     7
100
AcDbPolyline
 90
        3
 70
   128
 43
0.0
 10
5966.9456481934
 20
4897.9892400112
 10
5966.81561845
 20
4897.9754415856
 10
5966.715909162
 20
4897.9434822704
  0
LWPOLYLINE
  5
2C3
330
1F
100
AcDbEntity
  8
0
  6
Continuous
 62
     7
100
AcDbPolyline
 90
        3
 70
   128
 43
0.0
 10
5966.7129516602
 20
4897.9434822704
 10
5966.4444523162
 20
4897.7317300272
 10
5966.357069177
 20
4897.4816803839
  0
LWPOLYLINE
  5
2C4
330
1F
100
AcDbEntity
  8
0
  6
Continuous
 62
     7
100
AcDbPolyline
 90
        3
 70
   128
 43
0.0
 10
5963.8137817383
 20
4896.679964384
 10
5963.8385206121
 20
4896.5732208796
 10
5963.8691625147
 20
4896.4927089419
  0
LWPOLYLINE
  5
2C5
330
1F
100
AcDbEntity
  8
0
  6
Continuous
 62
     7
100
AcDbPolyline
 90
        3
 70
   128
 43
0.0
 10
5964.0655517578
 20
4897.9231645372
 10
5963.8803254912
 20
4897.7502460083
 10
5963.8159732855
 20
4897.5655515697
  0
LWPOLYLINE
  5
2C6
330
1F
100
AcDbEntity
  8
0
  6
Continuous
 62
     7
100
AcDbPolyline
 90
        3
 70
   128
 43
0.0
 10
5964.2944335938
 20
4897.9858201947
 10
5964.1640867848
 20
4897.964542557
 10
5964.0684347539
 20
4897.9231645372
  0
LWPOLYLINE
  5
2C7
330
1F
100
AcDbEntity
  8
0
  6
Continuous
 62
     7
100
AcDbPolyline
 90
        3
 70
   128
 43
0.0
 10
5963.8671875
 20
4896.4927089419
 10
5964.0557208918
 20
4896.2947182631
 10
5964.265459537
 20
4896.2287236955
  0
LWPOLYLINE
  5
2C8
330
1F
100
AcDbEntity
  8
0
  6
Continuous
 62
     7
100
AcDbPolyline
 90
        3
 70
   128
 43
0.0
 10
5961.8682861328
 20
4896.1836663093
 10
5962.3092780932
 20
4896.3625816436
 10
5962.4735075337
 20
4896.6820766236
  0
LWPOLYLINE
  5
2C9
330
1F
100
AcDbEntity
  8
0
  6
Continuous
 62
     7
100
AcDbPolyline
 90
        3
 70
   128
 43
0.0
 10
5961.5440368652
 20
4896.27940627
 10
5961.7214823861
 20
4896.2020375551
 10
5961.871945037
 20
4896.1836663093
  0
LWPOLYLINE
  5
2CA
330
1F
100
AcDbEntity
  8
0
  6
Continuous
 62
     7
100
AcDbPolyline
 90
        3
 70
   128
 43
0.0
 10
5961.2731933594
 20
4896.7144568469
 10
5961.3709954713
 20
4896.4396965608
 10
5961.5468166009
 20
4896.27940627
  0
LWPOLYLINE
  5
2CB
330
1F
100
AcDbEntity
  8
0
  6
Continuous
 62
     7
100
AcDbPolyline
 90
        3
 70
   128
 43
0.0
 10
5961.6317749023
 20
4897.9400624539
 10
5961.3622609855
 20
4897.7283111032
 10
5961.274877394
 20
4897.4782605674
  0
LWPOLYLINE
  5
2CC
330
1F
100
AcDbEntity
  8
0
  6
Continuous
 62
     7
100
AcDbPolyline
 90
        3
 70
   128
 43
0.0
 10
5961.8644714355
 20
4897.9858201947
 10
5961.7334265479
 20
4897.9720217426
 10
5961.6337172626
 20
4897.9400624539
  0
LWPOLYLINE
  5
2CD
330
1F
100
AcDbEntity
  8
0
  6
Continuous
 62
     7
100
AcDbPolyline
 90
        3
 70
   128
 43
0.0
 10
5962.2917175293
 20
4897.826020142
 10
5962.070237165
 20
4897.9551214539
 10
5961.8667009924
 20
4897.9858201947
  0
LWPOLYLINE
  5
2CE
330
1F
100
AcDbEntity
  8
0
  6
Continuous
 62
     7
100
AcDbPolyline
 90
        3
 70
   128
 43
0.0
 10
5962.4710083008
 20
4897.4824850466
 10
5962.4043957914
 20
4897.6902454059
 10
5962.2937130331
 20
4897.826020142
  0
LWPOLYLINE
  5
2CF
330
1F
100
AcDbEntity
  8
0
  6
Continuous
 62
     7
100
AcDbPolyline
 90
        3
 70
   128
 43
0.0
 10
5966.9532775879
 20
4896.1836663093
 10
5967.3914698526
 20
4896.3625816769
 10
5967.5556992585
 20
4896.6820766236
  0
LWPOLYLINE
  5
2D0
330
1F
100
AcDbEntity
  8
0
  6
Continuous
 62
     7
100
AcDbPolyline
 90
        3
 70
   128
 43
0.0
 10
5966.625213623
 20
4896.27940627
 10
5966.8036741798
 20
4896.2020375822
 10
5966.95413682
 20
4896.1836663093
  0
LWPOLYLINE
  5
2D1
330
1F
100
AcDbEntity
  8
0
  6
Continuous
 62
     7
100
AcDbPolyline
 90
        3
 70
   128
 43
0.0
 10
5966.3543701172
 20
4896.7144568469
 10
5966.4531871802
 20
4896.4396965077
 10
5966.6290083839
 20
4896.27940627
  0
LWPOLYLINE
  5
2D2
330
1F
100
AcDbEntity
  8
0
  6
Continuous
 62
     7
100
AcDbPolyline
 90
        3
 70
   128
 43
0.0
 10
5966.7129516602
 20
4897.9400624539
 10
5966.4444528746
 20
4897.7283110869
 10
5966.357069177
 20
4897.4782605674
  0
LWPOLYLINE
  5
2D3
330
1F
100
AcDbEntity
  8
0
  6
Continuous
 62
     7
100
AcDbPolyline
 90
        3
 70
   128
 43
0.0
 10
5966.9456481934
 20
4897.9858201947
 10
5966.8156183906
 20
4897.9720217559
 10
5966.715909162
 20
4897.9400624539
  0
LWPOLYLINE
  5
2D4
330
1F
100
AcDbEntity
  8
0
  6
Continuous
 62
     7
100
AcDbPolyline
 90
        3
 70
   128
 43
0.0
 10
5967.3728942871
 20
4897.826020142
 10
5967.1524289036
 20
4897.9551215059
 10
5966.9488927754
 20
4897.9858201947
  0
LWPOLYLINE
  5
2D5
330
1F
100
AcDbEntity
  8
0
  6
Continuous
 62
     7
100
AcDbPolyline
 90
        3
 70
   128
 43
0.0
 10
5967.5521850586
 20
4897.4824850466
 10
5967.4865876332
 20
4897.690245505
 10
5967.3759046415
 20
4897.826020142
  0
ENDSEC
  0
SECTION
  2
OBJECTS
  0
DICTIONARY
  5
C
330
0
100
AcDbDictionary
281
     1
  3
ACAD_GROUP
350
D
  3
ACAD_LAYOUT
350
1A
  3
ACAD_MLINESTYLE
350
17
  3
ACAD_PLOTSETTINGS
350
19
  3
ACAD_PLOTSTYLENAME
350
E
  3
ACAD_SCALELIST
350
47
  3
DWGPROPS
350
2D6
  0
DICTIONARY
  5
D
102
{ACAD_REACTORS
330
C
102
}
330
C
100
AcDbDictionary
281
     1
  0
DICTIONARY
  5
1A
102
{ACAD_REACTORS
330
C
102
}
330
C
100
AcDbDictionary
281
     1
  3
Layout1
350
1E
  3
Layout2
350
26
  3
Model
350
22
  0
DICTIONARY
  5
17
102
{ACAD_REACTORS
330
C
102
}
330
C
100
AcDbDictionary
281
     1
  3
Standard
350
18
  0
DICTIONARY
  5
19
102
{ACAD_REACTORS
330
C
102
}
330
C
100
AcDbDictionary
281
     1
  0
ACDBDICTIONARYWDFLT
  5
E
102
{ACAD_REACTORS
330
C
102
}
330
C
100
AcDbDictionary
281
     1
  3
Normal
350
F
100
AcDbDictionaryWithDefault
340
F
  0
DICTIONARY
  5
47
102
{ACAD_REACTORS
330
C
102
}
330
C
100
AcDbDictionary
281
     1
  3
A0
350
48
  3
A1
350
49
  3
A2
350
4A
  3
A3
350
4B
  3
A4
350
4C
  3
A5
350
4D
  3
A6
350
4E
  3
A7
350
4F
  3
A8
350
50
  3
A9
350
51
  3
B0
350
52
  3
B1
350
53
  3
B2
350
54
  3
B3
350
55
  3
B4
350
56
  3
B5
350
57
  3
B6
350
58
  3
B7
350
59
  3
B8
350
5A
  3
B9
350
5B
  3
C0
350
5C
  3
C1
350
5D
  3
C2
350
5E
  3
C3
350
5F
  3
C4
350
60
  3
C5
350
61
  3
C6
350
62
  3
C7
350
63
  3
C8
350
64
  3
C9
350
65
  3
D0
350
66
  3
D1
350
67
  3
D2
350
68
  0
XRECORD
  5
2D6
102
{ACAD_REACTORS
330
C
102
}
330
C
100
AcDbXrecord
280
     1
  1
DWGPROPS COOKIE
  2

  3

  4

  6

  7

  8
radek.stransky
  9

300
=
301
=
302
=
303
=
304
=
305
=
306
=
307
=
308
=
309
=
 40
0.0
 41
2459103.448591204
 42
2459103.448633623
  1

 90
        0
  0
LAYOUT
  5
1E
102
{ACAD_REACTORS
330
1A
102
}
330
1A
100
AcDbPlotSettings
  1

  2
none_device
  4

  6

 40
0.0
 41
0.0
 42
0.0
 43
0.0
 44
0.0
 45
0.0
 46
0.0
 47
0.0
 48
0.0
 49
0.0
140
0.0
141
0.0
142
1.0
143
1.0
 70
   688
 72
     1
 73
     0
 74
     5
  7

 75
    16
147
1.0
148
0.0
149
0.0
100
AcDbLayout
  1
Layout1
 70
     1
 71
     1
 10
0.0
 20
0.0
 11
420.0
 21
297.0
 12
0.0
 22
0.0
 32
0.0
 14
1.0000000000E+20
 24
1.0000000000E+20
 34
1.0000000000E+20
 15
-1.0000000000E+20
 25
-1.0000000000E+20
 35
-1.0000000000E+20
146
0.0
 13
0.0
 23
0.0
 33
0.0
 16
1.0
 26
0.0
 36
0.0
 17
0.0
 27
1.0
 37
0.0
 76
     0
330
1B
  0
LAYOUT
  5
26
102
{ACAD_REACTORS
330
1A
102
}
330
1A
100
AcDbPlotSettings
  1

  2
none_device
  4

  6

 40
0.0
 41
0.0
 42
0.0
 43
0.0
 44
0.0
 45
0.0
 46
0.0
 47
0.0
 48
0.0
 49
0.0
140
0.0
141
0.0
142
1.0
143
1.0
 70
   688
 72
     1
 73
     0
 74
     5
  7

 75
    16
147
1.0
148
0.0
149
0.0
100
AcDbLayout
  1
Layout2
 70
     1
 71
     2
 10
0.0
 20
0.0
 11
0.0
 21
0.0
 12
0.0
 22
0.0
 32
0.0
 14
0.0
 24
0.0
 34
0.0
 15
0.0
 25
0.0
 35
0.0
146
0.0
 13
0.0
 23
0.0
 33
0.0
 16
1.0
 26
0.0
 36
0.0
 17
0.0
 27
1.0
 37
0.0
 76
     0
330
23
  0
LAYOUT
  5
22
102
{ACAD_REACTORS
330
1A
102
}
330
1A
100
AcDbPlotSettings
  1

  2
none_device
  4
ANSI_A_(11.00_x_8.50_Inches)
  6

 40
6.35
 41
19.05
 42
6.35000508
 43
19.05000254
 44
279.4
 45
215.9
 46
-3488.6428641015
 47
-2912.8898917815
 48
0.0
 49
0.0
140
0.0
141
0.0
142
0.0233293147
143
1.0
 70
  1696
 72
     0
 73
     0
 74
     0
  7

 75
     0
147
0.0179189148
148
-1300.4909072572
149
0.0
100
AcDbLayout
  1
Model
 70
     1
 71
     0
 10
0.0
 20
0.0
 11
420.0
 21
297.0
 12
0.0
 22
0.0
 32
0.0
 14
5901.4447390506
 24
4885.4072992708
 34
0.0
 15
6323.3587713871
 25
5246.1122795117
 35
0.0
146
0.0
 13
0.0
 23
0.0
 33
0.0
 16
1.0
 26
0.0
 36
0.0
 17
0.0
 27
1.0
 37
0.0
 76
     0
330
1F
331
29
  0
MLINESTYLE
  5
18
102
{ACAD_REACTORS
330
17
102
}
330
17
100
AcDbMlineStyle
  2
Standard
 70
     0
  3

 62
   256
 51
90.0
 52
90.0
 71
     2
 49
0.5
 62
   256
  6
BYLAYER
 49
-0.5
 62
   256
  6
BYLAYER
  0
ACDBPLACEHOLDER
  5
F
102
{ACAD_REACTORS
330
E
102
}
330
E
  0
SCALE
  5
48
102
{ACAD_REACTORS
330
47
102
}
330
47
100
AcDbScale
 70
     0
300
1:1
140
1.0
141
1.0
290
     1
  0
SCALE
  5
49
102
{ACAD_REACTORS
330
47
102
}
330
47
100
AcDbScale
 70
     0
300
1:2
140
1.0
141
2.0
290
     0
  0
SCALE
  5
4A
102
{ACAD_REACTORS
330
47
102
}
330
47
100
AcDbScale
 70
     0
300
1:4
140
1.0
141
4.0
290
     0
  0
SCALE
  5
4B
102
{ACAD_REACTORS
330
47
102
}
330
47
100
AcDbScale
 70
     0
300
1:5
140
1.0
141
5.0
290
     0
  0
SCALE
  5
4C
102
{ACAD_REACTORS
330
47
102
}
330
47
100
AcDbScale
 70
     0
300
1:8
140
1.0
141
8.0
290
     0
  0
SCALE
  5
4D
102
{ACAD_REACTORS
330
47
102
}
330
47
100
AcDbScale
 70
     0
300
1:10
140
1.0
141
10.0
290
     0
  0
SCALE
  5
4E
102
{ACAD_REACTORS
330
47
102
}
330
47
100
AcDbScale
 70
     0
300
1:16
140
1.0
141
16.0
290
     0
  0
SCALE
  5
4F
102
{ACAD_REACTORS
330
47
102
}
330
47
100
AcDbScale
 70
     0
300
1:20
140
1.0
141
20.0
290
     0
  0
SCALE
  5
50
102
{ACAD_REACTORS
330
47
102
}
330
47
100
AcDbScale
 70
     0
300
1:30
140
1.0
141
30.0
290
     0
  0
SCALE
  5
51
102
{ACAD_REACTORS
330
47
102
}
330
47
100
AcDbScale
 70
     0
300
1:40
140
1.0
141
40.0
290
     0
  0
SCALE
  5
52
102
{ACAD_REACTORS
330
47
102
}
330
47
100
AcDbScale
 70
     0
300
1:50
140
1.0
141
50.0
290
     0
  0
SCALE
  5
53
102
{ACAD_REACTORS
330
47
102
}
330
47
100
AcDbScale
 70
     0
300
1:100
140
1.0
141
100.0
290
     0
  0
SCALE
  5
54
102
{ACAD_REACTORS
330
47
102
}
330
47
100
AcDbScale
 70
     0
300
2:1
140
2.0
141
1.0
290
     0
  0
SCALE
  5
55
102
{ACAD_REACTORS
330
47
102
}
330
47
100
AcDbScale
 70
     0
300
4:1
140
4.0
141
1.0
290
     0
  0
SCALE
  5
56
102
{ACAD_REACTORS
330
47
102
}
330
47
100
AcDbScale
 70
     0
300
8:1
140
8.0
141
1.0
290
     0
  0
SCALE
  5
57
102
{ACAD_REACTORS
330
47
102
}
330
47
100
AcDbScale
 70
     0
300
10:1
140
10.0
141
1.0
290
     0
  0
SCALE
  5
58
102
{ACAD_REACTORS
330
47
102
}
330
47
100
AcDbScale
 70
     0
300
100:1
140
100.0
141
1.0
290
     0
  0
SCALE
  5
59
102
{ACAD_REACTORS
330
47
102
}
330
47
100
AcDbScale
 70
     0
300
1/128" = 1'-0"
140
0.0078125
141
12.0
290
     0
  0
SCALE
  5
5A
102
{ACAD_REACTORS
330
47
102
}
330
47
100
AcDbScale
 70
     0
300
1/64" = 1'-0"
140
0.015625
141
12.0
290
     0
  0
SCALE
  5
5B
102
{ACAD_REACTORS
330
47
102
}
330
47
100
AcDbScale
 70
     0
300
1/32" = 1'-0"
140
0.03125
141
12.0
290
     0
  0
SCALE
  5
5C
102
{ACAD_REACTORS
330
47
102
}
330
47
100
AcDbScale
 70
     0
300
1/16" = 1'-0"
140
0.0625
141
12.0
290
     0
  0
SCALE
  5
5D
102
{ACAD_REACTORS
330
47
102
}
330
47
100
AcDbScale
 70
     0
300
3/32" = 1'-0"
140
0.09375
141
12.0
290
     0
  0
SCALE
  5
5E
102
{ACAD_REACTORS
330
47
102
}
330
47
100
AcDbScale
 70
     0
300
1/8" = 1'-0"
140
0.125
141
12.0
290
     0
  0
SCALE
  5
5F
102
{ACAD_REACTORS
330
47
102
}
330
47
100
AcDbScale
 70
     0
300
3/16" = 1'-0"
140
0.1875
141
12.0
290
     0
  0
SCALE
  5
60
102
{ACAD_REACTORS
330
47
102
}
330
47
100
AcDbScale
 70
     0
300
1/4" = 1'-0"
140
0.25
141
12.0
290
     0
  0
SCALE
  5
61
102
{ACAD_REACTORS
330
47
102
}
330
47
100
AcDbScale
 70
     0
300
3/8" = 1'-0"
140
0.375
141
12.0
290
     0
  0
SCALE
  5
62
102
{ACAD_REACTORS
330
47
102
}
330
47
100
AcDbScale
 70
     0
300
1/2" = 1'-0"
140
0.5
141
12.0
290
     0
  0
SCALE
  5
63
102
{ACAD_REACTORS
330
47
102
}
330
47
100
AcDbScale
 70
     0
300
3/4" = 1'-0"
140
0.75
141
12.0
290
     0
  0
SCALE
  5
64
102
{ACAD_REACTORS
330
47
102
}
330
47
100
AcDbScale
 70
     0
300
1" = 1'-0"
140
1.0
141
12.0
290
     0
  0
SCALE
  5
65
102
{ACAD_REACTORS
330
47
102
}
330
47
100
AcDbScale
 70
     0
300
1-1/2" = 1'-0"
140
1.5
141
12.0
290
     0
  0
SCALE
  5
66
102
{ACAD_REACTORS
330
47
102
}
330
47
100
AcDbScale
 70
     0
300
3" = 1'-0"
140
3.0
141
12.0
290
     0
  0
SCALE
  5
67
102
{ACAD_REACTORS
330
47
102
}
330
47
100
AcDbScale
 70
     0
300
6" = 1'-0"
140
6.0
141
12.0
290
     0
  0
SCALE
  5
68
102
{ACAD_REACTORS
330
47
102
}
330
47
100
AcDbScale
 70
     0
300
1'-0" = 1'-0"
140
12.0
141
12.0
290
     0
  0
ENDSEC
  0
EOF
