  0
SECTION
  2
HEADER
  9
$ACADVER
  1
AC1015
  9
$ACADMAINTVER
 70
     6
  9
$DWGCODEPAGE
  3
ANSI_1250
  9
$INSBASE
 10
0.0
 20
0.0
 30
0.0
  9
$EXTMIN
 10
0.0
 20
0.0
 30
0.0
  9
$EXTMAX
 10
20000.0
 20
10000.0
 30
0.0
  9
$LIMMIN
 10
0.0
 20
0.0
  9
$LIMMAX
 10
20000.0
 20
10000.0
  9
$ORTHOMODE
 70
     0
  9
$REGENMODE
 70
     1
  9
$FILLMODE
 70
     1
  9
$QTEXTMODE
 70
     0
  9
$MIRRTEXT
 70
     1
  9
$LTSCALE
 40
1.0
  9
$ATTMODE
 70
     1
  9
$TEXTSIZE
 40
2.0
  9
$TRACEWID
 40
1.0
  9
$TEXTSTYLE
  7
Standard
  9
$CLAYER
  8
0
  9
$CELTYPE
  6
ByLayer
  9
$CECOLOR
 62
   256
  9
$CELTSCALE
 40
1.0
  9
$DISPSILH
 70
     0
  9
$DIMSCALE
 40
1.0
  9
$DIMASZ
 40
2.0
  9
$DIMEXO
 40
1.0
  9
$DIMDLI
 40
3.75
  9
$DIMRND
 40
0.0
  9
$DIMDLE
 40
0.0
  9
$DIMEXE
 40
1.0
  9
$DIMTP
 40
0.0
  9
$DIMTM
 40
0.0
  9
$DIMTXT
 40
2.0
  9
$DIMCEN
 40
2.5
  9
$DIMTSZ
 40
0.0
  9
$DIMTOL
 70
     0
  9
$DIMLIM
 70
     0
  9
$DIMTIH
 70
     1
  9
$DIMTOH
 70
     1
  9
$DIMSE1
 70
     0
  9
$DIMSE2
 70
     0
  9
$DIMTAD
 70
     1
  9
$DIMZIN
 70
     0
  9
$DIMBLK
  1

  9
$DIMASO
 70
     1
  9
$DIMSHO
 70
     1
  9
$DIMPOST
  1

  9
$DIMAPOST
  1

  9
$DIMALT
 70
     0
  9
$DIMALTD
 70
     3
  9
$DIMALTF
 40
0.0393700787
  9
$DIMLFAC
 40
1.0
  9
$DIMTOFL
 70
     1
  9
$DIMTVP
 40
0.0
  9
$DIMTIX
 70
     0
  9
$DIMSOXD
 70
     0
  9
$DIMSAH
 70
     0
  9
$DIMBLK1
  1

  9
$DIMBLK2
  1

  9
$DIMSTYLE
  2
ISO-25
  9
$DIMCLRD
 70
     0
  9
$DIMCLRE
 70
     0
  9
$DIMCLRT
 70
     0
  9
$DIMTFAC
 40
1.0
  9
$DIMGAP
 40
1.524
  9
$DIMJUST
 70
     0
  9
$DIMSD1
 70
     0
  9
$DIMSD2
 70
     0
  9
$DIMTOLJ
 70
     0
  9
$DIMTZIN
 70
     0
  9
$DIMALTZ
 70
     0
  9
$DIMALTTZ
 70
     0
  9
$DIMUPT
 70
     0
  9
$DIMDEC
 70
     2
  9
$DIMTDEC
 70
     0
  9
$DIMALTU
 70
     2
  9
$DIMALTTD
 70
     3
  9
$DIMTXSTY
  7
Standard
  9
$DIMAUNIT
 70
     0
  9
$DIMADEC
 70
     2
  9
$DIMALTRND
 40
0.0
  9
$DIMAZIN
 70
     0
  9
$DIMDSEP
 70
    44
  9
$DIMATFIT
 70
     3
  9
$DIMFRAC
 70
     0
  9
$DIMLDRBLK
  1

  9
$DIMLUNIT
 70
     2
  9
$DIMLWD
 70
    -2
  9
$DIMLWE
 70
    -2
  9
$DIMTMOVE
 70
     0
  9
$LUNITS
 70
     2
  9
$LUPREC
 70
     3
  9
$SKETCHINC
 40
1.0
  9
$FILLETRAD
 40
10.0
  9
$AUNITS
 70
     0
  9
$AUPREC
 70
     2
  9
$MENU
  1
.
  9
$ELEVATION
 40
0.0
  9
$PELEVATION
 40
0.0
  9
$THICKNESS
 40
0.0
  9
$LIMCHECK
 70
     0
  9
$CHAMFERA
 40
0.0
  9
$CHAMFERB
 40
0.0
  9
$CHAMFERC
 40
0.0
  9
$CHAMFERD
 40
0.0
  9
$SKPOLY
 70
     0
  9
$TDCREATE
 40
2459095.425630162
  9
$TDUCREATE
 40
2459095.342296829
  9
$TDUPDATE
 40
2459095.425630567
  9
$TDUUPDATE
 40
2459095.342297234
  9
$TDINDWG
 40
0.0000000116
  9
$TDUSRTIMER
 40
0.0000000116
  9
$USRTIMER
 70
     1
  9
$ANGBASE
 50
0.0
  9
$ANGDIR
 70
     0
  9
$PDMODE
 70
     0
  9
$PDSIZE
 40
-1.0
  9
$PLINEWID
 40
0.0
  9
$SPLFRAME
 70
     0
  9
$SPLINETYPE
 70
     6
  9
$SPLINESEGS
 70
     8
  9
$HANDSEED
  5
35E
  9
$SURFTAB1
 70
     6
  9
$SURFTAB2
 70
     6
  9
$SURFTYPE
 70
     6
  9
$SURFU
 70
     6
  9
$SURFV
 70
     6
  9
$UCSBASE
  2

  9
$UCSNAME
  2

  9
$UCSORG
 10
0.0
 20
0.0
 30
0.0
  9
$UCSXDIR
 10
1.0
 20
0.0
 30
0.0
  9
$UCSYDIR
 10
0.0
 20
1.0
 30
0.0
  9
$UCSORTHOREF
  2

  9
$UCSORTHOVIEW
 70
     0
  9
$UCSORGTOP
 10
0.0
 20
0.0
 30
0.0
  9
$UCSORGBOTTOM
 10
0.0
 20
0.0
 30
0.0
  9
$UCSORGLEFT
 10
0.0
 20
0.0
 30
0.0
  9
$UCSORGRIGHT
 10
0.0
 20
0.0
 30
0.0
  9
$UCSORGFRONT
 10
0.0
 20
0.0
 30
0.0
  9
$UCSORGBACK
 10
0.0
 20
0.0
 30
0.0
  9
$PUCSBASE
  2

  9
$PUCSNAME
  2

  9
$PUCSORG
 10
0.0
 20
0.0
 30
0.0
  9
$PUCSXDIR
 10
1.0
 20
0.0
 30
0.0
  9
$PUCSYDIR
 10
0.0
 20
1.0
 30
0.0
  9
$PUCSORTHOREF
  2

  9
$PUCSORTHOVIEW
 70
     0
  9
$PUCSORGTOP
 10
0.0
 20
0.0
 30
0.0
  9
$PUCSORGBOTTOM
 10
0.0
 20
0.0
 30
0.0
  9
$PUCSORGLEFT
 10
0.0
 20
0.0
 30
0.0
  9
$PUCSORGRIGHT
 10
0.0
 20
0.0
 30
0.0
  9
$PUCSORGFRONT
 10
0.0
 20
0.0
 30
0.0
  9
$PUCSORGBACK
 10
0.0
 20
0.0
 30
0.0
  9
$USERI1
 70
     0
  9
$USERI2
 70
     0
  9
$USERI3
 70
     0
  9
$USERI4
 70
     0
  9
$USERI5
 70
     0
  9
$USERR1
 40
0.0
  9
$USERR2
 40
0.0
  9
$USERR3
 40
0.0
  9
$USERR4
 40
0.0
  9
$USERR5
 40
0.0
  9
$WORLDVIEW
 70
     1
  9
$SHADEDGE
 70
     3
  9
$SHADEDIF
 70
    70
  9
$TILEMODE
 70
     1
  9
$MAXACTVP
 70
    64
  9
$PINSBASE
 10
0.0
 20
0.0
 30
0.0
  9
$PLIMCHECK
 70
     0
  9
$PEXTMIN
 10
1.0000000000E+20
 20
1.0000000000E+20
 30
1.0000000000E+20
  9
$PEXTMAX
 10
-1.0000000000E+20
 20
-1.0000000000E+20
 30
-1.0000000000E+20
  9
$PLIMMIN
 10
0.0
 20
0.0
  9
$PLIMMAX
 10
420.0
 20
297.0
  9
$UNITMODE
 70
     0
  9
$VISRETAIN
 70
     1
  9
$PLINEGEN
 70
     0
  9
$PSLTSCALE
 70
     1
  9
$TREEDEPTH
 70
  3020
  9
$CMLSTYLE
  2
Standard
  9
$CMLJUST
 70
     0
  9
$CMLSCALE
 40
20.0
  9
$PROXYGRAPHICS
 70
     1
  9
$MEASUREMENT
 70
     1
  9
$CELWEIGHT
370
    -1
  9
$ENDCAPS
280
     0
  9
$JOINSTYLE
280
     0
  9
$LWDISPLAY
290
     1
  9
$INSUNITS
 70
     4
  9
$HYPERLINKBASE
  1

  9
$STYLESHEET
  1

  9
$XEDIT
290
     1
  9
$CEPSNTYPE
380
     0
  9
$PSTYLEMODE
290
     1
  9
$FINGERPRINTGUID
  2
{7077b60e-16ea-4a03-8d84-c1b4bc807713}
  9
$VERSIONGUID
  2
{FAEB1C32-E019-11D5-929B-00C0DF256EC4}
  9
$EXTNAMES
290
     1
  9
$PSVPSCALE
 40
0.0
  9
$OLESTARTUP
290
     0
  0
ENDSEC
  0
SECTION
  2
CLASSES
  0
CLASS
  1
ACDBDICTIONARYWDFLT
  2
AcDbDictionaryWithDefault
  3
ObjectDBX Classes
 90
        0
280
     0
281
     0
  0
CLASS
  1
VISUALSTYLE
  2
AcDbVisualStyle
  3
ObjectDBX Classes
 90
     4095
280
     0
281
     0
  0
CLASS
  1
MATERIAL
  2
AcDbMaterial
  3
ObjectDBX Classes
 90
     1153
280
     0
281
     0
  0
CLASS
  1
SCALE
  2
AcDbScale
  3
ObjectDBX Classes
 90
     1153
280
     0
281
     0
  0
CLASS
  1
TABLESTYLE
  2
AcDbTableStyle
  3
ObjectDBX Classes
 90
     4095
280
     0
281
     0
  0
CLASS
  1
MLEADERSTYLE
  2
AcDbMLeaderStyle
  3
ACDB_MLEADERSTYLE_CLASS
 90
     4095
280
     0
281
     0
  0
CLASS
  1
SUN
  2
AcDbSun
  3
SCENEOE
 90
     1153
280
     0
281
     0
  0
CLASS
  1
ACDBPLACEHOLDER
  2
AcDbPlaceHolder
  3
ObjectDBX Classes
 90
        0
280
     0
281
     0
  0
CLASS
  1
LAYOUT
  2
AcDbLayout
  3
ObjectDBX Classes
 90
        0
280
     0
281
     0
  0
ENDSEC
  0
SECTION
  2
TABLES
  0
TABLE
  2
VPORT
  5
8
330
0
100
AcDbSymbolTable
 70
     1
  0
VPORT
  5
29
330
8
100
AcDbSymbolTableRecord
100
AcDbViewportTableRecord
  2
*Active
 70
     0
 10
0.0
 20
0.0
 11
1.0
 21
1.0
 12
10000.0
 22
5000.0
 13
0.0
 23
0.0
 14
10.0
 24
10.0
 15
10.0
 25
10.0
 16
0.0
 26
0.0
 36
1.0
 17
0.0
 27
0.0
 37
0.0
 40
10000.0
 41
2.0
 42
50.0
 43
0.0
 44
0.0
 50
0.0
 51
0.0
 71
     0
 72
  2000
 73
     1
 74
     3
 75
     0
 76
     0
 77
     0
 78
     0
281
     0
 65
     1
110
0.0
120
0.0
130
0.0
111
1.0
121
0.0
131
0.0
112
0.0
122
1.0
132
0.0
 79
     0
146
0.0
  0
ENDTAB
  0
TABLE
  2
LTYPE
  5
5
330
0
100
AcDbSymbolTable
 70
     6
  0
LTYPE
  5
14
330
5
100
AcDbSymbolTableRecord
100
AcDbLinetypeTableRecord
  2
ByBlock
 70
     0
  3

 72
    65
 73
     0
 40
0.0
  0
LTYPE
  5
15
330
5
100
AcDbSymbolTableRecord
100
AcDbLinetypeTableRecord
  2
ByLayer
 70
     0
  3

 72
    65
 73
     0
 40
0.0
  0
LTYPE
  5
16
330
5
100
AcDbSymbolTableRecord
100
AcDbLinetypeTableRecord
  2
Continuous
 70
     0
  3
Solid line
 72
    65
 73
     0
 40
0.0
  0
LTYPE
  5
6E
330
5
100
AcDbSymbolTableRecord
100
AcDbLinetypeTableRecord
  2
HIDDEN
 70
     0
  3
Hidden __ __ __ __ __ __ __ __ __ __ __ __ __ __
 72
    65
 73
     2
 40
1.905
 49
1.27
 74
     0
 49
-0.635
 74
     0
  0
LTYPE
  5
6F
330
5
100
AcDbSymbolTableRecord
100
AcDbLinetypeTableRecord
  2
PHANTOM
 70
     0
  3
Phantom ______  __  __  ______  __  __  ______
 72
    65
 73
     6
 40
12.7
 49
6.35
 74
     0
 49
-1.27
 74
     0
 49
1.27
 74
     0
 49
-1.27
 74
     0
 49
1.27
 74
     0
 49
-1.27
 74
     0
  0
LTYPE
  5
70
330
5
100
AcDbSymbolTableRecord
100
AcDbLinetypeTableRecord
  2
CENTER
 70
     0
  3
Center ____ _ ____ _ ____ _ ____ _ ____ _ ____
 72
    65
 73
     4
 40
10.16
 49
6.35
 74
     0
 49
-1.27
 74
     0
 49
1.27
 74
     0
 49
-1.27
 74
     0
  0
LTYPE
  5
71
330
5
100
AcDbSymbolTableRecord
100
AcDbLinetypeTableRecord
  2
CENTERX2
 70
     0
  3
Center (2x) ________  __  ________  __  _____
 72
    65
 73
     4
 40
20.32
 49
12.7
 74
     0
 49
-2.54
 74
     0
 49
2.54
 74
     0
 49
-2.54
 74
     0
  0
LTYPE
  5
72
330
5
100
AcDbSymbolTableRecord
100
AcDbLinetypeTableRecord
  2
DOT2
 70
     0
  3
Dot (.5x) ........................................
 72
    65
 73
     2
 40
0.635
 49
0.0
 74
     0
 49
-0.635
 74
     0
  0
ENDTAB
  0
TABLE
  2
LAYER
  5
2
330
0
100
AcDbSymbolTable
 70
    13
  0
LAYER
  5
10
330
2
100
AcDbSymbolTableRecord
100
AcDbLayerTableRecord
  2
0
 70
     0
 62
     7
  6
Continuous
370
    -3
390
F
  0
LAYER
  5
73
330
2
100
AcDbSymbolTableRecord
100
AcDbLayerTableRecord
  2
FORMAT
 70
     0
 62
     7
  6
Continuous
370
    -3
390
F
  0
LAYER
  5
74
330
2
100
AcDbSymbolTableRecord
100
AcDbLayerTableRecord
  2
OSA
 70
     0
 62
     7
  6
CENTER
370
    -3
390
F
  0
LAYER
  5
75
330
2
100
AcDbSymbolTableRecord
100
AcDbLayerTableRecord
  2
0_35
 70
     0
 62
     7
  6
Continuous
370
    35
390
F
  0
LAYER
  5
76
330
2
100
AcDbSymbolTableRecord
100
AcDbLayerTableRecord
  2
0_5
 70
     0
 62
     7
  6
Continuous
370
    50
390
F
  0
LAYER
  5
77
330
2
100
AcDbSymbolTableRecord
100
AcDbLayerTableRecord
  2
0_25
 70
     0
 62
     7
  6
Continuous
370
    25
390
F
  0
LAYER
  5
78
330
2
100
AcDbSymbolTableRecord
100
AcDbLayerTableRecord
  2
0_18
 70
     0
 62
     7
  6
Continuous
370
    -3
390
F
  0
LAYER
  5
79
330
2
100
AcDbSymbolTableRecord
100
AcDbLayerTableRecord
  2
SLD-0
 70
     0
 62
   179
  6
Continuous
370
    -3
390
F
  0
LAYER
  5
7A
330
2
100
AcDbSymbolTableRecord
100
AcDbLayerTableRecord
  2
KOTY
 70
     0
 62
     7
  6
Continuous
370
    -3
390
F
  0
LAYER
  5
7B
330
2
100
AcDbSymbolTableRecord
100
AcDbLayerTableRecord
  2
SILNA
 70
     0
 62
   179
  6
Continuous
370
    -3
390
F
  0
LAYER
  5
7C
330
2
100
AcDbSymbolTableRecord
100
AcDbLayerTableRecord
  2
0_18_1
 70
     0
 62
   179
  6
Continuous
370
    -3
390
F
  0
LAYER
  5
7D
330
2
100
AcDbSymbolTableRecord
100
AcDbLayerTableRecord
  2
0_35_1
 70
     0
 62
   179
  6
Continuous
370
    35
390
F
  0
LAYER
  5
7E
330
2
100
AcDbSymbolTableRecord
100
AcDbLayerTableRecord
  2
0_5_1
 70
     0
 62
   179
  6
Continuous
370
    50
390
F
  0
ENDTAB
  0
TABLE
  2
STYLE
  5
3
330
0
100
AcDbSymbolTable
 70
     1
  0
STYLE
  5
11
330
3
100
AcDbSymbolTableRecord
100
AcDbTextStyleTableRecord
  2
Standard
 70
     0
 40
0.0
 41
1.0
 50
0.0
 71
     0
 42
2.0
  3
txt
  4

  0
ENDTAB
  0
TABLE
  2
VIEW
  5
6
330
0
100
AcDbSymbolTable
 70
     0
  0
ENDTAB
  0
TABLE
  2
UCS
  5
7
330
0
100
AcDbSymbolTable
 70
     0
  0
ENDTAB
  0
TABLE
  2
APPID
  5
9
330
0
100
AcDbSymbolTable
 70
     1
  0
APPID
  5
12
330
9
100
AcDbSymbolTableRecord
100
AcDbRegAppTableRecord
  2
ACAD
 70
     0
  0
ENDTAB
  0
TABLE
  2
DIMSTYLE
  5
A
330
0
100
AcDbSymbolTable
 70
     1
100
AcDbDimStyleTable
  0
DIMSTYLE
105
27
330
A
100
AcDbSymbolTableRecord
100
AcDbDimStyleTableRecord
  2
ISO-25
 70
     0
 41
2.5
 42
0.625
 43
3.75
 44
1.25
 73
     0
 74
     0
 77
     1
 78
     8
140
2.5
141
2.5
143
0.0393700787
147
0.625
171
     3
172
     1
178
     0
271
     2
272
     2
274
     3
278
    44
283
     0
284
     8
340
11
  0
ENDTAB
  0
TABLE
  2
BLOCK_RECORD
  5
1
330
0
100
AcDbSymbolTable
 70
     1
  0
BLOCK_RECORD
  5
1F
330
1
100
AcDbSymbolTableRecord
100
AcDbBlockTableRecord
  2
*Model_Space
340
22
  0
BLOCK_RECORD
  5
1B
330
1
100
AcDbSymbolTableRecord
100
AcDbBlockTableRecord
  2
*Paper_Space
340
1E
  0
BLOCK_RECORD
  5
23
330
1
100
AcDbSymbolTableRecord
100
AcDbBlockTableRecord
  2
*Paper_Space0
340
26
  0
ENDTAB
  0
ENDSEC
  0
SECTION
  2
BLOCKS
  0
BLOCK
  5
20
330
1F
100
AcDbEntity
  8
0
100
AcDbBlockBegin
  2
*Model_Space
 70
     0
 10
0.0
 20
0.0
 30
0.0
  3
*Model_Space
  1

  0
ENDBLK
  5
21
330
1F
100
AcDbEntity
  8
0
100
AcDbBlockEnd
  0
BLOCK
  5
1C
330
1B
100
AcDbEntity
 67
     1
  8
0
100
AcDbBlockBegin
  2
*Paper_Space
 70
     0
 10
0.0
 20
0.0
 30
0.0
  3
*Paper_Space
  1

  0
ENDBLK
  5
1D
330
1B
100
AcDbEntity
 67
     1
  8
0
100
AcDbBlockEnd
  0
BLOCK
  5
24
330
23
100
AcDbEntity
  8
0
100
AcDbBlockBegin
  2
*Paper_Space0
 70
     0
 10
0.0
 20
0.0
 30
0.0
  3
*Paper_Space0
  1

  0
ENDBLK
  5
25
330
23
100
AcDbEntity
  8
0
100
AcDbBlockEnd
  0
ENDSEC
  0
SECTION
  2
ENTITIES
  0
LINE
  5
7F
330
1F
100
AcDbEntity
  8
0
  6
Continuous
 62
     7
370
    25
100
AcDbLine
 10
2114.4775121478
 20
7997.3676838829
 30
0.0
 11
2114.4775121478
 21
7947.3676838829
 31
0.0
  0
LINE
  5
80
330
1F
100
AcDbEntity
  8
0
  6
Continuous
 62
     7
370
    25
100
AcDbLine
 10
2159.4775121478
 20
7947.3676838829
 30
0.0
 11
2159.4775121478
 21
7997.3676838829
 31
0.0
  0
LINE
  5
81
330
1F
100
AcDbEntity
  8
0
  6
Continuous
 62
     7
370
    25
100
AcDbLine
 10
2114.4775121478
 20
7773.9197425881
 30
0.0
 11
2114.4775121478
 21
7772.3676838829
 31
0.0
  0
LINE
  5
82
330
1F
100
AcDbEntity
  8
0
  6
Continuous
 62
     7
370
    25
100
AcDbLine
 10
2159.4775121478
 20
7772.3676838829
 30
0.0
 11
2159.4775121478
 21
7773.9197425881
 31
0.0
  0
ARC
  5
83
330
1F
100
AcDbEntity
  8
0
  6
Continuous
 62
     7
370
    25
100
AcDbCircle
 10
2136.9775121478
 20
7507.3676838829
 30
0.0
 40
274.8437500000003
100
AcDbArc
 50
2.0838208898
 51
177.9129706479
  0
ARC
  5
84
330
1F
100
AcDbEntity
  8
0
  6
Continuous
 62
     7
370
    25
100
AcDbCircle
 10
2136.9775121478
 20
7507.3676838829
 30
0.0
 40
274.8437499999999
100
AcDbArc
 50
182.0847665388
 51
357.9171165388
  0
ARC
  5
85
330
1F
100
AcDbEntity
  8
0
  6
Continuous
 62
     7
370
    25
100
AcDbCircle
 10
2136.9775121478
 20
7507.3676838829
 30
0.0
 40
267.5000000000001
100
AcDbArc
 50
2.1399092243
 51
177.8565448428
  0
ARC
  5
86
330
1F
100
AcDbEntity
  8
0
  6
Continuous
 62
     7
370
    25
100
AcDbCircle
 10
2136.9775121478
 20
7507.3676838829
 30
0.0
 40
267.4999999999998
100
AcDbArc
 50
182.1442436058
 51
357.8607280682
  0
LINE
  5
87
330
1F
100
AcDbEntity
  8
0
  6
Continuous
 62
     7
370
    25
100
AcDbLine
 10
1776.9775121478
 20
7497.3676838829
 30
0.0
 11
1776.9775121478
 21
7489.8676838829
 31
0.0
  0
LINE
  5
88
330
1F
100
AcDbEntity
  8
0
  6
Continuous
 62
     7
370
    25
100
AcDbLine
 10
1826.9775121478
 20
7489.8676838829
 30
0.0
 11
1826.9775121478
 21
7497.3676838829
 31
0.0
  0
ARC
  5
89
330
1F
100
AcDbEntity
  8
0
  6
Continuous
 62
     7
370
    25
100
AcDbCircle
 10
1816.9775121478
 20
7489.8676838829
 30
0.0
 40
10.0
100
AcDbArc
 50
270.0
 51
0.0
  0
ARC
  5
8A
330
1F
100
AcDbEntity
  8
0
  6
Continuous
 62
     7
370
    25
100
AcDbCircle
 10
1786.9775121478
 20
7489.8676838829
 30
0.0
 40
10.00000000000023
100
AcDbArc
 50
180.0
 51
270.0
  0
LINE
  5
8B
330
1F
100
AcDbEntity
  8
0
  6
Continuous
 62
     7
370
    25
100
AcDbLine
 10
2446.9775121478
 20
7497.3676838829
 30
0.0
 11
2446.9775121478
 21
7489.8676838829
 31
0.0
  0
LINE
  5
8C
330
1F
100
AcDbEntity
  8
0
  6
Continuous
 62
     7
370
    25
100
AcDbLine
 10
2496.9775121478
 20
7489.8676838829
 30
0.0
 11
2496.9775121478
 21
7497.3676838829
 31
0.0
  0
ARC
  5
8D
330
1F
100
AcDbEntity
  8
0
  6
Continuous
 62
     7
370
    25
100
AcDbCircle
 10
2486.9775121478
 20
7489.8676838829
 30
0.0
 40
10.00000000000045
100
AcDbArc
 50
270.0
 51
0.0
  0
ARC
  5
8E
330
1F
100
AcDbEntity
  8
0
  6
Continuous
 62
     7
370
    25
100
AcDbCircle
 10
2456.9775121478
 20
7489.8676838829
 30
0.0
 40
10.00000000000045
100
AcDbArc
 50
180.0
 51
270.0
  0
LINE
  5
8F
330
1F
100
AcDbEntity
  8
0
  6
Continuous
 62
     7
370
    25
100
AcDbLine
 10
1814.4775121478
 20
7517.3676838829
 30
0.0
 11
1814.4775121478
 21
7572.3676838829
 31
0.0
  0
LINE
  5
90
330
1F
100
AcDbEntity
  8
0
  6
Continuous
 62
     7
370
    25
100
AcDbLine
 10
1789.4775121478
 20
7572.3676838829
 30
0.0
 11
1789.4775121478
 21
7517.3676838829
 31
0.0
  0
LINE
  5
91
330
1F
100
AcDbEntity
  8
0
  6
Continuous
 62
     7
370
    25
100
AcDbLine
 10
2484.4775121478
 20
7517.3676838829
 30
0.0
 11
2484.4775121478
 21
7572.3676838829
 31
0.0
  0
LINE
  5
92
330
1F
100
AcDbEntity
  8
0
  6
Continuous
 62
     7
370
    25
100
AcDbLine
 10
2459.4775121478
 20
7572.3676838829
 30
0.0
 11
2459.4775121478
 21
7517.3676838829
 31
0.0
  0
CIRCLE
  5
93
330
1F
100
AcDbEntity
  8
0
  6
Continuous
 62
     7
370
    25
100
AcDbCircle
 10
2660.7275121478
 20
8502.8676838829
 30
0.0
 40
15.99999999999979
  0
CIRCLE
  5
94
330
1F
100
AcDbEntity
  8
0
  6
Continuous
 62
     7
370
    25
100
AcDbCircle
 10
1613.2275121478
 20
8502.8676838829
 30
0.0
 40
16.0
  0
ARC
  5
95
330
1F
100
AcDbEntity
  8
0
  6
Continuous
 62
     7
370
    25
100
AcDbCircle
 10
2701.9775121478
 20
8509.3676838829
 30
0.0
 40
22.50000000000011
100
AcDbArc
 50
324.8752801032
 51
53.0343081545
  0
ARC
  5
96
330
1F
100
AcDbEntity
  8
0
  6
Continuous
 62
     7
370
    25
100
AcDbCircle
 10
1571.9775121478
 20
8509.3676838829
 30
0.0
 40
22.50000000000136
100
AcDbArc
 50
126.9656918688
 51
215.124719873
  0
LINE
  5
97
330
1F
100
AcDbEntity
  8
0
  6
Continuous
 62
     7
370
    25
100
AcDbLine
 10
2596.9775121478
 20
8531.8676838829
 30
0.0
 11
2608.2013282011
 21
8531.8676838829
 31
0.0
  0
ARC
  5
98
330
1F
100
AcDbEntity
  8
0
  6
Continuous
 62
     7
370
    25
100
AcDbCircle
 10
2596.9775121478
 20
8509.3676838829
 30
0.0
 40
22.50000000000182
100
AcDbArc
 50
90.0
 51
270.0
  0
LINE
  5
99
330
1F
100
AcDbEntity
  8
0
  6
Continuous
 62
     7
370
    25
100
AcDbLine
 10
1676.9775121478
 20
8486.8676838829
 30
0.0
 11
1671.054841327
 21
8486.8676838829
 31
0.0
  0
LINE
  5
9A
330
1F
100
AcDbEntity
  8
0
  6
Continuous
 62
     7
370
    25
100
AcDbLine
 10
1608.2001726557
 20
8486.8676838829
 30
0.0
 11
1607.4829495013
 21
8486.8676838829
 31
0.0
  0
LINE
  5
9B
330
1F
100
AcDbEntity
  8
0
  6
Continuous
 62
     7
370
    25
100
AcDbLine
 10
1511.9775121478
 20
8429.3676838829
 30
0.0
 11
1511.9775121478
 21
8589.3676838829
 31
0.0
  0
LINE
  5
9C
330
1F
100
AcDbEntity
  8
0
  6
Continuous
 62
     7
370
    25
100
AcDbLine
 10
2655.7001726557
 20
8486.8676838829
 30
0.0
 11
2654.9829495013
 21
8486.8676838829
 31
0.0
  0
LINE
  5
9D
330
1F
100
AcDbEntity
  8
0
  6
Continuous
 62
     7
370
    25
100
AcDbLine
 10
2602.9001829686
 20
8486.8676838829
 30
0.0
 11
2596.9775121478
 21
8486.8676838829
 31
0.0
  0
LINE
  5
9E
330
1F
100
AcDbEntity
  8
0
  6
Continuous
 62
     7
370
    25
100
AcDbLine
 10
1511.9775121478
 20
8589.3676838829
 30
0.0
 11
2761.9775121478
 21
8589.3676838829
 31
0.0
  0
LINE
  5
9F
330
1F
100
AcDbEntity
  8
0
  6
Continuous
 62
     7
370
    25
100
AcDbLine
 10
2761.9775121478
 20
8429.3676838829
 30
0.0
 11
1511.9775121478
 21
8429.3676838829
 31
0.0
  0
LINE
  5
A0
330
1F
100
AcDbEntity
  8
0
  6
Continuous
 62
     7
370
    25
100
AcDbLine
 10
2761.9775121478
 20
8589.3676838829
 30
0.0
 11
2761.9775121478
 21
8429.3676838829
 31
0.0
  0
ARC
  5
A1
330
1F
100
AcDbEntity
  8
0
  6
Continuous
 62
     7
370
    25
100
AcDbCircle
 10
1676.9775121478
 20
8509.3676838829
 30
0.0
 40
22.50000000000182
100
AcDbArc
 50
270.0
 51
90.0
  0
LINE
  5
A2
330
1F
100
AcDbEntity
  8
0
  6
Continuous
 62
     7
370
    25
100
AcDbLine
 10
1665.7536960945
 20
8531.8676838829
 30
0.0
 11
1676.9775121478
 21
8531.8676838829
 31
0.0
  0
SPLINE
  5
A3
330
1F
100
AcDbEntity
  8
0
  6
Continuous
 62
     7
370
    25
100
AcDbSpline
210
0.0
220
0.0
230
1.0
 70
     8
 71
     3
 72
    15
 73
    11
 74
     0
 42
0.00000001
 43
0.00000001
 40
0.0
 40
0.0
 40
0.0
 40
0.0
 40
0.1250000000000096
 40
0.2500000000000003
 40
0.3750000000000046
 40
0.500000000000001
 40
0.624999999999998
 40
0.7500000000000008
 40
0.8750000000000012
 40
1.0
 40
1.0
 40
1.0
 40
1.0
 10
2677.727512147818
 20
8502.867683882898
 30
0.0
 10
2677.471975410434
 20
8505.092679228248
 30
0.0
 10
2676.960901935665
 20
8509.542669918952
 30
0.0
 10
2673.029665312584
 20
8515.201449839917
 30
0.0
 10
2667.410401381937
 20
8518.982525699792
 30
0.0
 10
2660.727512147818
 20
8520.31026297445
 30
0.0
 10
2654.0446229137
 20
8518.982525699792
 30
0.0
 10
2648.425358983053
 20
8515.201449839917
 30
0.0
 10
2644.494122359972
 20
8509.542669918952
 30
0.0
 10
2643.983048885203
 20
8505.092679228248
 30
0.0
 10
2643.727512147819
 20
8502.867683882898
 30
0.0
  0
SPLINE
  5
A4
330
1F
100
AcDbEntity
  8
0
  6
Continuous
 62
     7
370
    25
100
AcDbSpline
210
0.0
220
0.0
230
1.0
 70
     8
 71
     3
 72
    13
 73
     9
 74
     0
 42
0.00000001
 43
0.00000001
 40
0.0
 40
0.0
 40
0.0
 40
0.0
 40
0.1632707000991958
 40
0.3265424427009474
 40
0.4896767223175173
 40
0.65937681110854
 40
0.8326966813623178
 40
1.0
 40
1.0
 40
1.0
 40
1.0
 10
2643.727512147819
 20
8502.867683882898
 30
0.0
 10
2643.769425178959
 20
8504.84383074086
 30
0.0
 10
2643.85325150886
 20
8508.796137074718
 30
0.0
 10
2646.460649870075
 20
8514.245055043479
 30
0.0
 10
2650.628282952302
 20
8518.612257227072
 30
0.0
 10
2656.095840292925
 20
8521.466874580521
 30
0.0
 10
2662.295295111882
 20
8522.485619548781
 30
0.0
 10
2666.301216225934
 20
8521.53893820125
 30
0.0
 10
2668.26879776013
 20
8521.073958316443
 30
0.0
  0
ARC
  5
A5
330
1F
100
AcDbEntity
  8
0
  6
Continuous
 62
     7
370
    25
100
AcDbCircle
 10
2660.7275121478
 20
8502.8676838829
 30
0.0
 40
32.50000000000146
100
AcDbArc
 50
240.0
 51
300.0
  0
ARC
  5
A6
330
1F
100
AcDbEntity
  8
0
  6
Continuous
 62
     7
370
    25
100
AcDbCircle
 10
2660.7275121478
 20
8502.8676838829
 30
0.0
 40
32.50000000000146
100
AcDbArc
 50
180.0
 51
240.0
  0
ARC
  5
A7
330
1F
100
AcDbEntity
  8
0
  6
Continuous
 62
     7
370
    25
100
AcDbCircle
 10
2660.7275121478
 20
8502.8676838829
 30
0.0
 40
32.50000000000045
100
AcDbArc
 50
120.0
 51
180.0
  0
ARC
  5
A8
330
1F
100
AcDbEntity
  8
0
  6
Continuous
 62
     7
370
    25
100
AcDbCircle
 10
2660.7275121478
 20
8502.8676838829
 30
0.0
 40
32.50000000000011
100
AcDbArc
 50
60.0
 51
120.0
  0
ARC
  5
A9
330
1F
100
AcDbEntity
  8
0
  6
Continuous
 62
     7
370
    25
100
AcDbCircle
 10
2660.7275121478
 20
8502.8676838829
 30
0.0
 40
32.49999999999955
100
AcDbArc
 50
0.0
 51
60.0
  0
ARC
  5
AA
330
1F
100
AcDbEntity
  8
0
  6
Continuous
 62
     7
370
    25
100
AcDbCircle
 10
2660.7275121478
 20
8502.8676838829
 30
0.0
 40
32.50000000000056
100
AcDbArc
 50
300.0
 51
0.0
  0
ARC
  5
AB
330
1F
100
AcDbEntity
  8
0
  6
Continuous
 62
     7
370
    25
100
AcDbCircle
 10
2660.7275121478
 20
8502.8676838829
 30
0.0
 40
17.0
100
AcDbArc
 50
180.0
 51
270.0000010371
  0
SPLINE
  5
AC
330
1F
100
AcDbEntity
  8
0
  6
Continuous
 62
     7
370
    25
100
AcDbSpline
210
0.0
220
0.0
230
1.0
 70
     8
 71
     3
 72
    11
 73
     7
 74
     0
 42
0.00000001
 43
0.00000001
 40
0.0
 40
0.0
 40
0.0
 40
0.0
 40
0.0810122979989883
 40
0.4075809636108905
 40
0.6195809066103026
 40
1.0
 40
1.0
 40
1.0
 40
1.0
 10
2668.26879776013
 20
8521.073958316443
 30
0.0
 10
2668.650835199403
 20
8520.906872676267
 30
0.0
 10
2670.572903718387
 20
8520.066248130242
 30
0.0
 10
2673.246557048878
 20
8518.25888166747
 30
0.0
 10
2676.618940185925
 20
8514.894803397636
 30
0.0
 10
2678.028587849072
 20
8512.163112342194
 30
0.0
 10
2678.933786455251
 20
8510.408969799668
 30
0.0
  0
SPLINE
  5
AD
330
1F
100
AcDbEntity
  8
0
  6
Continuous
 62
     7
370
    25
100
AcDbSpline
210
0.0
220
0.0
230
1.0
 70
     8
 71
     3
 72
    13
 73
     9
 74
     0
 42
0.00000001
 43
0.00000001
 40
0.0
 40
0.0
 40
0.0
 40
0.0
 40
0.1834967932023604
 40
0.3672242682110765
 40
0.542293375760703
 40
0.7157689557446038
 40
0.8836008596832496
 40
1.0
 40
1.0
 40
1.0
 40
1.0
 10
2678.933786455251
 20
8510.408969799668
 30
0.0
 10
2679.426965826405
 20
8508.243506378136
 30
0.0
 10
2680.413944565968
 20
8503.909857236742
 30
0.0
 10
2679.045612556291
 20
8497.350379347765
 30
0.0
 10
2675.720471472673
 20
8491.779864670543
 30
0.0
 10
2670.849905683348
 20
8487.77574735213
 30
0.0
 10
2665.551699423931
 20
8485.840243363826
 30
0.0
 10
2662.129132297153
 20
8485.859711311303
 30
0.0
 10
2660.727512455531
 20
8485.867683882898
 30
0.0
  0
SPLINE
  5
AE
330
1F
100
AcDbEntity
  8
0
  6
Continuous
 62
     7
370
    25
100
AcDbSpline
210
0.0
220
0.0
230
1.0
 70
    24
 71
     3
 72
     9
 73
     5
 74
     0
 42
0.00000001
 43
0.00000001
 40
0.0
 40
0.0
 40
0.0
 40
0.0
 40
0.5156102819444079
 40
0.9999999999999999
 40
0.9999999999999999
 40
0.9999999999999999
 40
0.9999999999999999
 10
2693.227512147819
 20
8502.867683882898
 30
0.0
 10
2693.227512147819
 20
8506.13248000225
 30
0.0
 10
2693.227512147819
 20
8512.464386548107
 30
0.0
 10
2693.227512147819
 20
8518.640110464776
 30
0.0
 10
2693.227512147819
 20
8521.63156763156
 30
0.0
  0
LINE
  5
AF
330
1F
100
AcDbEntity
  8
0
  6
Continuous
 62
     7
370
    25
100
AcDbLine
 10
2693.2275121478
 20
8521.6315676316
 30
0.0
 11
2676.9775121478
 21
8531.0135095059
 31
0.0
  0
SPLINE
  5
B0
330
1F
100
AcDbEntity
  8
0
  6
Continuous
 62
     7
370
    25
100
AcDbSpline
210
0.0
220
0.0
230
1.0
 70
    24
 71
     3
 72
     9
 73
     5
 74
     0
 42
0.00000001
 43
0.00000001
 40
0.0
 40
0.0
 40
0.0
 40
0.0
 40
0.2556528332520092
 40
1.0
 40
1.0
 40
1.0
 40
1.0
 10
2693.227512147819
 20
8484.103800134235
 30
0.0
 10
2693.227512147819
 20
8485.676238073047
 30
0.0
 10
2693.227512147819
 20
8491.826914827958
 30
0.0
 10
2693.227512147819
 20
8498.156371065457
 30
0.0
 10
2693.227512147819
 20
8502.867683882898
 30
0.0
  0
SPLINE
  5
B1
330
1F
100
AcDbEntity
  8
0
  6
Continuous
 62
     7
370
    25
100
AcDbSpline
210
0.0
220
0.0
230
1.0
 70
    24
 71
     3
 72
     9
 73
     5
 74
     0
 42
0.00000001
 43
0.00000001
 40
0.0
 40
0.0
 40
0.0
 40
0.0
 40
0.3722772596760318
 40
0.9999999999999999
 40
0.9999999999999999
 40
0.9999999999999999
 40
0.9999999999999999
 10
2676.977512147819
 20
8474.721858259903
 30
0.0
 10
2679.018279484915
 20
8475.900095831328
 30
0.0
 10
2684.50012744649
 20
8479.0650422276
 30
0.0
 10
2689.861841997208
 20
8482.160629566775
 30
0.0
 10
2693.227512147819
 20
8484.103800134235
 30
0.0
  0
LINE
  5
B2
330
1F
100
AcDbEntity
  8
0
  6
Continuous
 62
     7
370
    25
100
AcDbLine
 10
2628.2275121478
 20
8484.1038001342
 30
0.0
 11
2644.4775121478
 21
8474.7218582599
 31
0.0
  0
SPLINE
  5
B3
330
1F
100
AcDbEntity
  8
0
  6
Continuous
 62
     7
370
    25
100
AcDbSpline
210
0.0
220
0.0
230
1.0
 70
    24
 71
     3
 72
     9
 73
     5
 74
     0
 42
0.00000001
 43
0.00000001
 40
0.0
 40
0.0
 40
0.0
 40
0.0
 40
0.7443471667480476
 40
1.0
 40
1.0
 40
1.0
 40
1.0
 10
2628.227512147819
 20
8502.867683882898
 30
0.0
 10
2628.227512147819
 20
8498.156371065455
 30
0.0
 10
2628.227512147819
 20
8491.826914827956
 30
0.0
 10
2628.227512147819
 20
8485.676238073045
 30
0.0
 10
2628.227512147819
 20
8484.103800134235
 30
0.0
  0
LINE
  5
B4
330
1F
100
AcDbEntity
  8
0
  6
Continuous
 62
     7
370
    25
100
AcDbLine
 10
2660.7275121478
 20
8465.3399163856
 30
0.0
 11
2676.9775121478
 21
8474.7218582599
 31
0.0
  0
SPLINE
  5
B5
330
1F
100
AcDbEntity
  8
0
  6
Continuous
 62
     7
370
    25
100
AcDbSpline
210
0.0
220
0.0
230
1.0
 70
    24
 71
     3
 72
     9
 73
     5
 74
     0
 42
0.00000001
 43
0.00000001
 40
0.0
 40
0.0
 40
0.0
 40
0.0
 40
0.3722772596761444
 40
1.0
 40
1.0
 40
1.0
 40
1.0
 10
2644.47751214782
 20
8474.721858259902
 30
0.0
 10
2646.518279484915
 20
8473.543620688475
 30
0.0
 10
2652.000127446488
 20
8470.378674292202
 30
0.0
 10
2657.361841997207
 20
8467.28308695303
 30
0.0
 10
2660.727512147818
 20
8465.339916385574
 30
0.0
  0
SPLINE
  5
B6
330
1F
100
AcDbEntity
  8
0
  6
Continuous
 62
     7
370
    25
100
AcDbSpline
210
0.0
220
0.0
230
1.0
 70
    24
 71
     3
 72
     9
 73
     5
 74
     0
 42
0.00000001
 43
0.00000001
 40
0.0
 40
0.0
 40
0.0
 40
0.0
 40
0.484389718055651
 40
0.9999999999999999
 40
0.9999999999999999
 40
0.9999999999999999
 40
0.9999999999999999
 10
2628.227512147819
 20
8521.63156763156
 30
0.0
 10
2628.227512147818
 20
8518.640110464774
 30
0.0
 10
2628.227512147818
 20
8512.464386548105
 30
0.0
 10
2628.227512147819
 20
8506.13248000225
 30
0.0
 10
2628.227512147819
 20
8502.867683882898
 30
0.0
  0
SPLINE
  5
B7
330
1F
100
AcDbEntity
  8
0
  6
Continuous
 62
     7
370
    25
100
AcDbSpline
210
0.0
220
0.0
230
1.0
 70
    24
 71
     3
 72
     9
 73
     5
 74
     0
 42
0.00000001
 43
0.00000001
 40
0.0
 40
0.0
 40
0.0
 40
0.0
 40
0.3722772596761831
 40
1.0
 40
1.0
 40
1.0
 40
1.0
 10
2644.477512147819
 20
8531.013509505892
 30
0.0
 10
2642.436744810723
 20
8529.835271934464
 30
0.0
 10
2636.95489684915
 20
8526.67032553819
 30
0.0
 10
2631.59318229843
 20
8523.574738199019
 30
0.0
 10
2628.227512147819
 20
8521.63156763156
 30
0.0
  0
LINE
  5
B8
330
1F
100
AcDbEntity
  8
0
  6
Continuous
 62
     7
370
    25
100
AcDbLine
 10
2660.7275121478
 20
8540.3954513802
 30
0.0
 11
2644.4775121478
 21
8531.0135095059
 31
0.0
  0
SPLINE
  5
B9
330
1F
100
AcDbEntity
  8
0
  6
Continuous
 62
     7
370
    25
100
AcDbSpline
210
0.0
220
0.0
230
1.0
 70
    24
 71
     3
 72
     9
 73
     5
 74
     0
 42
0.00000001
 43
0.00000001
 40
0.0
 40
0.0
 40
0.0
 40
0.0
 40
0.3722772596761814
 40
1.0
 40
1.0
 40
1.0
 40
1.0
 10
2676.977512147819
 20
8531.01350950589
 30
0.0
 10
2674.936744810723
 20
8532.191747077317
 30
0.0
 10
2669.454896849149
 20
8535.35669347359
 30
0.0
 10
2664.09318229843
 20
8538.452280812762
 30
0.0
 10
2660.727512147818
 20
8540.395451380222
 30
0.0
  0
SPLINE
  5
BA
330
1F
100
AcDbEntity
  8
0
  6
Continuous
 62
     7
370
    25
100
AcDbSpline
210
0.0
220
0.0
230
1.0
 70
     8
 71
     3
 72
    15
 73
    11
 74
     0
 42
0.00000001
 43
0.00000001
 40
0.0
 40
0.0
 40
0.0
 40
0.0
 40
0.1250000000000096
 40
0.2500000000000003
 40
0.3750000000000046
 40
0.500000000000001
 40
0.624999999999998
 40
0.7500000000000008
 40
0.8750000000000012
 40
1.0
 40
1.0
 40
1.0
 40
1.0
 10
1630.227512147818
 20
8502.867683882898
 30
0.0
 10
1629.971975410434
 20
8505.09267922825
 30
0.0
 10
1629.460901935665
 20
8509.542669918954
 30
0.0
 10
1625.529665312584
 20
8515.201449839917
 30
0.0
 10
1619.910401381936
 20
8518.982525699794
 30
0.0
 10
1613.227512147818
 20
8520.31026297445
 30
0.0
 10
1606.5446229137
 20
8518.982525699794
 30
0.0
 10
1600.925358983053
 20
8515.201449839917
 30
0.0
 10
1596.994122359972
 20
8509.542669918954
 30
0.0
 10
1596.483048885203
 20
8505.09267922825
 30
0.0
 10
1596.227512147818
 20
8502.867683882898
 30
0.0
  0
SPLINE
  5
BB
330
1F
100
AcDbEntity
  8
0
  6
Continuous
 62
     7
370
    25
100
AcDbSpline
210
0.0
220
0.0
230
1.0
 70
     8
 71
     3
 72
    13
 73
     9
 74
     0
 42
0.00000001
 43
0.00000001
 40
0.0
 40
0.0
 40
0.0
 40
0.0
 40
0.1632707000991958
 40
0.3265424427009474
 40
0.4896767223175173
 40
0.65937681110854
 40
0.8326966813623178
 40
1.0
 40
1.0
 40
1.0
 40
1.0
 10
1596.227512147818
 20
8502.867683882898
 30
0.0
 10
1596.269425178959
 20
8504.843830740861
 30
0.0
 10
1596.35325150886
 20
8508.79613707472
 30
0.0
 10
1598.960649870075
 20
8514.245055043479
 30
0.0
 10
1603.128282952302
 20
8518.612257227074
 30
0.0
 10
1608.595840292925
 20
8521.466874580521
 30
0.0
 10
1614.795295111881
 20
8522.485619548781
 30
0.0
 10
1618.801216225934
 20
8521.538938201253
 30
0.0
 10
1620.768797760129
 20
8521.073958316443
 30
0.0
  0
ARC
  5
BC
330
1F
100
AcDbEntity
  8
0
  6
Continuous
 62
     7
370
    25
100
AcDbCircle
 10
1613.2275121478
 20
8502.8676838829
 30
0.0
 40
32.50000000000011
100
AcDbArc
 50
240.0
 51
300.0
  0
ARC
  5
BD
330
1F
100
AcDbEntity
  8
0
  6
Continuous
 62
     7
370
    25
100
AcDbCircle
 10
1613.2275121478
 20
8502.8676838829
 30
0.0
 40
32.50000000000091
100
AcDbArc
 50
180.0
 51
240.0
  0
ARC
  5
BE
330
1F
100
AcDbEntity
  8
0
  6
Continuous
 62
     7
370
    25
100
AcDbCircle
 10
1613.2275121478
 20
8502.8676838829
 30
0.0
 40
32.5000000000018
100
AcDbArc
 50
120.0
 51
180.0
  0
ARC
  5
BF
330
1F
100
AcDbEntity
  8
0
  6
Continuous
 62
     7
370
    25
100
AcDbCircle
 10
1613.2275121478
 20
8502.8676838829
 30
0.0
 40
32.5000000000018
100
AcDbArc
 50
60.0
 51
120.0
  0
ARC
  5
C0
330
1F
100
AcDbEntity
  8
0
  6
Continuous
 62
     7
370
    25
100
AcDbCircle
 10
1613.2275121478
 20
8502.8676838829
 30
0.0
 40
32.49999999999988
100
AcDbArc
 50
0.0
 51
60.0
  0
ARC
  5
C1
330
1F
100
AcDbEntity
  8
0
  6
Continuous
 62
     7
370
    25
100
AcDbCircle
 10
1613.2275121478
 20
8502.8676838829
 30
0.0
 40
32.50000000000023
100
AcDbArc
 50
300.0
 51
0.0
  0
ARC
  5
C2
330
1F
100
AcDbEntity
  8
0
  6
Continuous
 62
     7
370
    25
100
AcDbCircle
 10
1613.2275121478
 20
8502.8676838829
 30
0.0
 40
16.99999999999977
100
AcDbArc
 50
180.0
 51
270.0000010371
  0
SPLINE
  5
C3
330
1F
100
AcDbEntity
  8
0
  6
Continuous
 62
     7
370
    25
100
AcDbSpline
210
0.0
220
0.0
230
1.0
 70
     8
 71
     3
 72
    11
 73
     7
 74
     0
 42
0.00000001
 43
0.00000001
 40
0.0
 40
0.0
 40
0.0
 40
0.0
 40
0.0810122979989883
 40
0.4075809636108905
 40
0.6195809066103026
 40
1.0
 40
1.0
 40
1.0
 40
1.0
 10
1620.768797760129
 20
8521.073958316443
 30
0.0
 10
1621.150835199403
 20
8520.906872676267
 30
0.0
 10
1623.072903718386
 20
8520.066248130244
 30
0.0
 10
1625.746557048877
 20
8518.258881667472
 30
0.0
 10
1629.118940185924
 20
8514.894803397636
 30
0.0
 10
1630.528587849072
 20
8512.163112342196
 30
0.0
 10
1631.433786455251
 20
8510.40896979967
 30
0.0
  0
SPLINE
  5
C4
330
1F
100
AcDbEntity
  8
0
  6
Continuous
 62
     7
370
    25
100
AcDbSpline
210
0.0
220
0.0
230
1.0
 70
     8
 71
     3
 72
    13
 73
     9
 74
     0
 42
0.00000001
 43
0.00000001
 40
0.0
 40
0.0
 40
0.0
 40
0.0
 40
0.1834967932023604
 40
0.3672242682110765
 40
0.542293375760703
 40
0.7157689557446038
 40
0.8836008596832496
 40
1.0
 40
1.0
 40
1.0
 40
1.0
 10
1631.433786455251
 20
8510.40896979967
 30
0.0
 10
1631.926965826404
 20
8508.243506378138
 30
0.0
 10
1632.913944565968
 20
8503.909857236746
 30
0.0
 10
1631.54561255629
 20
8497.350379347765
 30
0.0
 10
1628.220471472672
 20
8491.779864670543
 30
0.0
 10
1623.349905683347
 20
8487.77574735213
 30
0.0
 10
1618.05169942393
 20
8485.840243363828
 30
0.0
 10
1614.629132297152
 20
8485.859711311303
 30
0.0
 10
1613.22751245553
 20
8485.8676838829
 30
0.0
  0
SPLINE
  5
C5
330
1F
100
AcDbEntity
  8
0
  6
Continuous
 62
     7
370
    25
100
AcDbSpline
210
0.0
220
0.0
230
1.0
 70
    24
 71
     3
 72
     9
 73
     5
 74
     0
 42
0.00000001
 43
0.00000001
 40
0.0
 40
0.0
 40
0.0
 40
0.0
 40
0.2556528332520092
 40
1.0
 40
1.0
 40
1.0
 40
1.0
 10
1645.727512147818
 20
8484.103800134237
 30
0.0
 10
1645.727512147818
 20
8485.676238073047
 30
0.0
 10
1645.727512147818
 20
8491.826914827958
 30
0.0
 10
1645.727512147818
 20
8498.15637106546
 30
0.0
 10
1645.727512147818
 20
8502.867683882898
 30
0.0
  0
SPLINE
  5
C6
330
1F
100
AcDbEntity
  8
0
  6
Continuous
 62
     7
370
    25
100
AcDbSpline
210
0.0
220
0.0
230
1.0
 70
    24
 71
     3
 72
     9
 73
     5
 74
     0
 42
0.00000001
 43
0.00000001
 40
0.0
 40
0.0
 40
0.0
 40
0.0
 40
0.3722772596760318
 40
0.9999999999999999
 40
0.9999999999999999
 40
0.9999999999999999
 40
0.9999999999999999
 10
1629.477512147819
 20
8474.721858259905
 30
0.0
 10
1631.518279484915
 20
8475.900095831328
 30
0.0
 10
1637.000127446489
 20
8479.0650422276
 30
0.0
 10
1642.361841997207
 20
8482.160629566775
 30
0.0
 10
1645.727512147818
 20
8484.103800134237
 30
0.0
  0
SPLINE
  5
C7
330
1F
100
AcDbEntity
  8
0
  6
Continuous
 62
     7
370
    25
100
AcDbSpline
210
0.0
220
0.0
230
1.0
 70
    24
 71
     3
 72
     9
 73
     5
 74
     0
 42
0.00000001
 43
0.00000001
 40
0.0
 40
0.0
 40
0.0
 40
0.0
 40
0.5156102819444079
 40
0.9999999999999999
 40
0.9999999999999999
 40
0.9999999999999999
 40
0.9999999999999999
 10
1645.727512147818
 20
8502.867683882898
 30
0.0
 10
1645.727512147818
 20
8506.132480002252
 30
0.0
 10
1645.727512147818
 20
8512.464386548107
 30
0.0
 10
1645.727512147818
 20
8518.640110464776
 30
0.0
 10
1645.727512147818
 20
8521.631567631563
 30
0.0
  0
LINE
  5
C8
330
1F
100
AcDbEntity
  8
0
  6
Continuous
 62
     7
370
    25
100
AcDbLine
 10
1645.7275121478
 20
8521.6315676316
 30
0.0
 11
1629.4775121478
 21
8531.0135095059
 31
0.0
  0
LINE
  5
C9
330
1F
100
AcDbEntity
  8
0
  6
Continuous
 62
     7
370
    25
100
AcDbLine
 10
1613.2275121478
 20
8465.3399163856
 30
0.0
 11
1629.4775121478
 21
8474.7218582599
 31
0.0
  0
SPLINE
  5
CA
330
1F
100
AcDbEntity
  8
0
  6
Continuous
 62
     7
370
    25
100
AcDbSpline
210
0.0
220
0.0
230
1.0
 70
    24
 71
     3
 72
     9
 73
     5
 74
     0
 42
0.00000001
 43
0.00000001
 40
0.0
 40
0.0
 40
0.0
 40
0.0
 40
0.3722772596761444
 40
1.0
 40
1.0
 40
1.0
 40
1.0
 10
1596.977512147819
 20
8474.721858259903
 30
0.0
 10
1599.018279484914
 20
8473.543620688475
 30
0.0
 10
1604.500127446487
 20
8470.378674292206
 30
0.0
 10
1609.861841997206
 20
8467.283086953032
 30
0.0
 10
1613.227512147818
 20
8465.339916385574
 30
0.0
  0
LINE
  5
CB
330
1F
100
AcDbEntity
  8
0
  6
Continuous
 62
     7
370
    25
100
AcDbLine
 10
1580.7275121478
 20
8484.1038001342
 30
0.0
 11
1596.9775121478
 21
8474.7218582599
 31
0.0
  0
SPLINE
  5
CC
330
1F
100
AcDbEntity
  8
0
  6
Continuous
 62
     7
370
    25
100
AcDbSpline
210
0.0
220
0.0
230
1.0
 70
    24
 71
     3
 72
     9
 73
     5
 74
     0
 42
0.00000001
 43
0.00000001
 40
0.0
 40
0.0
 40
0.0
 40
0.0
 40
0.7443471667480476
 40
1.0
 40
1.0
 40
1.0
 40
1.0
 10
1580.727512147818
 20
8502.867683882898
 30
0.0
 10
1580.727512147818
 20
8498.156371065457
 30
0.0
 10
1580.727512147818
 20
8491.826914827958
 30
0.0
 10
1580.727512147818
 20
8485.676238073047
 30
0.0
 10
1580.727512147818
 20
8484.103800134237
 30
0.0
  0
SPLINE
  5
CD
330
1F
100
AcDbEntity
  8
0
  6
Continuous
 62
     7
370
    25
100
AcDbSpline
210
0.0
220
0.0
230
1.0
 70
    24
 71
     3
 72
     9
 73
     5
 74
     0
 42
0.00000001
 43
0.00000001
 40
0.0
 40
0.0
 40
0.0
 40
0.0
 40
0.484389718055651
 40
0.9999999999999999
 40
0.9999999999999999
 40
0.9999999999999999
 40
0.9999999999999999
 10
1580.727512147818
 20
8521.631567631563
 30
0.0
 10
1580.727512147818
 20
8518.640110464776
 30
0.0
 10
1580.727512147818
 20
8512.464386548107
 30
0.0
 10
1580.727512147818
 20
8506.13248000225
 30
0.0
 10
1580.727512147818
 20
8502.867683882898
 30
0.0
  0
SPLINE
  5
CE
330
1F
100
AcDbEntity
  8
0
  6
Continuous
 62
     7
370
    25
100
AcDbSpline
210
0.0
220
0.0
230
1.0
 70
    24
 71
     3
 72
     9
 73
     5
 74
     0
 42
0.00000001
 43
0.00000001
 40
0.0
 40
0.0
 40
0.0
 40
0.0
 40
0.3722772596761831
 40
1.0
 40
1.0
 40
1.0
 40
1.0
 10
1596.977512147819
 20
8531.013509505894
 30
0.0
 10
1594.936744810723
 20
8529.835271934466
 30
0.0
 10
1589.454896849149
 20
8526.670325538193
 30
0.0
 10
1584.09318229843
 20
8523.574738199019
 30
0.0
 10
1580.727512147818
 20
8521.631567631563
 30
0.0
  0
LINE
  5
CF
330
1F
100
AcDbEntity
  8
0
  6
Continuous
 62
     7
370
    25
100
AcDbLine
 10
1613.2275121478
 20
8540.3954513802
 30
0.0
 11
1596.9775121478
 21
8531.0135095059
 31
0.0
  0
SPLINE
  5
D0
330
1F
100
AcDbEntity
  8
0
  6
Continuous
 62
     7
370
    25
100
AcDbSpline
210
0.0
220
0.0
230
1.0
 70
    24
 71
     3
 72
     9
 73
     5
 74
     0
 42
0.00000001
 43
0.00000001
 40
0.0
 40
0.0
 40
0.0
 40
0.0
 40
0.3722772596761814
 40
1.0
 40
1.0
 40
1.0
 40
1.0
 10
1629.477512147819
 20
8531.013509505892
 30
0.0
 10
1627.436744810722
 20
8532.191747077319
 30
0.0
 10
1621.954896849149
 20
8535.356693473592
 30
0.0
 10
1616.59318229843
 20
8538.452280812764
 30
0.0
 10
1613.227512147818
 20
8540.395451380224
 30
0.0
  0
LINE
  5
D1
330
1F
100
AcDbEntity
  8
0
  6
Continuous
 62
     7
370
    25
100
AcDbLine
 10
1463.2275121478
 20
8347.8676838829
 30
0.0
 11
1463.2275121478
 21
5697.8676838829
 31
0.0
  0
LINE
  5
D2
330
1F
100
AcDbEntity
  8
0
  6
Continuous
 62
     7
370
    25
100
AcDbLine
 10
1463.2275121478
 20
8347.8676838829
 30
0.0
 11
1478.2275121478
 21
8347.8676838829
 31
0.0
  0
LINE
  5
D3
330
1F
100
AcDbEntity
  8
0
  6
Continuous
 62
     7
370
    25
100
AcDbLine
 10
1478.2275121478
 20
8347.8676838829
 30
0.0
 11
1478.2275121478
 21
5697.8676838829
 31
0.0
  0
LINE
  5
D4
330
1F
100
AcDbEntity
  8
0
  6
Continuous
 62
     7
370
    25
100
AcDbLine
 10
2013.2275121478
 20
5682.8676838829
 30
0.0
 11
2013.2275121478
 21
5697.8676838829
 31
0.0
  0
LINE
  5
D5
330
1F
100
AcDbEntity
  8
0
  6
Continuous
 62
     7
370
    25
100
AcDbLine
 10
2013.2275121478
 20
5682.8676838829
 30
0.0
 11
1213.2275121478
 21
5682.8676838829
 31
0.0
  0
LINE
  5
D6
330
1F
100
AcDbEntity
  8
0
  6
Continuous
 62
     7
370
    25
100
AcDbLine
 10
1213.2275121478
 20
5682.8676838829
 30
0.0
 11
1213.2275121478
 21
5697.8676838829
 31
0.0
  0
LINE
  5
D7
330
1F
100
AcDbEntity
  8
0
  6
Continuous
 62
     7
370
    25
100
AcDbLine
 10
1478.2275121478
 20
5697.8676838829
 30
0.0
 11
1213.2275121478
 21
5697.8676838829
 31
0.0
  0
LINE
  5
D8
330
1F
100
AcDbEntity
  8
0
  6
Continuous
 62
     7
370
    25
100
AcDbLine
 10
1478.2275121478
 20
8347.8676838829
 30
0.0
 11
1748.2275121478
 21
8347.8676838829
 31
0.0
  0
LINE
  5
D9
330
1F
100
AcDbEntity
  8
0
  6
Continuous
 62
     7
370
    25
100
AcDbLine
 10
2013.2275121478
 20
5697.8676838829
 30
0.0
 11
1748.2275121478
 21
5697.8676838829
 31
0.0
  0
ARC
  5
DA
330
1F
100
AcDbEntity
  8
0
  6
Continuous
 62
     7
370
    25
100
AcDbCircle
 10
1683.2275121478
 20
7252.8676838829
 30
0.0
 40
30.00000000000023
100
AcDbArc
 50
180.0
 51
0.0
  0
LINE
  5
DB
330
1F
100
AcDbEntity
  8
0
  6
Continuous
 62
     7
370
    25
100
AcDbLine
 10
1713.2275121478
 20
7252.8676838829
 30
0.0
 11
1713.2275121478
 21
7893.5663284713
 31
0.0
  0
LINE
  5
DC
330
1F
100
AcDbEntity
  8
0
  6
Continuous
 62
     7
370
    25
100
AcDbLine
 10
1713.2275121478
 20
8076.1690392945
 30
0.0
 11
1713.2275121478
 21
8242.8676838829
 31
0.0
  0
ARC
  5
DD
330
1F
100
AcDbEntity
  8
0
  6
Continuous
 62
     7
370
    25
100
AcDbCircle
 10
1683.2275121478
 20
8242.8676838829
 30
0.0
 40
30.00000000000023
100
AcDbArc
 50
0.0
 51
180.0
  0
LINE
  5
DE
330
1F
100
AcDbEntity
  8
0
  6
Continuous
 62
     7
370
    25
100
AcDbLine
 10
1653.2275121478
 20
8242.8676838829
 30
0.0
 11
1653.2275121478
 21
8073.6704850775
 31
0.0
  0
LINE
  5
DF
330
1F
100
AcDbEntity
  8
0
  6
Continuous
 62
     7
370
    25
100
AcDbLine
 10
1653.2275121478
 20
7896.0648826883
 30
0.0
 11
1653.2275121478
 21
7252.8676838829
 31
0.0
  0
LINE
  5
E0
330
1F
100
AcDbEntity
  8
0
  6
Continuous
 62
     7
370
    25
100
AcDbLine
 10
1748.2275121478
 20
8347.8676838829
 30
0.0
 11
1763.2275121478
 21
8347.8676838829
 31
0.0
  0
LINE
  5
E1
330
1F
100
AcDbEntity
  8
0
  6
Continuous
 62
     7
370
    25
100
AcDbLine
 10
1763.2275121478
 20
8347.8676838829
 30
0.0
 11
1763.2275121478
 21
8041.5328186661
 31
0.0
  0
LINE
  5
E2
330
1F
100
AcDbEntity
  8
0
  6
Continuous
 62
     7
370
    25
100
AcDbLine
 10
1763.2275121478
 20
7928.2025490997
 30
0.0
 11
1763.2275121478
 21
5697.8676838829
 31
0.0
  0
LINE
  5
E3
330
1F
100
AcDbEntity
  8
0
  6
Continuous
 62
     7
370
    25
100
AcDbLine
 10
1478.2275121478
 20
8352.3676838829
 30
0.0
 11
1748.2275121478
 21
8352.3676838829
 31
0.0
  0
LINE
  5
E4
330
1F
100
AcDbEntity
  8
0
  6
Continuous
 62
     7
370
    25
100
AcDbLine
 10
1748.2275121478
 20
8347.8676838829
 30
0.0
 11
1748.2275121478
 21
8352.3676838829
 31
0.0
  0
LINE
  5
E5
330
1F
100
AcDbEntity
  8
0
  6
Continuous
 62
     7
370
    25
100
AcDbLine
 10
1478.2275121478
 20
8347.8676838829
 30
0.0
 11
1478.2275121478
 21
8352.3676838829
 31
0.0
  0
LINE
  5
E6
330
1F
100
AcDbEntity
  8
0
  6
Continuous
 62
     7
370
    25
100
AcDbLine
 10
1478.2275121478
 20
8817.8676838829
 30
0.0
 11
1748.2275121478
 21
8817.8676838829
 31
0.0
  0
ARC
  5
E7
330
1F
100
AcDbEntity
  8
0
  6
Continuous
 62
     7
370
    25
100
AcDbCircle
 10
1613.2275121478
 20
8722.8676838829
 30
0.0
 40
20.0
100
AcDbArc
 50
0.0
 51
180.0
  0
LINE
  5
E8
330
1F
100
AcDbEntity
  8
0
  6
Continuous
 62
     7
370
    25
100
AcDbLine
 10
1633.2275121478
 20
8589.3676838829
 30
0.0
 11
1633.2275121478
 21
8722.8676838829
 31
0.0
  0
LINE
  5
E9
330
1F
100
AcDbEntity
  8
0
  6
Continuous
 62
     7
370
    25
100
AcDbLine
 10
1593.2275121478
 20
8722.8676838829
 30
0.0
 11
1593.2275121478
 21
8589.3676838829
 31
0.0
  0
LINE
  5
EA
330
1F
100
AcDbEntity
  8
0
  6
Continuous
 62
     7
370
    25
100
AcDbLine
 10
1748.2275121478
 20
8352.3676838829
 30
0.0
 11
1748.2275121478
 21
8429.3676838829
 31
0.0
  0
LINE
  5
EB
330
1F
100
AcDbEntity
  8
0
  6
Continuous
 62
     7
370
    25
100
AcDbLine
 10
1748.2275121478
 20
8589.3676838829
 30
0.0
 11
1748.2275121478
 21
8817.8676838829
 31
0.0
  0
LINE
  5
EC
330
1F
100
AcDbEntity
  8
0
  6
Continuous
 62
     7
370
    25
100
AcDbLine
 10
1478.2275121478
 20
8352.3676838829
 30
0.0
 11
1478.2275121478
 21
8817.8676838829
 31
0.0
  0
LINE
  5
ED
330
1F
100
AcDbEntity
  8
0
  6
Continuous
 62
     7
370
    25
100
AcDbLine
 10
2795.7275121478
 20
8347.8676838829
 30
0.0
 11
2795.7275121478
 21
5697.8676838829
 31
0.0
  0
LINE
  5
EE
330
1F
100
AcDbEntity
  8
0
  6
Continuous
 62
     7
370
    25
100
AcDbLine
 10
2795.7275121478
 20
8347.8676838829
 30
0.0
 11
2810.7275121478
 21
8347.8676838829
 31
0.0
  0
LINE
  5
EF
330
1F
100
AcDbEntity
  8
0
  6
Continuous
 62
     7
370
    25
100
AcDbLine
 10
2810.7275121478
 20
8347.8676838829
 30
0.0
 11
2810.7275121478
 21
5697.8676838829
 31
0.0
  0
LINE
  5
F0
330
1F
100
AcDbEntity
  8
0
  6
Continuous
 62
     7
370
    25
100
AcDbLine
 10
3060.7275121478
 20
5682.8676838829
 30
0.0
 11
3060.7275121478
 21
5697.8676838829
 31
0.0
  0
LINE
  5
F1
330
1F
100
AcDbEntity
  8
0
  6
Continuous
 62
     7
370
    25
100
AcDbLine
 10
3060.7275121478
 20
5682.8676838829
 30
0.0
 11
2260.7275121478
 21
5682.8676838829
 31
0.0
  0
LINE
  5
F2
330
1F
100
AcDbEntity
  8
0
  6
Continuous
 62
     7
370
    25
100
AcDbLine
 10
2260.7275121478
 20
5682.8676838829
 30
0.0
 11
2260.7275121478
 21
5697.8676838829
 31
0.0
  0
LINE
  5
F3
330
1F
100
AcDbEntity
  8
0
  6
Continuous
 62
     7
370
    25
100
AcDbLine
 10
2525.7275121478
 20
5697.8676838829
 30
0.0
 11
2260.7275121478
 21
5697.8676838829
 31
0.0
  0
LINE
  5
F4
330
1F
100
AcDbEntity
  8
0
  6
Continuous
 62
     7
370
    25
100
AcDbLine
 10
2525.7275121478
 20
8347.8676838829
 30
0.0
 11
2795.7275121478
 21
8347.8676838829
 31
0.0
  0
ARC
  5
F5
330
1F
100
AcDbEntity
  8
0
  6
Continuous
 62
     7
370
    25
100
AcDbCircle
 10
2590.7275121478
 20
7252.8676838829
 30
0.0
 40
30.00000000000045
100
AcDbArc
 50
180.0
 51
0.0
  0
LINE
  5
F6
330
1F
100
AcDbEntity
  8
0
  6
Continuous
 62
     7
370
    25
100
AcDbLine
 10
2620.7275121478
 20
7252.8676838829
 30
0.0
 11
2620.7275121478
 21
7896.0648826883
 31
0.0
  0
LINE
  5
F7
330
1F
100
AcDbEntity
  8
0
  6
Continuous
 62
     7
370
    25
100
AcDbLine
 10
2620.7275121478
 20
8073.6704850775
 30
0.0
 11
2620.7275121478
 21
8242.8676838829
 31
0.0
  0
ARC
  5
F8
330
1F
100
AcDbEntity
  8
0
  6
Continuous
 62
     7
370
    25
100
AcDbCircle
 10
2590.7275121478
 20
8242.8676838829
 30
0.0
 40
30.00000000000045
100
AcDbArc
 50
0.0
 51
180.0
  0
LINE
  5
F9
330
1F
100
AcDbEntity
  8
0
  6
Continuous
 62
     7
370
    25
100
AcDbLine
 10
2560.7275121478
 20
8242.8676838829
 30
0.0
 11
2560.7275121478
 21
8076.1690392945
 31
0.0
  0
LINE
  5
FA
330
1F
100
AcDbEntity
  8
0
  6
Continuous
 62
     7
370
    25
100
AcDbLine
 10
2560.7275121478
 20
7893.5663284713
 30
0.0
 11
2560.7275121478
 21
7252.8676838829
 31
0.0
  0
LINE
  5
FB
330
1F
100
AcDbEntity
  8
0
  6
Continuous
 62
     7
370
    25
100
AcDbLine
 10
3060.7275121478
 20
5697.8676838829
 30
0.0
 11
2795.7275121478
 21
5697.8676838829
 31
0.0
  0
LINE
  5
FC
330
1F
100
AcDbEntity
  8
0
  6
Continuous
 62
     7
370
    25
100
AcDbLine
 10
2510.7275121478
 20
8347.8676838829
 30
0.0
 11
2510.7275121478
 21
8041.5328186661
 31
0.0
  0
LINE
  5
FD
330
1F
100
AcDbEntity
  8
0
  6
Continuous
 62
     7
370
    25
100
AcDbLine
 10
2510.7275121478
 20
7928.2025490997
 30
0.0
 11
2510.7275121478
 21
5697.8676838829
 31
0.0
  0
LINE
  5
FE
330
1F
100
AcDbEntity
  8
0
  6
Continuous
 62
     7
370
    25
100
AcDbLine
 10
2510.7275121478
 20
8347.8676838829
 30
0.0
 11
2525.7275121478
 21
8347.8676838829
 31
0.0
  0
LINE
  5
FF
330
1F
100
AcDbEntity
  8
0
  6
Continuous
 62
     7
370
    25
100
AcDbLine
 10
2525.7275121478
 20
8352.3676838829
 30
0.0
 11
2795.7275121478
 21
8352.3676838829
 31
0.0
  0
LINE
  5
100
330
1F
100
AcDbEntity
  8
0
  6
Continuous
 62
     7
370
    25
100
AcDbLine
 10
2795.7275121478
 20
8347.8676838829
 30
0.0
 11
2795.7275121478
 21
8352.3676838829
 31
0.0
  0
LINE
  5
101
330
1F
100
AcDbEntity
  8
0
  6
Continuous
 62
     7
370
    25
100
AcDbLine
 10
2525.7275121478
 20
8347.8676838829
 30
0.0
 11
2525.7275121478
 21
8352.3676838829
 31
0.0
  0
LINE
  5
102
330
1F
100
AcDbEntity
  8
0
  6
Continuous
 62
     7
370
    25
100
AcDbLine
 10
2525.7275121478
 20
8817.8676838829
 30
0.0
 11
2795.7275121478
 21
8817.8676838829
 31
0.0
  0
ARC
  5
103
330
1F
100
AcDbEntity
  8
0
  6
Continuous
 62
     7
370
    25
100
AcDbCircle
 10
2660.7275121478
 20
8722.8676838829
 30
0.0
 40
20.0
100
AcDbArc
 50
0.0
 51
180.0
  0
LINE
  5
104
330
1F
100
AcDbEntity
  8
0
  6
Continuous
 62
     7
370
    25
100
AcDbLine
 10
2680.7275121478
 20
8589.3676838829
 30
0.0
 11
2680.7275121478
 21
8722.8676838829
 31
0.0
  0
LINE
  5
105
330
1F
100
AcDbEntity
  8
0
  6
Continuous
 62
     7
370
    25
100
AcDbLine
 10
2640.7275121478
 20
8722.8676838829
 30
0.0
 11
2640.7275121478
 21
8589.3676838829
 31
0.0
  0
LINE
  5
106
330
1F
100
AcDbEntity
  8
0
  6
Continuous
 62
     7
370
    25
100
AcDbLine
 10
2795.7275121478
 20
8352.3676838829
 30
0.0
 11
2795.7275121478
 21
8817.8676838829
 31
0.0
  0
LINE
  5
107
330
1F
100
AcDbEntity
  8
0
  6
Continuous
 62
     7
370
    25
100
AcDbLine
 10
2525.7275121478
 20
8352.3676838829
 30
0.0
 11
2525.7275121478
 21
8429.3676838829
 31
0.0
  0
LINE
  5
108
330
1F
100
AcDbEntity
  8
0
  6
Continuous
 62
     7
370
    25
100
AcDbLine
 10
2525.7275121478
 20
8589.3676838829
 30
0.0
 11
2525.7275121478
 21
8817.8676838829
 31
0.0
  0
CIRCLE
  5
109
330
1F
100
AcDbEntity
  8
0
  6
Continuous
 62
     7
370
    25
100
AcDbCircle
 10
2586.9775121478
 20
7984.8676838829
 30
0.0
 40
33.74999999999916
  0
CIRCLE
  5
10A
330
1F
100
AcDbEntity
  8
0
  6
Continuous
 62
     7
370
    25
100
AcDbCircle
 10
1686.9775121478
 20
7984.8676838829
 30
0.0
 40
33.74999999999994
  0
LINE
  5
10B
330
1F
100
AcDbEntity
  8
0
  6
Continuous
 62
     7
370
    25
100
AcDbLine
 10
2961.9775121478
 20
7932.3676838829
 30
0.0
 11
2961.9775121478
 21
7862.3676838829
 31
0.0
  0
LINE
  5
10C
330
1F
100
AcDbEntity
  8
0
  6
Continuous
 62
     7
370
    25
100
AcDbLine
 10
1311.9775121478
 20
7932.3676838829
 30
0.0
 11
1311.9775121478
 21
7862.3676838829
 31
0.0
  0
LINE
  5
10D
330
1F
100
AcDbEntity
  8
0
  6
Continuous
 62
     7
370
    25
100
AcDbLine
 10
1463.2275121478
 20
7947.3676838829
 30
0.0
 11
1311.9775121478
 21
7947.3676838829
 31
0.0
  0
LINE
  5
10E
330
1F
100
AcDbEntity
  8
0
  6
Continuous
 62
     7
370
    25
100
AcDbLine
 10
2499.6920608973
 20
7947.3676838829
 30
0.0
 11
1774.2629633983
 21
7947.3676838829
 31
0.0
  0
LINE
  5
10F
330
1F
100
AcDbEntity
  8
0
  6
Continuous
 62
     7
370
    25
100
AcDbLine
 10
2961.9775121478
 20
7947.3676838829
 30
0.0
 11
2810.7275121478
 21
7947.3676838829
 31
0.0
  0
LINE
  5
110
330
1F
100
AcDbEntity
  8
0
  6
Continuous
 62
     7
370
    25
100
AcDbLine
 10
2961.9775121478
 20
7947.3676838829
 30
0.0
 11
2961.9775121478
 21
7932.3676838829
 31
0.0
  0
LINE
  5
111
330
1F
100
AcDbEntity
  8
0
  6
Continuous
 62
     7
370
    25
100
AcDbLine
 10
1311.9775121478
 20
7947.3676838829
 30
0.0
 11
1311.9775121478
 21
7932.3676838829
 31
0.0
  0
LINE
  5
112
330
1F
100
AcDbEntity
  8
0
  6
Continuous
 62
     7
370
    25
100
AcDbLine
 10
2961.9775121478
 20
7862.3676838829
 30
0.0
 11
2961.9775121478
 21
7847.3676838829
 31
0.0
  0
LINE
  5
113
330
1F
100
AcDbEntity
  8
0
  6
Continuous
 62
     7
370
    25
100
AcDbLine
 10
2961.9775121478
 20
7847.3676838829
 30
0.0
 11
2810.7275121478
 21
7847.3676838829
 31
0.0
  0
LINE
  5
114
330
1F
100
AcDbEntity
  8
0
  6
Continuous
 62
     7
370
    25
100
AcDbLine
 10
2620.7275121478
 20
7847.3676838829
 30
0.0
 11
2560.7275121478
 21
7847.3676838829
 31
0.0
  0
LINE
  5
115
330
1F
100
AcDbEntity
  8
0
  6
Continuous
 62
     7
370
    25
100
AcDbLine
 10
2510.7275121478
 20
7847.3676838829
 30
0.0
 11
1763.2275121478
 21
7847.3676838829
 31
0.0
  0
LINE
  5
116
330
1F
100
AcDbEntity
  8
0
  6
Continuous
 62
     7
370
    25
100
AcDbLine
 10
1713.2275121478
 20
7847.3676838829
 30
0.0
 11
1653.2275121478
 21
7847.3676838829
 31
0.0
  0
LINE
  5
117
330
1F
100
AcDbEntity
  8
0
  6
Continuous
 62
     7
370
    25
100
AcDbLine
 10
1463.2275121478
 20
7847.3676838829
 30
0.0
 11
1311.9775121478
 21
7847.3676838829
 31
0.0
  0
LINE
  5
118
330
1F
100
AcDbEntity
  8
0
  6
Continuous
 62
     7
370
    25
100
AcDbLine
 10
1311.9775121478
 20
7862.3676838829
 30
0.0
 11
1311.9775121478
 21
7847.3676838829
 31
0.0
  0
LINE
  5
119
330
1F
100
AcDbEntity
  8
0
  6
Continuous
 62
     7
370
    25
100
AcDbLine
 10
2136.9775121478
 20
7997.3676838829
 30
0.0
 11
2159.4775121478
 21
7997.3676838829
 31
0.0
  0
LINE
  5
11A
330
1F
100
AcDbEntity
  8
0
  6
Continuous
 62
     7
370
    25
100
AcDbLine
 10
2114.4775121478
 20
7997.3676838829
 30
0.0
 11
2136.9775121478
 21
7997.3676838829
 31
0.0
  0
LINE
  5
11B
330
1F
100
AcDbEntity
  8
0
  6
Continuous
 62
     7
370
    25
100
AcDbLine
 10
2136.9775121478
 20
7772.3676838829
 30
0.0
 11
2159.4775121478
 21
7772.3676838829
 31
0.0
  0
LINE
  5
11C
330
1F
100
AcDbEntity
  8
0
  6
Continuous
 62
     7
370
    25
100
AcDbLine
 10
2114.4775121478
 20
7772.3676838829
 30
0.0
 11
2136.9775121478
 21
7772.3676838829
 31
0.0
  0
LINE
  5
11D
330
1F
100
AcDbEntity
  8
0
  6
Continuous
 62
     7
370
    25
100
AcDbLine
 10
1653.0581838329
 20
7926.1176838829
 30
0.0
 11
1720.8968404627
 21
7926.1176838829
 31
0.0
  0
LINE
  5
11E
330
1F
100
AcDbEntity
  8
0
  6
Continuous
 62
     7
370
    25
100
AcDbLine
 10
1619.138855518
 20
7984.8676838829
 30
0.0
 11
1653.0581838329
 21
7926.1176838829
 31
0.0
  0
LINE
  5
11F
330
1F
100
AcDbEntity
  8
0
  6
Continuous
 62
     7
370
    25
100
AcDbLine
 10
1720.8968404627
 20
8043.6176838829
 30
0.0
 11
1653.0581838329
 21
8043.6176838829
 31
0.0
  0
CIRCLE
  5
120
330
1F
100
AcDbEntity
  8
0
  6
Continuous
 62
     7
370
    25
100
AcDbCircle
 10
1686.9775121478
 20
7984.8676838829
 30
0.0
 40
35.00000000000011
  0
LINE
  5
121
330
1F
100
AcDbEntity
  8
0
  6
Continuous
 62
     7
370
    25
100
AcDbLine
 10
1754.8161687776
 20
7984.8676838829
 30
0.0
 11
1720.8968404627
 21
8043.6176838829
 31
0.0
  0
LINE
  5
122
330
1F
100
AcDbEntity
  8
0
  6
Continuous
 62
     7
370
    25
100
AcDbLine
 10
1653.0581838329
 20
8043.6176838829
 30
0.0
 11
1619.138855518
 21
7984.8676838829
 31
0.0
  0
LINE
  5
123
330
1F
100
AcDbEntity
  8
0
  6
Continuous
 62
     7
370
    25
100
AcDbLine
 10
1720.8968404627
 20
7926.1176838829
 30
0.0
 11
1754.8161687776
 21
7984.8676838829
 31
0.0
  0
CIRCLE
  5
124
330
1F
100
AcDbEntity
  8
0
  6
Continuous
 62
     7
370
    25
100
AcDbCircle
 10
1686.9775121478
 20
7984.8676838829
 30
0.0
 40
95.00000000000031
  0
LINE
  5
125
330
1F
100
AcDbEntity
  8
0
  6
Continuous
 62
     7
370
    25
100
AcDbLine
 10
2654.8161687776
 20
7984.8676838829
 30
0.0
 11
2620.8968404627
 21
8043.6176838829
 31
0.0
  0
LINE
  5
126
330
1F
100
AcDbEntity
  8
0
  6
Continuous
 62
     7
370
    25
100
AcDbLine
 10
2620.8968404627
 20
7926.1176838829
 30
0.0
 11
2654.8161687776
 21
7984.8676838829
 31
0.0
  0
LINE
  5
127
330
1F
100
AcDbEntity
  8
0
  6
Continuous
 62
     7
370
    25
100
AcDbLine
 10
2553.0581838329
 20
7926.1176838829
 30
0.0
 11
2620.8968404627
 21
7926.1176838829
 31
0.0
  0
LINE
  5
128
330
1F
100
AcDbEntity
  8
0
  6
Continuous
 62
     7
370
    25
100
AcDbLine
 10
2519.138855518
 20
7984.8676838829
 30
0.0
 11
2553.0581838329
 21
7926.1176838829
 31
0.0
  0
LINE
  5
129
330
1F
100
AcDbEntity
  8
0
  6
Continuous
 62
     7
370
    25
100
AcDbLine
 10
2553.0581838329
 20
8043.6176838829
 30
0.0
 11
2519.138855518
 21
7984.8676838829
 31
0.0
  0
CIRCLE
  5
12A
330
1F
100
AcDbEntity
  8
0
  6
Continuous
 62
     7
370
    25
100
AcDbCircle
 10
2586.9775121478
 20
7984.8676838829
 30
0.0
 40
35.0000000000009
  0
LINE
  5
12B
330
1F
100
AcDbEntity
  8
0
  6
Continuous
 62
     7
370
    25
100
AcDbLine
 10
2620.8968404627
 20
8043.6176838829
 30
0.0
 11
2553.0581838329
 21
8043.6176838829
 31
0.0
  0
CIRCLE
  5
12C
330
1F
100
AcDbEntity
  8
0
  6
Continuous
 62
     7
370
    25
100
AcDbCircle
 10
2586.9775121478
 20
7984.8676838829
 30
0.0
 40
95.00000000000031
  0
CIRCLE
  5
12D
330
1F
100
AcDbEntity
  8
0
  6
Continuous
 62
     7
370
    25
100
AcDbCircle
 10
1613.2275121478
 20
8502.8676838829
 30
0.0
 40
60.00000000000048
  0
CIRCLE
  5
12E
330
1F
100
AcDbEntity
  8
0
  6
Continuous
 62
     7
370
    25
100
AcDbCircle
 10
2660.7275121478
 20
8502.8676838829
 30
0.0
 40
60.00000000000192
  0
SPLINE
  5
12F
330
1F
100
AcDbEntity
  8
0
  6
Continuous
 62
     7
370
    25
100
AcDbSpline
210
0.0
220
0.0
230
1.0
 70
    24
 71
     3
 72
    13
 73
     9
 74
     0
 42
0.00000001
 43
0.00000001
 40
0.0
 40
0.0
 40
0.0
 40
0.0
 40
0.0745177978999313
 40
0.2890152813359997
 40
0.5035097011462912
 40
0.718086399749838
 40
0.9327965194340483
 40
1.0
 40
1.0
 40
1.0
 40
1.0
 10
1862.219359424487
 20
7517.367683882897
 30
0.0
 10
1862.231493819171
 20
7517.367683882898
 30
0.0
 10
1862.278556743631
 20
7517.367683882898
 30
0.0
 10
1860.787844836405
 20
7517.367683882896
 30
0.0
 10
1857.318388924451
 20
7517.367683882897
 30
0.0
 10
1852.35740834665
 20
7517.367683882898
 30
0.0
 10
1847.863748689056
 20
7517.367683882897
 30
0.0
 10
1845.267422884019
 20
7517.367683882898
 30
0.0
 10
1844.648502297616
 20
7517.367683882897
 30
0.0
  0
ARC
  5
130
330
1F
100
AcDbEntity
  8
0
  6
Continuous
 62
     7
370
    25
100
AcDbCircle
 10
2136.9775121478
 20
7507.3676838829
 30
0.0
 40
292.5000000000001
100
AcDbArc
 50
1.9592118568
 51
178.0407881432
  0
SPLINE
  5
131
330
1F
100
AcDbEntity
  8
0
  6
Continuous
 62
     7
370
    25
100
AcDbSpline
210
0.0
220
0.0
230
1.0
 70
    24
 71
     3
 72
    13
 73
     9
 74
     0
 42
0.00000001
 43
0.00000001
 40
0.0
 40
0.0
 40
0.0
 40
0.0
 40
0.0980970133289243
 40
0.3128414415589759
 40
0.527564327959983
 40
0.7421887148094168
 40
0.8764928439390891
 40
1.0
 40
1.0
 40
1.0
 40
1.0
 10
2429.306521998022
 20
7517.367683882897
 30
0.0
 10
2428.402316500909
 20
7517.367683882897
 30
0.0
 10
2425.518712387155
 20
7517.367683882896
 30
0.0
 10
2420.815605669794
 20
7517.367683882896
 30
0.0
 10
2416.021329974104
 20
7517.367683882898
 30
0.0
 10
2413.207816512979
 20
7517.367683882896
 30
0.0
 10
2411.773668351165
 20
7517.367683882896
 30
0.0
 10
2411.836491196368
 20
7517.367683882896
 30
0.0
 10
2411.866587128518
 20
7517.367683882896
 30
0.0
  0
ARC
  5
132
330
1F
100
AcDbEntity
  8
0
  6
Continuous
 62
     7
370
    25
100
AcDbCircle
 10
2136.9775121478
 20
7507.3676838829
 30
0.0
 40
292.5000000000001
100
AcDbArc
 50
181.9592118568
 51
358.0407881432
  0
SPLINE
  5
133
330
1F
100
AcDbEntity
  8
0
  6
Continuous
 62
     7
370
    25
100
AcDbSpline
210
0.0
220
0.0
230
1.0
 70
    24
 71
     3
 72
    13
 73
     9
 74
     0
 42
0.00000001
 43
0.00000001
 40
0.0
 40
0.0
 40
0.0
 40
0.0
 40
0.1473788430927365
 40
0.3622000333006478
 40
0.5769803736310494
 40
0.7916490770706932
 40
0.9259461522496555
 40
1.0
 40
1.0
 40
1.0
 40
1.0
 10
1844.648502297616
 20
7497.367683882898
 30
0.0
 10
1846.008367443296
 20
7497.367683882898
 30
0.0
 10
1849.350388527964
 20
7497.367683882898
 30
0.0
 10
1854.340159884217
 20
7497.367683882898
 30
0.0
 10
1858.83633095632
 20
7497.367683882896
 30
0.0
 10
1861.290783114711
 20
7497.367683882898
 30
0.0
 10
1862.293164878917
 20
7497.367683882897
 30
0.0
 10
1862.20881576616
 20
7497.367683882897
 30
0.0
 10
1862.178835690881
 20
7497.367683882898
 30
0.0
  0
SPLINE
  5
134
330
1F
100
AcDbEntity
  8
0
  6
Continuous
 62
     7
370
    25
100
AcDbSpline
210
0.0
220
0.0
230
1.0
 70
    24
 71
     3
 72
    13
 73
     9
 74
     0
 42
0.00000001
 43
0.00000001
 40
0.0
 40
0.0
 40
0.0
 40
0.0
 40
0.1254487736883995
 40
0.3395835364447149
 40
0.5537148520230648
 40
0.7679358935785491
 40
0.9822859279055611
 40
1.0
 40
1.0
 40
1.0
 40
1.0
 10
2411.662306642254
 20
7497.367683882898
 30
0.0
 10
2411.717828887967
 20
7497.367683882898
 30
0.0
 10
2411.868124821487
 20
7497.367683882899
 30
0.0
 10
2413.803315961563
 20
7497.367683882896
 30
0.0
 10
2417.669614535847
 20
7497.367683882899
 30
0.0
 10
2422.875446972713
 20
7497.367683882892
 30
0.0
 10
2427.002340172266
 20
7497.367683882903
 30
0.0
 10
2429.143111234028
 20
7497.367683882897
 30
0.0
 10
2429.306521998022
 20
7497.367683882898
 30
0.0
  0
ARC
  5
135
330
1F
100
AcDbEntity
  8
0
  6
Continuous
 62
     7
370
    25
100
AcDbCircle
 10
2136.9775121478
 20
7507.3676838829
 30
0.0
 40
302.5000000000002
100
AcDbArc
 50
181.8944205066
 51
358.1055794934
  0
LINE
  5
136
330
1F
100
AcDbEntity
  8
0
  6
Continuous
 62
     7
370
    25
100
AcDbLine
 10
2429.306521998
 20
7497.3676838829
 30
0.0
 11
2439.312177709
 21
7497.3676838829
 31
0.0
  0
LINE
  5
137
330
1F
100
AcDbEntity
  8
0
  6
Continuous
 62
     7
370
    25
100
AcDbLine
 10
1834.6428465866
 20
7497.3676838829
 30
0.0
 11
1844.6485022976
 21
7497.3676838829
 31
0.0
  0
ARC
  5
138
330
1F
100
AcDbEntity
  8
0
  6
Continuous
 62
     7
370
    25
100
AcDbCircle
 10
2136.9775121478
 20
7507.3676838829
 30
0.0
 40
302.5000000000002
100
AcDbArc
 50
1.8944205066
 51
178.1055794934
  0
LINE
  5
139
330
1F
100
AcDbEntity
  8
0
  6
Continuous
 62
     7
370
    25
100
AcDbLine
 10
1844.6485022976
 20
7517.3676838829
 30
0.0
 11
1834.6428465866
 21
7517.3676838829
 31
0.0
  0
LINE
  5
13A
330
1F
100
AcDbEntity
  8
0
  6
Continuous
 62
     7
370
    25
100
AcDbLine
 10
2439.312177709
 20
7517.3676838829
 30
0.0
 11
2429.306521998
 21
7517.3676838829
 31
0.0
  0
LINE
  5
13B
330
1F
100
AcDbEntity
  8
0
  6
Continuous
 62
     7
370
    25
100
AcDbLine
 10
1763.2275121478
 20
7497.3676838829
 30
0.0
 11
1834.6428465866
 21
7497.3676838829
 31
0.0
  0
LINE
  5
13C
330
1F
100
AcDbEntity
  8
0
  6
Continuous
 62
     7
370
    25
100
AcDbLine
 10
1834.6428465866
 20
7517.3676838829
 30
0.0
 11
1763.2275121478
 21
7517.3676838829
 31
0.0
  0
LINE
  5
13D
330
1F
100
AcDbEntity
  8
0
  6
Continuous
 62
     7
370
    25
100
AcDbLine
 10
1857.1593904746
 20
7497.3676838829
 30
0.0
 11
1857.1593904746
 21
7517.3676838829
 31
0.0
  0
LINE
  5
13E
330
1F
100
AcDbEntity
  8
0
  6
Continuous
 62
     7
370
    25
100
AcDbLine
 10
2510.7275121478
 20
7517.3676838829
 30
0.0
 11
2439.312177709
 21
7517.3676838829
 31
0.0
  0
LINE
  5
13F
330
1F
100
AcDbEntity
  8
0
  6
Continuous
 62
     7
370
    25
100
AcDbLine
 10
2416.795633821
 20
7517.3676838829
 30
0.0
 11
2416.795633821
 21
7497.3676838829
 31
0.0
  0
LINE
  5
140
330
1F
100
AcDbEntity
  8
0
  6
Continuous
 62
     7
370
    25
100
AcDbLine
 10
2439.312177709
 20
7497.3676838829
 30
0.0
 11
2510.7275121478
 21
7497.3676838829
 31
0.0
  0
SPLINE
  5
141
330
1F
100
AcDbEntity
  8
0
  6
Continuous
 62
     7
370
    25
100
AcDbSpline
210
0.0
220
0.0
230
1.0
 70
    24
 71
     3
 72
    13
 73
     9
 74
     0
 42
0.00000001
 43
0.00000001
 40
0.0
 40
0.0
 40
0.0
 40
0.0
 40
0.0834118896568913
 40
0.2984354197463077
 40
0.5134962037385997
 40
0.7286756180893574
 40
0.9439993141879104
 40
1.0
 40
1.0
 40
1.0
 40
1.0
 10
1869.56339923409
 20
7517.367683882897
 30
0.0
 10
1869.587902971015
 20
7517.367683882896
 30
0.0
 10
1869.675573722089
 20
7517.367683882896
 30
0.0
 10
1868.939083006445
 20
7517.367683882896
 30
0.0
 10
1867.447936551538
 20
7517.367683882896
 30
0.0
 10
1865.309629669366
 20
7517.367683882898
 30
0.0
 10
1863.436280969878
 20
7517.367683882898
 30
0.0
 10
1862.377848363995
 20
7517.367683882896
 30
0.0
 10
1862.159390474593
 20
7517.367683882896
 30
0.0
  0
SPLINE
  5
142
330
1F
100
AcDbEntity
  8
0
  6
Continuous
 62
     7
370
    25
100
AcDbSpline
210
0.0
220
0.0
230
1.0
 70
    24
 71
     3
 72
    13
 73
     9
 74
     0
 42
0.00000001
 43
0.00000001
 40
0.0
 40
0.0
 40
0.0
 40
0.0
 40
0.0559112814837512
 40
0.2711725196822989
 40
0.4864193463903768
 40
0.7015657449436606
 40
0.9165683674167642
 40
1.0
 40
1.0
 40
1.0
 40
1.0
 10
2411.795633821045
 20
7517.367683882897
 30
0.0
 10
2411.577337505777
 20
7517.367683882896
 30
0.0
 10
2410.518589427079
 20
7517.367683882896
 30
0.0
 10
2408.643926922023
 20
7517.367683882895
 30
0.0
 10
2406.503859885901
 20
7517.367683882898
 30
0.0
 10
2405.012570901104
 20
7517.367683882898
 30
0.0
 10
2404.27750554504
 20
7517.367683882894
 30
0.0
 10
2404.366696339785
 20
7517.367683882897
 30
0.0
 10
2404.391630922498
 20
7517.367683882897
 30
0.0
  0
SPLINE
  5
143
330
1F
100
AcDbEntity
  8
0
  6
Continuous
 62
     7
370
    25
100
AcDbSpline
210
0.0
220
0.0
230
1.0
 70
    24
 71
     3
 72
    12
 73
     8
 74
     0
 42
0.00000001
 43
0.00000001
 40
0.0
 40
0.0
 40
0.0
 40
0.0
 40
0.170315558628617
 40
0.3837488871269875
 40
0.5972540404987773
 40
0.8108942242239666
 40
1.0
 40
1.0
 40
1.0
 40
1.0
 10
2404.359269701758
 20
7497.367683882898
 30
0.0
 10
2404.378984534531
 20
7497.367683882897
 30
0.0
 10
2404.42340528621
 20
7497.367683882899
 30
0.0
 10
2405.491340196431
 20
7497.367683882897
 30
0.0
 10
2407.251579028434
 20
7497.3676838829
 30
0.0
 10
2409.462355208458
 20
7497.367683882896
 30
0.0
 10
2411.050115246316
 20
7497.367683882897
 30
0.0
 10
2411.795633821045
 20
7497.367683882898
 30
0.0
  0
SPLINE
  5
144
330
1F
100
AcDbEntity
  8
0
  6
Continuous
 62
     7
370
    25
100
AcDbSpline
210
0.0
220
0.0
230
1.0
 70
    24
 71
     3
 72
    12
 73
     8
 74
     0
 42
0.00000001
 43
0.00000001
 40
0.0
 40
0.0
 40
0.0
 40
0.0
 40
0.1368630439924575
 40
0.3527821178117784
 40
0.5686519021279175
 40
0.7843979107140907
 40
1.0
 40
1.0
 40
1.0
 40
1.0
 10
1862.159390474607
 20
7497.367683882898
 30
0.0
 10
1862.692778562411
 20
7497.367683882897
 30
0.0
 10
1864.067655035578
 20
7497.367683882898
 30
0.0
 10
1866.167092272575
 20
7497.367683882899
 30
0.0
 10
1868.085537239545
 20
7497.367683882898
 30
0.0
 10
1869.396647699285
 20
7497.367683882898
 30
0.0
 10
1869.57509419774
 20
7497.367683882898
 30
0.0
 10
1869.664287677628
 20
7497.367683882898
 30
0.0
  0
LINE
  5
145
330
1F
100
AcDbEntity
  8
0
  6
Continuous
 62
     7
370
    25
100
AcDbLine
 10
2118.2136283992
 20
7847.3676838829
 30
0.0
 11
2118.2136283992
 21
7809.2851670909
 31
0.0
  0
LINE
  5
146
330
1F
100
AcDbEntity
  8
0
  6
Continuous
 62
     7
370
    25
100
AcDbLine
 10
2155.7413958965
 20
7847.3676838829
 30
0.0
 11
2155.7413958965
 21
7809.2851670909
 31
0.0
  0
LINE
  5
147
330
1F
100
AcDbEntity
  8
0
  6
Continuous
 62
     7
370
    25
100
AcDbLine
 10
2099.4497446505
 20
7847.3676838829
 30
0.0
 11
2099.4497446505
 21
7807.5308339641
 31
0.0
  0
LINE
  5
148
330
1F
100
AcDbEntity
  8
0
  6
Continuous
 62
     7
370
    25
100
AcDbLine
 10
2174.5052796451
 20
7847.3676838829
 30
0.0
 11
2174.5052796451
 21
7807.5308339641
 31
0.0
  0
LINE
  5
149
330
1F
100
AcDbEntity
  8
0
  6
Continuous
 62
     7
370
    25
100
AcDbLine
 10
1801.9775121478
 20
7479.8676838829
 30
0.0
 11
1786.9775121478
 21
7479.8676838829
 31
0.0
  0
LINE
  5
14A
330
1F
100
AcDbEntity
  8
0
  6
Continuous
 62
     7
370
    25
100
AcDbLine
 10
1816.9775121478
 20
7479.8676838829
 30
0.0
 11
1801.9775121478
 21
7479.8676838829
 31
0.0
  0
LINE
  5
14B
330
1F
100
AcDbEntity
  8
0
  6
Continuous
 62
     7
370
    25
100
AcDbLine
 10
2471.9775121478
 20
7479.8676838829
 30
0.0
 11
2456.9775121478
 21
7479.8676838829
 31
0.0
  0
LINE
  5
14C
330
1F
100
AcDbEntity
  8
0
  6
Continuous
 62
     7
370
    25
100
AcDbLine
 10
2486.9775121478
 20
7479.8676838829
 30
0.0
 11
2471.9775121478
 21
7479.8676838829
 31
0.0
  0
LINE
  5
14D
330
1F
100
AcDbEntity
  8
0
  6
Continuous
 62
     7
370
    25
100
AcDbLine
 10
1814.4775121478
 20
7572.3676838829
 30
0.0
 11
1789.4775121478
 21
7572.3676838829
 31
0.0
  0
LINE
  5
14E
330
1F
100
AcDbEntity
  8
0
  6
Continuous
 62
     7
370
    25
100
AcDbLine
 10
2459.4775121478
 20
7572.3676838829
 30
0.0
 11
2484.4775121478
 21
7572.3676838829
 31
0.0
  0
LINE
  5
14F
330
1F
100
AcDbEntity
  8
0
  6
Continuous
 62
     8
370
    25
100
AcDbLine
 10
1748.2275121478
 20
8347.8676838829
 30
0.0
 11
1748.2275121478
 21
8057.4861216243
 31
0.0
  0
LINE
  5
150
330
1F
100
AcDbEntity
  8
0
  6
Continuous
 62
     8
370
    25
100
AcDbLine
 10
1748.2275121478
 20
7912.2492461415
 30
0.0
 11
1748.2275121478
 21
5697.8676838829
 31
0.0
  0
LINE
  5
151
330
1F
100
AcDbEntity
  8
0
  6
Continuous
 62
     8
370
    25
100
AcDbLine
 10
2525.7275121478
 20
8347.8676838829
 30
0.0
 11
2525.7275121478
 21
8057.4861216243
 31
0.0
  0
LINE
  5
152
330
1F
100
AcDbEntity
  8
0
  6
Continuous
 62
     8
370
    25
100
AcDbLine
 10
2525.7275121478
 20
7912.2492461415
 30
0.0
 11
2525.7275121478
 21
5697.8676838829
 31
0.0
  0
LINE
  5
153
330
1F
100
AcDbEntity
  8
0
  6
Continuous
 62
     8
370
    25
100
AcDbLine
 10
2961.9775121478
 20
7932.3676838829
 30
0.0
 11
2810.7275121478
 21
7932.3676838829
 31
0.0
  0
LINE
  5
154
330
1F
100
AcDbEntity
  8
0
  6
Continuous
 62
     8
370
    25
100
AcDbLine
 10
2507.8020740373
 20
7932.3676838829
 30
0.0
 11
1766.1529502584
 21
7932.3676838829
 31
0.0
  0
LINE
  5
155
330
1F
100
AcDbEntity
  8
0
  6
Continuous
 62
     8
370
    25
100
AcDbLine
 10
1463.2275121478
 20
7932.3676838829
 30
0.0
 11
1311.9775121478
 21
7932.3676838829
 31
0.0
  0
LINE
  5
156
330
1F
100
AcDbEntity
  8
0
  6
Continuous
 62
     8
370
    25
100
AcDbLine
 10
2961.9775121478
 20
7862.3676838829
 30
0.0
 11
2810.7275121478
 21
7862.3676838829
 31
0.0
  0
LINE
  5
157
330
1F
100
AcDbEntity
  8
0
  6
Continuous
 62
     8
370
    25
100
AcDbLine
 10
2620.7275121478
 20
7862.3676838829
 30
0.0
 11
2560.7275121478
 21
7862.3676838829
 31
0.0
  0
LINE
  5
158
330
1F
100
AcDbEntity
  8
0
  6
Continuous
 62
     8
370
    25
100
AcDbLine
 10
2510.7275121478
 20
7862.3676838829
 30
0.0
 11
1763.2275121478
 21
7862.3676838829
 31
0.0
  0
LINE
  5
159
330
1F
100
AcDbEntity
  8
0
  6
Continuous
 62
     8
370
    25
100
AcDbLine
 10
1713.2275121478
 20
7862.3676838829
 30
0.0
 11
1653.2275121478
 21
7862.3676838829
 31
0.0
  0
LINE
  5
15A
330
1F
100
AcDbEntity
  8
0
  6
Continuous
 62
     8
370
    25
100
AcDbLine
 10
1463.2275121478
 20
7862.3676838829
 30
0.0
 11
1311.9775121478
 21
7862.3676838829
 31
0.0
  0
LINE
  5
15B
330
1F
100
AcDbEntity
  8
0
  6
Continuous
 62
     8
370
    25
100
AcDbLine
 10
1801.9775121478
 20
7489.8676838829
 30
0.0
 11
1826.9775121478
 21
7489.8676838829
 31
0.0
  0
LINE
  5
15C
330
1F
100
AcDbEntity
  8
0
  6
Continuous
 62
     8
370
    25
100
AcDbLine
 10
1776.9775121478
 20
7489.8676838829
 30
0.0
 11
1801.9775121478
 21
7489.8676838829
 31
0.0
  0
LINE
  5
15D
330
1F
100
AcDbEntity
  8
0
  6
Continuous
 62
     8
370
    25
100
AcDbLine
 10
2471.9775121478
 20
7489.8676838829
 30
0.0
 11
2496.9775121478
 21
7489.8676838829
 31
0.0
  0
LINE
  5
15E
330
1F
100
AcDbEntity
  8
0
  6
Continuous
 62
     8
370
    25
100
AcDbLine
 10
2446.9775121478
 20
7489.8676838829
 30
0.0
 11
2471.9775121478
 21
7489.8676838829
 31
0.0
  0
LINE
  5
15F
330
1F
100
AcDbEntity
  8
0
  6
Continuous
 62
     7
370
    25
100
AcDbLine
 10
4175.4921191255
 20
8477.8676838829
 30
0.0
 11
4315.4921191255
 21
8477.8676838829
 31
0.0
  0
LINE
  5
160
330
1F
100
AcDbEntity
  8
0
  6
Continuous
 62
     7
370
    25
100
AcDbLine
 10
4315.4921191255
 20
8527.8676838829
 30
0.0
 11
4175.4921191255
 21
8527.8676838829
 31
0.0
  0
LINE
  5
161
330
1F
100
AcDbEntity
  8
0
  6
Continuous
 62
     7
370
    25
100
AcDbLine
 10
4315.4921191255
 20
8486.8676838829
 30
0.0
 11
4934.6729451173
 21
8486.8676838829
 31
0.0
  0
LINE
  5
162
330
1F
100
AcDbEntity
  8
0
  6
Continuous
 62
     7
370
    25
100
AcDbLine
 10
5042.1729451173
 20
8486.8676838829
 30
0.0
 11
5225.4921191255
 21
8486.8676838829
 31
0.0
  0
LINE
  5
163
330
1F
100
AcDbEntity
  8
0
  6
Continuous
 62
     7
370
    25
100
AcDbLine
 10
5225.4921191255
 20
8518.8676838829
 30
0.0
 11
5042.1729451173
 21
8518.8676838829
 31
0.0
  0
LINE
  5
164
330
1F
100
AcDbEntity
  8
0
  6
Continuous
 62
     7
370
    25
100
AcDbLine
 10
4934.6729451173
 20
8518.8676838829
 30
0.0
 11
4315.4921191255
 21
8518.8676838829
 31
0.0
  0
LINE
  5
165
330
1F
100
AcDbEntity
  8
0
  6
Continuous
 62
     7
370
    25
100
AcDbLine
 10
4967.1729451173
 20
8535.3676838829
 30
0.0
 11
4964.6729451173
 21
8540.3954513802
 31
0.0
  0
LINE
  5
166
330
1F
100
AcDbEntity
  8
0
  6
Continuous
 62
     7
370
    25
100
AcDbLine
 10
4937.1729451173
 20
8540.3954513802
 30
0.0
 11
4934.6729451173
 21
8535.3676838829
 31
0.0
  0
LINE
  5
167
330
1F
100
AcDbEntity
  8
0
  6
Continuous
 62
     7
370
    25
100
AcDbLine
 10
4964.6729451173
 20
8465.3399163856
 30
0.0
 11
4967.1729451173
 21
8470.3676838829
 31
0.0
  0
LINE
  5
168
330
1F
100
AcDbEntity
  8
0
  6
Continuous
 62
     7
370
    25
100
AcDbLine
 10
4934.6729451173
 20
8470.3676838829
 30
0.0
 11
4937.1729451173
 21
8465.3399163856
 31
0.0
  0
LINE
  5
169
330
1F
100
AcDbEntity
  8
0
  6
Continuous
 62
     7
370
    25
100
AcDbLine
 10
5042.1729451173
 20
8535.3676838829
 30
0.0
 11
5039.6729451173
 21
8540.3954513802
 31
0.0
  0
LINE
  5
16A
330
1F
100
AcDbEntity
  8
0
  6
Continuous
 62
     7
370
    25
100
AcDbLine
 10
5012.1729451173
 20
8540.3954513802
 30
0.0
 11
5009.6729451173
 21
8535.3676838829
 31
0.0
  0
LINE
  5
16B
330
1F
100
AcDbEntity
  8
0
  6
Continuous
 62
     7
370
    25
100
AcDbLine
 10
5039.6729451173
 20
8465.3399163856
 30
0.0
 11
5042.1729451173
 21
8470.3676838829
 31
0.0
  0
LINE
  5
16C
330
1F
100
AcDbEntity
  8
0
  6
Continuous
 62
     7
370
    25
100
AcDbLine
 10
5009.6729451173
 20
8470.3676838829
 30
0.0
 11
5012.1729451173
 21
8465.3399163856
 31
0.0
  0
ARC
  5
16D
330
1F
100
AcDbEntity
  8
0
  6
Continuous
 62
     7
370
    25
100
AcDbCircle
 10
5169.2653824392
 20
8030.8405462478
 30
0.0
 40
14.99999999999974
100
AcDbArc
 50
155.3161307444
 51
166.6131781032
  0
ARC
  5
16E
330
1F
100
AcDbEntity
  8
0
  6
Continuous
 62
     7
370
    25
100
AcDbCircle
 10
5187.5805077953
 20
8030.8405462478
 30
0.0
 40
14.99999999999974
100
AcDbArc
 50
13.3868218968
 51
24.8417176593
  0
ARC
  5
16F
330
1F
100
AcDbEntity
  8
0
  6
Continuous
 62
     7
370
    25
100
AcDbCircle
 10
5169.2653824392
 20
7938.894821518
 30
0.0
 40
14.99999999999953
100
AcDbArc
 50
193.3868218968
 51
204.8417176593
  0
ARC
  5
170
330
1F
100
AcDbEntity
  8
0
  6
Continuous
 62
     7
370
    25
100
AcDbCircle
 10
5187.5805077953
 20
7938.894821518
 30
0.0
 40
14.99999999999953
100
AcDbArc
 50
335.3161307444
 51
346.6131781032
  0
LINE
  5
171
330
1F
100
AcDbEntity
  8
0
  6
Continuous
 62
     7
370
    25
100
AcDbLine
 10
5142.1729451173
 20
7897.3676838829
 30
0.0
 11
5154.6729451173
 21
7897.3676838829
 31
0.0
  0
LINE
  5
172
330
1F
100
AcDbEntity
  8
0
  6
Continuous
 62
     7
370
    25
100
AcDbLine
 10
5154.6729451173
 20
8072.3676838829
 30
0.0
 11
5142.1729451173
 21
8072.3676838829
 31
0.0
  0
LINE
  5
173
330
1F
100
AcDbEntity
  8
0
  6
Continuous
 62
     7
370
    25
100
AcDbLine
 10
5202.1729451173
 20
7951.1176838829
 30
0.0
 11
5224.6729451173
 21
7951.1176838829
 31
0.0
  0
LINE
  5
174
330
1F
100
AcDbEntity
  8
0
  6
Continuous
 62
     7
370
    25
100
AcDbLine
 10
5367.1729451173
 20
7951.1176838829
 30
0.0
 11
5917.1729451173
 21
7951.1176838829
 31
0.0
  0
LINE
  5
175
330
1F
100
AcDbEntity
  8
0
  6
Continuous
 62
     7
370
    25
100
AcDbLine
 10
5917.1729451173
 20
8018.6176838829
 30
0.0
 11
5367.1729451173
 21
8018.6176838829
 31
0.0
  0
LINE
  5
176
330
1F
100
AcDbEntity
  8
0
  6
Continuous
 62
     7
370
    25
100
AcDbLine
 10
5224.6729451173
 20
8018.6176838829
 30
0.0
 11
5202.1729451173
 21
8018.6176838829
 31
0.0
  0
LINE
  5
177
330
1F
100
AcDbEntity
  8
0
  6
Continuous
 62
     7
370
    25
100
AcDbLine
 10
4992.1729451173
 20
8022.3676838829
 30
0.0
 11
4842.1729451173
 21
8022.3676838829
 31
0.0
  0
LINE
  5
178
330
1F
100
AcDbEntity
  8
0
  6
Continuous
 62
     7
370
    25
100
AcDbLine
 10
4869.6729451173
 20
7939.8676838829
 30
0.0
 11
4869.6729451173
 21
7854.8676838829
 31
0.0
  0
LINE
  5
179
330
1F
100
AcDbEntity
  8
0
  6
Continuous
 62
     7
370
    25
100
AcDbLine
 10
4914.6729451173
 20
7854.8676838829
 30
0.0
 11
4914.6729451173
 21
7939.8676838829
 31
0.0
  0
LINE
  5
17A
330
1F
100
AcDbEntity
  8
0
  6
Continuous
 62
     7
370
    25
100
AcDbLine
 10
5279.6729451173
 20
7889.8676838829
 30
0.0
 11
5304.6729451173
 21
7889.8676838829
 31
0.0
  0
LINE
  5
17B
330
1F
100
AcDbEntity
  8
0
  6
Continuous
 62
     7
370
    25
100
AcDbLine
 10
5304.6729451173
 20
8079.8676838829
 30
0.0
 11
5279.6729451173
 21
8079.8676838829
 31
0.0
  0
LINE
  5
17C
330
1F
100
AcDbEntity
  8
0
  6
Continuous
 62
     7
370
    25
100
AcDbLine
 10
5279.6729451173
 20
8072.3676838829
 30
0.0
 11
5267.1729451173
 21
8072.3676838829
 31
0.0
  0
LINE
  5
17D
330
1F
100
AcDbEntity
  8
0
  6
Continuous
 62
     7
370
    25
100
AcDbLine
 10
5267.1729451173
 20
7897.3676838829
 30
0.0
 11
5279.6729451173
 21
7897.3676838829
 31
0.0
  0
LINE
  5
17E
330
1F
100
AcDbEntity
  8
0
  6
Continuous
 62
     7
370
    25
100
AcDbLine
 10
5267.1729451173
 20
8024.8676838829
 30
0.0
 11
5224.6729451173
 21
8024.8676838829
 31
0.0
  0
LINE
  5
17F
330
1F
100
AcDbEntity
  8
0
  6
Continuous
 62
     7
370
    25
100
AcDbLine
 10
5224.6729451173
 20
7944.8676838829
 30
0.0
 11
5267.1729451173
 21
7944.8676838829
 31
0.0
  0
LINE
  5
180
330
1F
100
AcDbEntity
  8
0
  6
Continuous
 62
     7
370
    25
100
AcDbLine
 10
4967.1729451173
 20
8442.8676838829
 30
0.0
 11
4977.1729451173
 21
8442.8676838829
 31
0.0
  0
LINE
  5
181
330
1F
100
AcDbEntity
  8
0
  6
Continuous
 62
     7
370
    25
100
AcDbLine
 10
4977.1729451173
 20
8562.8676838829
 30
0.0
 11
4967.1729451173
 21
8562.8676838829
 31
0.0
  0
LINE
  5
182
330
1F
100
AcDbEntity
  8
0
  6
Continuous
 62
     7
370
    25
100
AcDbLine
 10
5009.6729451173
 20
8562.8676838829
 30
0.0
 11
4999.6729451173
 21
8562.8676838829
 31
0.0
  0
LINE
  5
183
330
1F
100
AcDbEntity
  8
0
  6
Continuous
 62
     7
370
    25
100
AcDbLine
 10
4999.6729451173
 20
8442.8676838829
 30
0.0
 11
5009.6729451173
 21
8442.8676838829
 31
0.0
  0
ARC
  5
184
330
1F
100
AcDbEntity
  8
0
  6
Continuous
 62
     7
370
    25
100
AcDbCircle
 10
4907.1729451173
 20
7489.8676838829
 30
0.0
 40
10.0
100
AcDbArc
 50
270.0
 51
0.0
  0
ARC
  5
185
330
1F
100
AcDbEntity
  8
0
  6
Continuous
 62
     7
370
    25
100
AcDbCircle
 10
4877.1729451173
 20
7489.8676838829
 30
0.0
 40
10.0
100
AcDbArc
 50
180.0
 51
270.0
  0
LINE
  5
186
330
1F
100
AcDbEntity
  8
0
  6
Continuous
 62
     7
370
    25
100
AcDbLine
 10
4867.1729451173
 20
7497.3676838829
 30
0.0
 11
4867.1729451173
 21
7489.8676838829
 31
0.0
  0
LINE
  5
187
330
1F
100
AcDbEntity
  8
0
  6
Continuous
 62
     7
370
    25
100
AcDbLine
 10
4917.1729451173
 20
7489.8676838829
 30
0.0
 11
4917.1729451173
 21
7497.3676838829
 31
0.0
  0
LINE
  5
188
330
1F
100
AcDbEntity
  8
0
  6
Continuous
 62
     7
370
    25
100
AcDbLine
 10
4904.6729451173
 20
7517.3676838829
 30
0.0
 11
4904.6729451173
 21
7572.3676838829
 31
0.0
  0
LINE
  5
189
330
1F
100
AcDbEntity
  8
0
  6
Continuous
 62
     7
370
    25
100
AcDbLine
 10
4879.6729451173
 20
7572.3676838829
 30
0.0
 11
4879.6729451173
 21
7517.3676838829
 31
0.0
  0
LINE
  5
18A
330
1F
100
AcDbEntity
  8
0
  6
Continuous
 62
     7
370
    25
100
AcDbLine
 10
4836.4229451173
 20
7204.8676838829
 30
0.0
 11
4871.4229451173
 21
7212.3676838829
 31
0.0
  0
LINE
  5
18B
330
1F
100
AcDbEntity
  8
0
  6
Continuous
 62
     7
370
    25
100
AcDbLine
 10
4859.6729451173
 20
7804.8855410258
 30
0.0
 11
4836.4229451173
 21
7809.8676838829
 31
0.0
  0
LINE
  5
18C
330
1F
100
AcDbEntity
  8
0
  6
Continuous
 62
     7
370
    25
100
AcDbLine
 10
4912.9229451173
 20
7212.3676838829
 30
0.0
 11
4947.9229451173
 21
7204.8676838829
 31
0.0
  0
LINE
  5
18D
330
1F
100
AcDbEntity
  8
0
  6
Continuous
 62
     7
370
    25
100
AcDbLine
 10
4947.9229451173
 20
7809.8676838829
 30
0.0
 11
4924.6729451173
 21
7804.8855410258
 31
0.0
  0
LINE
  5
18E
330
1F
100
AcDbEntity
  8
0
  6
Continuous
 62
     7
370
    25
100
AcDbLine
 10
4871.4229451173
 20
7217.3676838829
 30
0.0
 11
4912.9229451173
 21
7217.3676838829
 31
0.0
  0
LINE
  5
18F
330
1F
100
AcDbEntity
  8
0
  6
Continuous
 62
     7
370
    25
100
AcDbLine
 10
4315.4921191255
 20
8477.8676838829
 30
0.0
 11
4315.4921191255
 21
8527.8676838829
 31
0.0
  0
LINE
  5
190
330
1F
100
AcDbEntity
  8
0
  6
Continuous
 62
     7
370
    25
100
AcDbLine
 10
4175.4921191255
 20
8477.8676838829
 30
0.0
 11
4175.4921191255
 21
8527.8676838829
 31
0.0
  0
LINE
  5
191
330
1F
100
AcDbEntity
  8
0
  6
Continuous
 62
     7
370
    25
100
AcDbLine
 10
5225.4921191255
 20
8486.8676838829
 30
0.0
 11
5225.4921191255
 21
8518.8676838829
 31
0.0
  0
LINE
  5
192
330
1F
100
AcDbEntity
  8
0
  6
Continuous
 62
     7
370
    25
100
AcDbLine
 10
4987.1729451173
 20
8429.3676838829
 30
0.0
 11
4999.6729451173
 21
8429.3676838829
 31
0.0
  0
LINE
  5
193
330
1F
100
AcDbEntity
  8
0
  6
Continuous
 62
     7
370
    25
100
AcDbLine
 10
4987.1729451173
 20
8589.3676838829
 30
0.0
 11
4999.6729451173
 21
8589.3676838829
 31
0.0
  0
LINE
  5
194
330
1F
100
AcDbEntity
  8
0
  6
Continuous
 62
     7
370
    25
100
AcDbLine
 10
4999.6729451173
 20
8429.3676838829
 30
0.0
 11
4999.6729451173
 21
8589.3676838829
 31
0.0
  0
SPLINE
  5
195
330
1F
100
AcDbEntity
  8
0
  6
Continuous
 62
     7
370
    25
100
AcDbSpline
210
0.0
220
0.0
230
1.0
 70
     8
 71
     3
 72
     9
 73
     5
 74
     0
 42
0.00000001
 43
0.00000001
 40
0.0
 40
0.0
 40
0.0
 40
0.0
 40
0.3722772596762049
 40
1.0
 40
1.0
 40
1.0
 40
1.0
 10
4934.672945117271
 20
8474.721858259909
 30
0.0
 10
4934.743392794365
 20
8475.900095831332
 30
0.0
 10
4934.932627229893
 20
8479.0650422276
 30
0.0
 10
4936.308978270446
 20
8482.160629566775
 30
0.0
 10
4937.17294511727
 20
8484.103800134235
 30
0.0
  0
LINE
  5
196
330
1F
100
AcDbEntity
  8
0
  6
Continuous
 62
     7
370
    25
100
AcDbLine
 10
4934.6729451173
 20
8502.8676838829
 30
0.0
 11
4934.6729451173
 21
8474.7218582599
 31
0.0
  0
SPLINE
  5
197
330
1F
100
AcDbEntity
  8
0
  6
Continuous
 62
     7
370
    25
100
AcDbSpline
210
0.0
220
0.0
230
1.0
 70
     8
 71
     3
 72
     9
 73
     5
 74
     0
 42
0.00000001
 43
0.00000001
 40
0.0
 40
0.0
 40
0.0
 40
0.0
 40
0.2556528332520024
 40
1.0
 40
1.0
 40
1.0
 40
1.0
 10
4937.17294511727
 20
8484.103800134235
 30
0.0
 10
4936.796484484496
 20
8485.676238073047
 30
0.0
 10
4935.323938188075
 20
8491.826914827958
 30
0.0
 10
4934.950736635532
 20
8498.15637106546
 30
0.0
 10
4934.672945117271
 20
8502.8676838829
 30
0.0
  0
SPLINE
  5
198
330
1F
100
AcDbEntity
  8
0
  6
Continuous
 62
     7
370
    25
100
AcDbSpline
210
0.0
220
0.0
230
1.0
 70
     8
 71
     3
 72
     9
 73
     5
 74
     0
 42
0.00000001
 43
0.00000001
 40
0.0
 40
0.0
 40
0.0
 40
0.0
 40
0.372277259676211
 40
1.0
 40
1.0
 40
1.0
 40
1.0
 10
4934.67294511727
 20
8531.013509505894
 30
0.0
 10
4934.743392794365
 20
8532.19174707732
 30
0.0
 10
4934.932627229895
 20
8535.356693473594
 30
0.0
 10
4936.308978270447
 20
8538.452280812766
 30
0.0
 10
4937.172945117271
 20
8540.395451380224
 30
0.0
  0
LINE
  5
199
330
1F
100
AcDbEntity
  8
0
  6
Continuous
 62
     7
370
    25
100
AcDbLine
 10
4964.6729451173
 20
8540.3954513802
 30
0.0
 11
4937.1729451173
 21
8540.3954513802
 31
0.0
  0
LINE
  5
19A
330
1F
100
AcDbEntity
  8
0
  6
Continuous
 62
     7
370
    25
100
AcDbLine
 10
4964.6729451173
 20
8540.3954513802
 30
0.0
 11
4967.1729451173
 21
8531.0135095059
 31
0.0
  0
SPLINE
  5
19B
330
1F
100
AcDbEntity
  8
0
  6
Continuous
 62
     7
370
    25
100
AcDbSpline
210
0.0
220
0.0
230
1.0
 70
     8
 71
     3
 72
     9
 73
     5
 74
     0
 42
0.00000001
 43
0.00000001
 40
0.0
 40
0.0
 40
0.0
 40
0.0
 40
0.3722772596761831
 40
1.0
 40
1.0
 40
1.0
 40
1.0
 10
4967.172945117271
 20
8531.013509505894
 30
0.0
 10
4967.102497440177
 20
8529.835271934466
 30
0.0
 10
4966.913263004649
 20
8526.670325538193
 30
0.0
 10
4965.536911964095
 20
8523.57473819902
 30
0.0
 10
4964.672945117271
 20
8521.631567631563
 30
0.0
  0
LINE
  5
19C
330
1F
100
AcDbEntity
  8
0
  6
Continuous
 62
     7
370
    25
100
AcDbLine
 10
4964.6729451173
 20
8521.6315676316
 30
0.0
 11
4937.1729451173
 21
8521.6315676316
 31
0.0
  0
LINE
  5
19D
330
1F
100
AcDbEntity
  8
0
  6
Continuous
 62
     7
370
    25
100
AcDbLine
 10
4937.1729451173
 20
8521.6315676316
 30
0.0
 11
4934.6729451173
 21
8531.0135095059
 31
0.0
  0
LINE
  5
19E
330
1F
100
AcDbEntity
  8
0
  6
Continuous
 62
     7
370
    25
100
AcDbLine
 10
4934.6729451173
 20
8531.0135095059
 30
0.0
 11
4934.6729451173
 21
8502.8676838829
 31
0.0
  0
SPLINE
  5
19F
330
1F
100
AcDbEntity
  8
0
  6
Continuous
 62
     7
370
    25
100
AcDbSpline
210
0.0
220
0.0
230
1.0
 70
     8
 71
     3
 72
     9
 73
     5
 74
     0
 42
0.00000001
 43
0.00000001
 40
0.0
 40
0.0
 40
0.0
 40
0.0
 40
0.5156102819445848
 40
0.9999999999999999
 40
0.9999999999999999
 40
0.9999999999999999
 40
0.9999999999999999
 10
4934.672945117271
 20
8502.8676838829
 30
0.0
 10
4934.807886553119
 20
8506.132480002254
 30
0.0
 10
4935.069598626314
 20
8512.464386548107
 30
0.0
 10
4936.486575896752
 20
8518.640110464776
 30
0.0
 10
4937.172945117271
 20
8521.631567631559
 30
0.0
  0
SPLINE
  5
1A0
330
1F
100
AcDbEntity
  8
0
  6
Continuous
 62
     7
370
    25
100
AcDbSpline
210
0.0
220
0.0
230
1.0
 70
     8
 71
     3
 72
     9
 73
     5
 74
     0
 42
0.00000001
 43
0.00000001
 40
0.0
 40
0.0
 40
0.0
 40
0.0
 40
0.484389718055651
 40
0.9999999999999999
 40
0.9999999999999999
 40
0.9999999999999999
 40
0.9999999999999999
 10
4964.672945117271
 20
8521.631567631563
 30
0.0
 10
4965.35931433779
 20
8518.640110464778
 30
0.0
 10
4966.776291608228
 20
8512.464386548108
 30
0.0
 10
4967.038003681423
 20
8506.132480002252
 30
0.0
 10
4967.172945117271
 20
8502.8676838829
 30
0.0
  0
SPLINE
  5
1A1
330
1F
100
AcDbEntity
  8
0
  6
Continuous
 62
     7
370
    25
100
AcDbSpline
210
0.0
220
0.0
230
1.0
 70
     8
 71
     3
 72
     9
 73
     5
 74
     0
 42
0.00000001
 43
0.00000001
 40
0.0
 40
0.0
 40
0.0
 40
0.0
 40
0.7443471667480476
 40
1.0
 40
1.0
 40
1.0
 40
1.0
 10
4967.172945117271
 20
8502.8676838829
 30
0.0
 10
4966.895153599012
 20
8498.15637106546
 30
0.0
 10
4966.521952046472
 20
8491.826914827958
 30
0.0
 10
4965.049405750045
 20
8485.676238073047
 30
0.0
 10
4964.67294511727
 20
8484.103800134239
 30
0.0
  0
LINE
  5
1A2
330
1F
100
AcDbEntity
  8
0
  6
Continuous
 62
     7
370
    25
100
AcDbLine
 10
4964.6729451173
 20
8484.1038001342
 30
0.0
 11
4937.1729451173
 21
8484.1038001342
 31
0.0
  0
LINE
  5
1A3
330
1F
100
AcDbEntity
  8
0
  6
Continuous
 62
     7
370
    25
100
AcDbLine
 10
4964.6729451173
 20
8484.1038001342
 30
0.0
 11
4967.1729451173
 21
8474.7218582599
 31
0.0
  0
SPLINE
  5
1A4
330
1F
100
AcDbEntity
  8
0
  6
Continuous
 62
     7
370
    25
100
AcDbSpline
210
0.0
220
0.0
230
1.0
 70
     8
 71
     3
 72
     9
 73
     5
 74
     0
 42
0.00000001
 43
0.00000001
 40
0.0
 40
0.0
 40
0.0
 40
0.0
 40
0.3722772596761444
 40
1.0
 40
1.0
 40
1.0
 40
1.0
 10
4967.172945117271
 20
8474.721858259905
 30
0.0
 10
4967.102497440176
 20
8473.543620688477
 30
0.0
 10
4966.913263004648
 20
8470.378674292206
 30
0.0
 10
4965.536911964095
 20
8467.283086953032
 30
0.0
 10
4964.672945117271
 20
8465.339916385574
 30
0.0
  0
LINE
  5
1A5
330
1F
100
AcDbEntity
  8
0
  6
Continuous
 62
     7
370
    25
100
AcDbLine
 10
4964.6729451173
 20
8465.3399163856
 30
0.0
 11
4937.1729451173
 21
8465.3399163856
 31
0.0
  0
LINE
  5
1A6
330
1F
100
AcDbEntity
  8
0
  6
Continuous
 62
     7
370
    25
100
AcDbLine
 10
4937.1729451173
 20
8465.3399163856
 30
0.0
 11
4934.6729451173
 21
8474.7218582599
 31
0.0
  0
LINE
  5
1A7
330
1F
100
AcDbEntity
  8
0
  6
Continuous
 62
     7
370
    25
100
AcDbLine
 10
4934.6729451173
 20
8535.3676838829
 30
0.0
 11
4934.6729451173
 21
8531.0135095059
 31
0.0
  0
LINE
  5
1A8
330
1F
100
AcDbEntity
  8
0
  6
Continuous
 62
     7
370
    25
100
AcDbLine
 10
4934.6729451173
 20
8474.7218582599
 30
0.0
 11
4934.6729451173
 21
8470.3676838829
 31
0.0
  0
LINE
  5
1A9
330
1F
100
AcDbEntity
  8
0
  6
Continuous
 62
     7
370
    25
100
AcDbLine
 10
5012.1729451173
 20
8521.6315676316
 30
0.0
 11
5009.6729451173
 21
8531.0135095059
 31
0.0
  0
SPLINE
  5
1AA
330
1F
100
AcDbEntity
  8
0
  6
Continuous
 62
     7
370
    25
100
AcDbSpline
210
0.0
220
0.0
230
1.0
 70
     8
 71
     3
 72
     9
 73
     5
 74
     0
 42
0.00000001
 43
0.00000001
 40
0.0
 40
0.0
 40
0.0
 40
0.0
 40
0.5156102819445848
 40
0.9999999999999999
 40
0.9999999999999999
 40
0.9999999999999999
 40
0.9999999999999999
 10
5009.672945117273
 20
8502.8676838829
 30
0.0
 10
5009.807886553121
 20
8506.132480002254
 30
0.0
 10
5010.069598626315
 20
8512.464386548107
 30
0.0
 10
5011.486575896754
 20
8518.640110464776
 30
0.0
 10
5012.172945117274
 20
8521.631567631559
 30
0.0
  0
SPLINE
  5
1AB
330
1F
100
AcDbEntity
  8
0
  6
Continuous
 62
     7
370
    25
100
AcDbSpline
210
0.0
220
0.0
230
1.0
 70
     8
 71
     3
 72
     9
 73
     5
 74
     0
 42
0.00000001
 43
0.00000001
 40
0.0
 40
0.0
 40
0.0
 40
0.0
 40
0.3722772596762049
 40
1.0
 40
1.0
 40
1.0
 40
1.0
 10
5009.672945117273
 20
8474.721858259909
 30
0.0
 10
5009.743392794368
 20
8475.900095831332
 30
0.0
 10
5009.932627229896
 20
8479.0650422276
 30
0.0
 10
5011.308978270448
 20
8482.160629566775
 30
0.0
 10
5012.172945117272
 20
8484.103800134235
 30
0.0
  0
SPLINE
  5
1AC
330
1F
100
AcDbEntity
  8
0
  6
Continuous
 62
     7
370
    25
100
AcDbSpline
210
0.0
220
0.0
230
1.0
 70
     8
 71
     3
 72
     9
 73
     5
 74
     0
 42
0.00000001
 43
0.00000001
 40
0.0
 40
0.0
 40
0.0
 40
0.0
 40
0.2556528332520024
 40
1.0
 40
1.0
 40
1.0
 40
1.0
 10
5012.172945117272
 20
8484.103800134235
 30
0.0
 10
5011.796484484497
 20
8485.676238073047
 30
0.0
 10
5010.323938188078
 20
8491.826914827958
 30
0.0
 10
5009.950736635535
 20
8498.15637106546
 30
0.0
 10
5009.672945117273
 20
8502.8676838829
 30
0.0
  0
LINE
  5
1AD
330
1F
100
AcDbEntity
  8
0
  6
Continuous
 62
     7
370
    25
100
AcDbLine
 10
5039.6729451173
 20
8521.6315676316
 30
0.0
 11
5012.1729451173
 21
8521.6315676316
 31
0.0
  0
SPLINE
  5
1AE
330
1F
100
AcDbEntity
  8
0
  6
Continuous
 62
     7
370
    25
100
AcDbSpline
210
0.0
220
0.0
230
1.0
 70
     8
 71
     3
 72
     9
 73
     5
 74
     0
 42
0.00000001
 43
0.00000001
 40
0.0
 40
0.0
 40
0.0
 40
0.0
 40
0.484389718055651
 40
0.9999999999999999
 40
0.9999999999999999
 40
0.9999999999999999
 40
0.9999999999999999
 10
5039.672945117274
 20
8521.631567631563
 30
0.0
 10
5040.359314337793
 20
8518.640110464778
 30
0.0
 10
5041.776291608231
 20
8512.464386548108
 30
0.0
 10
5042.038003681426
 20
8506.132480002252
 30
0.0
 10
5042.172945117273
 20
8502.8676838829
 30
0.0
  0
SPLINE
  5
1AF
330
1F
100
AcDbEntity
  8
0
  6
Continuous
 62
     7
370
    25
100
AcDbSpline
210
0.0
220
0.0
230
1.0
 70
     8
 71
     3
 72
     9
 73
     5
 74
     0
 42
0.00000001
 43
0.00000001
 40
0.0
 40
0.0
 40
0.0
 40
0.0
 40
0.7443471667480476
 40
1.0
 40
1.0
 40
1.0
 40
1.0
 10
5042.172945117273
 20
8502.8676838829
 30
0.0
 10
5041.895153599014
 20
8498.15637106546
 30
0.0
 10
5041.521952046474
 20
8491.826914827958
 30
0.0
 10
5040.049405750048
 20
8485.676238073047
 30
0.0
 10
5039.672945117272
 20
8484.103800134239
 30
0.0
  0
LINE
  5
1B0
330
1F
100
AcDbEntity
  8
0
  6
Continuous
 62
     7
370
    25
100
AcDbLine
 10
5039.6729451173
 20
8484.1038001342
 30
0.0
 11
5012.1729451173
 21
8484.1038001342
 31
0.0
  0
SPLINE
  5
1B1
330
1F
100
AcDbEntity
  8
0
  6
Continuous
 62
     7
370
    25
100
AcDbSpline
210
0.0
220
0.0
230
1.0
 70
     8
 71
     3
 72
     9
 73
     5
 74
     0
 42
0.00000001
 43
0.00000001
 40
0.0
 40
0.0
 40
0.0
 40
0.0
 40
0.372277259676211
 40
1.0
 40
1.0
 40
1.0
 40
1.0
 10
5009.672945117272
 20
8531.013509505894
 30
0.0
 10
5009.743392794368
 20
8532.19174707732
 30
0.0
 10
5009.932627229897
 20
8535.356693473594
 30
0.0
 10
5011.30897827045
 20
8538.452280812766
 30
0.0
 10
5012.172945117274
 20
8540.395451380224
 30
0.0
  0
LINE
  5
1B2
330
1F
100
AcDbEntity
  8
0
  6
Continuous
 62
     7
370
    25
100
AcDbLine
 10
5039.6729451173
 20
8540.3954513802
 30
0.0
 11
5012.1729451173
 21
8540.3954513802
 31
0.0
  0
LINE
  5
1B3
330
1F
100
AcDbEntity
  8
0
  6
Continuous
 62
     7
370
    25
100
AcDbLine
 10
5039.6729451173
 20
8540.3954513802
 30
0.0
 11
5042.1729451173
 21
8531.0135095059
 31
0.0
  0
SPLINE
  5
1B4
330
1F
100
AcDbEntity
  8
0
  6
Continuous
 62
     7
370
    25
100
AcDbSpline
210
0.0
220
0.0
230
1.0
 70
     8
 71
     3
 72
     9
 73
     5
 74
     0
 42
0.00000001
 43
0.00000001
 40
0.0
 40
0.0
 40
0.0
 40
0.0
 40
0.3722772596761831
 40
1.0
 40
1.0
 40
1.0
 40
1.0
 10
5042.172945117273
 20
8531.013509505894
 30
0.0
 10
5042.102497440179
 20
8529.835271934466
 30
0.0
 10
5041.913263004652
 20
8526.670325538193
 30
0.0
 10
5040.536911964097
 20
8523.57473819902
 30
0.0
 10
5039.672945117274
 20
8521.631567631563
 30
0.0
  0
LINE
  5
1B5
330
1F
100
AcDbEntity
  8
0
  6
Continuous
 62
     7
370
    25
100
AcDbLine
 10
5042.1729451173
 20
8502.8676838829
 30
0.0
 11
5042.1729451173
 21
8474.7218582599
 31
0.0
  0
LINE
  5
1B6
330
1F
100
AcDbEntity
  8
0
  6
Continuous
 62
     7
370
    25
100
AcDbLine
 10
5039.6729451173
 20
8484.1038001342
 30
0.0
 11
5042.1729451173
 21
8474.7218582599
 31
0.0
  0
LINE
  5
1B7
330
1F
100
AcDbEntity
  8
0
  6
Continuous
 62
     7
370
    25
100
AcDbLine
 10
5042.1729451173
 20
8531.0135095059
 30
0.0
 11
5042.1729451173
 21
8502.8676838829
 31
0.0
  0
SPLINE
  5
1B8
330
1F
100
AcDbEntity
  8
0
  6
Continuous
 62
     7
370
    25
100
AcDbSpline
210
0.0
220
0.0
230
1.0
 70
     8
 71
     3
 72
     9
 73
     5
 74
     0
 42
0.00000001
 43
0.00000001
 40
0.0
 40
0.0
 40
0.0
 40
0.0
 40
0.3722772596761444
 40
1.0
 40
1.0
 40
1.0
 40
1.0
 10
5042.172945117272
 20
8474.721858259905
 30
0.0
 10
5042.102497440179
 20
8473.543620688477
 30
0.0
 10
5041.913263004651
 20
8470.378674292206
 30
0.0
 10
5040.536911964097
 20
8467.283086953032
 30
0.0
 10
5039.672945117273
 20
8465.339916385574
 30
0.0
  0
LINE
  5
1B9
330
1F
100
AcDbEntity
  8
0
  6
Continuous
 62
     7
370
    25
100
AcDbLine
 10
5039.6729451173
 20
8465.3399163856
 30
0.0
 11
5012.1729451173
 21
8465.3399163856
 31
0.0
  0
LINE
  5
1BA
330
1F
100
AcDbEntity
  8
0
  6
Continuous
 62
     7
370
    25
100
AcDbLine
 10
5012.1729451173
 20
8465.3399163856
 30
0.0
 11
5009.6729451173
 21
8474.7218582599
 31
0.0
  0
LINE
  5
1BB
330
1F
100
AcDbEntity
  8
0
  6
Continuous
 62
     7
370
    25
100
AcDbLine
 10
5042.1729451173
 20
8535.3676838829
 30
0.0
 11
5042.1729451173
 21
8531.0135095059
 31
0.0
  0
LINE
  5
1BC
330
1F
100
AcDbEntity
  8
0
  6
Continuous
 62
     7
370
    25
100
AcDbLine
 10
5042.1729451173
 20
8474.7218582599
 30
0.0
 11
5042.1729451173
 21
8470.3676838829
 31
0.0
  0
LINE
  5
1BD
330
1F
100
AcDbEntity
  8
0
  6
Continuous
 62
     7
370
    25
100
AcDbLine
 10
5202.1729451173
 20
7998.1937710694
 30
0.0
 11
5202.1729451173
 21
8021.5486765668
 31
0.0
  0
LINE
  5
1BE
330
1F
100
AcDbEntity
  8
0
  6
Continuous
 62
     7
370
    25
100
AcDbLine
 10
5202.1729451173
 20
7998.1937710694
 30
0.0
 11
5199.6729451173
 21
7986.5540413789
 31
0.0
  0
LINE
  5
1BF
330
1F
100
AcDbEntity
  8
0
  6
Continuous
 62
     7
370
    25
100
AcDbLine
 10
5157.1729451173
 20
7986.5540413789
 30
0.0
 11
5199.6729451173
 21
7986.5540413789
 31
0.0
  0
LINE
  5
1C0
330
1F
100
AcDbEntity
  8
0
  6
Continuous
 62
     7
370
    25
100
AcDbLine
 10
5157.1729451173
 20
7986.5540413789
 30
0.0
 11
5154.6729451173
 21
7998.1937710694
 31
0.0
  0
LINE
  5
1C1
330
1F
100
AcDbEntity
  8
0
  6
Continuous
 62
     7
370
    25
100
AcDbLine
 10
5154.6729451173
 20
8021.5486765668
 30
0.0
 11
5157.1729451173
 21
8033.1884062573
 31
0.0
  0
LINE
  5
1C2
330
1F
100
AcDbEntity
  8
0
  6
Continuous
 62
     7
370
    25
100
AcDbLine
 10
5157.1729451173
 20
8033.1884062573
 30
0.0
 11
5199.6729451173
 21
8033.1884062573
 31
0.0
  0
LINE
  5
1C3
330
1F
100
AcDbEntity
  8
0
  6
Continuous
 62
     7
370
    25
100
AcDbLine
 10
5199.6729451173
 20
8033.1884062573
 30
0.0
 11
5202.1729451173
 21
8021.5486765668
 31
0.0
  0
SPLINE
  5
1C4
330
1F
100
AcDbEntity
  8
0
  6
Continuous
 62
     7
370
    25
100
AcDbSpline
210
0.0
220
0.0
230
1.0
 70
     8
 71
     3
 72
     9
 73
     5
 74
     0
 42
0.00000001
 43
0.00000001
 40
0.0
 40
0.0
 40
0.0
 40
0.0
 40
0.62245285759341
 40
1.0
 40
1.0
 40
1.0
 40
1.0
 10
5154.672945117273
 20
7974.493404371132
 30
0.0
 10
5154.905094031282
 20
7977.046611533281
 30
0.0
 10
5155.278052258041
 20
7981.148459779301
 30
0.0
 10
5156.653607983793
 20
7985.072522653969
 30
0.0
 10
5157.172945117272
 20
7986.554041378922
 30
0.0
  0
SPLINE
  5
1C5
330
1F
100
AcDbEntity
  8
0
  6
Continuous
 62
     7
370
    25
100
AcDbSpline
210
0.0
220
0.0
230
1.0
 70
     8
 71
     3
 72
     9
 73
     5
 74
     0
 42
0.00000001
 43
0.00000001
 40
0.0
 40
0.0
 40
0.0
 40
0.0
 40
0.609170770404181
 40
0.9999999999999999
 40
0.9999999999999999
 40
0.9999999999999999
 40
0.9999999999999999
 10
5199.672945117273
 20
7986.554041378922
 30
0.0
 10
5200.440200247129
 20
7984.143365476806
 30
0.0
 10
5201.699707707322
 20
7980.186058233527
 30
0.0
 10
5202.03996329002
 20
7976.093065548833
 30
0.0
 10
5202.172945117272
 20
7974.493404371131
 30
0.0
  0
LINE
  5
1C6
330
1F
100
AcDbEntity
  8
0
  6
Continuous
 62
     7
370
    25
100
AcDbLine
 10
5202.1729451173
 20
7974.4934043711
 30
0.0
 11
5202.1729451173
 21
7998.1937710694
 31
0.0
  0
LINE
  5
1C7
330
1F
100
AcDbEntity
  8
0
  6
Continuous
 62
     7
370
    25
100
AcDbLine
 10
5157.1729451173
 20
7938.2333190045
 30
0.0
 11
5199.6729451173
 21
7938.2333190045
 31
0.0
  0
SPLINE
  5
1C8
330
1F
100
AcDbEntity
  8
0
  6
Continuous
 62
     7
370
    25
100
AcDbSpline
210
0.0
220
0.0
230
1.0
 70
     8
 71
     3
 72
     9
 73
     5
 74
     0
 42
0.00000001
 43
0.00000001
 40
0.0
 40
0.0
 40
0.0
 40
0.0
 40
0.6091707704042941
 40
1.0
 40
1.0
 40
1.0
 40
1.0
 10
5157.172945117272
 20
7938.233319004511
 30
0.0
 10
5156.405689987417
 20
7940.643994906628
 30
0.0
 10
5155.146182527224
 20
7944.60130214991
 30
0.0
 10
5154.805926944524
 20
7948.694294834601
 30
0.0
 10
5154.672945117273
 20
7950.2939560123
 30
0.0
  0
SPLINE
  5
1C9
330
1F
100
AcDbEntity
  8
0
  6
Continuous
 62
     7
370
    25
100
AcDbSpline
210
0.0
220
0.0
230
1.0
 70
     8
 71
     3
 72
     9
 73
     5
 74
     0
 42
0.00000001
 43
0.00000001
 40
0.0
 40
0.0
 40
0.0
 40
0.0
 40
0.622452857593397
 40
1.0
 40
1.0
 40
1.0
 40
1.0
 10
5202.172945117272
 20
7950.293956012301
 30
0.0
 10
5201.940796203263
 20
7947.740748850153
 30
0.0
 10
5201.567837976503
 20
7943.638900604134
 30
0.0
 10
5200.192282250751
 20
7939.714837729465
 30
0.0
 10
5199.672945117273
 20
7938.233319004511
 30
0.0
  0
LINE
  5
1CA
330
1F
100
AcDbEntity
  8
0
  6
Continuous
 62
     7
370
    25
100
AcDbLine
 10
5202.1729451173
 20
7950.2939560123
 30
0.0
 11
5202.1729451173
 21
7974.4934043711
 31
0.0
  0
LINE
  5
1CB
330
1F
100
AcDbEntity
  8
0
  6
Continuous
 62
     7
370
    25
100
AcDbLine
 10
5157.1729451173
 20
8033.1884062573
 30
0.0
 11
5154.6729451173
 21
8032.76749894
 31
0.0
  0
LINE
  5
1CC
330
1F
100
AcDbEntity
  8
0
  6
Continuous
 62
     7
370
    25
100
AcDbLine
 10
5202.1729451173
 20
8032.76749894
 30
0.0
 11
5199.6729451173
 21
8033.1884062573
 31
0.0
  0
LINE
  5
1CD
330
1F
100
AcDbEntity
  8
0
  6
Continuous
 62
     7
370
    25
100
AcDbLine
 10
5202.1729451173
 20
8021.5486765668
 30
0.0
 11
5202.1729451173
 21
8032.76749894
 31
0.0
  0
LINE
  5
1CE
330
1F
100
AcDbEntity
  8
0
  6
Continuous
 62
     7
370
    25
100
AcDbLine
 10
5154.6729451173
 20
7937.8124116872
 30
0.0
 11
5157.1729451173
 21
7938.2333190045
 31
0.0
  0
LINE
  5
1CF
330
1F
100
AcDbEntity
  8
0
  6
Continuous
 62
     7
370
    25
100
AcDbLine
 10
5199.6729451173
 20
7938.2333190045
 30
0.0
 11
5202.1729451173
 21
7937.8124116872
 31
0.0
  0
LINE
  5
1D0
330
1F
100
AcDbEntity
  8
0
  6
Continuous
 62
     7
370
    25
100
AcDbLine
 10
5202.1729451173
 20
7950.2939560123
 30
0.0
 11
5202.1729451173
 21
7937.8124116872
 31
0.0
  0
LINE
  5
1D1
330
1F
100
AcDbEntity
  8
0
  6
Continuous
 62
     7
370
    25
100
AcDbLine
 10
5202.1729451173
 20
7936.9678688258
 30
0.0
 11
5199.6729451173
 21
7936.5469615085
 31
0.0
  0
LINE
  5
1D2
330
1F
100
AcDbEntity
  8
0
  6
Continuous
 62
     7
370
    25
100
AcDbLine
 10
5157.1729451173
 20
7936.5469615085
 30
0.0
 11
5199.6729451173
 21
7936.5469615085
 31
0.0
  0
LINE
  5
1D3
330
1F
100
AcDbEntity
  8
0
  6
Continuous
 62
     7
370
    25
100
AcDbLine
 10
5157.1729451173
 20
7936.5469615085
 30
0.0
 11
5154.6729451173
 21
7936.9678688258
 31
0.0
  0
LINE
  5
1D4
330
1F
100
AcDbEntity
  8
0
  6
Continuous
 62
     7
370
    25
100
AcDbLine
 10
5202.1729451173
 20
7936.9678688258
 30
0.0
 11
5202.1729451173
 21
7937.8124116872
 31
0.0
  0
SPLINE
  5
1D5
330
1F
100
AcDbEntity
  8
0
  6
Continuous
 62
     7
370
    25
100
AcDbSpline
210
0.0
220
0.0
230
1.0
 70
     8
 71
     3
 72
     9
 73
     5
 74
     0
 42
0.00000001
 43
0.00000001
 40
0.0
 40
0.0
 40
0.0
 40
0.0
 40
0.6224528575934237
 40
1.0
 40
1.0
 40
1.0
 40
1.0
 10
5154.672945117272
 20
8031.374588736378
 30
0.0
 10
5154.905094031282
 20
8033.077247551715
 30
0.0
 10
5155.278052258041
 20
8035.812649589901
 30
0.0
 10
5156.653607983793
 20
8038.429491789211
 30
0.0
 10
5157.172945117272
 20
8039.417473083688
 30
0.0
  0
LINE
  5
1D6
330
1F
100
AcDbEntity
  8
0
  6
Continuous
 62
     7
370
    25
100
AcDbLine
 10
5157.1729451173
 20
8039.4174730837
 30
0.0
 11
5199.6729451173
 21
8039.4174730837
 31
0.0
  0
SPLINE
  5
1D7
330
1F
100
AcDbEntity
  8
0
  6
Continuous
 62
     7
370
    25
100
AcDbSpline
210
0.0
220
0.0
230
1.0
 70
     8
 71
     3
 72
     9
 73
     5
 74
     0
 42
0.00000001
 43
0.00000001
 40
0.0
 40
0.0
 40
0.0
 40
0.0
 40
0.6091707704042167
 40
1.0
 40
1.0
 40
1.0
 40
1.0
 10
5199.672945117273
 20
8039.417473083688
 30
0.0
 10
5200.440200247128
 20
8037.809864176545
 30
0.0
 10
5201.699707707322
 20
8035.17085228489
 30
0.0
 10
5202.03996329002
 20
8032.441355760277
 30
0.0
 10
5202.172945117272
 20
8031.374588736378
 30
0.0
  0
LINE
  5
1D8
330
1F
100
AcDbEntity
  8
0
  6
Continuous
 62
     7
370
    25
100
AcDbLine
 10
5202.1729451173
 20
7935.8903946683
 30
0.0
 11
5199.6729451173
 21
7930.3178946821
 31
0.0
  0
LINE
  5
1D9
330
1F
100
AcDbEntity
  8
0
  6
Continuous
 62
     7
370
    25
100
AcDbLine
 10
5157.1729451173
 20
7930.3178946821
 30
0.0
 11
5199.6729451173
 21
7930.3178946821
 31
0.0
  0
LINE
  5
1DA
330
1F
100
AcDbEntity
  8
0
  6
Continuous
 62
     7
370
    25
100
AcDbLine
 10
5157.1729451173
 20
7930.3178946821
 30
0.0
 11
5156.0369460103
 21
7932.8500366852
 31
0.0
  0
LINE
  5
1DB
330
1F
100
AcDbEntity
  8
0
  6
Continuous
 62
     7
370
    25
100
AcDbLine
 10
5202.1729451173
 20
7935.8903946683
 30
0.0
 11
5202.1729451173
 21
7936.9678688258
 31
0.0
  0
LINE
  5
1DC
330
1F
100
AcDbEntity
  8
0
  6
Continuous
 62
     7
370
    25
100
AcDbLine
 10
5157.1729451173
 20
8039.4174730837
 30
0.0
 11
5156.0332087213
 21
8036.8770006633
 31
0.0
  0
LINE
  5
1DD
330
1F
100
AcDbEntity
  8
0
  6
Continuous
 62
     7
370
    25
100
AcDbLine
 10
5200.8089442242
 20
8036.8853310806
 30
0.0
 11
5199.6729451173
 21
8039.4174730837
 31
0.0
  0
LINE
  5
1DE
330
1F
100
AcDbEntity
  8
0
  6
Continuous
 62
     7
370
    25
100
AcDbLine
 10
5154.6729451173
 20
8072.3676838829
 30
0.0
 11
5154.6729451173
 21
7897.3676838829
 31
0.0
  0
LINE
  5
1DF
330
1F
100
AcDbEntity
  8
0
  6
Continuous
 62
     7
370
    25
100
AcDbLine
 10
5142.1729451173
 20
5682.8676838829
 30
0.0
 11
4992.1729451173
 21
5682.8676838829
 31
0.0
  0
LINE
  5
1E0
330
1F
100
AcDbEntity
  8
0
  6
Continuous
 62
     7
370
    25
100
AcDbLine
 10
5142.1729451173
 20
5682.8676838829
 30
0.0
 11
5142.1729451173
 21
5697.8676838829
 31
0.0
  0
LINE
  5
1E1
330
1F
100
AcDbEntity
  8
0
  6
Continuous
 62
     7
370
    25
100
AcDbLine
 10
4992.1729451173
 20
5682.8676838829
 30
0.0
 11
4992.1729451173
 21
5697.8676838829
 31
0.0
  0
LINE
  5
1E2
330
1F
100
AcDbEntity
  8
0
  6
Continuous
 62
     7
370
    25
100
AcDbLine
 10
5142.1729451173
 20
5697.8676838829
 30
0.0
 11
4992.1729451173
 21
5697.8676838829
 31
0.0
  0
LINE
  5
1E3
330
1F
100
AcDbEntity
  8
0
  6
Continuous
 62
     7
370
    25
100
AcDbLine
 10
4992.1729451173
 20
8347.8676838829
 30
0.0
 11
5127.1729451173
 21
8347.8676838829
 31
0.0
  0
LINE
  5
1E4
330
1F
100
AcDbEntity
  8
0
  6
Continuous
 62
     7
370
    25
100
AcDbLine
 10
5127.1729451173
 20
8347.8676838829
 30
0.0
 11
5127.1729451173
 21
5697.8676838829
 31
0.0
  0
LINE
  5
1E5
330
1F
100
AcDbEntity
  8
0
  6
Continuous
 62
     7
370
    25
100
AcDbLine
 10
4992.1729451173
 20
8347.8676838829
 30
0.0
 11
4992.1729451173
 21
7932.3676838829
 31
0.0
  0
LINE
  5
1E6
330
1F
100
AcDbEntity
  8
0
  6
Continuous
 62
     7
370
    25
100
AcDbLine
 10
4992.1729451173
 20
7862.3676838829
 30
0.0
 11
4992.1729451173
 21
5697.8676838829
 31
0.0
  0
LINE
  5
1E7
330
1F
100
AcDbEntity
  8
0
  6
Continuous
 62
     7
370
    25
100
AcDbLine
 10
5127.1729451173
 20
8347.8676838829
 30
0.0
 11
5142.1729451173
 21
8347.8676838829
 31
0.0
  0
LINE
  5
1E8
330
1F
100
AcDbEntity
  8
0
  6
Continuous
 62
     7
370
    25
100
AcDbLine
 10
5142.1729451173
 20
8347.8676838829
 30
0.0
 11
5142.1729451173
 21
5697.8676838829
 31
0.0
  0
ARC
  5
1E9
330
1F
100
AcDbEntity
  8
0
  6
Continuous
 62
     7
370
    25
100
AcDbCircle
 10
4992.1729451173
 20
8352.3676838829
 30
0.0
 40
15.0
100
AcDbArc
 50
180.0
 51
270.0
  0
LINE
  5
1EA
330
1F
100
AcDbEntity
  8
0
  6
Continuous
 62
     7
370
    25
100
AcDbLine
 10
4977.1729451173
 20
8817.8676838829
 30
0.0
 11
4977.1729451173
 21
8352.3676838829
 31
0.0
  0
LINE
  5
1EB
330
1F
100
AcDbEntity
  8
0
  6
Continuous
 62
     7
370
    25
100
AcDbLine
 10
4987.1729451173
 20
8817.8676838829
 30
0.0
 11
4977.1729451173
 21
8817.8676838829
 31
0.0
  0
LINE
  5
1EC
330
1F
100
AcDbEntity
  8
0
  6
Continuous
 62
     7
370
    25
100
AcDbLine
 10
4987.1729451173
 20
8352.3676838829
 30
0.0
 11
4987.1729451173
 21
8817.8676838829
 31
0.0
  0
ARC
  5
1ED
330
1F
100
AcDbEntity
  8
0
  6
Continuous
 62
     7
370
    25
100
AcDbCircle
 10
4992.1729451173
 20
8352.3676838829
 30
0.0
 40
5.000000000000909
100
AcDbArc
 50
180.0
 51
270.0
  0
LINE
  5
1EE
330
1F
100
AcDbEntity
  8
0
  6
Continuous
 62
     7
370
    25
100
AcDbLine
 10
5917.1729451173
 20
8018.6176838829
 30
0.0
 11
5917.1729451173
 21
7951.1176838829
 31
0.0
  0
LINE
  5
1EF
330
1F
100
AcDbEntity
  8
0
  6
Continuous
 62
     7
370
    25
100
AcDbLine
 10
4977.1729451173
 20
7854.8676838829
 30
0.0
 11
4807.1729451173
 21
7854.8676838829
 31
0.0
  0
ARC
  5
1F0
330
1F
100
AcDbEntity
  8
0
  6
Continuous
 62
     7
370
    25
100
AcDbCircle
 10
4977.1729451173
 20
7862.3676838829
 30
0.0
 40
7.5
100
AcDbArc
 50
270.0
 51
0.0
  0
LINE
  5
1F1
330
1F
100
AcDbEntity
  8
0
  6
Continuous
 62
     7
370
    25
100
AcDbLine
 10
4984.6729451173
 20
7932.3676838829
 30
0.0
 11
4984.6729451173
 21
7862.3676838829
 31
0.0
  0
ARC
  5
1F2
330
1F
100
AcDbEntity
  8
0
  6
Continuous
 62
     7
370
    25
100
AcDbCircle
 10
4977.1729451173
 20
7932.3676838829
 30
0.0
 40
7.500000000000909
100
AcDbArc
 50
0.0
 51
90.0
  0
LINE
  5
1F3
330
1F
100
AcDbEntity
  8
0
  6
Continuous
 62
     7
370
    25
100
AcDbLine
 10
4799.6729451173
 20
7862.3676838829
 30
0.0
 11
4799.6729451173
 21
7932.3676838829
 31
0.0
  0
LINE
  5
1F4
330
1F
100
AcDbEntity
  8
0
  6
Continuous
 62
     7
370
    25
100
AcDbLine
 10
4807.1729451173
 20
7947.3676838829
 30
0.0
 11
4977.1729451173
 21
7947.3676838829
 31
0.0
  0
ARC
  5
1F5
330
1F
100
AcDbEntity
  8
0
  6
Continuous
 62
     7
370
    25
100
AcDbCircle
 10
4977.1729451173
 20
7932.3676838829
 30
0.0
 40
15.00000000000091
100
AcDbArc
 50
0.0
 51
90.0
  0
LINE
  5
1F6
330
1F
100
AcDbEntity
  8
0
  6
Continuous
 62
     7
370
    25
100
AcDbLine
 10
4992.1729451173
 20
7932.3676838829
 30
0.0
 11
4992.1729451173
 21
7862.3676838829
 31
0.0
  0
ARC
  5
1F7
330
1F
100
AcDbEntity
  8
0
  6
Continuous
 62
     7
370
    25
100
AcDbCircle
 10
4977.1729451173
 20
7862.3676838829
 30
0.0
 40
15.00000000000091
100
AcDbArc
 50
270.0
 51
0.0
  0
LINE
  5
1F8
330
1F
100
AcDbEntity
  8
0
  6
Continuous
 62
     7
370
    25
100
AcDbLine
 10
4977.1729451173
 20
7847.3676838829
 30
0.0
 11
4807.1729451173
 21
7847.3676838829
 31
0.0
  0
LINE
  5
1F9
330
1F
100
AcDbEntity
  8
0
  6
Continuous
 62
     7
370
    25
100
AcDbLine
 10
4792.1729451173
 20
7862.3676838829
 30
0.0
 11
4792.1729451173
 21
7932.3676838829
 31
0.0
  0
ARC
  5
1FA
330
1F
100
AcDbEntity
  8
0
  6
Continuous
 62
     7
370
    25
100
AcDbCircle
 10
4807.1729451173
 20
7932.3676838829
 30
0.0
 40
15.00000000000091
100
AcDbArc
 50
90.0
 51
180.0
  0
LINE
  5
1FB
330
1F
100
AcDbEntity
  8
0
  6
Continuous
 62
     7
370
    25
100
AcDbLine
 10
4807.1729451173
 20
7939.8676838829
 30
0.0
 11
4977.1729451173
 21
7939.8676838829
 31
0.0
  0
ARC
  5
1FC
330
1F
100
AcDbEntity
  8
0
  6
Continuous
 62
     7
370
    25
100
AcDbCircle
 10
4807.1729451173
 20
7932.3676838829
 30
0.0
 40
7.500000000000909
100
AcDbArc
 50
90.0
 51
180.0
  0
ARC
  5
1FD
330
1F
100
AcDbEntity
  8
0
  6
Continuous
 62
     7
370
    25
100
AcDbCircle
 10
4807.1729451173
 20
7862.3676838829
 30
0.0
 40
7.5
100
AcDbArc
 50
180.0
 51
270.0
  0
ARC
  5
1FE
330
1F
100
AcDbEntity
  8
0
  6
Continuous
 62
     7
370
    25
100
AcDbCircle
 10
4807.1729451173
 20
7862.3676838829
 30
0.0
 40
15.00000000000091
100
AcDbArc
 50
180.0
 51
270.0
  0
LINE
  5
1FF
330
1F
100
AcDbEntity
  8
0
  6
Continuous
 62
     7
370
    25
100
AcDbLine
 10
4842.1729451173
 20
7963.1571575671
 30
0.0
 11
4842.1729451173
 21
7947.3676838829
 31
0.0
  0
LINE
  5
200
330
1F
100
AcDbEntity
  8
0
  6
Continuous
 62
     7
370
    25
100
AcDbLine
 10
4842.1729451173
 20
7963.1571575671
 30
0.0
 11
4992.1729451173
 21
7963.1571575671
 31
0.0
  0
LINE
  5
201
330
1F
100
AcDbEntity
  8
0
  6
Continuous
 62
     7
370
    25
100
AcDbLine
 10
4977.1729451173
 20
7947.3676838829
 30
0.0
 11
4992.1729451173
 21
7947.3676838829
 31
0.0
  0
LINE
  5
202
330
1F
100
AcDbEntity
  8
0
  6
Continuous
 62
     7
370
    25
100
AcDbLine
 10
4842.1729451173
 20
8022.3676838829
 30
0.0
 11
4842.1729451173
 21
7963.1571575671
 31
0.0
  0
LINE
  5
203
330
1F
100
AcDbEntity
  8
0
  6
Continuous
 62
     7
370
    25
100
AcDbLine
 10
5279.6729451173
 20
8079.8676838829
 30
0.0
 11
5279.6729451173
 21
7889.8676838829
 31
0.0
  0
LINE
  5
204
330
1F
100
AcDbEntity
  8
0
  6
Continuous
 62
     7
370
    25
100
AcDbLine
 10
5304.6729451173
 20
8079.8676838829
 30
0.0
 11
5304.6729451173
 21
7889.8676838829
 31
0.0
  0
LINE
  5
205
330
1F
100
AcDbEntity
  8
0
  6
Continuous
 62
     7
370
    25
100
AcDbLine
 10
5267.1729451173
 20
8060.644906714
 30
0.0
 11
5267.1729451173
 21
8072.3676838829
 31
0.0
  0
LINE
  5
206
330
1F
100
AcDbEntity
  8
0
  6
Continuous
 62
     7
370
    25
100
AcDbLine
 10
5267.1729451173
 20
7897.3676838829
 30
0.0
 11
5267.1729451173
 21
8060.644906714
 31
0.0
  0
LINE
  5
207
330
1F
100
AcDbEntity
  8
0
  6
Continuous
 62
     7
370
    25
100
AcDbLine
 10
5367.1729451173
 20
8043.6176838829
 30
0.0
 11
5304.6729451173
 21
8043.6176838829
 31
0.0
  0
LINE
  5
208
330
1F
100
AcDbEntity
  8
0
  6
Continuous
 62
     7
370
    25
100
AcDbLine
 10
5367.1729451173
 20
8043.6176838829
 30
0.0
 11
5367.1729451173
 21
7984.8676838829
 31
0.0
  0
LINE
  5
209
330
1F
100
AcDbEntity
  8
0
  6
Continuous
 62
     7
370
    25
100
AcDbLine
 10
5367.1729451173
 20
7984.8676838829
 30
0.0
 11
5304.6729451173
 21
7984.8676838829
 31
0.0
  0
LINE
  5
20A
330
1F
100
AcDbEntity
  8
0
  6
Continuous
 62
     7
370
    25
100
AcDbLine
 10
5367.1729451173
 20
7926.1176838829
 30
0.0
 11
5304.6729451173
 21
7926.1176838829
 31
0.0
  0
LINE
  5
20B
330
1F
100
AcDbEntity
  8
0
  6
Continuous
 62
     7
370
    25
100
AcDbLine
 10
5367.1729451173
 20
7984.8676838829
 30
0.0
 11
5367.1729451173
 21
7926.1176838829
 31
0.0
  0
LINE
  5
20C
330
1F
100
AcDbEntity
  8
0
  6
Continuous
 62
     7
370
    25
100
AcDbLine
 10
5224.6729451173
 20
8019.5087000343
 30
0.0
 11
5224.6729451173
 21
8024.8676838829
 31
0.0
  0
LINE
  5
20D
330
1F
100
AcDbEntity
  8
0
  6
Continuous
 62
     7
370
    25
100
AcDbLine
 10
5224.6729451173
 20
7944.8676838829
 30
0.0
 11
5224.6729451173
 21
8019.5087000343
 31
0.0
  0
LINE
  5
20E
330
1F
100
AcDbEntity
  8
0
  6
Continuous
 62
     7
370
    25
100
AcDbLine
 10
4967.1729451173
 20
8480.7202355064
 30
0.0
 11
4967.1729451173
 21
8442.8676838829
 31
0.0
  0
LINE
  5
20F
330
1F
100
AcDbEntity
  8
0
  6
Continuous
 62
     7
370
    25
100
AcDbLine
 10
4967.1729451173
 20
8562.8676838829
 30
0.0
 11
4967.1729451173
 21
8480.7202355064
 31
0.0
  0
LINE
  5
210
330
1F
100
AcDbEntity
  8
0
  6
Continuous
 62
     7
370
    25
100
AcDbLine
 10
5009.6729451173
 20
8442.8676838829
 30
0.0
 11
5009.6729451173
 21
8562.8676838829
 31
0.0
  0
LINE
  5
211
330
1F
100
AcDbEntity
  8
0
  6
Continuous
 62
     7
370
    25
100
AcDbLine
 10
4942.1729451173
 20
7517.3676838829
 30
0.0
 11
4842.1729451173
 21
7517.3676838829
 31
0.0
  0
LINE
  5
212
330
1F
100
AcDbEntity
  8
0
  6
Continuous
 62
     7
370
    25
100
AcDbLine
 10
4942.1729451173
 20
7517.3676838829
 30
0.0
 11
4942.1729451173
 21
7497.3676838829
 31
0.0
  0
LINE
  5
213
330
1F
100
AcDbEntity
  8
0
  6
Continuous
 62
     7
370
    25
100
AcDbLine
 10
4942.1729451173
 20
7497.3676838829
 30
0.0
 11
4842.1729451173
 21
7497.3676838829
 31
0.0
  0
LINE
  5
214
330
1F
100
AcDbEntity
  8
0
  6
Continuous
 62
     7
370
    25
100
AcDbLine
 10
4842.1729451173
 20
7517.3676838829
 30
0.0
 11
4842.1729451173
 21
7497.3676838829
 31
0.0
  0
LINE
  5
215
330
1F
100
AcDbEntity
  8
0
  6
Continuous
 62
     7
370
    25
100
AcDbLine
 10
4907.1729451173
 20
7479.8676838829
 30
0.0
 11
4877.1729451173
 21
7479.8676838829
 31
0.0
  0
LINE
  5
216
330
1F
100
AcDbEntity
  8
0
  6
Continuous
 62
     7
370
    25
100
AcDbLine
 10
4904.6729451173
 20
7572.3676838829
 30
0.0
 11
4879.6729451173
 21
7572.3676838829
 31
0.0
  0
LINE
  5
217
330
1F
100
AcDbEntity
  8
0
  6
Continuous
 62
     7
370
    25
100
AcDbLine
 10
4871.4229451173
 20
7212.3676838829
 30
0.0
 11
4871.4229451173
 21
7481.6861497969
 31
0.0
  0
LINE
  5
218
330
1F
100
AcDbEntity
  8
0
  6
Continuous
 62
     7
370
    25
100
AcDbLine
 10
4836.4229451173
 20
7204.8676838829
 30
0.0
 11
4836.4229451173
 21
7497.3676838829
 31
0.0
  0
LINE
  5
219
330
1F
100
AcDbEntity
  8
0
  6
Continuous
 62
     7
370
    25
100
AcDbLine
 10
4836.4229451173
 20
7497.3676838829
 30
0.0
 11
4842.1729451173
 21
7497.3676838829
 31
0.0
  0
ELLIPSE
  5
21A
330
1F
100
AcDbEntity
  8
0
  6
Continuous
 62
     7
370
    25
100
AcDbEllipse
 10
4600.1625900877
 20
7507.3676838829
 30
0.0
 11
611.6342847307695
 21
0.0
 31
0.0
210
0.0
220
0.0
230
1.0
 40
0.5361109642
 41
1.111295352113249
 42
1.132618579605601
  0
LINE
  5
21B
330
1F
100
AcDbEntity
  8
0
  6
Continuous
 62
     7
370
    25
100
AcDbLine
 10
4871.4229451173
 20
7517.3676838829
 30
0.0
 11
4871.4229451173
 21
7801.2593518492
 31
0.0
  0
LINE
  5
21C
330
1F
100
AcDbEntity
  8
0
  6
Continuous
 62
     7
370
    25
100
AcDbLine
 10
4842.1729451173
 20
7517.3676838829
 30
0.0
 11
4836.4229451173
 21
7517.3676838829
 31
0.0
  0
LINE
  5
21D
330
1F
100
AcDbEntity
  8
0
  6
Continuous
 62
     7
370
    25
100
AcDbLine
 10
4836.4229451173
 20
7517.3676838829
 30
0.0
 11
4836.4229451173
 21
7809.8676838829
 31
0.0
  0
LINE
  5
21E
330
1F
100
AcDbEntity
  8
0
  6
Continuous
 62
     7
370
    25
100
AcDbLine
 10
4912.9229451173
 20
7212.3676838829
 30
0.0
 11
4912.9229451173
 21
7481.6861497969
 31
0.0
  0
LINE
  5
21F
330
1F
100
AcDbEntity
  8
0
  6
Continuous
 62
     7
370
    25
100
AcDbLine
 10
4947.9229451173
 20
7204.8676838829
 30
0.0
 11
4947.9229451173
 21
7497.3676838829
 31
0.0
  0
LINE
  5
220
330
1F
100
AcDbEntity
  8
0
  6
Continuous
 62
     7
370
    25
100
AcDbLine
 10
4942.1729451173
 20
7497.3676838829
 30
0.0
 11
4947.9229451173
 21
7497.3676838829
 31
0.0
  0
LINE
  5
221
330
1F
100
AcDbEntity
  8
0
  6
Continuous
 62
     7
370
    25
100
AcDbLine
 10
4947.9229451173
 20
7517.3676838829
 30
0.0
 11
4947.9229451173
 21
7809.8676838829
 31
0.0
  0
LINE
  5
222
330
1F
100
AcDbEntity
  8
0
  6
Continuous
 62
     7
370
    25
100
AcDbLine
 10
4912.9229451173
 20
7517.3676838829
 30
0.0
 11
4912.9229451173
 21
7801.2593518492
 31
0.0
  0
ELLIPSE
  5
223
330
1F
100
AcDbEntity
  8
0
  6
Continuous
 62
     7
370
    25
100
AcDbEllipse
 10
5184.1833001469
 20
7507.3676838829
 30
0.0
 11
611.6342847307669
 21
0.0
 31
0.0
210
0.0
220
0.0
230
1.0
 40
0.5361109642
 41
2.008974073984191
 42
2.030297301476543
  0
LINE
  5
224
330
1F
100
AcDbEntity
  8
0
  6
Continuous
 62
     7
370
    25
100
AcDbLine
 10
4947.9229451173
 20
7517.3676838829
 30
0.0
 11
4942.1729451173
 21
7517.3676838829
 31
0.0
  0
ELLIPSE
  5
225
330
1F
100
AcDbEntity
  8
0
  6
Continuous
 62
     7
370
    25
100
AcDbEllipse
 10
4827.1729451173
 20
7507.3676838829
 30
0.0
 11
502.2947341949748
 21
0.0
 31
0.0
210
0.0
220
0.0
230
1.0
 40
0.5773502692
 41
1.441026311807845
 42
1.482586289792734
  0
ELLIPSE
  5
226
330
1F
100
AcDbEntity
  8
0
  6
Continuous
 62
     7
370
    25
100
AcDbEllipse
 10
4957.1729451173
 20
7507.3676838829
 30
0.0
 11
502.2947341949738
 21
0.0
 31
0.0
210
0.0
220
0.0
230
1.0
 40
0.5773502692
 41
1.659006363797059
 42
1.700566341781949
  0
LINE
  5
227
330
1F
100
AcDbEntity
  8
0
  6
Continuous
 62
     7
370
    25
100
AcDbLine
 10
4859.6729451173
 20
7847.3676838829
 30
0.0
 11
4859.6729451173
 21
7804.2932502889
 31
0.0
  0
LINE
  5
228
330
1F
100
AcDbEntity
  8
0
  6
Continuous
 62
     7
370
    25
100
AcDbLine
 10
4892.1729451173
 20
7847.3676838829
 30
0.0
 11
4892.1729451173
 21
7794.9292714892
 31
0.0
  0
LINE
  5
229
330
1F
100
AcDbEntity
  8
0
  6
Continuous
 62
     7
370
    25
100
AcDbLine
 10
4924.6729451173
 20
7847.3676838829
 30
0.0
 11
4924.6729451173
 21
7804.2932502889
 31
0.0
  0
LINE
  5
22A
330
1F
100
AcDbEntity
  8
0
  6
Continuous
 62
     8
370
    25
100
AcDbLine
 10
4867.1729451173
 20
7489.8676838829
 30
0.0
 11
4917.1729451173
 21
7489.8676838829
 31
0.0
  0
LINE
  5
22B
330
1F
100
AcDbEntity
  8
0
  6
Continuous
 62
     7
370
    25
100
AcDbLine
 10
2635.7275121478
 20
4588.7987175983
 30
0.0
 11
2635.7275121478
 21
4448.7987175983
 31
0.0
  0
LINE
  5
22C
330
1F
100
AcDbEntity
  8
0
  6
Continuous
 62
     7
370
    25
100
AcDbLine
 10
2685.7275121478
 20
4448.7987175983
 30
0.0
 11
2685.7275121478
 21
4588.7987175983
 31
0.0
  0
LINE
  5
22D
330
1F
100
AcDbEntity
  8
0
  6
Continuous
 62
     7
370
    25
100
AcDbLine
 10
2644.7275121478
 20
4448.7987175983
 30
0.0
 11
2644.7275121478
 21
3829.6178916064
 31
0.0
  0
LINE
  5
22E
330
1F
100
AcDbEntity
  8
0
  6
Continuous
 62
     7
370
    25
100
AcDbLine
 10
2644.7275121478
 20
3722.1178916064
 30
0.0
 11
2644.7275121478
 21
3538.7987175983
 31
0.0
  0
LINE
  5
22F
330
1F
100
AcDbEntity
  8
0
  6
Continuous
 62
     7
370
    25
100
AcDbLine
 10
2676.7275121478
 20
3538.7987175983
 30
0.0
 11
2676.7275121478
 21
3722.1178916064
 31
0.0
  0
LINE
  5
230
330
1F
100
AcDbEntity
  8
0
  6
Continuous
 62
     7
370
    25
100
AcDbLine
 10
2676.7275121478
 20
3829.6178916064
 30
0.0
 11
2676.7275121478
 21
4448.7987175983
 31
0.0
  0
LINE
  5
231
330
1F
100
AcDbEntity
  8
0
  6
Continuous
 62
     7
370
    25
100
AcDbLine
 10
1588.2275121478
 20
4588.7987175983
 30
0.0
 11
1588.2275121478
 21
4448.7987175983
 31
0.0
  0
LINE
  5
232
330
1F
100
AcDbEntity
  8
0
  6
Continuous
 62
     7
370
    25
100
AcDbLine
 10
1638.2275121478
 20
4448.7987175983
 30
0.0
 11
1638.2275121478
 21
4588.7987175983
 31
0.0
  0
LINE
  5
233
330
1F
100
AcDbEntity
  8
0
  6
Continuous
 62
     7
370
    25
100
AcDbLine
 10
1597.2275121478
 20
4448.7987175983
 30
0.0
 11
1597.2275121478
 21
3829.6178916064
 31
0.0
  0
LINE
  5
234
330
1F
100
AcDbEntity
  8
0
  6
Continuous
 62
     7
370
    25
100
AcDbLine
 10
1597.2275121478
 20
3722.1178916064
 30
0.0
 11
1597.2275121478
 21
3538.7987175983
 31
0.0
  0
LINE
  5
235
330
1F
100
AcDbEntity
  8
0
  6
Continuous
 62
     7
370
    25
100
AcDbLine
 10
1629.2275121478
 20
3538.7987175983
 30
0.0
 11
1629.2275121478
 21
3722.1178916064
 31
0.0
  0
LINE
  5
236
330
1F
100
AcDbEntity
  8
0
  6
Continuous
 62
     7
370
    25
100
AcDbLine
 10
1629.2275121478
 20
3829.6178916064
 30
0.0
 11
1629.2275121478
 21
4448.7987175983
 31
0.0
  0
ARC
  5
237
330
1F
100
AcDbEntity
  8
0
  6
Continuous
 62
     7
370
    25
100
AcDbCircle
 10
1641.0046497829
 20
3576.7103289284
 30
0.0
 40
15.00000000000018
100
AcDbArc
 50
237.6798283988
 51
256.6131781032
  0
ARC
  5
238
330
1F
100
AcDbEntity
  8
0
  6
Continuous
 62
     7
370
    25
100
AcDbCircle
 10
1641.0046497829
 20
3595.0254542845
 30
0.0
 40
15.00000000000008
100
AcDbArc
 50
103.3868218968
 51
122.1529897699
  0
ARC
  5
239
330
1F
100
AcDbEntity
  8
0
  6
Continuous
 62
     7
370
    25
100
AcDbCircle
 10
1732.9503745127
 20
3576.7103289284
 30
0.0
 40
15.00000000000021
100
AcDbArc
 50
283.3868218968
 51
290.109291368
  0
LWPOLYLINE
  5
23A
330
1F
100
AcDbEntity
  8
0
  6
Continuous
 62
     7
370
    25
100
AcDbPolyline
 90
        3
 70
   128
 43
0.0
 10
1740.0922876066
 20
3563.5196853747
 10
1740.4401093652
 20
3563.7140266912
 10
1740.9704344257
 20
3564.0344211111
  0
ARC
  5
23B
330
1F
100
AcDbEntity
  8
0
  6
Continuous
 62
     7
370
    25
100
AcDbCircle
 10
1732.9503745127
 20
3595.0254542845
 30
0.0
 40
15.00000000000036
100
AcDbArc
 50
57.8239833108
 51
76.6131781032
  0
LINE
  5
23C
330
1F
100
AcDbEntity
  8
0
  6
Continuous
 62
     7
370
    25
100
AcDbLine
 10
1774.4775121478
 20
3609.6178916064
 30
0.0
 11
1774.4775121478
 21
3622.1178916064
 31
0.0
  0
LINE
  5
23D
330
1F
100
AcDbEntity
  8
0
  6
Continuous
 62
     7
370
    25
100
AcDbLine
 10
2499.4775121478
 20
3622.1178916064
 30
0.0
 11
2499.4775121478
 21
3609.6178916064
 31
0.0
  0
LINE
  5
23E
330
1F
100
AcDbEntity
  8
0
  6
Continuous
 62
     7
370
    25
100
AcDbLine
 10
2553.2275121478
 20
3562.1178916064
 30
0.0
 11
2553.2275121478
 21
3539.6178916064
 31
0.0
  0
LINE
  5
23F
330
1F
100
AcDbEntity
  8
0
  6
Continuous
 62
     7
370
    25
100
AcDbLine
 10
2553.2275121478
 20
3397.1178916064
 30
0.0
 11
2553.2275121478
 21
2847.1178916064
 31
0.0
  0
LINE
  5
240
330
1F
100
AcDbEntity
  8
0
  6
Continuous
 62
     7
370
    25
100
AcDbLine
 10
2620.7275121478
 20
2847.1178916064
 30
0.0
 11
2620.7275121478
 21
3397.1178916064
 31
0.0
  0
LINE
  5
241
330
1F
100
AcDbEntity
  8
0
  6
Continuous
 62
     7
370
    25
100
AcDbLine
 10
2620.7275121478
 20
3539.6178916064
 30
0.0
 11
2620.7275121478
 21
3562.1178916064
 31
0.0
  0
LINE
  5
242
330
1F
100
AcDbEntity
  8
0
  6
Continuous
 62
     7
370
    25
100
AcDbLine
 10
1653.2275121478
 20
3562.1178916064
 30
0.0
 11
1653.2275121478
 21
3539.6178916064
 31
0.0
  0
LINE
  5
243
330
1F
100
AcDbEntity
  8
0
  6
Continuous
 62
     7
370
    25
100
AcDbLine
 10
1653.2275121478
 20
3397.1178916064
 30
0.0
 11
1653.2275121478
 21
2847.1178916064
 31
0.0
  0
LINE
  5
244
330
1F
100
AcDbEntity
  8
0
  6
Continuous
 62
     7
370
    25
100
AcDbLine
 10
1720.7275121478
 20
2847.1178916064
 30
0.0
 11
1720.7275121478
 21
3397.1178916064
 31
0.0
  0
LINE
  5
245
330
1F
100
AcDbEntity
  8
0
  6
Continuous
 62
     7
370
    25
100
AcDbLine
 10
1720.7275121478
 20
3539.6178916064
 30
0.0
 11
1720.7275121478
 21
3562.1178916064
 31
0.0
  0
LINE
  5
246
330
1F
100
AcDbEntity
  8
0
  6
Continuous
 62
     7
370
    25
100
AcDbLine
 10
2624.4775121478
 20
3797.1178916064
 30
0.0
 11
2624.4775121478
 21
3922.1178916064
 31
0.0
  0
LINE
  5
247
330
1F
100
AcDbEntity
  8
0
  6
Continuous
 62
     7
370
    25
100
AcDbLine
 10
2549.4775121478
 20
3922.1178916064
 30
0.0
 11
2549.4775121478
 21
3787.1178916064
 31
0.0
  0
LINE
  5
248
330
1F
100
AcDbEntity
  8
0
  6
Continuous
 62
     7
370
    25
100
AcDbLine
 10
1724.4775121478
 20
3787.1178916064
 30
0.0
 11
1724.4775121478
 21
3922.1178916064
 31
0.0
  0
LINE
  5
249
330
1F
100
AcDbEntity
  8
0
  6
Continuous
 62
     7
370
    25
100
AcDbLine
 10
1649.4775121478
 20
3922.1178916064
 30
0.0
 11
1649.4775121478
 21
3797.1178916064
 31
0.0
  0
LINE
  5
24A
330
1F
100
AcDbEntity
  8
0
  6
Continuous
 62
     7
370
    25
100
AcDbLine
 10
1591.9775121478
 20
3484.6178916064
 30
0.0
 11
1591.9775121478
 21
3459.6178916064
 31
0.0
  0
LINE
  5
24B
330
1F
100
AcDbEntity
  8
0
  6
Continuous
 62
     7
370
    25
100
AcDbLine
 10
1781.9775121478
 20
3459.6178916064
 30
0.0
 11
1781.9775121478
 21
3484.6178916064
 31
0.0
  0
LINE
  5
24C
330
1F
100
AcDbEntity
  8
0
  6
Continuous
 62
     7
370
    25
100
AcDbLine
 10
1774.4775121478
 20
3484.6178916064
 30
0.0
 11
1774.4775121478
 21
3497.1178916064
 31
0.0
  0
LINE
  5
24D
330
1F
100
AcDbEntity
  8
0
  6
Continuous
 62
     7
370
    25
100
AcDbLine
 10
1599.4775121478
 20
3497.1178916064
 30
0.0
 11
1599.4775121478
 21
3484.6178916064
 31
0.0
  0
LINE
  5
24E
330
1F
100
AcDbEntity
  8
0
  6
Continuous
 62
     7
370
    25
100
AcDbLine
 10
1726.9775121478
 20
3497.1178916064
 30
0.0
 11
1726.9775121478
 21
3539.6178916064
 31
0.0
  0
LINE
  5
24F
330
1F
100
AcDbEntity
  8
0
  6
Continuous
 62
     7
370
    25
100
AcDbLine
 10
1646.9775121478
 20
3539.6178916064
 30
0.0
 11
1646.9775121478
 21
3497.1178916064
 31
0.0
  0
LINE
  5
250
330
1F
100
AcDbEntity
  8
0
  6
Continuous
 62
     7
370
    25
100
AcDbLine
 10
2491.9775121478
 20
3484.6178916064
 30
0.0
 11
2491.9775121478
 21
3459.6178916064
 31
0.0
  0
LINE
  5
251
330
1F
100
AcDbEntity
  8
0
  6
Continuous
 62
     7
370
    25
100
AcDbLine
 10
2681.9775121478
 20
3459.6178916064
 30
0.0
 11
2681.9775121478
 21
3484.6178916064
 31
0.0
  0
LINE
  5
252
330
1F
100
AcDbEntity
  8
0
  6
Continuous
 62
     7
370
    25
100
AcDbLine
 10
2674.4775121478
 20
3484.6178916064
 30
0.0
 11
2674.4775121478
 21
3497.1178916064
 31
0.0
  0
LINE
  5
253
330
1F
100
AcDbEntity
  8
0
  6
Continuous
 62
     7
370
    25
100
AcDbLine
 10
2499.4775121478
 20
3497.1178916064
 30
0.0
 11
2499.4775121478
 21
3484.6178916064
 31
0.0
  0
LINE
  5
254
330
1F
100
AcDbEntity
  8
0
  6
Continuous
 62
     7
370
    25
100
AcDbLine
 10
2626.9775121478
 20
3497.1178916064
 30
0.0
 11
2626.9775121478
 21
3539.6178916064
 31
0.0
  0
LINE
  5
255
330
1F
100
AcDbEntity
  8
0
  6
Continuous
 62
     7
370
    25
100
AcDbLine
 10
2546.9775121478
 20
3539.6178916064
 30
0.0
 11
2546.9775121478
 21
3497.1178916064
 31
0.0
  0
LINE
  5
256
330
1F
100
AcDbEntity
  8
0
  6
Continuous
 62
     7
370
    25
100
AcDbLine
 10
1553.2275121478
 20
3797.1178916064
 30
0.0
 11
1553.2275121478
 21
3787.1178916064
 31
0.0
  0
LINE
  5
257
330
1F
100
AcDbEntity
  8
0
  6
Continuous
 62
     7
370
    25
100
AcDbLine
 10
1673.2275121478
 20
3787.1178916064
 30
0.0
 11
1673.2275121478
 21
3797.1178916064
 31
0.0
  0
LINE
  5
258
330
1F
100
AcDbEntity
  8
0
  6
Continuous
 62
     7
370
    25
100
AcDbLine
 10
2600.7275121478
 20
3797.1178916064
 30
0.0
 11
2600.7275121478
 21
3787.1178916064
 31
0.0
  0
LINE
  5
259
330
1F
100
AcDbEntity
  8
0
  6
Continuous
 62
     7
370
    25
100
AcDbLine
 10
2720.7275121478
 20
3787.1178916064
 30
0.0
 11
2720.7275121478
 21
3797.1178916064
 31
0.0
  0
LINE
  5
25A
330
1F
100
AcDbEntity
  8
0
  6
Continuous
 62
     7
370
    25
100
AcDbLine
 10
1673.2275121478
 20
3754.6178916064
 30
0.0
 11
1673.2275121478
 21
3764.6178916064
 31
0.0
  0
LINE
  5
25B
330
1F
100
AcDbEntity
  8
0
  6
Continuous
 62
     7
370
    25
100
AcDbLine
 10
1553.2275121478
 20
3764.6178916064
 30
0.0
 11
1553.2275121478
 21
3754.6178916064
 31
0.0
  0
LINE
  5
25C
330
1F
100
AcDbEntity
  8
0
  6
Continuous
 62
     7
370
    25
100
AcDbLine
 10
2600.7275121478
 20
3764.6178916064
 30
0.0
 11
2600.7275121478
 21
3754.6178916064
 31
0.0
  0
LINE
  5
25D
330
1F
100
AcDbEntity
  8
0
  6
Continuous
 62
     7
370
    25
100
AcDbLine
 10
2720.7275121478
 20
3754.6178916064
 30
0.0
 11
2720.7275121478
 21
3764.6178916064
 31
0.0
  0
LINE
  5
25E
330
1F
100
AcDbEntity
  8
0
  6
Continuous
 62
     7
370
    25
100
AcDbLine
 10
2635.7275121478
 20
4588.7987175983
 30
0.0
 11
2685.7275121478
 21
4588.7987175983
 31
0.0
  0
LINE
  5
25F
330
1F
100
AcDbEntity
  8
0
  6
Continuous
 62
     7
370
    25
100
AcDbLine
 10
2635.7275121478
 20
4448.7987175983
 30
0.0
 11
2685.7275121478
 21
4448.7987175983
 31
0.0
  0
LINE
  5
260
330
1F
100
AcDbEntity
  8
0
  6
Continuous
 62
     7
370
    25
100
AcDbLine
 10
2644.7275121478
 20
3538.7987175983
 30
0.0
 11
2676.7275121478
 21
3538.7987175983
 31
0.0
  0
LINE
  5
261
330
1F
100
AcDbEntity
  8
0
  6
Continuous
 62
     7
370
    25
100
AcDbLine
 10
1613.2275121478
 20
4448.7987175983
 30
0.0
 11
1638.2275121478
 21
4448.7987175983
 31
0.0
  0
LINE
  5
262
330
1F
100
AcDbEntity
  8
0
  6
Continuous
 62
     7
370
    25
100
AcDbLine
 10
1588.2275121478
 20
4448.7987175983
 30
0.0
 11
1613.2275121478
 21
4448.7987175983
 31
0.0
  0
LINE
  5
263
330
1F
100
AcDbEntity
  8
0
  6
Continuous
 62
     7
370
    25
100
AcDbLine
 10
1613.2275121478
 20
4588.7987175983
 30
0.0
 11
1638.2275121478
 21
4588.7987175983
 31
0.0
  0
LINE
  5
264
330
1F
100
AcDbEntity
  8
0
  6
Continuous
 62
     7
370
    25
100
AcDbLine
 10
1588.2275121478
 20
4588.7987175983
 30
0.0
 11
1613.2275121478
 21
4588.7987175983
 31
0.0
  0
LINE
  5
265
330
1F
100
AcDbEntity
  8
0
  6
Continuous
 62
     7
370
    25
100
AcDbLine
 10
1613.2275121478
 20
3538.7987175983
 30
0.0
 11
1629.2275121478
 21
3538.7987175983
 31
0.0
  0
LINE
  5
266
330
1F
100
AcDbEntity
  8
0
  6
Continuous
 62
     7
370
    25
100
AcDbLine
 10
1597.2275121478
 20
3538.7987175983
 30
0.0
 11
1613.2275121478
 21
3538.7987175983
 31
0.0
  0
LINE
  5
267
330
1F
100
AcDbEntity
  8
0
  6
Continuous
 62
     7
370
    25
100
AcDbLine
 10
1511.9775121478
 20
3777.1178916064
 30
0.0
 11
1511.9775121478
 21
3764.6178916064
 31
0.0
  0
LINE
  5
268
330
1F
100
AcDbEntity
  8
0
  6
Continuous
 62
     7
370
    25
100
AcDbLine
 10
2761.9775121478
 20
3777.1178916064
 30
0.0
 11
2761.9775121478
 21
3764.6178916064
 31
0.0
  0
LINE
  5
269
330
1F
100
AcDbEntity
  8
0
  6
Continuous
 62
     7
370
    25
100
AcDbLine
 10
1511.9775121478
 20
3764.6178916064
 30
0.0
 11
2761.9775121478
 21
3764.6178916064
 31
0.0
  0
LINE
  5
26A
330
1F
100
AcDbEntity
  8
0
  6
Continuous
 62
     7
370
    25
100
AcDbLine
 10
1748.2275121478
 20
3777.1178916064
 30
0.0
 11
2525.7275121478
 21
3777.1178916064
 31
0.0
  0
SPLINE
  5
26B
330
1F
100
AcDbEntity
  8
0
  6
Continuous
 62
     7
370
    25
100
AcDbSpline
210
0.0
220
0.0
230
1.0
 70
     8
 71
     3
 72
     9
 73
     5
 74
     0
 42
0.00000001
 43
0.00000001
 40
0.0
 40
0.0
 40
0.0
 40
0.0
 40
0.372277259676211
 40
1.0
 40
1.0
 40
1.0
 40
1.0
 10
2644.47751214782
 20
3754.617891606444
 30
0.0
 10
2646.518279484915
 20
3754.547443929349
 30
0.0
 10
2652.000127446488
 20
3754.35820949382
 30
0.0
 10
2657.361841997207
 20
3752.981858453266
 30
0.0
 10
2660.727512147818
 20
3752.117891606443
 30
0.0
  0
LINE
  5
26C
330
1F
100
AcDbEntity
  8
0
  6
Continuous
 62
     7
370
    25
100
AcDbLine
 10
2660.7275121478
 20
3724.6178916064
 30
0.0
 11
2660.7275121478
 21
3752.1178916064
 31
0.0
  0
LINE
  5
26D
330
1F
100
AcDbEntity
  8
0
  6
Continuous
 62
     7
370
    25
100
AcDbLine
 10
2660.7275121478
 20
3724.6178916064
 30
0.0
 11
2644.4775121478
 21
3722.1178916064
 31
0.0
  0
SPLINE
  5
26E
330
1F
100
AcDbEntity
  8
0
  6
Continuous
 62
     7
370
    25
100
AcDbSpline
210
0.0
220
0.0
230
1.0
 70
     8
 71
     3
 72
     9
 73
     5
 74
     0
 42
0.00000001
 43
0.00000001
 40
0.0
 40
0.0
 40
0.0
 40
0.0
 40
0.3722772596761831
 40
1.0
 40
1.0
 40
1.0
 40
1.0
 10
2644.477512147819
 20
3722.117891606443
 30
0.0
 10
2642.436744810723
 20
3722.188339283538
 30
0.0
 10
2636.95489684915
 20
3722.377573719065
 30
0.0
 10
2631.59318229843
 20
3723.753924759619
 30
0.0
 10
2628.227512147819
 20
3724.617891606443
 30
0.0
  0
LINE
  5
26F
330
1F
100
AcDbEntity
  8
0
  6
Continuous
 62
     7
370
    25
100
AcDbLine
 10
2628.2275121478
 20
3724.6178916064
 30
0.0
 11
2628.2275121478
 21
3752.1178916064
 31
0.0
  0
LINE
  5
270
330
1F
100
AcDbEntity
  8
0
  6
Continuous
 62
     7
370
    25
100
AcDbLine
 10
2628.2275121478
 20
3752.1178916064
 30
0.0
 11
2644.4775121478
 21
3754.6178916064
 31
0.0
  0
LINE
  5
271
330
1F
100
AcDbEntity
  8
0
  6
Continuous
 62
     7
370
    25
100
AcDbLine
 10
2676.9775121478
 20
3722.1178916064
 30
0.0
 11
2644.4775121478
 21
3722.1178916064
 31
0.0
  0
SPLINE
  5
272
330
1F
100
AcDbEntity
  8
0
  6
Continuous
 62
     7
370
    25
100
AcDbSpline
210
0.0
220
0.0
230
1.0
 70
     8
 71
     3
 72
     9
 73
     5
 74
     0
 42
0.00000001
 43
0.00000001
 40
0.0
 40
0.0
 40
0.0
 40
0.0
 40
0.3722772596761814
 40
1.0
 40
1.0
 40
1.0
 40
1.0
 10
2676.977512147819
 20
3722.117891606443
 30
0.0
 10
2674.936744810723
 20
3722.188339283538
 30
0.0
 10
2669.454896849149
 20
3722.377573719065
 30
0.0
 10
2664.09318229843
 20
3723.753924759619
 30
0.0
 10
2660.727512147818
 20
3724.617891606443
 30
0.0
  0
SPLINE
  5
273
330
1F
100
AcDbEntity
  8
0
  6
Continuous
 62
     7
370
    25
100
AcDbSpline
210
0.0
220
0.0
230
1.0
 70
     8
 71
     3
 72
     9
 73
     5
 74
     0
 42
0.00000001
 43
0.00000001
 40
0.0
 40
0.0
 40
0.0
 40
0.0
 40
0.3722772596760524
 40
1.0
 40
1.0
 40
1.0
 40
1.0
 10
2676.977512147819
 20
3754.617891606444
 30
0.0
 10
2679.018279484915
 20
3754.547443929349
 30
0.0
 10
2684.500127446491
 20
3754.358209493821
 30
0.0
 10
2689.861841997208
 20
3752.981858453267
 30
0.0
 10
2693.227512147819
 20
3752.117891606443
 30
0.0
  0
LINE
  5
274
330
1F
100
AcDbEntity
  8
0
  6
Continuous
 62
     7
370
    25
100
AcDbLine
 10
2693.2275121478
 20
3724.6178916064
 30
0.0
 11
2693.2275121478
 21
3752.1178916064
 31
0.0
  0
LINE
  5
275
330
1F
100
AcDbEntity
  8
0
  6
Continuous
 62
     7
370
    25
100
AcDbLine
 10
2693.2275121478
 20
3724.6178916064
 30
0.0
 11
2676.9775121478
 21
3722.1178916064
 31
0.0
  0
LINE
  5
276
330
1F
100
AcDbEntity
  8
0
  6
Continuous
 62
     7
370
    25
100
AcDbLine
 10
2660.7275121478
 20
3752.1178916064
 30
0.0
 11
2676.9775121478
 21
3754.6178916064
 31
0.0
  0
SPLINE
  5
277
330
1F
100
AcDbEntity
  8
0
  6
Continuous
 62
     7
370
    25
100
AcDbSpline
210
0.0
220
0.0
230
1.0
 70
    24
 71
     3
 72
     9
 73
     5
 74
     0
 42
0.00000001
 43
0.00000001
 40
0.0
 40
0.0
 40
0.0
 40
0.0
 40
0.5156102819445848
 40
0.9999999999999999
 40
0.9999999999999999
 40
0.9999999999999999
 40
0.9999999999999999
 10
2628.227512147819
 20
3754.617891606443
 30
0.0
 10
2628.227512147819
 20
3754.482950170595
 30
0.0
 10
2628.227512147818
 20
3754.221238097401
 30
0.0
 10
2628.227512147818
 20
3752.804260826962
 30
0.0
 10
2628.227512147819
 20
3752.117891606443
 30
0.0
  0
SPLINE
  5
278
330
1F
100
AcDbEntity
  8
0
  6
Continuous
 62
     7
370
    25
100
AcDbSpline
210
0.0
220
0.0
230
1.0
 70
    24
 71
     3
 72
     9
 73
     5
 74
     0
 42
0.00000001
 43
0.00000001
 40
0.0
 40
0.0
 40
0.0
 40
0.0
 40
0.484389718055651
 40
0.9999999999999999
 40
0.9999999999999999
 40
0.9999999999999999
 40
0.9999999999999999
 10
2628.227512147819
 20
3724.617891606443
 30
0.0
 10
2628.227512147818
 20
3723.931522385924
 30
0.0
 10
2628.227512147818
 20
3722.514545115485
 30
0.0
 10
2628.227512147819
 20
3722.252833042291
 30
0.0
 10
2628.227512147819
 20
3722.117891606443
 30
0.0
  0
LINE
  5
279
330
1F
100
AcDbEntity
  8
0
  6
Continuous
 62
     7
370
    25
100
AcDbLine
 10
2644.4775121478
 20
3722.1178916064
 30
0.0
 11
2628.2275121478
 21
3722.1178916064
 31
0.0
  0
SPLINE
  5
27A
330
1F
100
AcDbEntity
  8
0
  6
Continuous
 62
     7
370
    25
100
AcDbSpline
210
0.0
220
0.0
230
1.0
 70
    24
 71
     3
 72
     9
 73
     5
 74
     0
 42
0.00000001
 43
0.00000001
 40
0.0
 40
0.0
 40
0.0
 40
0.0
 40
0.5156102819444079
 40
0.9999999999999999
 40
0.9999999999999999
 40
0.9999999999999999
 40
0.9999999999999999
 10
2693.227512147819
 20
3722.117891606443
 30
0.0
 10
2693.227512147819
 20
3722.252833042291
 30
0.0
 10
2693.227512147819
 20
3722.514545115485
 30
0.0
 10
2693.227512147819
 20
3723.931522385924
 30
0.0
 10
2693.227512147819
 20
3724.617891606443
 30
0.0
  0
LINE
  5
27B
330
1F
100
AcDbEntity
  8
0
  6
Continuous
 62
     7
370
    25
100
AcDbLine
 10
2693.2275121478
 20
3722.1178916064
 30
0.0
 11
2676.9775121478
 21
3722.1178916064
 31
0.0
  0
SPLINE
  5
27C
330
1F
100
AcDbEntity
  8
0
  6
Continuous
 62
     7
370
    25
100
AcDbSpline
210
0.0
220
0.0
230
1.0
 70
    24
 71
     3
 72
     9
 73
     5
 74
     0
 42
0.00000001
 43
0.00000001
 40
0.0
 40
0.0
 40
0.0
 40
0.0
 40
0.4843897180554445
 40
1.0
 40
1.0
 40
1.0
 40
1.0
 10
2693.227512147819
 20
3752.117891606443
 30
0.0
 10
2693.227512147819
 20
3752.804260826962
 30
0.0
 10
2693.227512147819
 20
3754.221238097401
 30
0.0
 10
2693.227512147819
 20
3754.482950170595
 30
0.0
 10
2693.227512147819
 20
3754.617891606443
 30
0.0
  0
SPLINE
  5
27D
330
1F
100
AcDbEntity
  8
0
  6
Continuous
 62
     7
370
    25
100
AcDbSpline
210
0.0
220
0.0
230
1.0
 70
     8
 71
     3
 72
     9
 73
     5
 74
     0
 42
0.00000001
 43
0.00000001
 40
0.0
 40
0.0
 40
0.0
 40
0.0
 40
0.372277259676211
 40
1.0
 40
1.0
 40
1.0
 40
1.0
 10
1596.977512147819
 20
3829.617891606446
 30
0.0
 10
1599.018279484915
 20
3829.547443929351
 30
0.0
 10
1604.500127446487
 20
3829.358209493822
 30
0.0
 10
1609.861841997207
 20
3827.981858453269
 30
0.0
 10
1613.227512147818
 20
3827.117891606445
 30
0.0
  0
LINE
  5
27E
330
1F
100
AcDbEntity
  8
0
  6
Continuous
 62
     7
370
    25
100
AcDbLine
 10
1613.2275121478
 20
3799.6178916064
 30
0.0
 11
1613.2275121478
 21
3827.1178916064
 31
0.0
  0
LINE
  5
27F
330
1F
100
AcDbEntity
  8
0
  6
Continuous
 62
     7
370
    25
100
AcDbLine
 10
1613.2275121478
 20
3799.6178916064
 30
0.0
 11
1596.9775121478
 21
3797.1178916064
 31
0.0
  0
SPLINE
  5
280
330
1F
100
AcDbEntity
  8
0
  6
Continuous
 62
     7
370
    25
100
AcDbSpline
210
0.0
220
0.0
230
1.0
 70
     8
 71
     3
 72
     9
 73
     5
 74
     0
 42
0.00000001
 43
0.00000001
 40
0.0
 40
0.0
 40
0.0
 40
0.0
 40
0.3722772596761831
 40
1.0
 40
1.0
 40
1.0
 40
1.0
 10
1596.977512147819
 20
3797.117891606445
 30
0.0
 10
1594.936744810723
 20
3797.18833928354
 30
0.0
 10
1589.454896849149
 20
3797.377573719067
 30
0.0
 10
1584.09318229843
 20
3798.753924759621
 30
0.0
 10
1580.727512147818
 20
3799.617891606445
 30
0.0
  0
LINE
  5
281
330
1F
100
AcDbEntity
  8
0
  6
Continuous
 62
     7
370
    25
100
AcDbLine
 10
1580.7275121478
 20
3799.6178916064
 30
0.0
 11
1580.7275121478
 21
3827.1178916064
 31
0.0
  0
LINE
  5
282
330
1F
100
AcDbEntity
  8
0
  6
Continuous
 62
     7
370
    25
100
AcDbLine
 10
1580.7275121478
 20
3827.1178916064
 30
0.0
 11
1596.9775121478
 21
3829.6178916064
 31
0.0
  0
SPLINE
  5
283
330
1F
100
AcDbEntity
  8
0
  6
Continuous
 62
     7
370
    25
100
AcDbSpline
210
0.0
220
0.0
230
1.0
 70
     8
 71
     3
 72
     9
 73
     5
 74
     0
 42
0.00000001
 43
0.00000001
 40
0.0
 40
0.0
 40
0.0
 40
0.0
 40
0.3722772596760524
 40
1.0
 40
1.0
 40
1.0
 40
1.0
 10
1629.477512147819
 20
3829.617891606446
 30
0.0
 10
1631.518279484915
 20
3829.547443929351
 30
0.0
 10
1637.000127446491
 20
3829.358209493823
 30
0.0
 10
1642.361841997207
 20
3827.981858453269
 30
0.0
 10
1645.727512147818
 20
3827.117891606445
 30
0.0
  0
LINE
  5
284
330
1F
100
AcDbEntity
  8
0
  6
Continuous
 62
     7
370
    25
100
AcDbLine
 10
1645.7275121478
 20
3799.6178916064
 30
0.0
 11
1645.7275121478
 21
3827.1178916064
 31
0.0
  0
LINE
  5
285
330
1F
100
AcDbEntity
  8
0
  6
Continuous
 62
     7
370
    25
100
AcDbLine
 10
1645.7275121478
 20
3799.6178916064
 30
0.0
 11
1629.4775121478
 21
3797.1178916064
 31
0.0
  0
SPLINE
  5
286
330
1F
100
AcDbEntity
  8
0
  6
Continuous
 62
     7
370
    25
100
AcDbSpline
210
0.0
220
0.0
230
1.0
 70
     8
 71
     3
 72
     9
 73
     5
 74
     0
 42
0.00000001
 43
0.00000001
 40
0.0
 40
0.0
 40
0.0
 40
0.0
 40
0.3722772596761814
 40
1.0
 40
1.0
 40
1.0
 40
1.0
 10
1629.477512147819
 20
3797.117891606445
 30
0.0
 10
1627.436744810722
 20
3797.18833928354
 30
0.0
 10
1621.954896849149
 20
3797.377573719068
 30
0.0
 10
1616.59318229843
 20
3798.753924759621
 30
0.0
 10
1613.227512147818
 20
3799.617891606445
 30
0.0
  0
LINE
  5
287
330
1F
100
AcDbEntity
  8
0
  6
Continuous
 62
     7
370
    25
100
AcDbLine
 10
1613.2275121478
 20
3827.1178916064
 30
0.0
 11
1629.4775121478
 21
3829.6178916064
 31
0.0
  0
LINE
  5
288
330
1F
100
AcDbEntity
  8
0
  6
Continuous
 62
     7
370
    25
100
AcDbLine
 10
1629.4775121478
 20
3829.6178916064
 30
0.0
 11
1596.9775121478
 21
3829.6178916064
 31
0.0
  0
SPLINE
  5
289
330
1F
100
AcDbEntity
  8
0
  6
Continuous
 62
     7
370
    25
100
AcDbSpline
210
0.0
220
0.0
230
1.0
 70
    24
 71
     3
 72
     9
 73
     5
 74
     0
 42
0.00000001
 43
0.00000001
 40
0.0
 40
0.0
 40
0.0
 40
0.0
 40
0.5156102819445848
 40
0.9999999999999999
 40
0.9999999999999999
 40
0.9999999999999999
 40
0.9999999999999999
 10
1580.727512147819
 20
3829.617891606446
 30
0.0
 10
1580.727512147818
 20
3829.482950170597
 30
0.0
 10
1580.727512147818
 20
3829.221238097403
 30
0.0
 10
1580.727512147818
 20
3827.804260826964
 30
0.0
 10
1580.727512147818
 20
3827.117891606445
 30
0.0
  0
LINE
  5
28A
330
1F
100
AcDbEntity
  8
0
  6
Continuous
 62
     7
370
    25
100
AcDbLine
 10
1596.9775121478
 20
3829.6178916064
 30
0.0
 11
1580.7275121478
 21
3829.6178916064
 31
0.0
  0
SPLINE
  5
28B
330
1F
100
AcDbEntity
  8
0
  6
Continuous
 62
     7
370
    25
100
AcDbSpline
210
0.0
220
0.0
230
1.0
 70
    24
 71
     3
 72
     9
 73
     5
 74
     0
 42
0.00000001
 43
0.00000001
 40
0.0
 40
0.0
 40
0.0
 40
0.0
 40
0.484389718055651
 40
0.9999999999999999
 40
0.9999999999999999
 40
0.9999999999999999
 40
0.9999999999999999
 10
1580.727512147818
 20
3799.617891606445
 30
0.0
 10
1580.727512147818
 20
3798.931522385926
 30
0.0
 10
1580.727512147818
 20
3797.514545115488
 30
0.0
 10
1580.727512147818
 20
3797.252833042294
 30
0.0
 10
1580.727512147818
 20
3797.117891606445
 30
0.0
  0
SPLINE
  5
28C
330
1F
100
AcDbEntity
  8
0
  6
Continuous
 62
     7
370
    25
100
AcDbSpline
210
0.0
220
0.0
230
1.0
 70
    24
 71
     3
 72
     9
 73
     5
 74
     0
 42
0.00000001
 43
0.00000001
 40
0.0
 40
0.0
 40
0.0
 40
0.0
 40
0.5156102819444079
 40
0.9999999999999999
 40
0.9999999999999999
 40
0.9999999999999999
 40
0.9999999999999999
 10
1645.727512147818
 20
3797.117891606445
 30
0.0
 10
1645.727512147818
 20
3797.252833042293
 30
0.0
 10
1645.727512147818
 20
3797.514545115488
 30
0.0
 10
1645.727512147818
 20
3798.931522385926
 30
0.0
 10
1645.727512147818
 20
3799.617891606445
 30
0.0
  0
SPLINE
  5
28D
330
1F
100
AcDbEntity
  8
0
  6
Continuous
 62
     7
370
    25
100
AcDbSpline
210
0.0
220
0.0
230
1.0
 70
    24
 71
     3
 72
     9
 73
     5
 74
     0
 42
0.00000001
 43
0.00000001
 40
0.0
 40
0.0
 40
0.0
 40
0.0
 40
0.4843897180554445
 40
1.0
 40
1.0
 40
1.0
 40
1.0
 10
1645.727512147818
 20
3827.117891606445
 30
0.0
 10
1645.727512147818
 20
3827.804260826964
 30
0.0
 10
1645.727512147818
 20
3829.221238097403
 30
0.0
 10
1645.727512147818
 20
3829.482950170597
 30
0.0
 10
1645.727512147818
 20
3829.617891606445
 30
0.0
  0
LINE
  5
28E
330
1F
100
AcDbEntity
  8
0
  6
Continuous
 62
     7
370
    25
100
AcDbLine
 10
1645.7275121478
 20
3829.6178916064
 30
0.0
 11
1629.4775121478
 21
3829.6178916064
 31
0.0
  0
SPLINE
  5
28F
330
1F
100
AcDbEntity
  8
0
  6
Continuous
 62
     7
370
    25
100
AcDbSpline
210
0.0
220
0.0
230
1.0
 70
     8
 71
     3
 72
     9
 73
     5
 74
     0
 42
0.00000001
 43
0.00000001
 40
0.0
 40
0.0
 40
0.0
 40
0.0
 40
0.372277259676211
 40
1.0
 40
1.0
 40
1.0
 40
1.0
 10
2644.47751214782
 20
3829.617891606446
 30
0.0
 10
2646.518279484915
 20
3829.547443929351
 30
0.0
 10
2652.000127446488
 20
3829.358209493822
 30
0.0
 10
2657.361841997207
 20
3827.981858453269
 30
0.0
 10
2660.727512147818
 20
3827.117891606445
 30
0.0
  0
LINE
  5
290
330
1F
100
AcDbEntity
  8
0
  6
Continuous
 62
     7
370
    25
100
AcDbLine
 10
2660.7275121478
 20
3799.6178916064
 30
0.0
 11
2660.7275121478
 21
3827.1178916064
 31
0.0
  0
LINE
  5
291
330
1F
100
AcDbEntity
  8
0
  6
Continuous
 62
     7
370
    25
100
AcDbLine
 10
2660.7275121478
 20
3799.6178916064
 30
0.0
 11
2644.4775121478
 21
3797.1178916064
 31
0.0
  0
SPLINE
  5
292
330
1F
100
AcDbEntity
  8
0
  6
Continuous
 62
     7
370
    25
100
AcDbSpline
210
0.0
220
0.0
230
1.0
 70
     8
 71
     3
 72
     9
 73
     5
 74
     0
 42
0.00000001
 43
0.00000001
 40
0.0
 40
0.0
 40
0.0
 40
0.0
 40
0.3722772596761831
 40
1.0
 40
1.0
 40
1.0
 40
1.0
 10
2644.477512147819
 20
3797.117891606445
 30
0.0
 10
2642.436744810723
 20
3797.18833928354
 30
0.0
 10
2636.95489684915
 20
3797.377573719067
 30
0.0
 10
2631.59318229843
 20
3798.753924759621
 30
0.0
 10
2628.227512147819
 20
3799.617891606445
 30
0.0
  0
LINE
  5
293
330
1F
100
AcDbEntity
  8
0
  6
Continuous
 62
     7
370
    25
100
AcDbLine
 10
2628.2275121478
 20
3799.6178916064
 30
0.0
 11
2628.2275121478
 21
3827.1178916064
 31
0.0
  0
LINE
  5
294
330
1F
100
AcDbEntity
  8
0
  6
Continuous
 62
     7
370
    25
100
AcDbLine
 10
2628.2275121478
 20
3827.1178916064
 30
0.0
 11
2644.4775121478
 21
3829.6178916064
 31
0.0
  0
SPLINE
  5
295
330
1F
100
AcDbEntity
  8
0
  6
Continuous
 62
     7
370
    25
100
AcDbSpline
210
0.0
220
0.0
230
1.0
 70
     8
 71
     3
 72
     9
 73
     5
 74
     0
 42
0.00000001
 43
0.00000001
 40
0.0
 40
0.0
 40
0.0
 40
0.0
 40
0.3722772596761814
 40
1.0
 40
1.0
 40
1.0
 40
1.0
 10
2676.977512147819
 20
3797.117891606445
 30
0.0
 10
2674.936744810723
 20
3797.18833928354
 30
0.0
 10
2669.454896849149
 20
3797.377573719068
 30
0.0
 10
2664.09318229843
 20
3798.753924759621
 30
0.0
 10
2660.727512147818
 20
3799.617891606445
 30
0.0
  0
SPLINE
  5
296
330
1F
100
AcDbEntity
  8
0
  6
Continuous
 62
     7
370
    25
100
AcDbSpline
210
0.0
220
0.0
230
1.0
 70
     8
 71
     3
 72
     9
 73
     5
 74
     0
 42
0.00000001
 43
0.00000001
 40
0.0
 40
0.0
 40
0.0
 40
0.0
 40
0.3722772596760524
 40
1.0
 40
1.0
 40
1.0
 40
1.0
 10
2676.977512147819
 20
3829.617891606446
 30
0.0
 10
2679.018279484915
 20
3829.547443929351
 30
0.0
 10
2684.500127446491
 20
3829.358209493823
 30
0.0
 10
2689.861841997208
 20
3827.981858453269
 30
0.0
 10
2693.227512147819
 20
3827.117891606445
 30
0.0
  0
LINE
  5
297
330
1F
100
AcDbEntity
  8
0
  6
Continuous
 62
     7
370
    25
100
AcDbLine
 10
2693.2275121478
 20
3799.6178916064
 30
0.0
 11
2693.2275121478
 21
3827.1178916064
 31
0.0
  0
LINE
  5
298
330
1F
100
AcDbEntity
  8
0
  6
Continuous
 62
     7
370
    25
100
AcDbLine
 10
2693.2275121478
 20
3799.6178916064
 30
0.0
 11
2676.9775121478
 21
3797.1178916064
 31
0.0
  0
LINE
  5
299
330
1F
100
AcDbEntity
  8
0
  6
Continuous
 62
     7
370
    25
100
AcDbLine
 10
2660.7275121478
 20
3827.1178916064
 30
0.0
 11
2676.9775121478
 21
3829.6178916064
 31
0.0
  0
LINE
  5
29A
330
1F
100
AcDbEntity
  8
0
  6
Continuous
 62
     7
370
    25
100
AcDbLine
 10
2676.9775121478
 20
3829.6178916064
 30
0.0
 11
2644.4775121478
 21
3829.6178916064
 31
0.0
  0
SPLINE
  5
29B
330
1F
100
AcDbEntity
  8
0
  6
Continuous
 62
     7
370
    25
100
AcDbSpline
210
0.0
220
0.0
230
1.0
 70
    24
 71
     3
 72
     9
 73
     5
 74
     0
 42
0.00000001
 43
0.00000001
 40
0.0
 40
0.0
 40
0.0
 40
0.0
 40
0.484389718055651
 40
0.9999999999999999
 40
0.9999999999999999
 40
0.9999999999999999
 40
0.9999999999999999
 10
2628.227512147819
 20
3799.617891606445
 30
0.0
 10
2628.227512147818
 20
3798.931522385926
 30
0.0
 10
2628.227512147818
 20
3797.514545115488
 30
0.0
 10
2628.227512147819
 20
3797.252833042294
 30
0.0
 10
2628.227512147819
 20
3797.117891606445
 30
0.0
  0
SPLINE
  5
29C
330
1F
100
AcDbEntity
  8
0
  6
Continuous
 62
     7
370
    25
100
AcDbSpline
210
0.0
220
0.0
230
1.0
 70
    24
 71
     3
 72
     9
 73
     5
 74
     0
 42
0.00000001
 43
0.00000001
 40
0.0
 40
0.0
 40
0.0
 40
0.0
 40
0.5156102819445848
 40
0.9999999999999999
 40
0.9999999999999999
 40
0.9999999999999999
 40
0.9999999999999999
 10
2628.227512147819
 20
3829.617891606446
 30
0.0
 10
2628.227512147819
 20
3829.482950170597
 30
0.0
 10
2628.227512147818
 20
3829.221238097403
 30
0.0
 10
2628.227512147818
 20
3827.804260826964
 30
0.0
 10
2628.227512147819
 20
3827.117891606445
 30
0.0
  0
LINE
  5
29D
330
1F
100
AcDbEntity
  8
0
  6
Continuous
 62
     7
370
    25
100
AcDbLine
 10
2644.4775121478
 20
3829.6178916064
 30
0.0
 11
2628.2275121478
 21
3829.6178916064
 31
0.0
  0
SPLINE
  5
29E
330
1F
100
AcDbEntity
  8
0
  6
Continuous
 62
     7
370
    25
100
AcDbSpline
210
0.0
220
0.0
230
1.0
 70
    24
 71
     3
 72
     9
 73
     5
 74
     0
 42
0.00000001
 43
0.00000001
 40
0.0
 40
0.0
 40
0.0
 40
0.0
 40
0.5156102819444079
 40
0.9999999999999999
 40
0.9999999999999999
 40
0.9999999999999999
 40
0.9999999999999999
 10
2693.227512147819
 20
3797.117891606445
 30
0.0
 10
2693.227512147819
 20
3797.252833042293
 30
0.0
 10
2693.227512147819
 20
3797.514545115488
 30
0.0
 10
2693.227512147819
 20
3798.931522385926
 30
0.0
 10
2693.227512147819
 20
3799.617891606445
 30
0.0
  0
SPLINE
  5
29F
330
1F
100
AcDbEntity
  8
0
  6
Continuous
 62
     7
370
    25
100
AcDbSpline
210
0.0
220
0.0
230
1.0
 70
    24
 71
     3
 72
     9
 73
     5
 74
     0
 42
0.00000001
 43
0.00000001
 40
0.0
 40
0.0
 40
0.0
 40
0.0
 40
0.4843897180554445
 40
1.0
 40
1.0
 40
1.0
 40
1.0
 10
2693.227512147819
 20
3827.117891606445
 30
0.0
 10
2693.227512147819
 20
3827.804260826964
 30
0.0
 10
2693.227512147819
 20
3829.221238097403
 30
0.0
 10
2693.227512147819
 20
3829.482950170597
 30
0.0
 10
2693.227512147819
 20
3829.617891606445
 30
0.0
  0
LINE
  5
2A0
330
1F
100
AcDbEntity
  8
0
  6
Continuous
 62
     7
370
    25
100
AcDbLine
 10
2693.2275121478
 20
3829.6178916064
 30
0.0
 11
2676.9775121478
 21
3829.6178916064
 31
0.0
  0
SPLINE
  5
2A1
330
1F
100
AcDbEntity
  8
0
  6
Continuous
 62
     7
370
    25
100
AcDbSpline
210
0.0
220
0.0
230
1.0
 70
     8
 71
     3
 72
     9
 73
     5
 74
     0
 42
0.00000001
 43
0.00000001
 40
0.0
 40
0.0
 40
0.0
 40
0.0
 40
0.3722772596760524
 40
1.0
 40
1.0
 40
1.0
 40
1.0
 10
1629.477512147819
 20
3754.617891606444
 30
0.0
 10
1631.518279484915
 20
3754.547443929349
 30
0.0
 10
1637.000127446491
 20
3754.358209493821
 30
0.0
 10
1642.361841997207
 20
3752.981858453267
 30
0.0
 10
1645.727512147818
 20
3752.117891606443
 30
0.0
  0
LINE
  5
2A2
330
1F
100
AcDbEntity
  8
0
  6
Continuous
 62
     7
370
    25
100
AcDbLine
 10
1645.7275121478
 20
3724.6178916064
 30
0.0
 11
1645.7275121478
 21
3752.1178916064
 31
0.0
  0
LINE
  5
2A3
330
1F
100
AcDbEntity
  8
0
  6
Continuous
 62
     7
370
    25
100
AcDbLine
 10
1645.7275121478
 20
3724.6178916064
 30
0.0
 11
1629.4775121478
 21
3722.1178916064
 31
0.0
  0
SPLINE
  5
2A4
330
1F
100
AcDbEntity
  8
0
  6
Continuous
 62
     7
370
    25
100
AcDbSpline
210
0.0
220
0.0
230
1.0
 70
     8
 71
     3
 72
     9
 73
     5
 74
     0
 42
0.00000001
 43
0.00000001
 40
0.0
 40
0.0
 40
0.0
 40
0.0
 40
0.3722772596761814
 40
1.0
 40
1.0
 40
1.0
 40
1.0
 10
1629.477512147819
 20
3722.117891606443
 30
0.0
 10
1627.436744810722
 20
3722.188339283538
 30
0.0
 10
1621.954896849149
 20
3722.377573719065
 30
0.0
 10
1616.59318229843
 20
3723.753924759619
 30
0.0
 10
1613.227512147818
 20
3724.617891606443
 30
0.0
  0
LINE
  5
2A5
330
1F
100
AcDbEntity
  8
0
  6
Continuous
 62
     7
370
    25
100
AcDbLine
 10
1613.2275121478
 20
3724.6178916064
 30
0.0
 11
1613.2275121478
 21
3752.1178916064
 31
0.0
  0
LINE
  5
2A6
330
1F
100
AcDbEntity
  8
0
  6
Continuous
 62
     7
370
    25
100
AcDbLine
 10
1613.2275121478
 20
3752.1178916064
 30
0.0
 11
1629.4775121478
 21
3754.6178916064
 31
0.0
  0
LINE
  5
2A7
330
1F
100
AcDbEntity
  8
0
  6
Continuous
 62
     7
370
    25
100
AcDbLine
 10
1629.4775121478
 20
3722.1178916064
 30
0.0
 11
1596.9775121478
 21
3722.1178916064
 31
0.0
  0
LINE
  5
2A8
330
1F
100
AcDbEntity
  8
0
  6
Continuous
 62
     7
370
    25
100
AcDbLine
 10
1613.2275121478
 20
3724.6178916064
 30
0.0
 11
1596.9775121478
 21
3722.1178916064
 31
0.0
  0
SPLINE
  5
2A9
330
1F
100
AcDbEntity
  8
0
  6
Continuous
 62
     7
370
    25
100
AcDbSpline
210
0.0
220
0.0
230
1.0
 70
     8
 71
     3
 72
     9
 73
     5
 74
     0
 42
0.00000001
 43
0.00000001
 40
0.0
 40
0.0
 40
0.0
 40
0.0
 40
0.372277259676211
 40
1.0
 40
1.0
 40
1.0
 40
1.0
 10
1596.977512147819
 20
3754.617891606444
 30
0.0
 10
1599.018279484915
 20
3754.547443929349
 30
0.0
 10
1604.500127446487
 20
3754.35820949382
 30
0.0
 10
1609.861841997207
 20
3752.981858453266
 30
0.0
 10
1613.227512147818
 20
3752.117891606443
 30
0.0
  0
SPLINE
  5
2AA
330
1F
100
AcDbEntity
  8
0
  6
Continuous
 62
     7
370
    25
100
AcDbSpline
210
0.0
220
0.0
230
1.0
 70
     8
 71
     3
 72
     9
 73
     5
 74
     0
 42
0.00000001
 43
0.00000001
 40
0.0
 40
0.0
 40
0.0
 40
0.0
 40
0.3722772596761831
 40
1.0
 40
1.0
 40
1.0
 40
1.0
 10
1596.977512147819
 20
3722.117891606443
 30
0.0
 10
1594.936744810723
 20
3722.188339283538
 30
0.0
 10
1589.454896849149
 20
3722.377573719065
 30
0.0
 10
1584.09318229843
 20
3723.753924759619
 30
0.0
 10
1580.727512147818
 20
3724.617891606443
 30
0.0
  0
LINE
  5
2AB
330
1F
100
AcDbEntity
  8
0
  6
Continuous
 62
     7
370
    25
100
AcDbLine
 10
1580.7275121478
 20
3724.6178916064
 30
0.0
 11
1580.7275121478
 21
3752.1178916064
 31
0.0
  0
LINE
  5
2AC
330
1F
100
AcDbEntity
  8
0
  6
Continuous
 62
     7
370
    25
100
AcDbLine
 10
1580.7275121478
 20
3752.1178916064
 30
0.0
 11
1596.9775121478
 21
3754.6178916064
 31
0.0
  0
SPLINE
  5
2AD
330
1F
100
AcDbEntity
  8
0
  6
Continuous
 62
     7
370
    25
100
AcDbSpline
210
0.0
220
0.0
230
1.0
 70
    24
 71
     3
 72
     9
 73
     5
 74
     0
 42
0.00000001
 43
0.00000001
 40
0.0
 40
0.0
 40
0.0
 40
0.0
 40
0.5156102819445848
 40
0.9999999999999999
 40
0.9999999999999999
 40
0.9999999999999999
 40
0.9999999999999999
 10
1580.727512147819
 20
3754.617891606443
 30
0.0
 10
1580.727512147818
 20
3754.482950170595
 30
0.0
 10
1580.727512147818
 20
3754.221238097401
 30
0.0
 10
1580.727512147818
 20
3752.804260826962
 30
0.0
 10
1580.727512147818
 20
3752.117891606443
 30
0.0
  0
SPLINE
  5
2AE
330
1F
100
AcDbEntity
  8
0
  6
Continuous
 62
     7
370
    25
100
AcDbSpline
210
0.0
220
0.0
230
1.0
 70
    24
 71
     3
 72
     9
 73
     5
 74
     0
 42
0.00000001
 43
0.00000001
 40
0.0
 40
0.0
 40
0.0
 40
0.0
 40
0.484389718055651
 40
0.9999999999999999
 40
0.9999999999999999
 40
0.9999999999999999
 40
0.9999999999999999
 10
1580.727512147818
 20
3724.617891606443
 30
0.0
 10
1580.727512147818
 20
3723.931522385924
 30
0.0
 10
1580.727512147818
 20
3722.514545115485
 30
0.0
 10
1580.727512147818
 20
3722.252833042291
 30
0.0
 10
1580.727512147818
 20
3722.117891606443
 30
0.0
  0
LINE
  5
2AF
330
1F
100
AcDbEntity
  8
0
  6
Continuous
 62
     7
370
    25
100
AcDbLine
 10
1596.9775121478
 20
3722.1178916064
 30
0.0
 11
1580.7275121478
 21
3722.1178916064
 31
0.0
  0
SPLINE
  5
2B0
330
1F
100
AcDbEntity
  8
0
  6
Continuous
 62
     7
370
    25
100
AcDbSpline
210
0.0
220
0.0
230
1.0
 70
    24
 71
     3
 72
     9
 73
     5
 74
     0
 42
0.00000001
 43
0.00000001
 40
0.0
 40
0.0
 40
0.0
 40
0.0
 40
0.5156102819444079
 40
0.9999999999999999
 40
0.9999999999999999
 40
0.9999999999999999
 40
0.9999999999999999
 10
1645.727512147818
 20
3722.117891606443
 30
0.0
 10
1645.727512147818
 20
3722.252833042291
 30
0.0
 10
1645.727512147818
 20
3722.514545115485
 30
0.0
 10
1645.727512147818
 20
3723.931522385924
 30
0.0
 10
1645.727512147818
 20
3724.617891606443
 30
0.0
  0
LINE
  5
2B1
330
1F
100
AcDbEntity
  8
0
  6
Continuous
 62
     7
370
    25
100
AcDbLine
 10
1645.7275121478
 20
3722.1178916064
 30
0.0
 11
1629.4775121478
 21
3722.1178916064
 31
0.0
  0
SPLINE
  5
2B2
330
1F
100
AcDbEntity
  8
0
  6
Continuous
 62
     7
370
    25
100
AcDbSpline
210
0.0
220
0.0
230
1.0
 70
    24
 71
     3
 72
     9
 73
     5
 74
     0
 42
0.00000001
 43
0.00000001
 40
0.0
 40
0.0
 40
0.0
 40
0.0
 40
0.4843897180554445
 40
1.0
 40
1.0
 40
1.0
 40
1.0
 10
1645.727512147818
 20
3752.117891606443
 30
0.0
 10
1645.727512147818
 20
3752.804260826962
 30
0.0
 10
1645.727512147818
 20
3754.221238097401
 30
0.0
 10
1645.727512147818
 20
3754.482950170595
 30
0.0
 10
1645.727512147818
 20
3754.617891606443
 30
0.0
  0
LINE
  5
2B3
330
1F
100
AcDbEntity
  8
0
  6
Continuous
 62
     7
370
    25
100
AcDbLine
 10
1674.7101810792
 20
3562.1178916064
 30
0.0
 11
1702.1657000793
 21
3562.1178916064
 31
0.0
  0
LINE
  5
2B4
330
1F
100
AcDbEntity
  8
0
  6
Continuous
 62
     7
370
    25
100
AcDbLine
 10
1674.7101810792
 20
3562.1178916064
 30
0.0
 11
1661.0267679861
 21
3564.6178916064
 31
0.0
  0
LINE
  5
2B5
330
1F
100
AcDbEntity
  8
0
  6
Continuous
 62
     7
370
    25
100
AcDbLine
 10
1661.0267679861
 20
3607.1178916064
 30
0.0
 11
1661.0267679861
 21
3564.6178916064
 31
0.0
  0
LINE
  5
2B6
330
1F
100
AcDbEntity
  8
0
  6
Continuous
 62
     7
370
    25
100
AcDbLine
 10
1661.0267679861
 20
3607.1178916064
 30
0.0
 11
1674.7101810792
 21
3609.6178916064
 31
0.0
  0
LINE
  5
2B7
330
1F
100
AcDbEntity
  8
0
  6
Continuous
 62
     7
370
    25
100
AcDbLine
 10
1702.1657000793
 20
3609.6178916064
 30
0.0
 11
1715.8491131724
 21
3607.1178916064
 31
0.0
  0
LINE
  5
2B8
330
1F
100
AcDbEntity
  8
0
  6
Continuous
 62
     7
370
    25
100
AcDbLine
 10
1715.8491131724
 20
3607.1178916064
 30
0.0
 11
1715.8491131724
 21
3564.6178916064
 31
0.0
  0
LINE
  5
2B9
330
1F
100
AcDbEntity
  8
0
  6
Continuous
 62
     7
370
    25
100
AcDbLine
 10
1715.8491131724
 20
3564.6178916064
 30
0.0
 11
1702.1657000793
 21
3562.1178916064
 31
0.0
  0
LINE
  5
2BA
330
1F
100
AcDbEntity
  8
0
  6
Continuous
 62
     7
370
    25
100
AcDbLine
 10
1653.8205450101
 20
3609.6178916064
 30
0.0
 11
1661.0267679861
 21
3607.1178916064
 31
0.0
  0
LINE
  5
2BB
330
1F
100
AcDbEntity
  8
0
  6
Continuous
 62
     7
370
    25
100
AcDbLine
 10
1661.0267679861
 20
3564.6178916064
 30
0.0
 11
1653.8205450101
 21
3562.1178916064
 31
0.0
  0
LINE
  5
2BC
330
1F
100
AcDbEntity
  8
0
  6
Continuous
 62
     7
370
    25
100
AcDbLine
 10
1653.8205450101
 20
3562.1178916064
 30
0.0
 11
1674.7101810792
 21
3562.1178916064
 31
0.0
  0
SPLINE
  5
2BD
330
1F
100
AcDbEntity
  8
0
  6
Continuous
 62
     7
370
    25
100
AcDbSpline
210
0.0
220
0.0
230
1.0
 70
     8
 71
     3
 72
     9
 73
     5
 74
     0
 42
0.00000001
 43
0.00000001
 40
0.0
 40
0.0
 40
0.0
 40
0.0
 40
0.6224528575933983
 40
1.0
 40
1.0
 40
1.0
 40
1.0
 10
1722.326303289546
 20
3562.117891606444
 30
0.0
 10
1720.955098088111
 20
3562.350040520453
 30
0.0
 10
1718.752191980914
 20
3562.722998747213
 30
0.0
 10
1716.644765876104
 20
3564.098554472965
 30
0.0
 10
1715.8491131724
 20
3564.617891606444
 30
0.0
  0
LINE
  5
2BE
330
1F
100
AcDbEntity
  8
0
  6
Continuous
 62
     7
370
    25
100
AcDbLine
 10
1702.1657000793
 20
3562.1178916064
 30
0.0
 11
1722.3263032895
 21
3562.1178916064
 31
0.0
  0
SPLINE
  5
2BF
330
1F
100
AcDbEntity
  8
0
  6
Continuous
 62
     7
370
    25
100
AcDbSpline
210
0.0
220
0.0
230
1.0
 70
     8
 71
     3
 72
     9
 73
     5
 74
     0
 42
0.00000001
 43
0.00000001
 40
0.0
 40
0.0
 40
0.0
 40
0.0
 40
0.6091707704042585
 40
1.0
 40
1.0
 40
1.0
 40
1.0
 10
1715.8491131724
 20
3607.117891606444
 30
0.0
 10
1717.143771665044
 20
3607.8851467363
 30
0.0
 10
1719.269051726963
 20
3609.144654196493
 30
0.0
 10
1721.467201936584
 20
3609.484909779192
 30
0.0
 10
1722.326303289546
 20
3609.617891606444
 30
0.0
  0
LINE
  5
2C0
330
1F
100
AcDbEntity
  8
0
  6
Continuous
 62
     7
370
    25
100
AcDbLine
 10
1639.3613899375
 20
3562.1178916064
 30
0.0
 11
1632.1551669615
 21
3564.6178916064
 31
0.0
  0
LINE
  5
2C1
330
1F
100
AcDbEntity
  8
0
  6
Continuous
 62
     7
370
    25
100
AcDbLine
 10
1632.1551669615
 20
3607.1178916064
 30
0.0
 11
1632.1551669615
 21
3564.6178916064
 31
0.0
  0
LINE
  5
2C2
330
1F
100
AcDbEntity
  8
0
  6
Continuous
 62
     7
370
    25
100
AcDbLine
 10
1632.1551669615
 20
3607.1178916064
 30
0.0
 11
1639.3613899375
 21
3609.6178916064
 31
0.0
  0
LINE
  5
2C3
330
1F
100
AcDbEntity
  8
0
  6
Continuous
 62
     7
370
    25
100
AcDbLine
 10
1639.3613899375
 20
3562.1178916064
 30
0.0
 11
1653.8205450101
 21
3562.1178916064
 31
0.0
  0
SPLINE
  5
2C4
330
1F
100
AcDbEntity
  8
0
  6
Continuous
 62
     7
370
    25
100
AcDbSpline
210
0.0
220
0.0
230
1.0
 70
     8
 71
     3
 72
     9
 73
     5
 74
     0
 42
0.00000001
 43
0.00000001
 40
0.0
 40
0.0
 40
0.0
 40
0.0
 40
0.7258828728405505
 40
1.0
 40
1.0
 40
1.0
 40
1.0
 10
1735.322667217002
 20
3609.617891606444
 30
0.0
 10
1736.695921429108
 20
3609.40725853788
 30
0.0
 10
1738.58776137118
 20
3609.117083529701
 30
0.0
 10
1740.397726120226
 20
3607.967169710188
 30
0.0
 10
1740.893868457494
 20
3607.651958637503
 30
0.0
  0
LINE
  5
2C5
330
1F
100
AcDbEntity
  8
0
  6
Continuous
 62
     7
370
    25
100
AcDbLine
 10
1741.7998573341
 20
3607.1178916064
 30
0.0
 11
1741.7998573341
 21
3564.6178916064
 31
0.0
  0
SPLINE
  5
2C6
330
1F
100
AcDbEntity
  8
0
  6
Continuous
 62
     7
370
    25
100
AcDbSpline
210
0.0
220
0.0
230
1.0
 70
     8
 71
     3
 72
     9
 73
     5
 74
     0
 42
0.00000001
 43
0.00000001
 40
0.0
 40
0.0
 40
0.0
 40
0.0
 40
0.5444812344804042
 40
1.0
 40
1.0
 40
1.0
 40
1.0
 10
1740.888101845183
 20
3564.160817299519
 30
0.0
 10
1739.894526463456
 20
3563.581688462906
 30
0.0
 10
1738.069715397791
 20
3562.518054309995
 30
0.0
 10
1736.182382684627
 20
3562.243126419658
 30
0.0
 10
1735.322667217002
 20
3562.117891606444
 30
0.0
  0
LINE
  5
2C7
330
1F
100
AcDbEntity
  8
0
  6
Continuous
 62
     7
370
    25
100
AcDbLine
 10
1722.3263032895
 20
3562.1178916064
 30
0.0
 11
1735.322667217
 21
3562.1178916064
 31
0.0
  0
LINE
  5
2C8
330
1F
100
AcDbEntity
  8
0
  6
Continuous
 62
     7
370
    25
100
AcDbLine
 10
1632.1551669615
 20
3564.6178916064
 30
0.0
 11
1633.0641979458
 21
3564.1621831274
 31
0.0
  0
LINE
  5
2C9
330
1F
100
AcDbEntity
  8
0
  6
Continuous
 62
     7
370
    25
100
AcDbLine
 10
1633.0655258364
 20
3607.6545346868
 30
0.0
 11
1632.1551669615
 21
3607.1178916064
 31
0.0
  0
LINE
  5
2CA
330
1F
100
AcDbEntity
  8
0
  6
Continuous
 62
     7
370
    25
100
AcDbLine
 10
1735.322667217
 20
3562.1178916064
 30
0.0
 11
1736.4232368776
 21
3562.1178916064
 31
0.0
  0
LINE
  5
2CB
330
1F
100
AcDbEntity
  8
0
  6
Continuous
 62
     7
370
    25
100
AcDbLine
 10
2593.7675662894
 20
3562.1178916064
 30
0.0
 11
2618.857431558
 21
3562.1178916064
 31
0.0
  0
LINE
  5
2CC
330
1F
100
AcDbEntity
  8
0
  6
Continuous
 62
     7
370
    25
100
AcDbLine
 10
2593.7675662894
 20
3562.1178916064
 30
0.0
 11
2581.2631590363
 21
3564.6178916064
 31
0.0
  0
LINE
  5
2CD
330
1F
100
AcDbEntity
  8
0
  6
Continuous
 62
     7
370
    25
100
AcDbLine
 10
2581.2631590363
 20
3607.1178916064
 30
0.0
 11
2581.2631590363
 21
3564.6178916064
 31
0.0
  0
LINE
  5
2CE
330
1F
100
AcDbEntity
  8
0
  6
Continuous
 62
     7
370
    25
100
AcDbLine
 10
2581.2631590363
 20
3607.1178916064
 30
0.0
 11
2593.7675662894
 21
3609.6178916064
 31
0.0
  0
LINE
  5
2CF
330
1F
100
AcDbEntity
  8
0
  6
Continuous
 62
     7
370
    25
100
AcDbLine
 10
2618.857431558
 20
3609.6178916064
 30
0.0
 11
2631.361838811
 21
3607.1178916064
 31
0.0
  0
LINE
  5
2D0
330
1F
100
AcDbEntity
  8
0
  6
Continuous
 62
     7
370
    25
100
AcDbLine
 10
2631.361838811
 20
3607.1178916064
 30
0.0
 11
2631.361838811
 21
3564.6178916064
 31
0.0
  0
LINE
  5
2D1
330
1F
100
AcDbEntity
  8
0
  6
Continuous
 62
     7
370
    25
100
AcDbLine
 10
2631.361838811
 20
3564.6178916064
 30
0.0
 11
2618.857431558
 21
3562.1178916064
 31
0.0
  0
SPLINE
  5
2D2
330
1F
100
AcDbEntity
  8
0
  6
Continuous
 62
     7
370
    25
100
AcDbSpline
210
0.0
220
0.0
230
1.0
 70
     8
 71
     3
 72
     9
 73
     5
 74
     0
 42
0.00000001
 43
0.00000001
 40
0.0
 40
0.0
 40
0.0
 40
0.0
 40
0.6224528575934237
 40
1.0
 40
1.0
 40
1.0
 40
1.0
 10
2570.185028859124
 20
3609.617891606444
 30
0.0
 10
2572.530241744098
 20
3609.385742692434
 30
0.0
 10
2576.297937331586
 20
3609.012784465675
 30
0.0
 10
2579.902330641908
 20
3607.637228739923
 30
0.0
 10
2581.263159036329
 20
3607.117891606444
 30
0.0
  0
SPLINE
  5
2D3
330
1F
100
AcDbEntity
  8
0
  6
Continuous
 62
     7
370
    25
100
AcDbSpline
210
0.0
220
0.0
230
1.0
 70
     8
 71
     3
 72
     9
 73
     5
 74
     0
 42
0.00000001
 43
0.00000001
 40
0.0
 40
0.0
 40
0.0
 40
0.0
 40
0.6091707704042167
 40
1.0
 40
1.0
 40
1.0
 40
1.0
 10
2581.263159036329
 20
3564.617891606444
 30
0.0
 10
2579.048866255488
 20
3563.850636476588
 30
0.0
 10
2575.413936793308
 20
3562.591129016395
 30
0.0
 10
2571.654375358362
 20
3562.250873433696
 30
0.0
 10
2570.185028859124
 20
3562.117891606444
 30
0.0
  0
LINE
  5
2D4
330
1F
100
AcDbEntity
  8
0
  6
Continuous
 62
     7
370
    25
100
AcDbLine
 10
2570.1850288591
 20
3562.1178916064
 30
0.0
 11
2593.7675662894
 21
3562.1178916064
 31
0.0
  0
LINE
  5
2D5
330
1F
100
AcDbEntity
  8
0
  6
Continuous
 62
     7
370
    25
100
AcDbLine
 10
2536.8788323731
 20
3607.1178916064
 30
0.0
 11
2536.8788323731
 21
3564.6178916064
 31
0.0
  0
SPLINE
  5
2D6
330
1F
100
AcDbEntity
  8
0
  6
Continuous
 62
     7
370
    25
100
AcDbSpline
210
0.0
220
0.0
230
1.0
 70
     8
 71
     3
 72
     9
 73
     5
 74
     0
 42
0.00000001
 43
0.00000001
 40
0.0
 40
0.0
 40
0.0
 40
0.0
 40
0.6091707704042603
 40
1.0
 40
1.0
 40
1.0
 40
1.0
 10
2536.878832373105
 20
3607.117891606444
 30
0.0
 10
2539.093125153945
 20
3607.8851467363
 30
0.0
 10
2542.728054616125
 20
3609.144654196493
 30
0.0
 10
2546.487616051072
 20
3609.484909779192
 30
0.0
 10
2547.95696255031
 20
3609.617891606444
 30
0.0
  0
SPLINE
  5
2D7
330
1F
100
AcDbEntity
  8
0
  6
Continuous
 62
     7
370
    25
100
AcDbSpline
210
0.0
220
0.0
230
1.0
 70
     8
 71
     3
 72
     9
 73
     5
 74
     0
 42
0.00000001
 43
0.00000001
 40
0.0
 40
0.0
 40
0.0
 40
0.0
 40
0.6224528575933967
 40
1.0
 40
1.0
 40
1.0
 40
1.0
 10
2547.95696255031
 20
3562.117891606444
 30
0.0
 10
2545.611749665336
 20
3562.350040520453
 30
0.0
 10
2541.844054077848
 20
3562.722998747213
 30
0.0
 10
2538.239660767526
 20
3564.098554472965
 30
0.0
 10
2536.878832373105
 20
3564.617891606444
 30
0.0
  0
LINE
  5
2D8
330
1F
100
AcDbEntity
  8
0
  6
Continuous
 62
     7
370
    25
100
AcDbLine
 10
2547.9569625503
 20
3562.1178916064
 30
0.0
 11
2570.1850288591
 21
3562.1178916064
 31
0.0
  0
LINE
  5
2D9
330
1F
100
AcDbEntity
  8
0
  6
Continuous
 62
     7
370
    25
100
AcDbLine
 10
2632.7881158869
 20
3562.1178916064
 30
0.0
 11
2631.361838811
 21
3564.6178916064
 31
0.0
  0
LINE
  5
2DA
330
1F
100
AcDbEntity
  8
0
  6
Continuous
 62
     7
370
    25
100
AcDbLine
 10
2618.857431558
 20
3562.1178916064
 30
0.0
 11
2632.7881158869
 21
3562.1178916064
 31
0.0
  0
LINE
  5
2DB
330
1F
100
AcDbEntity
  8
0
  6
Continuous
 62
     7
370
    25
100
AcDbLine
 10
2631.361838811
 20
3607.1178916064
 30
0.0
 11
2632.7881158869
 21
3609.6178916064
 31
0.0
  0
LINE
  5
2DC
330
1F
100
AcDbEntity
  8
0
  6
Continuous
 62
     7
370
    25
100
AcDbLine
 10
2635.6499148467
 20
3609.6178916064
 30
0.0
 11
2637.0761919225
 21
3607.1178916064
 31
0.0
  0
LINE
  5
2DD
330
1F
100
AcDbEntity
  8
0
  6
Continuous
 62
     7
370
    25
100
AcDbLine
 10
2637.0761919225
 20
3607.1178916064
 30
0.0
 11
2637.0761919225
 21
3564.6178916064
 31
0.0
  0
LINE
  5
2DE
330
1F
100
AcDbEntity
  8
0
  6
Continuous
 62
     7
370
    25
100
AcDbLine
 10
2637.0761919225
 20
3564.6178916064
 30
0.0
 11
2635.6499148467
 21
3562.1178916064
 31
0.0
  0
LINE
  5
2DF
330
1F
100
AcDbEntity
  8
0
  6
Continuous
 62
     7
370
    25
100
AcDbLine
 10
2632.7881158869
 20
3562.1178916064
 30
0.0
 11
2635.6499148467
 21
3562.1178916064
 31
0.0
  0
LINE
  5
2E0
330
1F
100
AcDbEntity
  8
0
  6
Continuous
 62
     7
370
    25
100
AcDbLine
 10
2536.8788323731
 20
3564.6178916064
 30
0.0
 11
2538.305109449
 21
3562.1178916064
 31
0.0
  0
LINE
  5
2E1
330
1F
100
AcDbEntity
  8
0
  6
Continuous
 62
     7
370
    25
100
AcDbLine
 10
2538.305109449
 20
3562.1178916064
 30
0.0
 11
2547.9569625503
 21
3562.1178916064
 31
0.0
  0
LINE
  5
2E2
330
1F
100
AcDbEntity
  8
0
  6
Continuous
 62
     7
370
    25
100
AcDbLine
 10
2538.305109449
 20
3609.6178916064
 30
0.0
 11
2536.8788323731
 21
3607.1178916064
 31
0.0
  0
LINE
  5
2E3
330
1F
100
AcDbEntity
  8
0
  6
Continuous
 62
     7
370
    25
100
AcDbLine
 10
1774.4775121478
 20
3622.1178916064
 30
0.0
 11
1748.2275121478
 21
3622.1178916064
 31
0.0
  0
LINE
  5
2E4
330
1F
100
AcDbEntity
  8
0
  6
Continuous
 62
     7
370
    25
100
AcDbLine
 10
1774.4775121478
 20
3609.6178916064
 30
0.0
 11
1629.2275121478
 21
3609.6178916064
 31
0.0
  0
LINE
  5
2E5
330
1F
100
AcDbEntity
  8
0
  6
Continuous
 62
     7
370
    25
100
AcDbLine
 10
2525.7275121478
 20
3622.1178916064
 30
0.0
 11
2499.4775121478
 21
3622.1178916064
 31
0.0
  0
LINE
  5
2E6
330
1F
100
AcDbEntity
  8
0
  6
Continuous
 62
     7
370
    25
100
AcDbLine
 10
2644.7275121478
 20
3609.6178916064
 30
0.0
 11
2499.4775121478
 21
3609.6178916064
 31
0.0
  0
LINE
  5
2E7
330
1F
100
AcDbEntity
  8
0
  6
Continuous
 62
     7
370
    25
100
AcDbLine
 10
1478.2275121478
 20
3777.1178916064
 30
0.0
 11
1748.2275121478
 21
3777.1178916064
 31
0.0
  0
LINE
  5
2E8
330
1F
100
AcDbEntity
  8
0
  6
Continuous
 62
     7
370
    25
100
AcDbLine
 10
1478.2275121478
 20
3777.1178916064
 30
0.0
 11
1478.2275121478
 21
3787.1178916064
 31
0.0
  0
LINE
  5
2E9
330
1F
100
AcDbEntity
  8
0
  6
Continuous
 62
     7
370
    25
100
AcDbLine
 10
1478.2275121478
 20
3787.1178916064
 30
0.0
 11
1748.2275121478
 21
3787.1178916064
 31
0.0
  0
LINE
  5
2EA
330
1F
100
AcDbEntity
  8
0
  6
Continuous
 62
     7
370
    25
100
AcDbLine
 10
1748.2275121478
 20
3777.1178916064
 30
0.0
 11
1748.2275121478
 21
3787.1178916064
 31
0.0
  0
LINE
  5
2EB
330
1F
100
AcDbEntity
  8
0
  6
Continuous
 62
     7
370
    25
100
AcDbLine
 10
1478.2275121478
 20
3772.1178916064
 30
0.0
 11
1478.2275121478
 21
3777.1178916064
 31
0.0
  0
ARC
  5
2EC
330
1F
100
AcDbEntity
  8
0
  6
Continuous
 62
     7
370
    25
100
AcDbCircle
 10
1478.2275121478
 20
3637.1178916064
 30
0.0
 40
5.000000000000455
100
AcDbArc
 50
180.0
 51
270.0
  0
LINE
  5
2ED
330
1F
100
AcDbEntity
  8
0
  6
Continuous
 62
     7
370
    25
100
AcDbLine
 10
1748.2275121478
 20
3632.1178916064
 30
0.0
 11
1629.2275121478
 21
3632.1178916064
 31
0.0
  0
LINE
  5
2EE
330
1F
100
AcDbEntity
  8
0
  6
Continuous
 62
     7
370
    25
100
AcDbLine
 10
1597.2275121478
 20
3632.1178916064
 30
0.0
 11
1478.2275121478
 21
3632.1178916064
 31
0.0
  0
ARC
  5
2EF
330
1F
100
AcDbEntity
  8
0
  6
Continuous
 62
     7
370
    25
100
AcDbCircle
 10
1748.2275121478
 20
3637.1178916064
 30
0.0
 40
5.000000000000455
100
AcDbArc
 50
270.0
 51
0.0
  0
ARC
  5
2F0
330
1F
100
AcDbEntity
  8
0
  6
Continuous
 62
     7
370
    25
100
AcDbCircle
 10
1478.2275121478
 20
3637.1178916064
 30
0.0
 40
15.0
100
AcDbArc
 50
180.0
 51
270.0
  0
LINE
  5
2F1
330
1F
100
AcDbEntity
  8
0
  6
Continuous
 62
     7
370
    25
100
AcDbLine
 10
1478.2275121478
 20
3622.1178916064
 30
0.0
 11
1597.2275121478
 21
3622.1178916064
 31
0.0
  0
LINE
  5
2F2
330
1F
100
AcDbEntity
  8
0
  6
Continuous
 62
     7
370
    25
100
AcDbLine
 10
1629.2275121478
 20
3622.1178916064
 30
0.0
 11
1748.2275121478
 21
3622.1178916064
 31
0.0
  0
ARC
  5
2F3
330
1F
100
AcDbEntity
  8
0
  6
Continuous
 62
     7
370
    25
100
AcDbCircle
 10
1748.2275121478
 20
3637.1178916064
 30
0.0
 40
15.0
100
AcDbArc
 50
270.0
 51
0.0
  0
LINE
  5
2F4
330
1F
100
AcDbEntity
  8
0
  6
Continuous
 62
     7
370
    25
100
AcDbLine
 10
1473.2275121478
 20
3772.1178916064
 30
0.0
 11
1463.2275121478
 21
3772.1178916064
 31
0.0
  0
LINE
  5
2F5
330
1F
100
AcDbEntity
  8
0
  6
Continuous
 62
     7
370
    25
100
AcDbLine
 10
1763.2275121478
 20
3637.1178916064
 30
0.0
 11
1763.2275121478
 21
3764.6178916064
 31
0.0
  0
LINE
  5
2F6
330
1F
100
AcDbEntity
  8
0
  6
Continuous
 62
     7
370
    25
100
AcDbLine
 10
1753.2275121478
 20
3764.6178916064
 30
0.0
 11
1753.2275121478
 21
3637.1178916064
 31
0.0
  0
LINE
  5
2F7
330
1F
100
AcDbEntity
  8
0
  6
Continuous
 62
     7
370
    25
100
AcDbLine
 10
1463.2275121478
 20
3772.1178916064
 30
0.0
 11
1463.2275121478
 21
3637.1178916064
 31
0.0
  0
LINE
  5
2F8
330
1F
100
AcDbEntity
  8
0
  6
Continuous
 62
     7
370
    25
100
AcDbLine
 10
1473.2275121478
 20
3637.1178916064
 30
0.0
 11
1473.2275121478
 21
3772.1178916064
 31
0.0
  0
LINE
  5
2F9
330
1F
100
AcDbEntity
  8
0
  6
Continuous
 62
     7
370
    25
100
AcDbLine
 10
1478.2275121478
 20
3632.1178916064
 30
0.0
 11
1478.2275121478
 21
3772.1178916064
 31
0.0
  0
LINE
  5
2FA
330
1F
100
AcDbEntity
  8
0
  6
Continuous
 62
     7
370
    25
100
AcDbLine
 10
1748.2275121478
 20
3632.1178916064
 30
0.0
 11
1748.2275121478
 21
3764.6178916064
 31
0.0
  0
LINE
  5
2FB
330
1F
100
AcDbEntity
  8
0
  6
Continuous
 62
     7
370
    25
100
AcDbLine
 10
2013.2275121478
 20
3764.6178916064
 30
0.0
 11
2013.2275121478
 21
3622.1178916064
 31
0.0
  0
CIRCLE
  5
2FC
330
1F
100
AcDbEntity
  8
0
  6
Continuous
 62
     7
370
    25
100
AcDbCircle
 10
1903.2275121478
 20
3697.1178916064
 30
0.0
 40
25.0
  0
LINE
  5
2FD
330
1F
100
AcDbEntity
  8
0
  6
Continuous
 62
     7
370
    25
100
AcDbLine
 10
2013.2275121478
 20
3622.1178916064
 30
0.0
 11
1774.4775121478
 21
3622.1178916064
 31
0.0
  0
LINE
  5
2FE
330
1F
100
AcDbEntity
  8
0
  6
Continuous
 62
     7
370
    25
100
AcDbLine
 10
1213.2275121478
 20
3622.1178916064
 30
0.0
 11
1213.2275121478
 21
3772.1178916064
 31
0.0
  0
CIRCLE
  5
2FF
330
1F
100
AcDbEntity
  8
0
  6
Continuous
 62
     7
370
    25
100
AcDbCircle
 10
1323.2275121478
 20
3697.1178916064
 30
0.0
 40
25.0
  0
LINE
  5
300
330
1F
100
AcDbEntity
  8
0
  6
Continuous
 62
     7
370
    25
100
AcDbLine
 10
1478.2275121478
 20
3622.1178916064
 30
0.0
 11
1213.2275121478
 21
3622.1178916064
 31
0.0
  0
LINE
  5
301
330
1F
100
AcDbEntity
  8
0
  6
Continuous
 62
     7
370
    25
100
AcDbLine
 10
1213.2275121478
 20
3772.1178916064
 30
0.0
 11
1311.9775121478
 21
3772.1178916064
 31
0.0
  0
LINE
  5
302
330
1F
100
AcDbEntity
  8
0
  6
Continuous
 62
     7
370
    25
100
AcDbLine
 10
2525.7275121478
 20
3777.1178916064
 30
0.0
 11
2525.7275121478
 21
3787.1178916064
 31
0.0
  0
LINE
  5
303
330
1F
100
AcDbEntity
  8
0
  6
Continuous
 62
     7
370
    25
100
AcDbLine
 10
2795.7275121478
 20
3777.1178916064
 30
0.0
 11
2795.7275121478
 21
3787.1178916064
 31
0.0
  0
LINE
  5
304
330
1F
100
AcDbEntity
  8
0
  6
Continuous
 62
     7
370
    25
100
AcDbLine
 10
2525.7275121478
 20
3777.1178916064
 30
0.0
 11
2795.7275121478
 21
3777.1178916064
 31
0.0
  0
LINE
  5
305
330
1F
100
AcDbEntity
  8
0
  6
Continuous
 62
     7
370
    25
100
AcDbLine
 10
2525.7275121478
 20
3787.1178916064
 30
0.0
 11
2795.7275121478
 21
3787.1178916064
 31
0.0
  0
LINE
  5
306
330
1F
100
AcDbEntity
  8
0
  6
Continuous
 62
     7
370
    25
100
AcDbLine
 10
2795.7275121478
 20
3772.1178916064
 30
0.0
 11
2795.7275121478
 21
3777.1178916064
 31
0.0
  0
ARC
  5
307
330
1F
100
AcDbEntity
  8
0
  6
Continuous
 62
     7
370
    25
100
AcDbCircle
 10
2525.7275121478
 20
3637.1178916064
 30
0.0
 40
5.0
100
AcDbArc
 50
180.0
 51
270.0
  0
LINE
  5
308
330
1F
100
AcDbEntity
  8
0
  6
Continuous
 62
     7
370
    25
100
AcDbLine
 10
2795.7275121478
 20
3632.1178916064
 30
0.0
 11
2676.7275121478
 21
3632.1178916064
 31
0.0
  0
LINE
  5
309
330
1F
100
AcDbEntity
  8
0
  6
Continuous
 62
     7
370
    25
100
AcDbLine
 10
2644.7275121478
 20
3632.1178916064
 30
0.0
 11
2525.7275121478
 21
3632.1178916064
 31
0.0
  0
ARC
  5
30A
330
1F
100
AcDbEntity
  8
0
  6
Continuous
 62
     7
370
    25
100
AcDbCircle
 10
2795.7275121478
 20
3637.1178916064
 30
0.0
 40
5.0
100
AcDbArc
 50
270.0
 51
0.0
  0
ARC
  5
30B
330
1F
100
AcDbEntity
  8
0
  6
Continuous
 62
     7
370
    25
100
AcDbCircle
 10
2525.7275121478
 20
3637.1178916064
 30
0.0
 40
15.00000000000045
100
AcDbArc
 50
180.0
 51
270.0
  0
ARC
  5
30C
330
1F
100
AcDbEntity
  8
0
  6
Continuous
 62
     7
370
    25
100
AcDbCircle
 10
2795.7275121478
 20
3637.1178916064
 30
0.0
 40
15.0
100
AcDbArc
 50
270.0
 51
0.0
  0
LINE
  5
30D
330
1F
100
AcDbEntity
  8
0
  6
Continuous
 62
     7
370
    25
100
AcDbLine
 10
2525.7275121478
 20
3622.1178916064
 30
0.0
 11
2644.7275121478
 21
3622.1178916064
 31
0.0
  0
LINE
  5
30E
330
1F
100
AcDbEntity
  8
0
  6
Continuous
 62
     7
370
    25
100
AcDbLine
 10
2676.7275121478
 20
3622.1178916064
 30
0.0
 11
2795.7275121478
 21
3622.1178916064
 31
0.0
  0
LINE
  5
30F
330
1F
100
AcDbEntity
  8
0
  6
Continuous
 62
     7
370
    25
100
AcDbLine
 10
2800.7275121478
 20
3772.1178916064
 30
0.0
 11
2800.7275121478
 21
3637.1178916064
 31
0.0
  0
LINE
  5
310
330
1F
100
AcDbEntity
  8
0
  6
Continuous
 62
     7
370
    25
100
AcDbLine
 10
2510.7275121478
 20
3764.6178916064
 30
0.0
 11
2510.7275121478
 21
3637.1178916064
 31
0.0
  0
LINE
  5
311
330
1F
100
AcDbEntity
  8
0
  6
Continuous
 62
     7
370
    25
100
AcDbLine
 10
2810.7275121478
 20
3637.1178916064
 30
0.0
 11
2810.7275121478
 21
3772.1178916064
 31
0.0
  0
LINE
  5
312
330
1F
100
AcDbEntity
  8
0
  6
Continuous
 62
     7
370
    25
100
AcDbLine
 10
2520.7275121478
 20
3637.1178916064
 30
0.0
 11
2520.7275121478
 21
3764.6178916064
 31
0.0
  0
LINE
  5
313
330
1F
100
AcDbEntity
  8
0
  6
Continuous
 62
     7
370
    25
100
AcDbLine
 10
2810.7275121478
 20
3772.1178916064
 30
0.0
 11
2800.7275121478
 21
3772.1178916064
 31
0.0
  0
LINE
  5
314
330
1F
100
AcDbEntity
  8
0
  6
Continuous
 62
     7
370
    25
100
AcDbLine
 10
2525.7275121478
 20
3632.1178916064
 30
0.0
 11
2525.7275121478
 21
3764.6178916064
 31
0.0
  0
LINE
  5
315
330
1F
100
AcDbEntity
  8
0
  6
Continuous
 62
     7
370
    25
100
AcDbLine
 10
2795.7275121478
 20
3632.1178916064
 30
0.0
 11
2795.7275121478
 21
3772.1178916064
 31
0.0
  0
LINE
  5
316
330
1F
100
AcDbEntity
  8
0
  6
Continuous
 62
     7
370
    25
100
AcDbLine
 10
3060.7275121478
 20
3772.1178916064
 30
0.0
 11
3060.7275121478
 21
3622.1178916064
 31
0.0
  0
CIRCLE
  5
317
330
1F
100
AcDbEntity
  8
0
  6
Continuous
 62
     7
370
    25
100
AcDbCircle
 10
2950.7275121478
 20
3697.1178916064
 30
0.0
 40
25.0
  0
LINE
  5
318
330
1F
100
AcDbEntity
  8
0
  6
Continuous
 62
     7
370
    25
100
AcDbLine
 10
3060.7275121478
 20
3622.1178916064
 30
0.0
 11
2795.7275121478
 21
3622.1178916064
 31
0.0
  0
LINE
  5
319
330
1F
100
AcDbEntity
  8
0
  6
Continuous
 62
     7
370
    25
100
AcDbLine
 10
2961.9775121478
 20
3772.1178916064
 30
0.0
 11
3060.7275121478
 21
3772.1178916064
 31
0.0
  0
LINE
  5
31A
330
1F
100
AcDbEntity
  8
0
  6
Continuous
 62
     7
370
    25
100
AcDbLine
 10
2260.7275121478
 20
3622.1178916064
 30
0.0
 11
2260.7275121478
 21
3764.6178916064
 31
0.0
  0
CIRCLE
  5
31B
330
1F
100
AcDbEntity
  8
0
  6
Continuous
 62
     7
370
    25
100
AcDbCircle
 10
2370.7275121478
 20
3697.1178916064
 30
0.0
 40
25.0
  0
LINE
  5
31C
330
1F
100
AcDbEntity
  8
0
  6
Continuous
 62
     7
370
    25
100
AcDbLine
 10
2499.4775121478
 20
3622.1178916064
 30
0.0
 11
2260.7275121478
 21
3622.1178916064
 31
0.0
  0
LINE
  5
31D
330
1F
100
AcDbEntity
  8
0
  6
Continuous
 62
     7
370
    25
100
AcDbLine
 10
2620.7275121478
 20
2847.1178916064
 30
0.0
 11
2553.2275121478
 21
2847.1178916064
 31
0.0
  0
LINE
  5
31E
330
1F
100
AcDbEntity
  8
0
  6
Continuous
 62
     7
370
    25
100
AcDbLine
 10
1720.7275121478
 20
2847.1178916064
 30
0.0
 11
1653.2275121478
 21
2847.1178916064
 31
0.0
  0
LINE
  5
31F
330
1F
100
AcDbEntity
  8
0
  6
Continuous
 62
     7
370
    25
100
AcDbLine
 10
2624.4775121478
 20
3922.1178916064
 30
0.0
 11
2549.4775121478
 21
3922.1178916064
 31
0.0
  0
LINE
  5
320
330
1F
100
AcDbEntity
  8
0
  6
Continuous
 62
     7
370
    25
100
AcDbLine
 10
1724.4775121478
 20
3922.1178916064
 30
0.0
 11
1649.4775121478
 21
3922.1178916064
 31
0.0
  0
CIRCLE
  5
321
330
1F
100
AcDbEntity
  8
0
  6
Continuous
 62
     7
370
    25
100
AcDbCircle
 10
2136.9775121478
 20
3872.1178916064
 30
0.0
 40
22.5
  0
LINE
  5
322
330
1F
100
AcDbEntity
  8
0
  6
Continuous
 62
     7
370
    25
100
AcDbLine
 10
2548.2476786857
 20
3922.1178916064
 30
0.0
 11
2548.2476786857
 21
3787.1178916064
 31
0.0
  0
LINE
  5
323
330
1F
100
AcDbEntity
  8
0
  6
Continuous
 62
     7
370
    25
100
AcDbLine
 10
2549.4775121478
 20
3922.1178916064
 30
0.0
 11
2548.2476786857
 21
3922.1178916064
 31
0.0
  0
LINE
  5
324
330
1F
100
AcDbEntity
  8
0
  6
Continuous
 62
     7
370
    25
100
AcDbLine
 10
1649.4775121478
 20
3922.1178916064
 30
0.0
 11
1648.2476786857
 21
3922.1178916064
 31
0.0
  0
LINE
  5
325
330
1F
100
AcDbEntity
  8
0
  6
Continuous
 62
     7
370
    25
100
AcDbLine
 10
2625.7073456099
 20
3922.1178916064
 30
0.0
 11
2624.4775121478
 21
3922.1178916064
 31
0.0
  0
LINE
  5
326
330
1F
100
AcDbEntity
  8
0
  6
Continuous
 62
     7
370
    25
100
AcDbLine
 10
1725.7073456099
 20
3922.1178916064
 30
0.0
 11
1725.7073456099
 21
3787.1178916064
 31
0.0
  0
LINE
  5
327
330
1F
100
AcDbEntity
  8
0
  6
Continuous
 62
     7
370
    25
100
AcDbLine
 10
1725.7073456099
 20
3922.1178916064
 30
0.0
 11
1724.4775121478
 21
3922.1178916064
 31
0.0
  0
LINE
  5
328
330
1F
100
AcDbEntity
  8
0
  6
Continuous
 62
     7
370
    25
100
AcDbLine
 10
2961.9775121478
 20
3957.1178916064
 30
0.0
 11
2961.9775121478
 21
3787.1178916064
 31
0.0
  0
LINE
  5
329
330
1F
100
AcDbEntity
  8
0
  6
Continuous
 62
     7
370
    25
100
AcDbLine
 10
1311.9775121478
 20
3957.1178916064
 30
0.0
 11
1311.9775121478
 21
3787.1178916064
 31
0.0
  0
LINE
  5
32A
330
1F
100
AcDbEntity
  8
0
  6
Continuous
 62
     7
370
    25
100
AcDbLine
 10
2961.9775121478
 20
3972.1178916064
 30
0.0
 11
2676.7275121478
 21
3972.1178916064
 31
0.0
  0
LINE
  5
32B
330
1F
100
AcDbEntity
  8
0
  6
Continuous
 62
     7
370
    25
100
AcDbLine
 10
2644.7275121478
 20
3972.1178916064
 30
0.0
 11
1629.2275121478
 21
3972.1178916064
 31
0.0
  0
LINE
  5
32C
330
1F
100
AcDbEntity
  8
0
  6
Continuous
 62
     7
370
    25
100
AcDbLine
 10
1597.2275121478
 20
3972.1178916064
 30
0.0
 11
1311.9775121478
 21
3972.1178916064
 31
0.0
  0
LINE
  5
32D
330
1F
100
AcDbEntity
  8
0
  6
Continuous
 62
     7
370
    25
100
AcDbLine
 10
2961.9775121478
 20
3972.1178916064
 30
0.0
 11
2961.9775121478
 21
3957.1178916064
 31
0.0
  0
LINE
  5
32E
330
1F
100
AcDbEntity
  8
0
  6
Continuous
 62
     7
370
    25
100
AcDbLine
 10
1311.9775121478
 20
3972.1178916064
 30
0.0
 11
1311.9775121478
 21
3957.1178916064
 31
0.0
  0
LINE
  5
32F
330
1F
100
AcDbEntity
  8
0
  6
Continuous
 62
     7
370
    25
100
AcDbLine
 10
2961.9775121478
 20
3772.1178916064
 30
0.0
 11
2810.7275121478
 21
3772.1178916064
 31
0.0
  0
LINE
  5
330
330
1F
100
AcDbEntity
  8
0
  6
Continuous
 62
     7
370
    25
100
AcDbLine
 10
2800.7275121478
 20
3772.1178916064
 30
0.0
 11
2795.7275121478
 21
3772.1178916064
 31
0.0
  0
LINE
  5
331
330
1F
100
AcDbEntity
  8
0
  6
Continuous
 62
     7
370
    25
100
AcDbLine
 10
1478.2275121478
 20
3772.1178916064
 30
0.0
 11
1473.2275121478
 21
3772.1178916064
 31
0.0
  0
LINE
  5
332
330
1F
100
AcDbEntity
  8
0
  6
Continuous
 62
     7
370
    25
100
AcDbLine
 10
1463.2275121478
 20
3772.1178916064
 30
0.0
 11
1311.9775121478
 21
3772.1178916064
 31
0.0
  0
LINE
  5
333
330
1F
100
AcDbEntity
  8
0
  6
Continuous
 62
     7
370
    25
100
AcDbLine
 10
2961.9775121478
 20
3787.1178916064
 30
0.0
 11
2961.9775121478
 21
3772.1178916064
 31
0.0
  0
LINE
  5
334
330
1F
100
AcDbEntity
  8
0
  6
Continuous
 62
     7
370
    25
100
AcDbLine
 10
1311.9775121478
 20
3787.1178916064
 30
0.0
 11
1311.9775121478
 21
3772.1178916064
 31
0.0
  0
LINE
  5
335
330
1F
100
AcDbEntity
  8
0
  6
Continuous
 62
     7
370
    25
100
AcDbLine
 10
1781.9775121478
 20
3484.6178916064
 30
0.0
 11
1591.9775121478
 21
3484.6178916064
 31
0.0
  0
LINE
  5
336
330
1F
100
AcDbEntity
  8
0
  6
Continuous
 62
     7
370
    25
100
AcDbLine
 10
1781.9775121478
 20
3459.6178916064
 30
0.0
 11
1591.9775121478
 21
3459.6178916064
 31
0.0
  0
LINE
  5
337
330
1F
100
AcDbEntity
  8
0
  6
Continuous
 62
     7
370
    25
100
AcDbLine
 10
1643.2275121478
 20
3497.1178916064
 30
0.0
 11
1774.4775121478
 21
3497.1178916064
 31
0.0
  0
LINE
  5
338
330
1F
100
AcDbEntity
  8
0
  6
Continuous
 62
     7
370
    25
100
AcDbLine
 10
1599.4775121478
 20
3497.1178916064
 30
0.0
 11
1643.2275121478
 21
3497.1178916064
 31
0.0
  0
LINE
  5
339
330
1F
100
AcDbEntity
  8
0
  6
Continuous
 62
     7
370
    25
100
AcDbLine
 10
1720.8968404627
 20
3397.1178916064
 30
0.0
 11
1720.8968404627
 21
3459.6178916064
 31
0.0
  0
LINE
  5
33A
330
1F
100
AcDbEntity
  8
0
  6
Continuous
 62
     7
370
    25
100
AcDbLine
 10
1720.8968404627
 20
3397.1178916064
 30
0.0
 11
1653.0581838329
 21
3397.1178916064
 31
0.0
  0
LINE
  5
33B
330
1F
100
AcDbEntity
  8
0
  6
Continuous
 62
     7
370
    25
100
AcDbLine
 10
1653.0581838329
 20
3397.1178916064
 30
0.0
 11
1653.0581838329
 21
3459.6178916064
 31
0.0
  0
LINE
  5
33C
330
1F
100
AcDbEntity
  8
0
  6
Continuous
 62
     7
370
    25
100
AcDbLine
 10
1619.138855518
 20
3397.1178916064
 30
0.0
 11
1619.138855518
 21
3459.6178916064
 31
0.0
  0
LINE
  5
33D
330
1F
100
AcDbEntity
  8
0
  6
Continuous
 62
     7
370
    25
100
AcDbLine
 10
1653.0581838329
 20
3397.1178916064
 30
0.0
 11
1619.138855518
 21
3397.1178916064
 31
0.0
  0
LINE
  5
33E
330
1F
100
AcDbEntity
  8
0
  6
Continuous
 62
     7
370
    25
100
AcDbLine
 10
1754.8161687776
 20
3397.1178916064
 30
0.0
 11
1754.8161687776
 21
3459.6178916064
 31
0.0
  0
LINE
  5
33F
330
1F
100
AcDbEntity
  8
0
  6
Continuous
 62
     7
370
    25
100
AcDbLine
 10
1754.8161687776
 20
3397.1178916064
 30
0.0
 11
1720.8968404627
 21
3397.1178916064
 31
0.0
  0
LINE
  5
340
330
1F
100
AcDbEntity
  8
0
  6
Continuous
 62
     7
370
    25
100
AcDbLine
 10
1666.9775121478
 20
3539.6178916064
 30
0.0
 11
1726.9775121478
 21
3539.6178916064
 31
0.0
  0
LINE
  5
341
330
1F
100
AcDbEntity
  8
0
  6
Continuous
 62
     7
370
    25
100
AcDbLine
 10
1646.9775121478
 20
3539.6178916064
 30
0.0
 11
1666.9775121478
 21
3539.6178916064
 31
0.0
  0
LINE
  5
342
330
1F
100
AcDbEntity
  8
0
  6
Continuous
 62
     7
370
    25
100
AcDbLine
 10
2681.9775121478
 20
3484.6178916064
 30
0.0
 11
2491.9775121478
 21
3484.6178916064
 31
0.0
  0
LINE
  5
343
330
1F
100
AcDbEntity
  8
0
  6
Continuous
 62
     7
370
    25
100
AcDbLine
 10
2681.9775121478
 20
3459.6178916064
 30
0.0
 11
2491.9775121478
 21
3459.6178916064
 31
0.0
  0
LINE
  5
344
330
1F
100
AcDbEntity
  8
0
  6
Continuous
 62
     7
370
    25
100
AcDbLine
 10
2543.2275121478
 20
3497.1178916064
 30
0.0
 11
2674.4775121478
 21
3497.1178916064
 31
0.0
  0
LINE
  5
345
330
1F
100
AcDbEntity
  8
0
  6
Continuous
 62
     7
370
    25
100
AcDbLine
 10
2499.4775121478
 20
3497.1178916064
 30
0.0
 11
2543.2275121478
 21
3497.1178916064
 31
0.0
  0
LINE
  5
346
330
1F
100
AcDbEntity
  8
0
  6
Continuous
 62
     7
370
    25
100
AcDbLine
 10
2620.8968404627
 20
3397.1178916064
 30
0.0
 11
2620.8968404627
 21
3459.6178916064
 31
0.0
  0
LINE
  5
347
330
1F
100
AcDbEntity
  8
0
  6
Continuous
 62
     7
370
    25
100
AcDbLine
 10
2620.8968404627
 20
3397.1178916064
 30
0.0
 11
2553.0581838329
 21
3397.1178916064
 31
0.0
  0
LINE
  5
348
330
1F
100
AcDbEntity
  8
0
  6
Continuous
 62
     7
370
    25
100
AcDbLine
 10
2553.0581838329
 20
3397.1178916064
 30
0.0
 11
2553.0581838329
 21
3459.6178916064
 31
0.0
  0
LINE
  5
349
330
1F
100
AcDbEntity
  8
0
  6
Continuous
 62
     7
370
    25
100
AcDbLine
 10
2519.138855518
 20
3397.1178916064
 30
0.0
 11
2519.138855518
 21
3459.6178916064
 31
0.0
  0
LINE
  5
34A
330
1F
100
AcDbEntity
  8
0
  6
Continuous
 62
     7
370
    25
100
AcDbLine
 10
2553.0581838329
 20
3397.1178916064
 30
0.0
 11
2519.138855518
 21
3397.1178916064
 31
0.0
  0
LINE
  5
34B
330
1F
100
AcDbEntity
  8
0
  6
Continuous
 62
     7
370
    25
100
AcDbLine
 10
2654.8161687776
 20
3397.1178916064
 30
0.0
 11
2654.8161687776
 21
3459.6178916064
 31
0.0
  0
LINE
  5
34C
330
1F
100
AcDbEntity
  8
0
  6
Continuous
 62
     7
370
    25
100
AcDbLine
 10
2654.8161687776
 20
3397.1178916064
 30
0.0
 11
2620.8968404627
 21
3397.1178916064
 31
0.0
  0
LINE
  5
34D
330
1F
100
AcDbEntity
  8
0
  6
Continuous
 62
     7
370
    25
100
AcDbLine
 10
2566.9775121478
 20
3539.6178916064
 30
0.0
 11
2626.9775121478
 21
3539.6178916064
 31
0.0
  0
LINE
  5
34E
330
1F
100
AcDbEntity
  8
0
  6
Continuous
 62
     7
370
    25
100
AcDbLine
 10
2546.9775121478
 20
3539.6178916064
 30
0.0
 11
2566.9775121478
 21
3539.6178916064
 31
0.0
  0
LINE
  5
34F
330
1F
100
AcDbEntity
  8
0
  6
Continuous
 62
     7
370
    25
100
AcDbLine
 10
1673.2275121478
 20
3797.1178916064
 30
0.0
 11
1553.2275121478
 21
3797.1178916064
 31
0.0
  0
LINE
  5
350
330
1F
100
AcDbEntity
  8
0
  6
Continuous
 62
     7
370
    25
100
AcDbLine
 10
2720.7275121478
 20
3797.1178916064
 30
0.0
 11
2600.7275121478
 21
3797.1178916064
 31
0.0
  0
LINE
  5
351
330
1F
100
AcDbEntity
  8
0
  6
Continuous
 62
     7
370
    25
100
AcDbLine
 10
1553.2275121478
 20
3754.6178916064
 30
0.0
 11
1673.2275121478
 21
3754.6178916064
 31
0.0
  0
LINE
  5
352
330
1F
100
AcDbEntity
  8
0
  6
Continuous
 62
     7
370
    25
100
AcDbLine
 10
2720.7275121478
 20
3754.6178916064
 30
0.0
 11
2600.7275121478
 21
3754.6178916064
 31
0.0
  0
LINE
  5
353
330
1F
100
AcDbEntity
  8
0
  6
Continuous
 62
     8
370
    25
100
AcDbLine
 10
1478.2275121478
 20
3772.1178916064
 30
0.0
 11
1511.9775121478
 21
3772.1178916064
 31
0.0
  0
LINE
  5
354
330
1F
100
AcDbEntity
  8
0
  6
Continuous
 62
     8
370
    25
100
AcDbLine
 10
2761.9775121478
 20
3772.1178916064
 30
0.0
 11
2795.7275121478
 21
3772.1178916064
 31
0.0
  0
LINE
  5
355
330
1F
100
AcDbEntity
  8
0
  6
Continuous
 62
     8
370
    25
100
AcDbLine
 10
1648.2476786857
 20
3922.1178916064
 30
0.0
 11
1648.2476786857
 21
3797.1178916064
 31
0.0
  0
LINE
  5
356
330
1F
100
AcDbEntity
  8
0
  6
Continuous
 62
     8
370
    25
100
AcDbLine
 10
2625.7073456099
 20
3922.1178916064
 30
0.0
 11
2625.7073456099
 21
3797.1178916064
 31
0.0
  0
LINE
  5
357
330
1F
100
AcDbEntity
  8
0
  6
Continuous
 62
     8
370
    25
100
AcDbLine
 10
1478.2275121478
 20
3787.1178916064
 30
0.0
 11
1311.9775121478
 21
3787.1178916064
 31
0.0
  0
LINE
  5
358
330
1F
100
AcDbEntity
  8
0
  6
Continuous
 62
     8
370
    25
100
AcDbLine
 10
2961.9775121478
 20
3957.1178916064
 30
0.0
 11
2676.7275121478
 21
3957.1178916064
 31
0.0
  0
LINE
  5
359
330
1F
100
AcDbEntity
  8
0
  6
Continuous
 62
     8
370
    25
100
AcDbLine
 10
2644.7275121478
 20
3957.1178916064
 30
0.0
 11
1629.2275121478
 21
3957.1178916064
 31
0.0
  0
LINE
  5
35A
330
1F
100
AcDbEntity
  8
0
  6
Continuous
 62
     8
370
    25
100
AcDbLine
 10
1597.2275121478
 20
3957.1178916064
 30
0.0
 11
1311.9775121478
 21
3957.1178916064
 31
0.0
  0
LINE
  5
35B
330
1F
100
AcDbEntity
  8
0
  6
Continuous
 62
     8
370
    25
100
AcDbLine
 10
2961.9775121478
 20
3787.1178916064
 30
0.0
 11
2795.7275121478
 21
3787.1178916064
 31
0.0
  0
LINE
  5
35C
330
1F
100
AcDbEntity
  8
0
  6
Continuous
 62
     8
370
    25
100
AcDbLine
 10
2525.7275121478
 20
3787.1178916064
 30
0.0
 11
1748.2275121478
 21
3787.1178916064
 31
0.0
  0
ENDSEC
  0
SECTION
  2
OBJECTS
  0
DICTIONARY
  5
C
330
0
100
AcDbDictionary
281
     1
  3
ACAD_GROUP
350
D
  3
ACAD_LAYOUT
350
1A
  3
ACAD_MLINESTYLE
350
17
  3
ACAD_PLOTSETTINGS
350
19
  3
ACAD_PLOTSTYLENAME
350
E
  3
ACAD_SCALELIST
350
47
  3
DWGPROPS
350
35D
  0
DICTIONARY
  5
D
102
{ACAD_REACTORS
330
C
102
}
330
C
100
AcDbDictionary
281
     1
  0
DICTIONARY
  5
1A
102
{ACAD_REACTORS
330
C
102
}
330
C
100
AcDbDictionary
281
     1
  3
Layout1
350
1E
  3
Layout2
350
26
  3
Model
350
22
  0
DICTIONARY
  5
17
102
{ACAD_REACTORS
330
C
102
}
330
C
100
AcDbDictionary
281
     1
  3
Standard
350
18
  0
DICTIONARY
  5
19
102
{ACAD_REACTORS
330
C
102
}
330
C
100
AcDbDictionary
281
     1
  0
ACDBDICTIONARYWDFLT
  5
E
102
{ACAD_REACTORS
330
C
102
}
330
C
100
AcDbDictionary
281
     1
  3
Normal
350
F
100
AcDbDictionaryWithDefault
340
F
  0
DICTIONARY
  5
47
102
{ACAD_REACTORS
330
C
102
}
330
C
100
AcDbDictionary
281
     1
  3
A0
350
48
  3
A1
350
49
  3
A2
350
4A
  3
A3
350
4B
  3
A4
350
4C
  3
A5
350
4D
  3
A6
350
4E
  3
A7
350
4F
  3
A8
350
50
  3
A9
350
51
  3
B0
350
52
  3
B1
350
53
  3
B2
350
54
  3
B3
350
55
  3
B4
350
56
  3
B5
350
57
  3
B6
350
58
  3
B7
350
59
  3
B8
350
5A
  3
B9
350
5B
  3
C0
350
5C
  3
C1
350
5D
  3
C2
350
5E
  3
C3
350
5F
  3
C4
350
60
  3
C5
350
61
  3
C6
350
62
  3
C7
350
63
  3
C8
350
64
  3
C9
350
65
  3
D0
350
66
  3
D1
350
67
  3
D2
350
68
  0
XRECORD
  5
35D
102
{ACAD_REACTORS
330
C
102
}
330
C
100
AcDbXrecord
280
     1
  1
DWGPROPS COOKIE
  2

  3

  4

  6

  7

  8
radek.stransky
  9

300
=
301
=
302
=
303
=
304
=
305
=
306
=
307
=
308
=
309
=
 40
0.0
 41
2459095.342296829
 42
2459095.342297234
  1

 90
        0
  0
LAYOUT
  5
1E
102
{ACAD_REACTORS
330
1A
102
}
330
1A
100
AcDbPlotSettings
  1

  2
none_device
  4

  6

 40
0.0
 41
0.0
 42
0.0
 43
0.0
 44
0.0
 45
0.0
 46
0.0
 47
0.0
 48
0.0
 49
0.0
140
0.0
141
0.0
142
1.0
143
1.0
 70
   688
 72
     1
 73
     0
 74
     5
  7

 75
    16
147
1.0
148
0.0
149
0.0
100
AcDbLayout
  1
Layout1
 70
     1
 71
     1
 10
0.0
 20
0.0
 11
420.0
 21
297.0
 12
0.0
 22
0.0
 32
0.0
 14
1.0000000000E+20
 24
1.0000000000E+20
 34
1.0000000000E+20
 15
-1.0000000000E+20
 25
-1.0000000000E+20
 35
-1.0000000000E+20
146
0.0
 13
0.0
 23
0.0
 33
0.0
 16
1.0
 26
0.0
 36
0.0
 17
0.0
 27
1.0
 37
0.0
 76
     0
330
1B
  0
LAYOUT
  5
26
102
{ACAD_REACTORS
330
1A
102
}
330
1A
100
AcDbPlotSettings
  1

  2
none_device
  4

  6

 40
0.0
 41
0.0
 42
0.0
 43
0.0
 44
0.0
 45
0.0
 46
0.0
 47
0.0
 48
0.0
 49
0.0
140
0.0
141
0.0
142
1.0
143
1.0
 70
   688
 72
     1
 73
     0
 74
     5
  7

 75
    16
147
1.0
148
0.0
149
0.0
100
AcDbLayout
  1
Layout2
 70
     1
 71
     2
 10
0.0
 20
0.0
 11
0.0
 21
0.0
 12
0.0
 22
0.0
 32
0.0
 14
0.0
 24
0.0
 34
0.0
 15
0.0
 25
0.0
 35
0.0
146
0.0
 13
0.0
 23
0.0
 33
0.0
 16
1.0
 26
0.0
 36
0.0
 17
0.0
 27
1.0
 37
0.0
 76
     0
330
23
  0
LAYOUT
  5
22
102
{ACAD_REACTORS
330
1A
102
}
330
1A
100
AcDbPlotSettings
  1

  2
none_device
  4
Letter_(8.50_x_11.00_Inches)
  6

 40
6.35
 41
6.35
 42
6.35000508
 43
6.35000508
 44
215.9
 45
279.4
 46
0.0
 47
0.0
 48
0.0
 49
0.0
140
0.0
141
0.0
142
1.0
143
1.0
 70
  1712
 72
     1
 73
     0
 74
     0
  7

 75
     0
147
1.0
148
0.0
149
0.0
100
AcDbLayout
  1
Model
 70
     1
 71
     0
 10
0.0
 20
0.0
 11
20000.0
 21
10000.0
 12
0.0
 22
0.0
 32
0.0
 14
0.0
 24
0.0
 34
0.0
 15
20000.0
 25
10000.0
 35
0.0
146
0.0
 13
0.0
 23
0.0
 33
0.0
 16
1.0
 26
0.0
 36
0.0
 17
0.0
 27
1.0
 37
0.0
 76
     0
330
1F
331
29
  0
MLINESTYLE
  5
18
102
{ACAD_REACTORS
330
17
102
}
330
17
100
AcDbMlineStyle
  2
Standard
 70
     0
  3

 62
   256
 51
90.0
 52
90.0
 71
     2
 49
0.5
 62
   256
  6
BYLAYER
 49
-0.5
 62
   256
  6
BYLAYER
  0
ACDBPLACEHOLDER
  5
F
102
{ACAD_REACTORS
330
E
102
}
330
E
  0
SCALE
  5
48
102
{ACAD_REACTORS
330
47
102
}
330
47
100
AcDbScale
 70
     0
300
1:1
140
1.0
141
1.0
290
     1
  0
SCALE
  5
49
102
{ACAD_REACTORS
330
47
102
}
330
47
100
AcDbScale
 70
     0
300
1:2
140
1.0
141
2.0
290
     0
  0
SCALE
  5
4A
102
{ACAD_REACTORS
330
47
102
}
330
47
100
AcDbScale
 70
     0
300
1:4
140
1.0
141
4.0
290
     0
  0
SCALE
  5
4B
102
{ACAD_REACTORS
330
47
102
}
330
47
100
AcDbScale
 70
     0
300
1:5
140
1.0
141
5.0
290
     0
  0
SCALE
  5
4C
102
{ACAD_REACTORS
330
47
102
}
330
47
100
AcDbScale
 70
     0
300
1:8
140
1.0
141
8.0
290
     0
  0
SCALE
  5
4D
102
{ACAD_REACTORS
330
47
102
}
330
47
100
AcDbScale
 70
     0
300
1:10
140
1.0
141
10.0
290
     0
  0
SCALE
  5
4E
102
{ACAD_REACTORS
330
47
102
}
330
47
100
AcDbScale
 70
     0
300
1:16
140
1.0
141
16.0
290
     0
  0
SCALE
  5
4F
102
{ACAD_REACTORS
330
47
102
}
330
47
100
AcDbScale
 70
     0
300
1:20
140
1.0
141
20.0
290
     0
  0
SCALE
  5
50
102
{ACAD_REACTORS
330
47
102
}
330
47
100
AcDbScale
 70
     0
300
1:30
140
1.0
141
30.0
290
     0
  0
SCALE
  5
51
102
{ACAD_REACTORS
330
47
102
}
330
47
100
AcDbScale
 70
     0
300
1:40
140
1.0
141
40.0
290
     0
  0
SCALE
  5
52
102
{ACAD_REACTORS
330
47
102
}
330
47
100
AcDbScale
 70
     0
300
1:50
140
1.0
141
50.0
290
     0
  0
SCALE
  5
53
102
{ACAD_REACTORS
330
47
102
}
330
47
100
AcDbScale
 70
     0
300
1:100
140
1.0
141
100.0
290
     0
  0
SCALE
  5
54
102
{ACAD_REACTORS
330
47
102
}
330
47
100
AcDbScale
 70
     0
300
2:1
140
2.0
141
1.0
290
     0
  0
SCALE
  5
55
102
{ACAD_REACTORS
330
47
102
}
330
47
100
AcDbScale
 70
     0
300
4:1
140
4.0
141
1.0
290
     0
  0
SCALE
  5
56
102
{ACAD_REACTORS
330
47
102
}
330
47
100
AcDbScale
 70
     0
300
8:1
140
8.0
141
1.0
290
     0
  0
SCALE
  5
57
102
{ACAD_REACTORS
330
47
102
}
330
47
100
AcDbScale
 70
     0
300
10:1
140
10.0
141
1.0
290
     0
  0
SCALE
  5
58
102
{ACAD_REACTORS
330
47
102
}
330
47
100
AcDbScale
 70
     0
300
100:1
140
100.0
141
1.0
290
     0
  0
SCALE
  5
59
102
{ACAD_REACTORS
330
47
102
}
330
47
100
AcDbScale
 70
     0
300
1/128" = 1'-0"
140
0.0078125
141
12.0
290
     0
  0
SCALE
  5
5A
102
{ACAD_REACTORS
330
47
102
}
330
47
100
AcDbScale
 70
     0
300
1/64" = 1'-0"
140
0.015625
141
12.0
290
     0
  0
SCALE
  5
5B
102
{ACAD_REACTORS
330
47
102
}
330
47
100
AcDbScale
 70
     0
300
1/32" = 1'-0"
140
0.03125
141
12.0
290
     0
  0
SCALE
  5
5C
102
{ACAD_REACTORS
330
47
102
}
330
47
100
AcDbScale
 70
     0
300
1/16" = 1'-0"
140
0.0625
141
12.0
290
     0
  0
SCALE
  5
5D
102
{ACAD_REACTORS
330
47
102
}
330
47
100
AcDbScale
 70
     0
300
3/32" = 1'-0"
140
0.09375
141
12.0
290
     0
  0
SCALE
  5
5E
102
{ACAD_REACTORS
330
47
102
}
330
47
100
AcDbScale
 70
     0
300
1/8" = 1'-0"
140
0.125
141
12.0
290
     0
  0
SCALE
  5
5F
102
{ACAD_REACTORS
330
47
102
}
330
47
100
AcDbScale
 70
     0
300
3/16" = 1'-0"
140
0.1875
141
12.0
290
     0
  0
SCALE
  5
60
102
{ACAD_REACTORS
330
47
102
}
330
47
100
AcDbScale
 70
     0
300
1/4" = 1'-0"
140
0.25
141
12.0
290
     0
  0
SCALE
  5
61
102
{ACAD_REACTORS
330
47
102
}
330
47
100
AcDbScale
 70
     0
300
3/8" = 1'-0"
140
0.375
141
12.0
290
     0
  0
SCALE
  5
62
102
{ACAD_REACTORS
330
47
102
}
330
47
100
AcDbScale
 70
     0
300
1/2" = 1'-0"
140
0.5
141
12.0
290
     0
  0
SCALE
  5
63
102
{ACAD_REACTORS
330
47
102
}
330
47
100
AcDbScale
 70
     0
300
3/4" = 1'-0"
140
0.75
141
12.0
290
     0
  0
SCALE
  5
64
102
{ACAD_REACTORS
330
47
102
}
330
47
100
AcDbScale
 70
     0
300
1" = 1'-0"
140
1.0
141
12.0
290
     0
  0
SCALE
  5
65
102
{ACAD_REACTORS
330
47
102
}
330
47
100
AcDbScale
 70
     0
300
1-1/2" = 1'-0"
140
1.5
141
12.0
290
     0
  0
SCALE
  5
66
102
{ACAD_REACTORS
330
47
102
}
330
47
100
AcDbScale
 70
     0
300
3" = 1'-0"
140
3.0
141
12.0
290
     0
  0
SCALE
  5
67
102
{ACAD_REACTORS
330
47
102
}
330
47
100
AcDbScale
 70
     0
300
6" = 1'-0"
140
6.0
141
12.0
290
     0
  0
SCALE
  5
68
102
{ACAD_REACTORS
330
47
102
}
330
47
100
AcDbScale
 70
     0
300
1'-0" = 1'-0"
140
12.0
141
12.0
290
     0
  0
ENDSEC
  0
EOF
