  0
SECTION
  2
HEADER
  9
$ACADVER
  1
AC1015
  9
$ACADMAINTVER
 70
     6
  9
$DWGCODEPAGE
  3
ANSI_1250
  9
$INSBASE
 10
0.0
 20
0.0
 30
0.0
  9
$EXTMIN
 10
0.0
 20
0.0
 30
0.0
  9
$EXTMAX
 10
20000.0
 20
10000.0
 30
0.0
  9
$LIMMIN
 10
0.0
 20
0.0
  9
$LIMMAX
 10
20000.0
 20
10000.0
  9
$ORTHOMODE
 70
     0
  9
$REGENMODE
 70
     1
  9
$FILLMODE
 70
     1
  9
$QTEXTMODE
 70
     0
  9
$MIRRTEXT
 70
     1
  9
$LTSCALE
 40
1.0
  9
$ATTMODE
 70
     1
  9
$TEXTSIZE
 40
2.0
  9
$TRACEWID
 40
1.0
  9
$TEXTSTYLE
  7
Standard
  9
$CLAYER
  8
0
  9
$CELTYPE
  6
ByLayer
  9
$CECOLOR
 62
   256
  9
$CELTSCALE
 40
1.0
  9
$DISPSILH
 70
     0
  9
$DIMSCALE
 40
1.0
  9
$DIMASZ
 40
2.0
  9
$DIMEXO
 40
1.0
  9
$DIMDLI
 40
3.75
  9
$DIMRND
 40
0.0
  9
$DIMDLE
 40
0.0
  9
$DIMEXE
 40
1.0
  9
$DIMTP
 40
0.0
  9
$DIMTM
 40
0.0
  9
$DIMTXT
 40
2.0
  9
$DIMCEN
 40
2.5
  9
$DIMTSZ
 40
0.0
  9
$DIMTOL
 70
     0
  9
$DIMLIM
 70
     0
  9
$DIMTIH
 70
     1
  9
$DIMTOH
 70
     1
  9
$DIMSE1
 70
     0
  9
$DIMSE2
 70
     0
  9
$DIMTAD
 70
     1
  9
$DIMZIN
 70
     0
  9
$DIMBLK
  1

  9
$DIMASO
 70
     1
  9
$DIMSHO
 70
     1
  9
$DIMPOST
  1

  9
$DIMAPOST
  1

  9
$DIMALT
 70
     0
  9
$DIMALTD
 70
     3
  9
$DIMALTF
 40
0.0393700787
  9
$DIMLFAC
 40
1.0
  9
$DIMTOFL
 70
     1
  9
$DIMTVP
 40
0.0
  9
$DIMTIX
 70
     0
  9
$DIMSOXD
 70
     0
  9
$DIMSAH
 70
     0
  9
$DIMBLK1
  1

  9
$DIMBLK2
  1

  9
$DIMSTYLE
  2
ISO-25
  9
$DIMCLRD
 70
     0
  9
$DIMCLRE
 70
     0
  9
$DIMCLRT
 70
     0
  9
$DIMTFAC
 40
1.0
  9
$DIMGAP
 40
1.524
  9
$DIMJUST
 70
     0
  9
$DIMSD1
 70
     0
  9
$DIMSD2
 70
     0
  9
$DIMTOLJ
 70
     0
  9
$DIMTZIN
 70
     0
  9
$DIMALTZ
 70
     0
  9
$DIMALTTZ
 70
     0
  9
$DIMUPT
 70
     0
  9
$DIMDEC
 70
     2
  9
$DIMTDEC
 70
     0
  9
$DIMALTU
 70
     2
  9
$DIMALTTD
 70
     3
  9
$DIMTXSTY
  7
Standard
  9
$DIMAUNIT
 70
     0
  9
$DIMADEC
 70
     2
  9
$DIMALTRND
 40
0.0
  9
$DIMAZIN
 70
     0
  9
$DIMDSEP
 70
    44
  9
$DIMATFIT
 70
     3
  9
$DIMFRAC
 70
     0
  9
$DIMLDRBLK
  1

  9
$DIMLUNIT
 70
     2
  9
$DIMLWD
 70
    -2
  9
$DIMLWE
 70
    -2
  9
$DIMTMOVE
 70
     0
  9
$LUNITS
 70
     2
  9
$LUPREC
 70
     3
  9
$SKETCHINC
 40
1.0
  9
$FILLETRAD
 40
10.0
  9
$AUNITS
 70
     0
  9
$AUPREC
 70
     2
  9
$MENU
  1
.
  9
$ELEVATION
 40
0.0
  9
$PELEVATION
 40
0.0
  9
$THICKNESS
 40
0.0
  9
$LIMCHECK
 70
     0
  9
$CHAMFERA
 40
0.0
  9
$CHAMFERB
 40
0.0
  9
$CHAMFERC
 40
0.0
  9
$CHAMFERD
 40
0.0
  9
$SKPOLY
 70
     0
  9
$TDCREATE
 40
2459136.321245359
  9
$TDUCREATE
 40
2459136.237912025
  9
$TDUPDATE
 40
2459136.321245822
  9
$TDUUPDATE
 40
2459136.237912489
  9
$TDINDWG
 40
0.0000000116
  9
$TDUSRTIMER
 40
0.0000000116
  9
$USRTIMER
 70
     1
  9
$ANGBASE
 50
0.0
  9
$ANGDIR
 70
     0
  9
$PDMODE
 70
     0
  9
$PDSIZE
 40
-1.0
  9
$PLINEWID
 40
0.0
  9
$SPLFRAME
 70
     0
  9
$SPLINETYPE
 70
     6
  9
$SPLINESEGS
 70
     8
  9
$HANDSEED
  5
129
  9
$SURFTAB1
 70
     6
  9
$SURFTAB2
 70
     6
  9
$SURFTYPE
 70
     6
  9
$SURFU
 70
     6
  9
$SURFV
 70
     6
  9
$UCSBASE
  2

  9
$UCSNAME
  2

  9
$UCSORG
 10
0.0
 20
0.0
 30
0.0
  9
$UCSXDIR
 10
1.0
 20
0.0
 30
0.0
  9
$UCSYDIR
 10
0.0
 20
1.0
 30
0.0
  9
$UCSORTHOREF
  2

  9
$UCSORTHOVIEW
 70
     0
  9
$UCSORGTOP
 10
0.0
 20
0.0
 30
0.0
  9
$UCSORGBOTTOM
 10
0.0
 20
0.0
 30
0.0
  9
$UCSORGLEFT
 10
0.0
 20
0.0
 30
0.0
  9
$UCSORGRIGHT
 10
0.0
 20
0.0
 30
0.0
  9
$UCSORGFRONT
 10
0.0
 20
0.0
 30
0.0
  9
$UCSORGBACK
 10
0.0
 20
0.0
 30
0.0
  9
$PUCSBASE
  2

  9
$PUCSNAME
  2

  9
$PUCSORG
 10
0.0
 20
0.0
 30
0.0
  9
$PUCSXDIR
 10
1.0
 20
0.0
 30
0.0
  9
$PUCSYDIR
 10
0.0
 20
1.0
 30
0.0
  9
$PUCSORTHOREF
  2

  9
$PUCSORTHOVIEW
 70
     0
  9
$PUCSORGTOP
 10
0.0
 20
0.0
 30
0.0
  9
$PUCSORGBOTTOM
 10
0.0
 20
0.0
 30
0.0
  9
$PUCSORGLEFT
 10
0.0
 20
0.0
 30
0.0
  9
$PUCSORGRIGHT
 10
0.0
 20
0.0
 30
0.0
  9
$PUCSORGFRONT
 10
0.0
 20
0.0
 30
0.0
  9
$PUCSORGBACK
 10
0.0
 20
0.0
 30
0.0
  9
$USERI1
 70
     0
  9
$USERI2
 70
     0
  9
$USERI3
 70
     0
  9
$USERI4
 70
     0
  9
$USERI5
 70
     0
  9
$USERR1
 40
0.0
  9
$USERR2
 40
0.0
  9
$USERR3
 40
0.0
  9
$USERR4
 40
0.0
  9
$USERR5
 40
0.0
  9
$WORLDVIEW
 70
     1
  9
$SHADEDGE
 70
     3
  9
$SHADEDIF
 70
    70
  9
$TILEMODE
 70
     1
  9
$MAXACTVP
 70
    64
  9
$PINSBASE
 10
0.0
 20
0.0
 30
0.0
  9
$PLIMCHECK
 70
     0
  9
$PEXTMIN
 10
1.0000000000E+20
 20
1.0000000000E+20
 30
1.0000000000E+20
  9
$PEXTMAX
 10
-1.0000000000E+20
 20
-1.0000000000E+20
 30
-1.0000000000E+20
  9
$PLIMMIN
 10
0.0
 20
0.0
  9
$PLIMMAX
 10
420.0
 20
297.0
  9
$UNITMODE
 70
     0
  9
$VISRETAIN
 70
     1
  9
$PLINEGEN
 70
     0
  9
$PSLTSCALE
 70
     1
  9
$TREEDEPTH
 70
  3020
  9
$CMLSTYLE
  2
Standard
  9
$CMLJUST
 70
     0
  9
$CMLSCALE
 40
20.0
  9
$PROXYGRAPHICS
 70
     1
  9
$MEASUREMENT
 70
     1
  9
$CELWEIGHT
370
    -1
  9
$ENDCAPS
280
     0
  9
$JOINSTYLE
280
     0
  9
$LWDISPLAY
290
     1
  9
$INSUNITS
 70
     4
  9
$HYPERLINKBASE
  1

  9
$STYLESHEET
  1

  9
$XEDIT
290
     1
  9
$CEPSNTYPE
380
     0
  9
$PSTYLEMODE
290
     1
  9
$FINGERPRINTGUID
  2
{fec160ae-798d-4789-9596-712269ba4492}
  9
$VERSIONGUID
  2
{FAEB1C32-E019-11D5-929B-00C0DF256EC4}
  9
$EXTNAMES
290
     1
  9
$PSVPSCALE
 40
0.0
  9
$OLESTARTUP
290
     0
  0
ENDSEC
  0
SECTION
  2
CLASSES
  0
CLASS
  1
ACDBDICTIONARYWDFLT
  2
AcDbDictionaryWithDefault
  3
ObjectDBX Classes
 90
        0
280
     0
281
     0
  0
CLASS
  1
VISUALSTYLE
  2
AcDbVisualStyle
  3
ObjectDBX Classes
 90
     4095
280
     0
281
     0
  0
CLASS
  1
MATERIAL
  2
AcDbMaterial
  3
ObjectDBX Classes
 90
     1153
280
     0
281
     0
  0
CLASS
  1
SCALE
  2
AcDbScale
  3
ObjectDBX Classes
 90
     1153
280
     0
281
     0
  0
CLASS
  1
TABLESTYLE
  2
AcDbTableStyle
  3
ObjectDBX Classes
 90
     4095
280
     0
281
     0
  0
CLASS
  1
MLEADERSTYLE
  2
AcDbMLeaderStyle
  3
ACDB_MLEADERSTYLE_CLASS
 90
     4095
280
     0
281
     0
  0
CLASS
  1
SUN
  2
AcDbSun
  3
SCENEOE
 90
     1153
280
     0
281
     0
  0
CLASS
  1
ACDBPLACEHOLDER
  2
AcDbPlaceHolder
  3
ObjectDBX Classes
 90
        0
280
     0
281
     0
  0
CLASS
  1
LAYOUT
  2
AcDbLayout
  3
ObjectDBX Classes
 90
        0
280
     0
281
     0
  0
ENDSEC
  0
SECTION
  2
TABLES
  0
TABLE
  2
VPORT
  5
8
330
0
100
AcDbSymbolTable
 70
     1
  0
VPORT
  5
29
330
8
100
AcDbSymbolTableRecord
100
AcDbViewportTableRecord
  2
*Active
 70
     0
 10
0.0
 20
0.0
 11
1.0
 21
1.0
 12
10000.0
 22
5000.0
 13
0.0
 23
0.0
 14
10.0
 24
10.0
 15
10.0
 25
10.0
 16
0.0
 26
0.0
 36
1.0
 17
0.0
 27
0.0
 37
0.0
 40
10000.0
 41
2.0
 42
50.0
 43
0.0
 44
0.0
 50
0.0
 51
0.0
 71
     0
 72
  2000
 73
     1
 74
     3
 75
     0
 76
     0
 77
     0
 78
     0
281
     0
 65
     1
110
0.0
120
0.0
130
0.0
111
1.0
121
0.0
131
0.0
112
0.0
122
1.0
132
0.0
 79
     0
146
0.0
  0
ENDTAB
  0
TABLE
  2
LTYPE
  5
5
330
0
100
AcDbSymbolTable
 70
     6
  0
LTYPE
  5
14
330
5
100
AcDbSymbolTableRecord
100
AcDbLinetypeTableRecord
  2
ByBlock
 70
     0
  3

 72
    65
 73
     0
 40
0.0
  0
LTYPE
  5
15
330
5
100
AcDbSymbolTableRecord
100
AcDbLinetypeTableRecord
  2
ByLayer
 70
     0
  3

 72
    65
 73
     0
 40
0.0
  0
LTYPE
  5
16
330
5
100
AcDbSymbolTableRecord
100
AcDbLinetypeTableRecord
  2
Continuous
 70
     0
  3
Solid line
 72
    65
 73
     0
 40
0.0
  0
LTYPE
  5
6E
330
5
100
AcDbSymbolTableRecord
100
AcDbLinetypeTableRecord
  2
HIDDEN
 70
     0
  3
Hidden __ __ __ __ __ __ __ __ __ __ __ __ __ __
 72
    65
 73
     2
 40
1.905
 49
1.27
 74
     0
 49
-0.635
 74
     0
  0
LTYPE
  5
6F
330
5
100
AcDbSymbolTableRecord
100
AcDbLinetypeTableRecord
  2
PHANTOM
 70
     0
  3
Phantom ______  __  __  ______  __  __  ______
 72
    65
 73
     6
 40
12.7
 49
6.35
 74
     0
 49
-1.27
 74
     0
 49
1.27
 74
     0
 49
-1.27
 74
     0
 49
1.27
 74
     0
 49
-1.27
 74
     0
  0
LTYPE
  5
70
330
5
100
AcDbSymbolTableRecord
100
AcDbLinetypeTableRecord
  2
CENTER
 70
     0
  3
Center ____ _ ____ _ ____ _ ____ _ ____ _ ____
 72
    65
 73
     4
 40
10.16
 49
6.35
 74
     0
 49
-1.27
 74
     0
 49
1.27
 74
     0
 49
-1.27
 74
     0
  0
LTYPE
  5
71
330
5
100
AcDbSymbolTableRecord
100
AcDbLinetypeTableRecord
  2
CENTERX2
 70
     0
  3
Center (2x) ________  __  ________  __  _____
 72
    65
 73
     4
 40
20.32
 49
12.7
 74
     0
 49
-2.54
 74
     0
 49
2.54
 74
     0
 49
-2.54
 74
     0
  0
LTYPE
  5
72
330
5
100
AcDbSymbolTableRecord
100
AcDbLinetypeTableRecord
  2
DOT2
 70
     0
  3
Dot (.5x) ........................................
 72
    65
 73
     2
 40
0.635
 49
0.0
 74
     0
 49
-0.635
 74
     0
  0
ENDTAB
  0
TABLE
  2
LAYER
  5
2
330
0
100
AcDbSymbolTable
 70
    13
  0
LAYER
  5
10
330
2
100
AcDbSymbolTableRecord
100
AcDbLayerTableRecord
  2
0
 70
     0
 62
     7
  6
Continuous
370
    -3
390
F
  0
LAYER
  5
73
330
2
100
AcDbSymbolTableRecord
100
AcDbLayerTableRecord
  2
FORMAT
 70
     0
 62
     7
  6
Continuous
370
    -3
390
F
  0
LAYER
  5
74
330
2
100
AcDbSymbolTableRecord
100
AcDbLayerTableRecord
  2
OSA
 70
     0
 62
     7
  6
CENTER
370
    -3
390
F
  0
LAYER
  5
75
330
2
100
AcDbSymbolTableRecord
100
AcDbLayerTableRecord
  2
0_35
 70
     0
 62
     7
  6
Continuous
370
    35
390
F
  0
LAYER
  5
76
330
2
100
AcDbSymbolTableRecord
100
AcDbLayerTableRecord
  2
0_5
 70
     0
 62
     7
  6
Continuous
370
    50
390
F
  0
LAYER
  5
77
330
2
100
AcDbSymbolTableRecord
100
AcDbLayerTableRecord
  2
0_25
 70
     0
 62
     7
  6
Continuous
370
    25
390
F
  0
LAYER
  5
78
330
2
100
AcDbSymbolTableRecord
100
AcDbLayerTableRecord
  2
0_18
 70
     0
 62
     7
  6
Continuous
370
    -3
390
F
  0
LAYER
  5
79
330
2
100
AcDbSymbolTableRecord
100
AcDbLayerTableRecord
  2
SLD-0
 70
     0
 62
   179
  6
Continuous
370
    -3
390
F
  0
LAYER
  5
7A
330
2
100
AcDbSymbolTableRecord
100
AcDbLayerTableRecord
  2
KOTY
 70
     0
 62
     7
  6
Continuous
370
    -3
390
F
  0
LAYER
  5
7B
330
2
100
AcDbSymbolTableRecord
100
AcDbLayerTableRecord
  2
SILNA
 70
     0
 62
   179
  6
Continuous
370
    -3
390
F
  0
LAYER
  5
7C
330
2
100
AcDbSymbolTableRecord
100
AcDbLayerTableRecord
  2
0_18_1
 70
     0
 62
   179
  6
Continuous
370
    -3
390
F
  0
LAYER
  5
7D
330
2
100
AcDbSymbolTableRecord
100
AcDbLayerTableRecord
  2
0_35_1
 70
     0
 62
   179
  6
Continuous
370
    35
390
F
  0
LAYER
  5
7E
330
2
100
AcDbSymbolTableRecord
100
AcDbLayerTableRecord
  2
0_5_1
 70
     0
 62
   179
  6
Continuous
370
    50
390
F
  0
ENDTAB
  0
TABLE
  2
STYLE
  5
3
330
0
100
AcDbSymbolTable
 70
     1
  0
STYLE
  5
11
330
3
100
AcDbSymbolTableRecord
100
AcDbTextStyleTableRecord
  2
Standard
 70
     0
 40
0.0
 41
1.0
 50
0.0
 71
     0
 42
2.0
  3
txt
  4

  0
ENDTAB
  0
TABLE
  2
VIEW
  5
6
330
0
100
AcDbSymbolTable
 70
     0
  0
ENDTAB
  0
TABLE
  2
UCS
  5
7
330
0
100
AcDbSymbolTable
 70
     0
  0
ENDTAB
  0
TABLE
  2
APPID
  5
9
330
0
100
AcDbSymbolTable
 70
     1
  0
APPID
  5
12
330
9
100
AcDbSymbolTableRecord
100
AcDbRegAppTableRecord
  2
ACAD
 70
     0
  0
ENDTAB
  0
TABLE
  2
DIMSTYLE
  5
A
330
0
100
AcDbSymbolTable
 70
     1
100
AcDbDimStyleTable
  0
DIMSTYLE
105
27
330
A
100
AcDbSymbolTableRecord
100
AcDbDimStyleTableRecord
  2
ISO-25
 70
     0
 41
2.5
 42
0.625
 43
3.75
 44
1.25
 73
     0
 74
     0
 77
     1
 78
     8
140
2.5
141
2.5
143
0.0393700787
147
0.625
171
     3
172
     1
178
     0
271
     2
272
     2
274
     3
278
    44
283
     0
284
     8
340
11
  0
ENDTAB
  0
TABLE
  2
BLOCK_RECORD
  5
1
330
0
100
AcDbSymbolTable
 70
     1
  0
BLOCK_RECORD
  5
1F
330
1
100
AcDbSymbolTableRecord
100
AcDbBlockTableRecord
  2
*Model_Space
340
22
  0
BLOCK_RECORD
  5
1B
330
1
100
AcDbSymbolTableRecord
100
AcDbBlockTableRecord
  2
*Paper_Space
340
1E
  0
BLOCK_RECORD
  5
23
330
1
100
AcDbSymbolTableRecord
100
AcDbBlockTableRecord
  2
*Paper_Space0
340
26
  0
ENDTAB
  0
ENDSEC
  0
SECTION
  2
BLOCKS
  0
BLOCK
  5
20
330
1F
100
AcDbEntity
  8
0
100
AcDbBlockBegin
  2
*Model_Space
 70
     0
 10
0.0
 20
0.0
 30
0.0
  3
*Model_Space
  1

  0
ENDBLK
  5
21
330
1F
100
AcDbEntity
  8
0
100
AcDbBlockEnd
  0
BLOCK
  5
1C
330
1B
100
AcDbEntity
 67
     1
  8
0
100
AcDbBlockBegin
  2
*Paper_Space
 70
     0
 10
0.0
 20
0.0
 30
0.0
  3
*Paper_Space
  1

  0
ENDBLK
  5
1D
330
1B
100
AcDbEntity
 67
     1
  8
0
100
AcDbBlockEnd
  0
BLOCK
  5
24
330
23
100
AcDbEntity
  8
0
100
AcDbBlockBegin
  2
*Paper_Space0
 70
     0
 10
0.0
 20
0.0
 30
0.0
  3
*Paper_Space0
  1

  0
ENDBLK
  5
25
330
23
100
AcDbEntity
  8
0
100
AcDbBlockEnd
  0
ENDSEC
  0
SECTION
  2
ENTITIES
  0
LWPOLYLINE
  5
7F
330
1F
100
AcDbEntity
  8
0
  6
Continuous
 62
     7
370
    25
100
AcDbPolyline
 90
       76
 70
   128
 43
0.0
 10
6087.4782660746
 20
5213.9385097741
 10
6087.5245259101
 20
5211.0331197178
 10
6087.8532476044
 20
5205.6705004182
 10
6088.4969799745
 20
5200.3235138388
 10
6089.4545415987
 20
5195.0014686818
 10
6090.7243545412
 20
5189.7133441355
 10
6092.3044149465
 20
5184.4681250634
 10
6094.1922615931
 20
5179.2748228771
 10
6096.3849377217
 20
5174.142482893
 10
6098.8789517765
 20
5169.0801767148
 10
6101.6702424184
 20
5164.0969802659
 10
6104.7541521168
 20
5159.2019398622
 10
6108.125412071
 20
5154.4040299155
 10
6111.7781394879
 20
5149.7121063612
 10
6115.7058466665
 20
5145.1348597531
 10
6119.9014601433
 20
5140.6807713011
 10
6124.3573474557
 20
5136.3580741592
 10
6129.0653488635
 20
5132.1747212339
 10
6134.0168115546
 20
5128.138359839
 10
6139.2026242975
 20
5124.2563127969
 10
6144.6132510627
 20
5120.5355651147
 10
6150.2387626917
 20
5116.9827551311
 10
6156.0688661792
 20
5113.6041689942
 10
6162.0929315079
 20
5110.405737423
 10
6168.3000162325
 20
5107.3930338803
 10
6174.6788804729
 20
5104.5712767199
 10
6181.217968653
 20
5101.9453418832
 10
6187.9055443065
 20
5099.5197137398
 10
6194.7296416512
 20
5097.2985179738
 10
6201.6780842468
 20
5095.2855199417
 10
6208.7385036291
 20
5093.484122741
 10
6215.8983580944
 20
5091.89736507
 10
6223.1449517474
 20
5090.5279189831
 10
6230.4654538794
 20
5089.3780876513
 10
6237.8469187039
 20
5088.449803238
 10
6245.2763054452
 20
5087.7446249902
 10
6252.7404987468
 20
5087.2637376342
 10
6260.226329355
 20
5087.0079501509
 10
6267.7205950106
 20
5086.9776949886
 10
6275.2100814796
 20
5087.1730277583
 10
6282.6815549562
 20
5087.5936253867
 10
6290.1218371248
 20
5088.2387879642
 10
6297.5178063544
 20
5089.1074411614
 10
6304.8564139776
 20
5090.1981380395
 10
6312.1247047743
 20
5091.5090613691
 10
6319.3098371053
 20
5093.0380263543
 10
6326.3991026254
 20
5094.7824836873
 10
6333.3799455215
 20
5096.7395228415
 10
6340.2399812338
 20
5098.9058754912
 10
6346.9670146494
 20
5101.2779189257
 10
6353.5490577832
 20
5103.8516793132
 10
6359.9743470069
 20
5106.6228346547
 10
6366.2313599364
 20
5109.5867172667
 10
6372.3088321532
 20
5112.7383156414
 10
6378.1957306794
 20
5116.0722499334
 10
6383.881323358
 20
5119.5827943902
 10
6389.3552141566
 20
5123.2638896461
 10
6394.6073390454
 20
5127.1091296877
 10
6399.6279882329
 20
5131.1117608242
 10
6404.4078309245
 20
5135.2646812146
 10
6408.9379430203
 20
5139.5604418357
 10
6413.2098379748
 20
5143.9912500482
 10
6417.2155007075
 20
5148.5489771493
 10
6420.9474239766
 20
5153.2251714395
 10
6424.3986460273
 20
5158.0110782873
 10
6427.562787657
 20
5162.8976683921
 10
6430.4340861998
 20
5167.8756748498
 10
6433.0074234767
 20
5172.9356387158
 10
6435.2783446397
 20
5178.0679615997
 10
6437.2430652074
 20
5183.262962564
 10
6438.8984645307
 20
5188.5109354593
 10
6440.2420653835
 20
5193.8022020877
 10
6441.2720011834
 20
5199.1271564634
 10
6441.986974197
 20
5204.4762960921
 10
6442.3862096132
 20
5209.8402375839
 10
6442.4782660746
 20
5213.9385097741
  0
LWPOLYLINE
  5
80
330
1F
100
AcDbEntity
  8
0
  6
Continuous
 62
     7
370
    25
100
AcDbPolyline
 90
       65
 70
   128
 43
0.0
 10
6392.4782660746
 20
5238.4261386845
 10
6392.4378452634
 20
5236.2010995576
 10
6392.1201643605
 20
5231.8073352242
 10
6391.4872278429
 20
5227.4283731417
 10
6390.5408342935
 20
5223.0765709746
 10
6389.2838846803
 20
5218.7636128811
 10
6387.7202534467
 20
5214.5007384946
 10
6385.8546225875
 20
5210.2986676592
 10
6383.6923306183
 20
5206.1676049062
 10
6381.2392611907
 20
5202.1172996275
 10
6378.501779646
 20
5198.157131695
 10
6375.4867126281
 20
5194.2961964673
 10
6372.2013587366
 20
5190.5433722285
 10
6368.6535165534
 20
5186.9073624667
 10
6364.8515182159
 20
5183.3967124908
 10
6360.804260014
 20
5180.0198040631
 10
6356.5212248666
 20
5176.7848334872
 10
6352.0124942984
 20
5173.6997787217
 10
6347.2887494788
 20
5170.7723603632
 10
6342.3612620801
 20
5168.0100002812
 10
6337.24187632
 20
5165.4197806086
 10
6331.9429977334
 20
5163.0084108826
 10
6326.4776212443
 20
5160.7822117754
 10
6320.8591125445
 20
5158.747004939
 10
6315.1012809156
 20
5156.908142895
 10
6309.2183393803
 20
5155.2704839232
 10
6303.2248630494
 20
5153.8383704607
 10
6297.1357463057
 20
5152.6156107935
 10
6290.9661592588
 20
5151.6054637648
 10
6284.7315037771
 20
5150.8106262196
 10
6278.4473693022
 20
5150.2332229331
 10
6272.1294885797
 20
5149.8747987946
 10
6265.7936933812
 20
5149.7363130646
 10
6259.4558702556
 20
5149.8181355578
 10
6253.13193621
 20
5150.1200433506
 10
6246.8377873049
 20
5150.641217767
 10
6240.5892058339
 20
5151.3802501458
 10
6234.4018499191
 20
5152.3351455629
 10
6228.2912092989
 20
5153.5033282482
 10
6222.2725610663
 20
5154.8816489719
 10
6216.3609253804
 20
5156.4663945743
 10
6210.5710212048
 20
5158.2532998651
 10
6204.9172221793
 20
5160.2375621743
 10
6199.4135128016
 20
5162.4138588912
 10
6194.0734451996
 20
5164.7763683777
 10
6188.9100969081
 20
5167.3187946737
 10
6183.9360302394
 20
5170.034396424
 10
6179.1633233086
 20
5172.9159764622
 10
6174.603453959
 20
5175.9559543507
 10
6170.2672380187
 20
5179.1464339202
 10
6166.164843506
 20
5182.4792308368
 10
6162.3057729225
 20
5185.9459251757
 10
6158.6988555897
 20
5189.5379168203
 10
6155.3522520879
 20
5193.2464811025
 10
6152.2734724347
 20
5197.0628207312
 10
6149.4694086223
 20
5200.978108506
 10
6146.9463802867
 20
5204.9835138382
 10
6144.710189456
 20
5209.0702051777
 10
6142.766176569
 20
5213.2293208356
 10
6141.1192657614
 20
5217.4519033726
 10
6139.7739839373
 20
5221.7287986166
 10
6138.7344372955
 20
5226.0505297704
 10
6138.0042330992
 20
5230.407168721
 10
6137.5863451985
 20
5234.7882370283
 10
6137.4782660746
 20
5238.4261386845
  0
LWPOLYLINE
  5
81
330
1F
100
AcDbEntity
  8
0
  6
Continuous
 62
     7
370
    25
100
AcDbPolyline
 90
       59
 70
   128
 43
0.0
 10
6123.1660772606
 20
5137.5137362993
 10
6124.3756285509
 20
5134.4944943947
 10
6126.4290255275
 20
5129.8159983832
 10
6128.4799916561
 20
5125.5185477071
 10
6130.3921514666
 20
5121.7968573822
 10
6132.1142770904
 20
5118.6477998633
 10
6134.1052508929
 20
5115.21643183
 10
6136.1224225753
 20
5111.9417923327
 10
6138.6543856096
 20
5108.083935227
 10
6141.9318208932
 20
5103.4527871054
 10
6146.0434680441
 20
5098.1357841911
 10
6153.7818306901
 20
5089.3316678893
 10
6162.0994352862
 20
5081.2534929832
 10
6170.9317100612
 20
5073.9166492878
 10
6180.3279942337
 20
5067.254926591
 10
6190.6622114223
 20
5061.0715443728
 10
6201.9681721599
 20
5055.485501479
 10
6207.9801394636
 20
5052.9645007524
 10
6214.2261465414
 20
5050.6523309584
 10
6220.6999273714
 20
5048.5696905155
 10
6226.871127502
 20
5046.8689981157
 10
6232.2123854656
 20
5045.6139219936
 10
6236.6932492845
 20
5044.7127077064
 10
6239.2103767629
 20
5044.2662941817
 10
6241.3251375342
 20
5043.9241648461
 10
6243.0343478034
 20
5043.6694520732
 10
6244.8120209633
 20
5043.4250906672
 10
6247.2953547423
 20
5043.1186374097
 10
6251.6252501135
 20
5042.681075145
 10
6257.1833419201
 20
5042.2986267313
 10
6263.3645673376
 20
5042.1092453703
 10
6270.9590505399
 20
5042.2172956265
 10
6277.5381063156
 20
5042.6142046021
 10
6283.144708888
 20
5043.1751192892
 10
6288.2745634335
 20
5043.8693778517
 10
6293.0570062972
 20
5044.6745164749
 10
6297.6579413392
 20
5045.5952931452
 10
6302.8545337399
 20
5046.8107189285
 10
6308.7241907616
 20
5048.4125360251
 10
6315.2330844166
 20
5050.4820934702
 10
6322.3357466931
 20
5053.1084255217
 10
6329.9730325216
 20
5056.3861528161
 10
6337.9379117376
 20
5060.3419875829
 10
6345.3396940085
 20
5064.5559555279
 10
6352.0463666888
 20
5068.8699945256
 10
6358.0867756404
 20
5073.2040714803
 10
6364.7510370702
 20
5078.5422880716
 10
6370.4961235438
 20
5083.6812022639
 10
6375.4337964043
 20
5088.5579042134
 10
6380.1917929738
 20
5093.7240159079
 10
6384.9333495557
 20
5099.407977747
 10
6389.6016904077
 20
5105.6335588835
 10
6393.8970326024
 20
5112.041327618
 10
6397.6851073382
 20
5118.3692987278
 10
6399.8360861758
 20
5122.310519452
 10
6401.6857654305
 20
5125.9414809791
 10
6403.596636043
 20
5129.9669881364
 10
6405.5795781037
 20
5134.4912447344
 10
6406.815030027
 20
5137.5473512442
  0
LINE
  5
82
330
1F
100
AcDbEntity
  8
0
  6
Continuous
 62
     7
370
    25
100
AcDbLine
 10
6389.9782660746
 20
4836.1225823305
 30
0.0
 11
6389.9782660746
 21
4849.0866919694
 31
0.0
  0
LINE
  5
83
330
1F
100
AcDbEntity
  8
0
  6
Continuous
 62
     7
370
    25
100
AcDbLine
 10
6139.9782660746
 20
4849.0892938782
 30
0.0
 11
6139.9782660746
 21
4836.1225823305
 31
0.0
  0
LWPOLYLINE
  5
84
330
1F
100
AcDbEntity
  8
0
  6
Continuous
 62
     7
370
    25
100
AcDbPolyline
 90
       16
 70
   128
 43
0.0
 10
6137.4782660746
 20
5346.5210312466
 10
6137.5073722326
 20
5347.2838620982
 10
6137.8029972742
 20
5349.0641878142
 10
6138.4150047243
 20
5350.8223840972
 10
6139.3223158492
 20
5352.5156353906
 10
6140.5039222104
 20
5354.1266206489
 10
6141.9450713754
 20
5355.6455526058
 10
6143.6327870025
 20
5357.0602007233
 10
6145.5518936007
 20
5358.3548575647
 10
6147.6832881602
 20
5359.5120102047
 10
6150.0034277898
 20
5360.5140701813
 10
6152.4840938845
 20
5361.3446455433
 10
6155.0950102703
 20
5361.9901691512
 10
6157.8031066145
 20
5362.4397603113
 10
6160.5732241359
 20
5362.6856832052
 10
6162.4782660746
 20
5362.7342346822
  0
LWPOLYLINE
  5
85
330
1F
100
AcDbEntity
  8
0
  6
Continuous
 62
     7
370
    25
100
AcDbPolyline
 90
       16
 70
   128
 43
0.0
 10
6367.4782660746
 20
5362.7342346822
 10
6368.9045945562
 20
5362.707034749
 10
6371.6808370925
 20
5362.496674245
 10
6374.4016787884
 20
5362.0817108238
 10
6377.0298168225
 20
5361.4697238201
 10
6379.5307240027
 20
5360.6718620359
 10
6381.8722742923
 20
5359.7027027185
 10
6384.0255456507
 20
5358.5799150563
 10
6385.9656539669
 20
5357.3236841717
 10
6387.6717591075
 20
5355.9564776792
 10
6389.1288018761
 20
5354.5012143554
 10
6390.3279309866
 20
5352.9788568197
 10
6391.2654729221
 20
5351.4056143643
 10
6391.9403728971
 20
5349.7894869398
 10
6392.3489362717
 20
5348.1280081048
 10
6392.4782660746
 20
5346.5210312466
  0
LINE
  5
86
330
1F
100
AcDbEntity
  8
0
  6
Continuous
 62
     7
370
    25
100
AcDbLine
 10
6162.4782660746
 20
5362.7342346822
 30
0.0
 11
6367.4782660746
 21
5362.7342346822
 31
0.0
  0
LWPOLYLINE
  5
87
330
1F
100
AcDbEntity
  8
0
  6
Continuous
 62
     7
370
    25
100
AcDbPolyline
 90
       71
 70
   128
 43
0.0
 10
6442.4782660746
 20
5238.6872471156
 10
6442.2995353857
 20
5233.0561970401
 10
6441.7637032588
 20
5227.43648715
 10
6440.8718487884
 20
5221.8394347932
 10
6439.6257680509
 20
5216.2763116883
 10
6438.0279704869
 20
5210.7583212248
 10
6436.0816738481
 20
5205.2965759013
 10
6433.790797717
 20
5199.9020749458
 10
6431.1599556132
 20
5194.5856821654
 10
6428.1944457025
 20
5189.3581040677
 10
6424.9002401273
 20
5184.2298682993
 10
6421.2839729792
 20
5179.2113024444
 10
6417.3529269389
 20
5174.3125132269
 10
6413.1150186101
 20
5169.5433661563
 10
6408.5787825761
 20
5164.9134656601
 10
6403.7533542127
 20
5160.4321357418
 10
6398.6484512902
 20
5156.1084012033
 10
6393.274354404
 20
5151.9509694707
 10
6387.6418862698
 20
5147.9682130582
 10
6381.7623899289
 20
5144.1681527072
 10
6375.6477059045
 20
5140.5584412334
 10
6369.3101483565
 20
5137.1463481155
 10
6362.7624802823
 20
5133.9387448548
 10
6356.0178878141
 20
5130.9420911374
 10
6349.0899536636
 20
5128.1624218252
 10
6341.992629768
 20
5125.6053348022
 10
6334.7402091932
 20
5123.2759797014
 10
6327.347297349
 20
5121.1790475339
 10
6319.8287825761
 20
5119.318761242
 10
6312.1998061627
 20
5117.6988671948
 10
6304.4757318518
 20
5116.3226276434
 10
6296.6721149014
 20
5115.1928141509
 10
6288.8046707572
 20
5114.3117020115
 10
6280.889243405
 20
5113.6810656677
 10
6272.9417734618
 20
5113.3021751371
 10
6264.9782660746
 20
5113.175793455
 10
6257.0147586874
 20
5113.3021751371
 10
6249.0672887442
 20
5113.6810656677
 10
6241.151861392
 20
5114.3117020115
 10
6233.2844172478
 20
5115.1928141509
 10
6225.4808002974
 20
5116.3226276434
 10
6217.7567259865
 20
5117.6988671948
 10
6210.127749573
 20
5119.318761242
 10
6202.6092348002
 20
5121.1790475339
 10
6195.216322956
 20
5123.2759797014
 10
6187.9639023812
 20
5125.6053348022
 10
6180.8665784856
 20
5128.1624218252
 10
6173.938644335
 20
5130.9420911374
 10
6167.1940518668
 20
5133.9387448548
 10
6160.6463837927
 20
5137.1463481155
 10
6154.3088262447
 20
5140.5584412334
 10
6148.1941422203
 20
5144.1681527072
 10
6142.3146458794
 20
5147.9682130582
 10
6136.6821777452
 20
5151.9509694707
 10
6131.308080859
 20
5156.1084012033
 10
6126.2031779365
 20
5160.4321357418
 10
6121.377749573
 20
5164.9134656601
 10
6116.8415135391
 20
5169.5433661563
 10
6112.6036052103
 20
5174.3125132269
 10
6108.67255917
 20
5179.2113024444
 10
6105.0562920219
 20
5184.2298682993
 10
6101.7620864467
 20
5189.3581040677
 10
6098.796576536
 20
5194.5856821654
 10
6096.1657344322
 20
5199.9020749458
 10
6093.8748583011
 20
5205.2965759013
 10
6091.9285616623
 20
5210.7583212248
 10
6090.3307640983
 20
5216.2763116883
 10
6089.0846833608
 20
5221.8394347932
 10
6088.1928288904
 20
5227.43648715
 10
6087.6569967635
 20
5233.0561970401
 10
6087.4782660746
 20
5238.6872471156
  0
LWPOLYLINE
  5
88
330
1F
100
AcDbEntity
  8
0
  6
Continuous
 62
     7
370
    25
100
AcDbPolyline
 90
        9
 70
   128
 43
0.0
 10
6087.4782660746
 20
5238.6872471156
 10
6087.5743396726
 20
5239.3769955638
 10
6087.858868412
 20
5240.040237366
 10
6088.3209180131
 20
5240.6514845116
 10
6088.9427321687
 20
5241.1872471156
 10
6089.7004149095
 20
5241.6269361217
 10
6090.5648489128
 20
5241.9536545278
 10
6091.5028144645
 20
5242.1548467289
 10
6092.4782660746
 20
5242.2227810215
  0
LWPOLYLINE
  5
89
330
1F
100
AcDbEntity
  8
0
  6
Continuous
 62
     7
370
    25
100
AcDbPolyline
 90
       70
 70
   128
 43
0.0
 10
6092.4782660746
 20
5242.2227810215
 10
6092.6570323705
 20
5236.67109593
 10
6093.1929607379
 20
5231.1309175537
 10
6094.0849403833
 20
5225.6137287581
 10
6095.3311225428
 20
5220.1309647597
 10
6096.9289243134
 20
5214.6939894241
 10
6098.8750340071
 20
5209.3140717128
 10
6101.1654180143
 20
5204.002362327
 10
6103.7953291644
 20
5198.7698705954
 10
6106.7593165649
 20
5193.6274416563
 10
6110.0512368994
 20
5188.5857339788
 10
6113.6642671602
 20
5183.655197272
 10
6117.5909187903
 20
5178.8460508262
 10
6121.8230532048
 20
5174.1682623318
 10
6126.3518986586
 20
5169.6315272197
 10
6131.1680684281
 20
5165.2452485663
 10
6136.2615802659
 20
5161.0185176039
 10
6141.6218770909
 20
5156.9600948778
 10
6147.2378488694
 20
5153.0783920889
 10
6153.0978556423
 20
5149.3814546591
 10
6159.1897516507
 20
5145.8769450555
 10
6165.5009105098
 20
5142.5721269097
 10
6172.0182513792
 20
5139.4738499618
 10
6178.7282660746
 20
5136.588535864
 10
6185.617047066
 20
5133.9221648703
 10
6192.6703163027
 20
5131.4802634418
 10
6199.8734548073
 20
5129.2678927921
 10
6207.2115329751
 20
5127.2896383972
 10
6214.6693415186
 20
5125.5496004914
 10
6222.2314229908
 20
5124.0513855691
 10
6229.882103823
 20
5122.7980989093
 10
6237.6055268109
 20
5121.7923381402
 10
6245.3856839809
 20
5121.0361878544
 10
6253.2064497692
 20
5120.531215289
 10
6261.0516144444
 20
5120.2784670767
 10
6268.9049177048
 20
5120.2784670767
 10
6276.75008238
 20
5120.531215289
 10
6284.5708481683
 20
5121.0361878544
 10
6292.3510053383
 20
5121.7923381402
 10
6300.0744283262
 20
5122.7980989093
 10
6307.7251091584
 20
5124.0513855691
 10
6315.2871906306
 20
5125.5496004914
 10
6322.7449991741
 20
5127.2896383972
 10
6330.0830773419
 20
5129.2678927921
 10
6337.2862158465
 20
5131.4802634418
 10
6344.3394850832
 20
5133.9221648703
 10
6351.2282660746
 20
5136.588535864
 10
6357.93828077
 20
5139.4738499618
 10
6364.4556216394
 20
5142.5721269097
 10
6370.7667804985
 20
5145.8769450555
 10
6376.8586765069
 20
5149.3814546591
 10
6382.7186832798
 20
5153.0783920889
 10
6388.3346550583
 20
5156.9600948778
 10
6393.6949518833
 20
5161.0185176039
 10
6398.7884637211
 20
5165.2452485663
 10
6403.6046334906
 20
5169.6315272197
 10
6408.1334789444
 20
5174.1682623318
 10
6412.3656133589
 20
5178.8460508262
 10
6416.292264989
 20
5183.655197272
 10
6419.9052952498
 20
5188.5857339788
 10
6423.1972155843
 20
5193.6274416563
 10
6426.1612029848
 20
5198.7698705954
 10
6428.7911141349
 20
5204.002362327
 10
6431.0814981421
 20
5209.3140717128
 10
6433.0276078358
 20
5214.6939894241
 10
6434.6254096064
 20
5220.1309647597
 10
6435.8715917659
 20
5225.6137287581
 10
6436.7635714113
 20
5231.1309175537
 10
6437.2994997787
 20
5236.67109593
 10
6437.4782660746
 20
5242.2227810215
  0
LWPOLYLINE
  5
8A
330
1F
100
AcDbEntity
  8
0
  6
Continuous
 62
     7
370
    25
100
AcDbPolyline
 90
        9
 70
   128
 43
0.0
 10
6442.4782660746
 20
5238.6872471156
 10
6442.3821924766
 20
5239.3769955638
 10
6442.0976637372
 20
5240.040237366
 10
6441.6356141361
 20
5240.6514845116
 10
6441.0137999805
 20
5241.1872471156
 10
6440.2561172397
 20
5241.6269361217
 10
6439.3916832364
 20
5241.9536545278
 10
6438.4537176847
 20
5242.1548467289
 10
6437.4782660746
 20
5242.2227810215
  0
LINE
  5
8B
330
1F
100
AcDbEntity
  8
0
  6
Continuous
 62
     7
370
    25
100
AcDbLine
 10
6442.4782660746
 20
5213.9385097741
 30
0.0
 11
6442.4782660746
 21
5238.6872471156
 31
0.0
  0
LWPOLYLINE
  5
8C
330
1F
100
AcDbEntity
  8
0
  6
Continuous
 62
     7
370
    25
100
AcDbPolyline
 90
       71
 70
   128
 43
0.0
 10
6087.4782660746
 20
5213.9385097741
 10
6087.6569967635
 20
5208.3074596986
 10
6088.1928288904
 20
5202.6877498085
 10
6089.0846833608
 20
5197.0906974517
 10
6090.3307640983
 20
5191.5275743468
 10
6091.9285616623
 20
5186.0095838833
 10
6093.8748583011
 20
5180.5478385597
 10
6096.1657344322
 20
5175.1533376043
 10
6098.796576536
 20
5169.8369448239
 10
6101.7620864467
 20
5164.6093667262
 10
6105.0562920219
 20
5159.4811309577
 10
6108.67255917
 20
5154.4625651029
 10
6112.6036052103
 20
5149.5637758854
 10
6116.8415135391
 20
5144.7946288148
 10
6121.377749573
 20
5140.1647283186
 10
6126.2031779365
 20
5135.6833984002
 10
6131.308080859
 20
5131.3596638618
 10
6136.6821777452
 20
5127.2022321292
 10
6142.3146458794
 20
5123.2194757167
 10
6148.1941422203
 20
5119.4194153656
 10
6154.3088262447
 20
5115.8097038919
 10
6160.6463837927
 20
5112.3976107739
 10
6167.1940518668
 20
5109.1900075133
 10
6173.938644335
 20
5106.1933537959
 10
6180.8665784856
 20
5103.4136844837
 10
6187.9639023812
 20
5100.8565974607
 10
6195.216322956
 20
5098.5272423598
 10
6202.6092348002
 20
5096.4303101923
 10
6210.127749573
 20
5094.5700239005
 10
6217.7567259865
 20
5092.9501298533
 10
6225.4808002974
 20
5091.5738903018
 10
6233.2844172478
 20
5090.4440768094
 10
6241.151861392
 20
5089.56296467
 10
6249.0672887442
 20
5088.9323283261
 10
6257.0147586874
 20
5088.5534377956
 10
6264.9782660746
 20
5088.4270561135
 10
6272.9417734618
 20
5088.5534377956
 10
6280.889243405
 20
5088.9323283261
 10
6288.8046707572
 20
5089.56296467
 10
6296.6721149014
 20
5090.4440768094
 10
6304.4757318518
 20
5091.5738903018
 10
6312.1998061627
 20
5092.9501298533
 10
6319.8287825762
 20
5094.5700239005
 10
6327.347297349
 20
5096.4303101923
 10
6334.7402091932
 20
5098.5272423598
 10
6341.992629768
 20
5100.8565974607
 10
6349.0899536636
 20
5103.4136844837
 10
6356.0178878141
 20
5106.1933537959
 10
6362.7624802823
 20
5109.1900075133
 10
6369.3101483565
 20
5112.3976107739
 10
6375.6477059045
 20
5115.8097038919
 10
6381.7623899289
 20
5119.4194153656
 10
6387.6418862698
 20
5123.2194757167
 10
6393.274354404
 20
5127.2022321292
 10
6398.6484512902
 20
5131.3596638618
 10
6403.7533542127
 20
5135.6833984002
 10
6408.5787825761
 20
5140.1647283186
 10
6413.1150186101
 20
5144.7946288148
 10
6417.3529269389
 20
5149.5637758854
 10
6421.2839729792
 20
5154.4625651029
 10
6424.9002401273
 20
5159.4811309577
 10
6428.1944457025
 20
5164.6093667262
 10
6431.1599556132
 20
5169.8369448239
 10
6433.790797717
 20
5175.1533376043
 10
6436.0816738481
 20
5180.5478385597
 10
6438.0279704869
 20
5186.0095838833
 10
6439.6257680509
 20
5191.5275743468
 10
6440.8718487884
 20
5197.0906974517
 10
6441.7637032588
 20
5202.6877498085
 10
6442.2995353857
 20
5208.3074596986
 10
6442.4782660746
 20
5213.9385097741
  0
LINE
  5
8D
330
1F
100
AcDbEntity
  8
0
  6
Continuous
 62
     7
370
    25
100
AcDbLine
 10
6087.4782660746
 20
5213.9385097741
 30
0.0
 11
6087.4782660746
 21
5238.6872471156
 31
0.0
  0
LINE
  5
8E
330
1F
100
AcDbEntity
  8
0
  6
Continuous
 62
     7
370
    25
100
AcDbLine
 10
6092.4782660746
 20
5454.6581162364
 30
0.0
 11
6092.4782660746
 21
5242.2227810215
 31
0.0
  0
LINE
  5
8F
330
1F
100
AcDbEntity
  8
0
  6
Continuous
 62
     7
370
    25
100
AcDbLine
 10
6437.4782660746
 20
5454.6581162364
 30
0.0
 11
6092.4782660746
 21
5454.6581162364
 31
0.0
  0
LINE
  5
90
330
1F
100
AcDbEntity
  8
0
  6
Continuous
 62
     7
370
    25
100
AcDbLine
 10
6437.4782660746
 20
5242.2227810215
 30
0.0
 11
6437.4782660746
 21
5454.6581162364
 31
0.0
  0
LWPOLYLINE
  5
91
330
1F
100
AcDbEntity
  8
0
  6
Continuous
 62
     7
370
    25
100
AcDbPolyline
 90
       62
 70
   128
 43
0.0
 10
6397.4782660746
 20
5241.9616725904
 10
6397.3025829843
 20
5237.1385431929
 10
6396.7759995935
 20
5232.3282038674
 10
6395.8999123067
 20
5227.5434107693
 10
6394.6766443497
 20
5222.7968523095
 10
6393.1094396094
 20
5218.1011155078
 10
6391.202454031
 20
5213.4686526141
 10
6388.9607445975
 20
5208.9117480872
 10
6386.3902559191
 20
5204.4424860188
 10
6383.4978044699
 20
5200.0727180883
 10
6380.2910605111
 20
5195.8140321347
 10
6376.7785277512
 20
5191.6777214278
 10
6372.9695207956
 20
5187.6747547197
 10
6368.874140446
 20
5183.8157471588
 10
6364.5032469149
 20
5180.1109321392
 10
6359.8684310263
 20
5176.5701341643
 10
6354.9819834785
 20
5173.202742794
 10
6349.8568622521
 20
5170.0176877448
 10
6344.5066582473
 20
5167.02341521
 10
6338.9455592432
 20
5164.2278654621
 10
6333.1883122746
 20
5161.6384517966
 10
6327.2501845257
 20
5159.2620408729
 10
6321.1469228437
 20
5157.1049345057
 10
6314.8947119813
 20
5155.1728529532
 10
6308.5101316778
 20
5153.4709197483
 10
6302.0101126924
 20
5152.0036481121
 10
6295.4118919071
 20
5150.774928985
 10
6288.732966617
 20
5149.7880207094
 10
6281.9910481315
 20
5149.0455403886
 10
6275.2040148064
 20
5148.5494569468
 10
6268.3898646339
 20
5148.3010859083
 10
6261.5666675153
 20
5148.3010859083
 10
6254.7525173428
 20
5148.5494569468
 10
6247.9654840177
 20
5149.0455403886
 10
6241.2235655322
 20
5149.7880207094
 10
6234.5446402421
 20
5150.774928985
 10
6227.9464194568
 20
5152.0036481121
 10
6221.4464004714
 20
5153.4709197483
 10
6215.0618201679
 20
5155.1728529532
 10
6208.8096093055
 20
5157.1049345057
 10
6202.7063476235
 20
5159.2620408729
 10
6196.7682198745
 20
5161.6384517966
 10
6191.010972906
 20
5164.2278654621
 10
6185.4498739019
 20
5167.02341521
 10
6180.0996698971
 20
5170.0176877448
 10
6174.9745486707
 20
5173.202742794
 10
6170.0881011229
 20
5176.5701341643
 10
6165.4532852343
 20
5180.1109321392
 10
6161.0823917032
 20
5183.8157471588
 10
6156.9870113536
 20
5187.6747547197
 10
6153.178004398
 20
5191.6777214278
 10
6149.6654716381
 20
5195.8140321347
 10
6146.4587276793
 20
5200.0727180883
 10
6143.5662762301
 20
5204.4424860188
 10
6140.9957875517
 20
5208.9117480872
 10
6138.7540781181
 20
5213.4686526141
 10
6136.8470925397
 20
5218.1011155078
 10
6135.2798877995
 20
5222.7968523095
 10
6134.0566198425
 20
5227.5434107693
 10
6133.1805325557
 20
5232.3282038674
 10
6132.6539491649
 20
5237.1385431929
 10
6132.4782660746
 20
5241.9616725904
  0
LINE
  5
92
330
1F
100
AcDbEntity
  8
0
  6
Continuous
 62
     7
370
    25
100
AcDbLine
 10
6397.4782660746
 20
5374.805302494
 30
0.0
 11
6397.4782660746
 21
5241.9616725904
 31
0.0
  0
LWPOLYLINE
  5
93
330
1F
100
AcDbEntity
  8
0
  6
Continuous
 62
     7
370
    25
100
AcDbPolyline
 90
       15
 70
   128
 43
0.0
 10
6367.4782660746
 20
5396.0185059296
 10
6370.8372003577
 20
5395.8851217589
 10
6374.1538940933
 20
5395.4866466302
 10
6377.3866379333
 20
5394.8280915993
 10
6380.4947782481
 20
5393.917738378
 10
6383.4392283701
 20
5392.7670351861
 10
6386.1829601304
 20
5391.390452784
 10
6388.6914695102
 20
5389.805302494
 10
6390.9332105486
 20
5388.0315185009
 10
6392.8799920514
 20
5386.0914071674
 10
6394.5073321117
 20
5384.0093665193
 10
6395.7947659838
 20
5381.8115794258
 10
6396.7261034401
 20
5379.5256843347
 10
6397.2896323714
 20
5377.1804277032
 10
6397.4782660746
 20
5374.805302494
  0
LINE
  5
94
330
1F
100
AcDbEntity
  8
0
  6
Continuous
 62
     7
370
    25
100
AcDbLine
 10
6162.4782660746
 20
5396.0185059296
 30
0.0
 11
6367.4782660746
 21
5396.0185059296
 31
0.0
  0
LWPOLYLINE
  5
95
330
1F
100
AcDbEntity
  8
0
  6
Continuous
 62
     7
370
    25
100
AcDbPolyline
 90
       15
 70
   128
 43
0.0
 10
6132.4782660746
 20
5374.805302494
 10
6132.6668997778
 20
5377.1804277032
 10
6133.2304287091
 20
5379.5256843347
 10
6134.1617661653
 20
5381.8115794258
 10
6135.4492000375
 20
5384.0093665193
 10
6137.0765400977
 20
5386.0914071674
 10
6139.0233216006
 20
5388.0315185009
 10
6141.265062639
 20
5389.805302494
 10
6143.7735720188
 20
5391.390452784
 10
6146.5173037791
 20
5392.7670351861
 10
6149.4617539011
 20
5393.917738378
 10
6152.5698942159
 20
5394.8280915993
 10
6155.8026380559
 20
5395.4866466302
 10
6159.1193317915
 20
5395.8851217589
 10
6162.4782660746
 20
5396.0185059296
  0
LINE
  5
96
330
1F
100
AcDbEntity
  8
0
  6
Continuous
 62
     7
370
    25
100
AcDbLine
 10
6132.4782660746
 20
5241.9616725904
 30
0.0
 11
6132.4782660746
 21
5374.805302494
 31
0.0
  0
LWPOLYLINE
  5
97
330
1F
100
AcDbEntity
  8
0
  6
Continuous
 62
     7
370
    25
100
AcDbPolyline
 90
        9
 70
   128
 43
0.0
 10
6132.4782660746
 20
5241.9616725904
 10
6133.4537176847
 20
5241.8937382978
 10
6134.3916832364
 20
5241.6925460966
 10
6135.2561172397
 20
5241.3658276905
 10
6136.0137999805
 20
5240.9261386845
 10
6136.6356141361
 20
5240.3903760804
 10
6137.0976637372
 20
5239.7791289348
 10
6137.3821924766
 20
5239.1158871327
 10
6137.4782660746
 20
5238.4261386845
  0
LWPOLYLINE
  5
98
330
1F
100
AcDbEntity
  8
0
  6
Continuous
 62
     7
370
    25
100
AcDbPolyline
 90
        9
 70
   128
 43
0.0
 10
6397.4782660746
 20
5241.9616725904
 10
6396.5028144645
 20
5241.8937382978
 10
6395.5648489128
 20
5241.6925460966
 10
6394.7004149095
 20
5241.3658276905
 10
6393.9427321687
 20
5240.9261386845
 10
6393.3209180131
 20
5240.3903760804
 10
6392.858868412
 20
5239.7791289348
 10
6392.5743396726
 20
5239.1158871327
 10
6392.4782660746
 20
5238.4261386845
  0
LINE
  5
99
330
1F
100
AcDbEntity
  8
0
  6
Continuous
 62
     7
370
    25
100
AcDbLine
 10
6392.4782660746
 20
5238.4261386845
 30
0.0
 11
6392.4782660746
 21
5371.2697685881
 31
0.0
  0
LWPOLYLINE
  5
9A
330
1F
100
AcDbEntity
  8
0
  6
Continuous
 62
     7
370
    25
100
AcDbPolyline
 90
        9
 70
   128
 43
0.0
 10
6392.4782660746
 20
5371.2697685881
 10
6392.5743396726
 20
5371.9595170363
 10
6392.858868412
 20
5372.6227588385
 10
6393.3209180131
 20
5373.2340059841
 10
6393.9427321687
 20
5373.7697685881
 10
6394.7004149095
 20
5374.2094575941
 10
6395.5648489128
 20
5374.5361760003
 10
6396.5028144645
 20
5374.7373682014
 10
6397.4782660746
 20
5374.805302494
  0
LWPOLYLINE
  5
9B
330
1F
100
AcDbEntity
  8
0
  6
Continuous
 62
     7
370
    25
100
AcDbPolyline
 90
        9
 70
   128
 43
0.0
 10
6132.4782660746
 20
5374.805302494
 10
6133.4537176847
 20
5374.7373682014
 10
6134.3916832364
 20
5374.5361760003
 10
6135.2561172397
 20
5374.2094575941
 10
6136.0137999805
 20
5373.7697685881
 10
6136.6356141361
 20
5373.2340059841
 10
6137.0976637372
 20
5372.6227588385
 10
6137.3821924766
 20
5371.9595170363
 10
6137.4782660746
 20
5371.2697685881
  0
LINE
  5
9C
330
1F
100
AcDbEntity
  8
0
  6
Continuous
 62
     7
370
    25
100
AcDbLine
 10
6137.4782660746
 20
5371.2697685881
 30
0.0
 11
6137.4782660746
 21
5238.4261386845
 31
0.0
  0
LWPOLYLINE
  5
9D
330
1F
100
AcDbEntity
  8
0
  6
Continuous
 62
     7
370
    25
100
AcDbPolyline
 90
        9
 70
   128
 43
0.0
 10
6442.4782660746
 20
5451.1225823305
 10
6442.3821924766
 20
5451.8123307787
 10
6442.0976637372
 20
5452.4755725808
 10
6441.6356141361
 20
5453.0868197264
 10
6441.0137999805
 20
5453.6225823305
 10
6440.2561172397
 20
5454.0622713365
 10
6439.3916832364
 20
5454.3889897427
 10
6438.4537176847
 20
5454.5901819438
 10
6437.4782660746
 20
5454.6581162364
  0
LINE
  5
9E
330
1F
100
AcDbEntity
  8
0
  6
Continuous
 62
     7
370
    25
100
AcDbLine
 10
6442.4782660746
 20
5451.1225823305
 30
0.0
 11
6442.4782660746
 21
5238.6872471156
 31
0.0
  0
LINE
  5
9F
330
1F
100
AcDbEntity
  8
0
  6
Continuous
 62
     7
370
    25
100
AcDbLine
 10
6087.4782660746
 20
5238.6872471156
 30
0.0
 11
6087.4782660746
 21
5451.1225823305
 31
0.0
  0
LWPOLYLINE
  5
A0
330
1F
100
AcDbEntity
  8
0
  6
Continuous
 62
     7
370
    25
100
AcDbPolyline
 90
        9
 70
   128
 43
0.0
 10
6092.4782660746
 20
5454.6581162364
 10
6091.5028144645
 20
5454.5901819438
 10
6090.5648489128
 20
5454.3889897427
 10
6089.7004149095
 20
5454.0622713365
 10
6088.9427321687
 20
5453.6225823305
 10
6088.3209180131
 20
5453.0868197264
 10
6087.858868412
 20
5452.4755725808
 10
6087.5743396726
 20
5451.8123307787
 10
6087.4782660746
 20
5451.1225823305
  0
LWPOLYLINE
  5
A1
330
1F
100
AcDbEntity
  8
0
  6
Continuous
 62
     7
370
    25
100
AcDbPolyline
 90
        5
 70
   128
 43
0.0
 10
6140.0126030661
 20
4894.1166070867
 10
6140.0059251034
 20
4878.1166070867
 10
6139.9890546749
 20
4862.1450296164
 10
6139.9803577645
 20
4854.1519301529
 10
6139.9795467916
 20
4849.0892938782
  0
LWPOLYLINE
  5
A2
330
1F
100
AcDbEntity
  8
0
  6
Continuous
 62
     7
370
    25
100
AcDbPolyline
 90
        5
 70
   128
 43
0.0
 10
6389.9769934004
 20
4849.0866919694
 10
6389.9762020722
 20
4854.1099960362
 10
6389.9675757355
 20
4862.06074249
 10
6389.9506070458
 20
4878.1166070867
 10
6389.9439290831
 20
4894.1166070867
  0
LINE
  5
A3
330
1F
100
AcDbEntity
  8
0
  6
Continuous
 62
     7
370
    25
100
AcDbLine
 10
6389.9782660746
 20
4836.1225823305
 30
0.0
 11
6139.9782660746
 21
4836.1225823305
 31
0.0
  0
LWPOLYLINE
  5
A4
330
1F
100
AcDbEntity
  8
0
  6
Continuous
 62
     7
370
    25
100
AcDbPolyline
 90
       14
 70
   128
 43
0.0
 10
6392.4782660746
 20
5371.2697685881
 10
6392.295987927
 20
5373.4005761878
 10
6391.7518115102
 20
5375.5003118146
 10
6390.8536721417
 20
5377.5383565948
 10
6389.6146667159
 20
5379.4849912463
 10
6388.0528627219
 20
5381.3118294523
 10
6386.1910347789
 20
5382.9922317981
 10
6384.0563325306
 20
5384.5016942337
 10
6381.6798847429
 20
5385.8182053976
 10
6379.0963453757
 20
5386.9225675926
 10
6376.3433882507
 20
5387.7986767312
 10
6373.4611576818
 20
5388.4337571691
 10
6370.491683081
 20
5388.8185480036
 10
6367.4782660746
 20
5388.9474381178
  0
LINE
  5
A5
330
1F
100
AcDbEntity
  8
0
  6
Continuous
 62
     7
370
    25
100
AcDbLine
 10
6367.4782660746
 20
5388.9474381178
 30
0.0
 11
6367.4782660746
 21
5396.0185059296
 31
0.0
  0
LWPOLYLINE
  5
A6
330
1F
100
AcDbEntity
  8
0
  6
Continuous
 62
     7
370
    25
100
AcDbPolyline
 90
       14
 70
   128
 43
0.0
 10
6162.4782660746
 20
5388.9474381178
 10
6159.4648490682
 20
5388.8185480036
 10
6156.4953744674
 20
5388.4337571691
 10
6153.6131438985
 20
5387.7986767312
 10
6150.8601867735
 20
5386.9225675926
 10
6148.2766474063
 20
5385.8182053976
 10
6145.9001996186
 20
5384.5016942337
 10
6143.7654973703
 20
5382.9922317981
 10
6141.9036694273
 20
5381.3118294523
 10
6140.3418654333
 20
5379.4849912463
 10
6139.1028600075
 20
5377.5383565948
 10
6138.2047206389
 20
5375.5003118146
 10
6137.6605442221
 20
5373.4005761878
 10
6137.4782660746
 20
5371.2697685881
  0
LINE
  5
A7
330
1F
100
AcDbEntity
  8
0
  6
Continuous
 62
     7
370
    25
100
AcDbLine
 10
6162.4782660746
 20
5388.9474381178
 30
0.0
 11
6162.4782660746
 21
5396.0185059296
 31
0.0
  0
LWPOLYLINE
  5
A8
330
1F
100
AcDbEntity
  8
0
  6
Continuous
 62
     7
370
    25
100
AcDbPolyline
 90
       14
 70
   128
 43
0.0
 10
6367.4782660746
 20
5364.1987007762
 10
6370.491683081
 20
5364.069810662
 10
6373.4611576818
 20
5363.6850198276
 10
6376.3433882507
 20
5363.0499393896
 10
6379.0963453757
 20
5362.1738302511
 10
6381.6798847429
 20
5361.0694680561
 10
6384.0563325306
 20
5359.7529568921
 10
6386.1910347789
 20
5358.2434944566
 10
6388.0528627219
 20
5356.5630921107
 10
6389.6146667159
 20
5354.7362539047
 10
6390.8536721417
 20
5352.7896192533
 10
6391.7518115102
 20
5350.7515744731
 10
6392.295987927
 20
5348.6518388463
 10
6392.4782660746
 20
5346.5210312466
  0
LINE
  5
A9
330
1F
100
AcDbEntity
  8
0
  6
Continuous
 62
     7
370
    25
100
AcDbLine
 10
6367.4782660746
 20
5364.1987007762
 30
0.0
 11
6367.4782660746
 21
5388.9474381178
 31
0.0
  0
LINE
  5
AA
330
1F
100
AcDbEntity
  8
0
  6
Continuous
 62
     7
370
    25
100
AcDbLine
 10
6162.4782660746
 20
5364.1987007762
 30
0.0
 11
6162.4782660746
 21
5388.9474381178
 31
0.0
  0
LWPOLYLINE
  5
AB
330
1F
100
AcDbEntity
  8
0
  6
Continuous
 62
     7
370
    25
100
AcDbPolyline
 90
       14
 70
   128
 43
0.0
 10
6137.4782660746
 20
5346.5210312466
 10
6137.6605442221
 20
5348.6518388463
 10
6138.2047206389
 20
5350.7515744731
 10
6139.1028600075
 20
5352.7896192533
 10
6140.3418654333
 20
5354.7362539047
 10
6141.9036694273
 20
5356.5630921107
 10
6143.7654973703
 20
5358.2434944566
 10
6145.9001996186
 20
5359.7529568921
 10
6148.2766474063
 20
5361.0694680561
 10
6150.8601867735
 20
5362.1738302511
 10
6153.6131438985
 20
5363.0499393896
 10
6156.4953744674
 20
5363.6850198276
 10
6159.4648490682
 20
5364.069810662
 10
6162.4782660746
 20
5364.1987007762
  0
LINE
  5
AC
330
1F
100
AcDbEntity
  8
0
  6
Continuous
 62
     7
370
    25
100
AcDbLine
 10
6367.4782660746
 20
5388.9474381178
 30
0.0
 11
6162.4782660746
 21
5388.9474381178
 31
0.0
  0
LINE
  5
AD
330
1F
100
AcDbEntity
  8
0
  6
Continuous
 62
     7
370
    25
100
AcDbLine
 10
6162.4782660746
 20
5364.1987007762
 30
0.0
 11
6367.4782660746
 21
5364.1987007762
 31
0.0
  0
LINE
  5
AE
330
1F
100
AcDbEntity
  8
0
  6
Continuous
 62
     7
370
    25
100
AcDbLine
 10
6392.9431049953
 20
4894.1166070867
 30
0.0
 11
6389.9439290831
 21
4894.1166070867
 31
0.0
  0
LINE
  5
AF
330
1F
100
AcDbEntity
  8
0
  6
Continuous
 62
     7
370
    25
100
AcDbLine
 10
6137.0134271539
 20
4894.1166070867
 30
0.0
 11
6140.0126030661
 21
4894.1166070867
 31
0.0
  0
LINE
  5
B0
330
1F
100
AcDbEntity
  8
0
  6
Continuous
 62
     7
370
    25
100
AcDbLine
 10
6438.4803837248
 20
5187.1855291319
 30
0.0
 11
6389.9782660746
 21
4836.1225823305
 31
0.0
  0
LINE
  5
B1
330
1F
100
AcDbEntity
  8
0
  6
Continuous
 62
     7
370
    25
100
AcDbLine
 10
6437.4782660746
 20
5454.6581162364
 30
0.0
 11
6437.4782660746
 21
5456.1225823305
 31
0.0
  0
ARC
  5
B2
330
1F
100
AcDbEntity
  8
0
  6
Continuous
 62
     7
370
    25
100
AcDbCircle
 10
6437.4782660746
 20
5451.1225823305
 30
0.0
 40
5.0
100
AcDbArc
 50
0.0
 51
90.0
  0
ARC
  5
B3
330
1F
100
AcDbEntity
  8
0
  6
Continuous
 62
     7
370
    25
100
AcDbCircle
 10
6092.4782660746
 20
5451.1225823305
 30
0.0
 40
5.0
100
AcDbArc
 50
90.0
 51
180.0
  0
LINE
  5
B4
330
1F
100
AcDbEntity
  8
0
  6
Continuous
 62
     7
370
    25
100
AcDbLine
 10
6092.4782660746
 20
5454.6581162364
 30
0.0
 11
6092.4782660746
 21
5456.1225823305
 31
0.0
  0
LINE
  5
B5
330
1F
100
AcDbEntity
  8
0
  6
Continuous
 62
     7
370
    25
100
AcDbLine
 10
6092.4782660746
 20
5456.1225823305
 30
0.0
 11
6437.4782660746
 21
5456.1225823305
 31
0.0
  0
LINE
  5
B6
330
1F
100
AcDbEntity
  8
0
  6
Continuous
 62
     7
370
    25
100
AcDbLine
 10
6139.9782660746
 20
4836.1225823305
 30
0.0
 11
6091.467947256
 21
5187.2448899695
 31
0.0
  0
LWPOLYLINE
  5
B7
330
1F
100
AcDbEntity
  8
0
  6
Continuous
 62
     8
370
    25
100
AcDbPolyline
 90
       54
 70
   128
 43
0.0
 10
6373.4287544502
 20
5086.5776207311
 10
6372.0296927414
 20
5084.5220927155
 10
6370.5114940469
 20
5082.3976915208
 10
6368.5721927182
 20
5079.809752761
 10
6366.2396261002
 20
5076.8624146924
 10
6363.9843505927
 20
5074.1670312169
 10
6361.4095021615
 20
5071.2589009423
 10
6358.7548103458
 20
5068.4311120919
 10
6356.1037843366
 20
5065.7643480978
 10
6352.62141416
 20
5062.4799770621
 10
6349.0833047416
 20
5059.3734143964
 10
6345.5038882652
 20
5056.4446601007
 10
6341.8968344313
 20
5053.693714175
 10
6338.2750456311
 20
5051.1205766192
 10
6334.0537108587
 20
5048.3448059525
 10
6329.7711387623
 20
5045.7559750913
 10
6325.4385979075
 20
5043.3540840357
 10
6321.0669364437
 20
5041.1391327856
 10
6316.6665675105
 20
5039.111121341
 10
6310.5313842494
 20
5036.6042210593
 10
6304.3238218976
 20
5034.4266372395
 10
6298.0644133194
 20
5032.5783698818
 10
6291.7730218216
 20
5031.0594189861
 10
6282.871438652
 20
5029.4720976442
 10
6273.924952914
 20
5028.5200838443
 10
6264.9810644376
 20
5028.2033775865
 10
6258.2502314005
 20
5028.383376557
 10
6251.5151893195
 20
5028.9219464982
 10
6244.7959319147
 20
5029.8190874102
 10
6238.1127557258
 20
5031.074799293
 10
6233.0844800715
 20
5032.2649284369
 10
6228.0734039347
 20
5033.6656353255
 10
6223.0895895991
 20
5035.276919959
 10
6218.1433900951
 20
5037.0987823372
 10
6213.2454318442
 20
5039.1312224601
 10
6208.846911734
 20
5041.160139004
 10
6204.4774863529
 20
5043.375705473
 10
6200.147540307
 20
5045.777921867
 10
6195.8678889403
 20
5048.3667881861
 10
6191.6497636799
 20
5051.1423044302
 10
6188.0372869418
 20
5053.7102201349
 10
6184.4399417735
 20
5056.4546682466
 10
6180.8704969708
 20
5059.3756487653
 10
6177.3424755788
 20
5062.4731616909
 10
6173.8701499316
 20
5065.7472070235
 10
6171.0573889955
 20
5068.5805962707
 10
6168.2408894531
 20
5071.5957711017
 10
6165.577823532
 20
5074.6280156019
 10
6163.1503610674
 20
5077.5627682774
 10
6160.6433642172
 20
5080.7829159033
 10
6158.7879869631
 20
5083.3063014971
 10
6157.6719258202
 20
5084.8875444208
 10
6156.3413275378
 20
5086.8377707094
 10
6156.3268314244
 20
5086.8599272781
  0
LINE
  5
B8
330
1F
100
AcDbEntity
  8
0
  6
Continuous
 62
     8
370
    25
100
AcDbLine
 10
6140.0126030661
 20
5106.1647192309
 30
0.0
 11
6140.0126030661
 21
4894.1166070867
 31
0.0
  0
LINE
  5
B9
330
1F
100
AcDbEntity
  8
0
  6
Continuous
 62
     8
370
    25
100
AcDbLine
 10
6389.9439290831
 20
4894.1166070867
 30
0.0
 11
6389.9439290831
 21
5106.1441087267
 31
0.0
  0
LINE
  5
BA
330
1F
100
AcDbEntity
  8
0
  6
Continuous
 62
     8
370
    25
100
AcDbLine
 10
6162.4782660746
 20
5364.1987007762
 30
0.0
 11
6162.4782660746
 21
5362.7342352242
 31
0.0
  0
LINE
  5
BB
330
1F
100
AcDbEntity
  8
0
  6
Continuous
 62
     8
370
    25
100
AcDbLine
 10
6367.4782660746
 20
5362.7342365856
 30
0.0
 11
6367.4782660746
 21
5364.1987007762
 31
0.0
  0
LWPOLYLINE
  5
BC
330
1F
100
AcDbEntity
  8
0
  6
Continuous
 62
     8
370
    25
100
AcDbPolyline
 90
        9
 70
   128
 43
0.0
 10
6392.9431049953
 20
4894.1166070867
 10
6392.1340058132
 20
4878.2293352824
 10
6391.3335562276
 20
4862.3828734176
 10
6390.9333493549
 20
4854.456462793
 10
6390.5295854342
 20
4846.5541706881
 10
6390.3282581055
 20
4842.6980759857
 10
6390.1203844071
 20
4838.8698860421
 10
6390.037709276
 20
4837.442452267
 10
6389.9782660746
 20
4836.5192244088
  0
LWPOLYLINE
  5
BD
330
1F
100
AcDbEntity
  8
0
  6
Continuous
 62
     8
370
    25
100
AcDbPolyline
 90
        9
 70
   128
 43
0.0
 10
6139.9782660746
 20
4836.5168158307
 10
6139.9188228732
 20
4837.442452267
 10
6139.8361477421
 20
4838.8698860421
 10
6139.6290056379
 20
4842.6842556826
 10
6139.4269467149
 20
4846.5541706881
 10
6139.0240717002
 20
4854.438954547
 10
6138.6247459274
 20
4862.3477830943
 10
6137.822526336
 20
4878.2293352824
 10
6137.0134271539
 20
4894.1166070867
  0
LINE
  5
BE
330
1F
100
AcDbEntity
  8
0
  6
Continuous
 62
     8
370
    25
100
AcDbLine
 10
6137.0134271539
 20
4894.1166070867
 30
0.0
 11
6137.0134271539
 21
5110.5842020763
 31
0.0
  0
LINE
  5
BF
330
1F
100
AcDbEntity
  8
0
  6
Continuous
 62
     8
370
    25
100
AcDbLine
 10
6392.9431049953
 20
5110.6182634664
 30
0.0
 11
6392.9431049953
 21
4894.1166070867
 31
0.0
  0
LINE
  5
C0
330
1F
100
AcDbEntity
  8
0
  6
Continuous
 62
     8
370
    25
100
AcDbLine
 10
6392.9431049953
 20
4894.1166070867
 30
0.0
 11
6430.8885380574
 21
5168.7692654408
 31
0.0
  0
LINE
  5
C1
330
1F
100
AcDbEntity
  8
0
  6
Continuous
 62
     8
370
    25
100
AcDbLine
 10
6099.0728685441
 20
5168.733983691
 30
0.0
 11
6137.0134271539
 21
4894.1166070867
 31
0.0
  0
ARC
  5
C2
330
1F
100
AcDbEntity
  8
0
  6
Continuous
 62
     7
370
    25
100
AcDbCircle
 10
7098.9213562373
 20
5091.9625900194
 30
0.0
 40
5.000000000000201
100
AcDbArc
 50
225.0
 51
315.0
  0
LINE
  5
C3
330
1F
100
AcDbEntity
  8
0
  6
Continuous
 62
     7
370
    25
100
AcDbLine
 10
7102.4568901432
 20
5088.4270561135
 30
0.0
 11
7127.2056274848
 21
5113.175793455
 31
0.0
  0
ARC
  5
C4
330
1F
100
AcDbEntity
  8
0
  6
Continuous
 62
     7
370
    25
100
AcDbCircle
 10
7123.6700935788
 20
5116.7113273609
 30
0.0
 40
5.000000000000201
100
AcDbArc
 50
315.0
 51
45.0
  0
LWPOLYLINE
  5
C5
330
1F
100
AcDbEntity
  8
0
  6
Continuous
 62
     7
370
    25
100
AcDbPolyline
 90
       14
 70
   128
 43
0.0
 10
6932.3125269968
 20
5043.1711589249
 10
6939.1961788371
 20
5042.7191826436
 10
6951.7238473314
 20
5042.1215753896
 10
6964.0501042188
 20
5042.3606307421
 10
6978.5207534875
 20
5043.7404108187
 10
6992.58467662
 20
5046.2451597354
 10
7006.1865595388
 20
5049.8060687078
 10
7019.2758595047
 20
5054.3568252016
 10
7031.806648705
 20
5059.8335506361
 10
7043.7374598604
 20
5066.1747388921
 10
7055.0311338497
 20
5073.321195623
 10
7065.6546693529
 20
5081.2159783698
 10
7075.5790745127
 20
5089.8043374802
 10
7084.7792206136
 20
5099.0336578313
  0
LWPOLYLINE
  5
C6
330
1F
100
AcDbEntity
  8
0
  6
Continuous
 62
     7
370
    25
100
AcDbPolyline
 90
       11
 70
   128
 43
0.0
 10
6916.3299078799
 20
5028.203376855
 10
6916.4879314208
 20
5032.4265244084
 10
6917.1470901622
 20
5035.7778106277
 10
6918.1075448753
 20
5038.0908833
 10
6919.0835253082
 20
5039.5528369415
 10
6920.6688044513
 20
5041.0669564595
 10
6921.8600877287
 20
5041.8123723702
 10
6923.3716041394
 20
5042.4663608435
 10
6925.2143315225
 20
5042.9635001546
 10
6927.3600840581
 20
5043.2490414536
 10
6932.3126825146
 20
5043.1711474927
  0
LINE
  5
C7
330
1F
100
AcDbEntity
  8
0
  6
Continuous
 62
     7
370
    25
100
AcDbLine
 10
6916.3299064212
 20
4836.1225823305
 30
0.0
 11
6916.3299064212
 21
5028.2034523674
 31
0.0
  0
LINE
  5
C8
330
1F
100
AcDbEntity
  8
0
  6
Continuous
 62
     7
370
    25
100
AcDbLine
 10
6751.3299064212
 20
5451.1225823305
 30
0.0
 11
6751.3299064212
 21
5216.1225823305
 31
0.0
  0
ELLIPSE
  5
C9
330
1F
100
AcDbEntity
  8
0
  6
Continuous
 62
     7
370
    25
100
AcDbEllipse
 10
6751.3299064212
 20
5216.4663444226
 30
0.0
 11
5.0
 21
0.0
 31
0.0
210
0.0
220
0.0
230
1.0
 40
0.0687524184
 41
3.141592653589791
 42
4.712388980384691
  0
LINE
  5
CA
330
1F
100
AcDbEntity
  8
0
  6
Continuous
 62
     7
370
    25
100
AcDbLine
 10
6746.3299064212
 20
5216.4663444226
 30
0.0
 11
6746.3299064212
 21
5451.1225823305
 31
0.0
  0
LINE
  5
CB
330
1F
100
AcDbEntity
  8
0
  6
Continuous
 62
     7
370
    25
100
AcDbLine
 10
6751.3299064212
 20
5451.1225823305
 30
0.0
 11
6746.3299064212
 21
5451.1225823305
 31
0.0
  0
LINE
  5
CC
330
1F
100
AcDbEntity
  8
0
  6
Continuous
 62
     7
370
    25
100
AcDbLine
 10
6746.3299064212
 20
4836.1225823305
 30
0.0
 11
6746.3299064212
 21
5216.4663444226
 31
0.0
  0
LINE
  5
CD
330
1F
100
AcDbEntity
  8
0
  6
Continuous
 62
     7
370
    25
100
AcDbLine
 10
6751.3299064212
 20
5216.1225823305
 30
0.0
 11
6751.3299064212
 21
4836.1225823305
 31
0.0
  0
LINE
  5
CE
330
1F
100
AcDbEntity
  8
0
  6
Continuous
 62
     7
370
    25
100
AcDbLine
 10
6751.3299064212
 20
4836.1225823305
 30
0.0
 11
6746.3299064212
 21
4836.1225823305
 31
0.0
  0
ARC
  5
CF
330
1F
100
AcDbEntity
  8
0
  6
Continuous
 62
     7
370
    25
100
AcDbCircle
 10
6751.3299064212
 20
5451.1225823305
 30
0.0
 40
5.0
100
AcDbArc
 50
90.0
 51
180.0
  0
LINE
  5
D0
330
1F
100
AcDbEntity
  8
0
  6
Continuous
 62
     7
370
    25
100
AcDbLine
 10
6751.3299064212
 20
5456.1225823305
 30
0.0
 11
6751.3299064212
 21
5451.1225823305
 31
0.0
  0
LINE
  5
D1
330
1F
100
AcDbEntity
  8
0
  6
Continuous
 62
     7
370
    25
100
AcDbLine
 10
7001.6941738242
 20
5238.6872471156
 30
0.0
 11
6789.2588386093
 21
5451.1225823305
 31
0.0
  0
LINE
  5
D2
330
1F
100
AcDbEntity
  8
0
  6
Continuous
 62
     7
370
    25
100
AcDbLine
 10
6976.9454364826
 20
5213.9385097741
 30
0.0
 11
7001.6941738242
 21
5238.6872471156
 31
0.0
  0
LINE
  5
D3
330
1F
100
AcDbEntity
  8
0
  6
Continuous
 62
     7
370
    25
100
AcDbLine
 10
6786.3299064212
 20
5404.5540398356
 30
0.0
 11
6976.9454364826
 21
5213.9385097741
 31
0.0
  0
LINE
  5
D4
330
1F
100
AcDbEntity
  8
0
  6
Continuous
 62
     7
370
    25
100
AcDbLine
 10
6786.3299064212
 20
5216.1225823305
 30
0.0
 11
6786.3299064212
 21
5404.5540398356
 31
0.0
  0
LINE
  5
D5
330
1F
100
AcDbEntity
  8
0
  6
Continuous
 62
     7
370
    25
100
AcDbLine
 10
6786.3299064212
 20
5216.1225823305
 30
0.0
 11
6751.3299064212
 21
5216.1225823305
 31
0.0
  0
LINE
  5
D6
330
1F
100
AcDbEntity
  8
0
  6
Continuous
 62
     7
370
    25
100
AcDbLine
 10
6789.2588386093
 20
5451.1225823305
 30
0.0
 11
6751.3299064212
 21
5451.1225823305
 31
0.0
  0
LINE
  5
D7
330
1F
100
AcDbEntity
  8
0
  6
Continuous
 62
     7
370
    25
100
AcDbLine
 10
6789.2588386093
 20
5451.1225823305
 30
0.0
 11
6789.2588386093
 21
5456.1225823305
 31
0.0
  0
LINE
  5
D8
330
1F
100
AcDbEntity
  8
0
  6
Continuous
 62
     7
370
    25
100
AcDbLine
 10
6751.3299064212
 20
5456.1225823305
 30
0.0
 11
6789.2588386093
 21
5456.1225823305
 31
0.0
  0
LINE
  5
D9
330
1F
100
AcDbEntity
  8
0
  6
Continuous
 62
     7
370
    25
100
AcDbLine
 10
6786.3299064212
 20
4836.1225823305
 30
0.0
 11
6786.3299064212
 21
5216.1225823305
 31
0.0
  0
LINE
  5
DA
330
1F
100
AcDbEntity
  8
0
  6
Continuous
 62
     7
370
    25
100
AcDbLine
 10
6786.3299064212
 20
4836.1225823305
 30
0.0
 11
6751.3299064212
 21
4836.1225823305
 31
0.0
  0
LINE
  5
DB
330
1F
100
AcDbEntity
  8
0
  6
Continuous
 62
     7
370
    25
100
AcDbLine
 10
6786.3299064212
 20
5404.5540398356
 30
0.0
 11
6791.3299064212
 21
5392.4829720237
 31
0.0
  0
LINE
  5
DC
330
1F
100
AcDbEntity
  8
0
  6
Continuous
 62
     7
370
    25
100
AcDbLine
 10
6791.3299064212
 20
5392.4829720237
 30
0.0
 11
6791.3299064212
 21
5216.4663444226
 31
0.0
  0
ELLIPSE
  5
DD
330
1F
100
AcDbEntity
  8
0
  6
Continuous
 62
     7
370
    25
100
AcDbEllipse
 10
6786.3299064212
 20
5216.4663444226
 30
0.0
 11
5.0
 21
0.0
 31
0.0
210
0.0
220
0.0
230
1.0
 40
0.0687524184
 41
4.712388980384691
 42
6.283185307179586
  0
LINE
  5
DE
330
1F
100
AcDbEntity
  8
0
  6
Continuous
 62
     7
370
    25
100
AcDbLine
 10
6976.9454364826
 20
5213.9385097741
 30
0.0
 11
6973.4099025767
 21
5210.4029758682
 31
0.0
  0
LINE
  5
DF
330
1F
100
AcDbEntity
  8
0
  6
Continuous
 62
     7
370
    25
100
AcDbLine
 10
6973.4099025767
 20
5210.4029758682
 30
0.0
 11
6791.3299064212
 21
5392.4829720237
 31
0.0
  0
ARC
  5
E0
330
1F
100
AcDbEntity
  8
0
  6
Continuous
 62
     7
370
    25
100
AcDbCircle
 10
6789.2588386093
 20
5451.1225823305
 30
0.0
 40
5.000000000000844
100
AcDbArc
 50
45.0
 51
90.0
  0
LINE
  5
E1
330
1F
100
AcDbEntity
  8
0
  6
Continuous
 62
     7
370
    25
100
AcDbLine
 10
6792.7943725152
 20
5454.6581162364
 30
0.0
 11
6789.2588386093
 21
5451.1225823305
 31
0.0
  0
LINE
  5
E2
330
1F
100
AcDbEntity
  8
0
  6
Continuous
 62
     7
370
    25
100
AcDbLine
 10
7001.6941738242
 20
5238.6872471156
 30
0.0
 11
7005.2297077301
 21
5242.2227810215
 31
0.0
  0
LINE
  5
E3
330
1F
100
AcDbEntity
  8
0
  6
Continuous
 62
     7
370
    25
100
AcDbLine
 10
6792.7943725152
 20
5454.6581162364
 30
0.0
 11
7005.2297077301
 21
5242.2227810215
 31
0.0
  0
LINE
  5
E4
330
1F
100
AcDbEntity
  8
0
  6
Continuous
 62
     7
370
    25
100
AcDbLine
 10
6791.3299064212
 20
5216.4663444226
 30
0.0
 11
6791.3299064212
 21
4894.1166070867
 31
0.0
  0
LWPOLYLINE
  5
E5
330
1F
100
AcDbEntity
  8
0
  6
Continuous
 62
     7
370
    25
100
AcDbPolyline
 90
       10
 70
   128
 43
0.0
 10
6786.8322410556
 20
4836.1225823305
 10
6786.8499932264
 20
4836.1504842468
 10
6787.4265761635
 20
4837.442452267
 10
6787.8454157395
 20
4838.8698860421
 10
6788.6136921478
 20
4842.6842556826
 10
6789.165055555
 20
4846.5541706881
 10
6789.9598566552
 20
4854.4353471005
 10
6790.5046373911
 20
4862.3477830943
 10
6791.13775258
 20
4878.2293352824
 10
6791.3299064212
 20
4894.1166070867
  0
LINE
  5
E6
330
1F
100
AcDbEntity
  8
0
  6
Continuous
 62
     7
370
    25
100
AcDbLine
 10
6786.8322410556
 20
4836.1225823305
 30
0.0
 11
6786.3299064212
 21
4836.1225823305
 31
0.0
  0
LINE
  5
E7
330
1F
100
AcDbEntity
  8
0
  6
Continuous
 62
     7
370
    25
100
AcDbLine
 10
7095.3858223314
 20
5088.4270561135
 30
0.0
 11
6973.4099025767
 21
5210.4029758682
 31
0.0
  0
LINE
  5
E8
330
1F
100
AcDbEntity
  8
0
  6
Continuous
 62
     7
370
    25
100
AcDbLine
 10
7005.2297077301
 20
5242.2227810215
 30
0.0
 11
7127.2056274848
 21
5120.2468612669
 31
0.0
  0
LWPOLYLINE
  5
E9
330
1F
100
AcDbEntity
  8
0
  6
Continuous
 62
     7
370
    25
100
AcDbPolyline
 90
       14
 70
   128
 43
0.0
 10
6794.2007113545
 20
5389.6121670904
 10
6794.3090803999
 20
5376.5321099444
 10
6794.364980282
 20
5365.2202465281
 10
6794.4071102472
 20
5353.9133711579
 10
6794.4682282032
 20
5331.2377146252
 10
6794.50896457
 20
5308.5815476334
 10
6794.5633846871
 20
5263.2987015226
 10
6794.5988956413
 20
5218.0329584174
 10
6794.6124105413
 20
5195.407430084
 10
6794.6233113359
 20
5172.7869733946
 10
6794.6235330079
 20
5162.2941818209
 10
6794.6214741507
 20
5151.9068502307
 10
6794.6173457507
 20
5141.5596458265
 10
6794.6115280052
 20
5131.4610692315
  0
LWPOLYLINE
  5
EA
330
1F
100
AcDbEntity
  8
0
  6
Continuous
 62
     7
370
    25
100
AcDbPolyline
 90
        9
 70
   128
 43
0.0
 10
6791.3299064212
 20
5130.1745237805
 10
6791.3946314195
 20
5130.4415060216
 10
6791.586013531
 20
5130.6969679793
 10
6791.8957946177
 20
5130.9298864704
 10
6792.310607626
 20
5131.1302110622
 10
6792.8125533752
 20
5131.2892977489
 10
6793.3799729066
 20
5131.40028194
 10
6793.9883820682
 20
5131.4583746679
 10
6794.6115280052
 20
5131.4610692315
  0
LINE
  5
EB
330
1F
100
AcDbEntity
  8
0
  6
Continuous
 62
     7
370
    25
100
AcDbLine
 10
6791.3299064212
 20
4894.1166070867
 30
0.0
 11
6794.2595939212
 21
4894.1166070867
 31
0.0
  0
LWPOLYLINE
  5
EC
330
1F
100
AcDbEntity
  8
0
  6
Continuous
 62
     7
370
    25
100
AcDbPolyline
 90
        9
 70
   128
 43
0.0
 10
6794.2595939212
 20
4894.1166070867
 10
6793.9593535443
 20
4878.1166070867
 10
6792.9721712261
 20
4862.1450296164
 10
6792.1201842318
 20
4854.1631489339
 10
6790.8770144428
 20
4846.2159821976
 10
6790.0144286503
 20
4842.3147784724
 10
6788.815077231
 20
4838.4786264151
 10
6788.1606403936
 20
4837.0418760307
 10
6787.5840665467
 20
4836.1225823305
  0
LINE
  5
ED
330
1F
100
AcDbEntity
  8
0
  6
Continuous
 62
     7
370
    25
100
AcDbLine
 10
6787.5840665467
 20
4836.1225823305
 30
0.0
 11
6786.8322410556
 21
4836.1225823305
 31
0.0
  0
LWPOLYLINE
  5
EE
330
1F
100
AcDbEntity
  8
0
  6
Continuous
 62
     7
370
    25
100
AcDbPolyline
 90
        6
 70
   128
 43
0.0
 10
6794.6115213458
 20
5131.4609312885
 10
6794.6115213099
 20
5131.4608771418
 10
6794.4504066203
 20
5128.3039172337
 10
6794.3196883684
 20
5126.4746694913
 10
6794.2596068042
 20
5124.6668991251
 10
6794.259606804
 20
5124.6668391251
  0
LWPOLYLINE
  5
EF
330
1F
100
AcDbEntity
  8
0
  6
Continuous
 62
     7
370
    25
100
AcDbPolyline
 90
        5
 70
   128
 43
0.0
 10
6791.3299064212
 20
5124.6668427182
 10
6791.5515891927
 20
5124.6668418199
 10
6792.1838753397
 20
5124.6668409217
 10
6793.133320232
 20
5124.6668400234
 10
6794.2596068195
 20
5124.6668391251
  0
LINE
  5
F0
330
1F
100
AcDbEntity
  8
0
  6
Continuous
 62
     7
370
    25
100
AcDbLine
 10
6794.2595939212
 20
5124.6660247308
 30
0.0
 11
6794.2595939212
 21
4894.1166070867
 31
0.0
  0
LINE
  5
F1
330
1F
100
AcDbEntity
  8
0
  6
Continuous
 62
     7
370
    25
100
AcDbLine
 10
6916.3299064212
 20
4836.1225823305
 30
0.0
 11
6787.5840665467
 21
4836.1225823305
 31
0.0
  0
LINE
  5
F2
330
1F
100
AcDbEntity
  8
0
  6
Continuous
 62
     8
370
    25
100
AcDbLine
 10
6976.9454364826
 20
5213.9385097741
 30
0.0
 11
7102.4568901432
 21
5088.4270561135
 31
0.0
  0
LINE
  5
F3
330
1F
100
AcDbEntity
  8
0
  6
Continuous
 62
     8
370
    25
100
AcDbLine
 10
7127.2056274848
 20
5113.175793455
 30
0.0
 11
7001.6941738242
 21
5238.6872471156
 31
0.0
  0
LWPOLYLINE
  5
F4
330
1F
100
AcDbEntity
  8
0
  6
Continuous
 62
     8
370
    25
100
AcDbPolyline
 90
       24
 70
   128
 43
0.0
 10
6794.6115097068
 20
5131.4609338982
 10
6803.3541359996
 20
5129.0372624743
 10
6811.7352034797
 20
5125.9200901789
 10
6819.7692024198
 20
5122.3098516202
 10
6828.4728802931
 20
5117.8237939989
 10
6836.8738366859
 20
5113.0275973195
 10
6844.9332518802
 20
5108.0752580785
 10
6856.4819547401
 20
5100.5023212186
 10
6867.4784791797
 20
5092.8788815872
 10
6877.979964756
 20
5085.3052771943
 10
6887.8958539163
 20
5077.9449809585
 10
6894.1012656244
 20
5073.2499028096
 10
6899.9784046174
 20
5068.7481603302
 10
6905.5161821845
 20
5064.4625367689
 10
6910.6956059226
 20
5060.4172202581
 10
6915.4391684379
 20
5056.6821794223
 10
6919.6679031731
 20
5053.3297611098
 10
6923.3679189911
 20
5050.3793371164
 10
6926.5068314951
 20
5047.8624799462
 10
6929.0139813764
 20
5045.8429677062
 10
6930.8283326482
 20
5044.3763299918
 10
6931.9363756396
 20
5043.4774324407
 10
6932.3126807268
 20
5043.1711489511
 10
6932.3125341741
 20
5043.1712682362
  0
LWPOLYLINE
  5
F5
330
1F
100
AcDbEntity
  8
0
  6
Continuous
 62
     8
370
    25
100
AcDbPolyline
 90
       46
 70
   128
 43
0.0
 10
6916.3294122716
 20
5028.2038657282
 10
6916.3299063898
 20
5028.2033775865
 10
6916.1487092893
 20
5028.383376557
 10
6915.6027737909
 20
5028.9219464982
 10
6914.6898407104
 20
5029.8190874102
 10
6913.4087512457
 20
5031.074799293
 10
6912.1925822743
 20
5032.2649284369
 10
6910.7578392947
 20
5033.6656353255
 10
6909.1023088894
 20
5035.276919959
 10
6907.2242306652
 20
5037.0987823372
 10
6905.1223220845
 20
5039.1312224601
 10
6903.0181827078
 20
5041.160139004
 10
6900.7129748233
 20
5043.375705473
 10
6898.2035561036
 20
5045.777921867
 10
6895.4872670461
 20
5048.3667881861
 10
6892.5619701982
 20
5051.1423044302
 10
6889.8442999385
 20
5053.7102201349
 10
6886.9258180428
 20
5056.4546682466
 10
6883.8008920133
 20
5059.3756487653
 10
6880.4644576579
 20
5062.4731616909
 10
6876.9120959986
 20
5065.7472070235
 10
6873.8154739387
 20
5068.5805962707
 10
6870.4935342081
 20
5071.5957711017
 10
6867.1227294477
 20
5074.6280156019
 10
6863.8287185621
 20
5077.5627682774
 10
6860.1719593715
 20
5080.7829159033
 10
6857.2740086762
 20
5083.3063014971
 10
6855.4419126385
 20
5084.8875444208
 10
6853.1604456826
 20
5086.8377707094
 10
6850.4148466838
 20
5089.1569803628
 10
6847.5088327261
 20
5091.5791400087
 10
6844.9428184813
 20
5093.6863594103
 10
6842.6241171283
 20
5095.5643832998
 10
6840.5614791723
 20
5097.2132116773
 10
6838.7621519553
 20
5098.6328445427
 10
6834.893760697
 20
5101.6188830466
 10
6831.2806522158
 20
5104.3229656645
 10
6827.9360939349
 20
5106.7450923964
 10
6823.9255224709
 20
5109.5329423523
 10
6820.1002860558
 20
5112.0631272257
 10
6816.4695087737
 20
5114.3356470165
 10
6812.0221107649
 20
5116.9258350244
 10
6807.7456668918
 20
5119.196173104
 10
6803.5202712375
 20
5121.2038140605
 10
6798.8232869177
 20
5123.1291300985
 10
6794.2594881797
 20
5124.6660563186
  0
LINE
  5
F6
330
1F
100
AcDbEntity
  8
0
  6
Continuous
 62
     7
370
    25
100
AcDbLine
 10
6162.4782660746
 20
4478.3515510839
 30
0.0
 11
6367.4782660746
 21
4478.3515510839
 31
0.0
  0
LWPOLYLINE
  5
F7
330
1F
100
AcDbEntity
  8
0
  6
Continuous
 62
     7
370
    25
100
AcDbPolyline
 90
       16
 70
   128
 43
0.0
 10
6367.4782660746
 20
4478.3515510839
 10
6368.9045945562
 20
4478.3243511508
 10
6371.6808370925
 20
4478.1139906468
 10
6374.4016787884
 20
4477.6990272255
 10
6377.0298168225
 20
4477.0870402219
 10
6379.5307240027
 20
4476.2891784377
 10
6381.8722742923
 20
4475.3200191203
 10
6384.0255456507
 20
4474.197231458
 10
6385.9656539669
 20
4472.9410005735
 10
6387.6717591075
 20
4471.573794081
 10
6389.1288018761
 20
4470.1185307571
 10
6390.3279309866
 20
4468.5961732215
 10
6391.2654729221
 20
4467.0229307661
 10
6391.9403728971
 20
4465.4068033415
 10
6392.3489362717
 20
4463.7453245066
 10
6392.4782660746
 20
4462.1383476483
  0
LWPOLYLINE
  5
F8
330
1F
100
AcDbEntity
  8
0
  6
Continuous
 62
     7
370
    25
100
AcDbPolyline
 90
       16
 70
   128
 43
0.0
 10
6137.4782660746
 20
4462.1383476483
 10
6137.5073722326
 20
4462.9011785
 10
6137.8029972742
 20
4464.681504216
 10
6138.4150047243
 20
4466.439700499
 10
6139.3223158492
 20
4468.1329517923
 10
6140.5039222104
 20
4469.7439370506
 10
6141.9450713754
 20
4471.2628690076
 10
6143.6327870025
 20
4472.677517125
 10
6145.5518936007
 20
4473.9721739664
 10
6147.6832881602
 20
4475.1293266064
 10
6150.0034277898
 20
4476.131386583
 10
6152.4840938845
 20
4476.9619619451
 10
6155.0950102703
 20
4477.6074855529
 10
6157.8031066145
 20
4478.0570767131
 10
6160.5732241359
 20
4478.302999607
 10
6162.4782660746
 20
4478.3515510839
  0
LWPOLYLINE
  5
F9
330
1F
100
AcDbEntity
  8
0
  6
Continuous
 62
     7
370
    25
100
AcDbPolyline
 90
       76
 70
   128
 43
0.0
 10
6087.4782660746
 20
4329.5558261758
 10
6087.5245259101
 20
4326.6504361195
 10
6087.8532476044
 20
4321.2878168199
 10
6088.4969799745
 20
4315.9408302406
 10
6089.4545415987
 20
4310.6187850836
 10
6090.7243545412
 20
4305.3306605372
 10
6092.3044149465
 20
4300.0854414652
 10
6094.1922615931
 20
4294.8921392789
 10
6096.3849377217
 20
4289.7597992947
 10
6098.8789517765
 20
4284.6974931166
 10
6101.6702424184
 20
4279.7142966676
 10
6104.7541521168
 20
4274.819256264
 10
6108.125412071
 20
4270.0213463173
 10
6111.7781394879
 20
4265.3294227629
 10
6115.7058466665
 20
4260.7521761549
 10
6119.9014601433
 20
4256.2980877029
 10
6124.3573474557
 20
4251.975390561
 10
6129.0653488635
 20
4247.7920376357
 10
6134.0168115546
 20
4243.7556762408
 10
6139.2026242975
 20
4239.8736291987
 10
6144.6132510627
 20
4236.1528815164
 10
6150.2387626917
 20
4232.6000715329
 10
6156.0688661792
 20
4229.2214853959
 10
6162.0929315079
 20
4226.0230538247
 10
6168.3000162325
 20
4223.0103502821
 10
6174.6788804729
 20
4220.1885931217
 10
6181.217968653
 20
4217.5626582849
 10
6187.9055443065
 20
4215.1370301416
 10
6194.7296416512
 20
4212.9158343756
 10
6201.6780842468
 20
4210.9028363435
 10
6208.7385036291
 20
4209.1014391428
 10
6215.8983580944
 20
4207.5146814718
 10
6223.1449517474
 20
4206.1452353848
 10
6230.4654538794
 20
4204.995404053
 10
6237.8469187039
 20
4204.0671196397
 10
6245.2763054452
 20
4203.3619413919
 10
6252.7404987468
 20
4202.881054036
 10
6260.226329355
 20
4202.6252665526
 10
6267.7205950106
 20
4202.5950113904
 10
6275.2100814796
 20
4202.7903441601
 10
6282.6815549562
 20
4203.2109417884
 10
6290.1218371248
 20
4203.856104366
 10
6297.5178063544
 20
4204.7247575632
 10
6304.8564139776
 20
4205.8154544413
 10
6312.1247047743
 20
4207.1263777708
 10
6319.3098371052
 20
4208.655342756
 10
6326.3991026254
 20
4210.399800089
 10
6333.3799455215
 20
4212.3568392433
 10
6340.2399812338
 20
4214.523191893
 10
6346.9670146494
 20
4216.8952353274
 10
6353.5490577832
 20
4219.468995715
 10
6359.9743470069
 20
4222.2401510564
 10
6366.2313599364
 20
4225.2040336685
 10
6372.3088321532
 20
4228.3556320432
 10
6378.1957306794
 20
4231.6895663351
 10
6383.881323358
 20
4235.2001107919
 10
6389.3552141566
 20
4238.8812060478
 10
6394.6073390454
 20
4242.7264460895
 10
6399.6279882328
 20
4246.729077226
 10
6404.4078309245
 20
4250.8819976163
 10
6408.9379430203
 20
4255.1777582375
 10
6413.2098379748
 20
4259.6085664499
 10
6417.2155007075
 20
4264.166293551
 10
6420.9474239765
 20
4268.8424878413
 10
6424.3986460273
 20
4273.628394689
 10
6427.562787657
 20
4278.5149847939
 10
6430.4340861998
 20
4283.4929912516
 10
6433.0074234767
 20
4288.5529551175
 10
6435.2783446397
 20
4293.6852780015
 10
6437.2430652074
 20
4298.8802789657
 10
6438.8984645307
 20
4304.1282518611
 10
6440.2420653835
 20
4309.4195184895
 10
6441.2720011834
 20
4314.7444728652
 10
6441.986974197
 20
4320.0936124938
 10
6442.3862096132
 20
4325.4575539856
 10
6442.4782660746
 20
4329.5558261758
  0
LWPOLYLINE
  5
FA
330
1F
100
AcDbEntity
  8
0
  6
Continuous
 62
     7
370
    25
100
AcDbPolyline
 90
       65
 70
   128
 43
0.0
 10
6392.4782660746
 20
4354.0434550862
 10
6392.4378452634
 20
4351.8184159593
 10
6392.1201643605
 20
4347.4246516259
 10
6391.4872278429
 20
4343.0456895434
 10
6390.5408342935
 20
4338.6938873763
 10
6389.2838846803
 20
4334.3809292828
 10
6387.7202534467
 20
4330.1180548964
 10
6385.8546225875
 20
4325.9159840609
 10
6383.6923306183
 20
4321.784921308
 10
6381.2392611907
 20
4317.7346160293
 10
6378.501779646
 20
4313.7744480967
 10
6375.4867126281
 20
4309.9135128691
 10
6372.2013587366
 20
4306.1606886302
 10
6368.6535165534
 20
4302.5246788685
 10
6364.8515182159
 20
4299.0140288925
 10
6360.804260014
 20
4295.6371204648
 10
6356.5212248666
 20
4292.402149889
 10
6352.0124942984
 20
4289.3170951234
 10
6347.2887494788
 20
4286.389676765
 10
6342.3612620801
 20
4283.6273166829
 10
6337.24187632
 20
4281.0370970104
 10
6331.9429977334
 20
4278.6257272844
 10
6326.4776212443
 20
4276.3995281772
 10
6320.8591125445
 20
4274.3643213407
 10
6315.1012809156
 20
4272.5254592968
 10
6309.2183393803
 20
4270.887800325
 10
6303.2248630494
 20
4269.4556868624
 10
6297.1357463057
 20
4268.2329271953
 10
6290.9661592588
 20
4267.2227801665
 10
6284.7315037771
 20
4266.4279426214
 10
6278.4473693022
 20
4265.8505393348
 10
6272.1294885797
 20
4265.4921151963
 10
6265.7936933812
 20
4265.3536294664
 10
6259.4558702556
 20
4265.4354519596
 10
6253.13193621
 20
4265.7373597524
 10
6246.8377873048
 20
4266.2585341688
 10
6240.5892058339
 20
4266.9975665475
 10
6234.4018499191
 20
4267.9524619646
 10
6228.2912092989
 20
4269.1206446499
 10
6222.2725610663
 20
4270.4989653737
 10
6216.3609253804
 20
4272.0837109761
 10
6210.5710212048
 20
4273.8706162669
 10
6204.9172221793
 20
4275.854878576
 10
6199.4135128016
 20
4278.031175293
 10
6194.0734451996
 20
4280.3936847794
 10
6188.9100969081
 20
4282.9361110755
 10
6183.9360302394
 20
4285.6517128258
 10
6179.1633233086
 20
4288.533292864
 10
6174.603453959
 20
4291.5732707525
 10
6170.2672380187
 20
4294.7637503219
 10
6166.164843506
 20
4298.0965472386
 10
6162.3057729225
 20
4301.5632415775
 10
6158.6988555897
 20
4305.1552332221
 10
6155.3522520879
 20
4308.8637975043
 10
6152.2734724347
 20
4312.680137133
 10
6149.4694086223
 20
4316.5954249077
 10
6146.9463802867
 20
4320.60083024
 10
6144.710189456
 20
4324.6875215795
 10
6142.766176569
 20
4328.8466372374
 10
6141.1192657614
 20
4333.0692197743
 10
6139.7739839373
 20
4337.3461150184
 10
6138.7344372955
 20
4341.6678461722
 10
6138.0042330992
 20
4346.0244851228
 10
6137.5863451985
 20
4350.4055534301
 10
6137.4782660746
 20
4354.0434550862
  0
LINE
  5
FB
330
1F
100
AcDbEntity
  8
0
  6
Continuous
 62
     7
370
    25
100
AcDbLine
 10
6437.4782660746
 20
4579.9200935788
 30
0.0
 11
6437.4782660746
 21
4584.9200935788
 31
0.0
  0
ARC
  5
FC
330
1F
100
AcDbEntity
  8
0
  6
Continuous
 62
     7
370
    25
100
AcDbCircle
 10
6437.4782660746
 20
4579.9200935788
 30
0.0
 40
5.0
100
AcDbArc
 50
0.0
 51
90.0
  0
LINE
  5
FD
330
1F
100
AcDbEntity
  8
0
  6
Continuous
 62
     7
370
    25
100
AcDbLine
 10
6442.4782660746
 20
4579.9200935788
 30
0.0
 11
6437.4782660746
 21
4579.9200935788
 31
0.0
  0
LINE
  5
FE
330
1F
100
AcDbEntity
  8
0
  6
Continuous
 62
     7
370
    25
100
AcDbLine
 10
6092.4782660746
 20
4584.9200935788
 30
0.0
 11
6437.4782660746
 21
4584.9200935788
 31
0.0
  0
LINE
  5
FF
330
1F
100
AcDbEntity
  8
0
  6
Continuous
 62
     7
370
    25
100
AcDbLine
 10
6437.4782660746
 20
4579.9200935788
 30
0.0
 11
6092.4782660746
 21
4579.9200935788
 31
0.0
  0
LINE
  5
100
330
1F
100
AcDbEntity
  8
0
  6
Continuous
 62
     7
370
    25
100
AcDbLine
 10
6092.4782660746
 20
4579.9200935788
 30
0.0
 11
6092.4782660746
 21
4584.9200935788
 31
0.0
  0
ARC
  5
101
330
1F
100
AcDbEntity
  8
0
  6
Continuous
 62
     7
370
    25
100
AcDbCircle
 10
6092.4782660746
 20
4579.9200935788
 30
0.0
 40
5.0
100
AcDbArc
 50
90.0
 51
180.0
  0
LINE
  5
102
330
1F
100
AcDbEntity
  8
0
  6
Continuous
 62
     7
370
    25
100
AcDbLine
 10
6092.4782660746
 20
4579.9200935788
 30
0.0
 11
6087.4782660746
 21
4579.9200935788
 31
0.0
  0
LINE
  5
103
330
1F
100
AcDbEntity
  8
0
  6
Continuous
 62
     7
370
    25
100
AcDbLine
 10
6442.4782660746
 20
4541.9911613907
 30
0.0
 11
6437.4782660746
 21
4541.9911613907
 31
0.0
  0
LINE
  5
104
330
1F
100
AcDbEntity
  8
0
  6
Continuous
 62
     7
370
    25
100
AcDbLine
 10
6437.4782660746
 20
4541.9911613907
 30
0.0
 11
6437.4782660746
 21
4579.9200935788
 31
0.0
  0
LINE
  5
105
330
1F
100
AcDbEntity
  8
0
  6
Continuous
 62
     7
370
    25
100
AcDbLine
 10
6442.4782660746
 20
4579.9200935788
 30
0.0
 11
6442.4782660746
 21
4541.9911613907
 31
0.0
  0
LINE
  5
106
330
1F
100
AcDbEntity
  8
0
  6
Continuous
 62
     7
370
    25
100
AcDbLine
 10
6092.4782660746
 20
4541.9911613907
 30
0.0
 11
6437.4782660746
 21
4541.9911613907
 31
0.0
  0
LINE
  5
107
330
1F
100
AcDbEntity
  8
0
  6
Continuous
 62
     7
370
    25
100
AcDbLine
 10
6092.4782660746
 20
4579.9200935788
 30
0.0
 11
6092.4782660746
 21
4541.9911613907
 31
0.0
  0
LINE
  5
108
330
1F
100
AcDbEntity
  8
0
  6
Continuous
 62
     7
370
    25
100
AcDbLine
 10
6087.4782660746
 20
4541.9911613907
 30
0.0
 11
6092.4782660746
 21
4541.9911613907
 31
0.0
  0
LINE
  5
109
330
1F
100
AcDbEntity
  8
0
  6
Continuous
 62
     7
370
    25
100
AcDbLine
 10
6087.4782660746
 20
4541.9911613907
 30
0.0
 11
6087.4782660746
 21
4579.9200935788
 31
0.0
  0
LINE
  5
10A
330
1F
100
AcDbEntity
  8
0
  6
Continuous
 62
     7
370
    25
100
AcDbLine
 10
6437.4782660746
 20
4538.4556274848
 30
0.0
 11
6437.4782660746
 21
4541.9911613907
 31
0.0
  0
LWPOLYLINE
  5
10B
330
1F
100
AcDbEntity
  8
0
  6
Continuous
 62
     7
370
    25
100
AcDbPolyline
 90
        9
 70
   128
 43
0.0
 10
6442.4782660746
 20
4541.9911613907
 10
6442.3821924766
 20
4541.3014129425
 10
6442.0976637372
 20
4540.6381711403
 10
6441.6356141361
 20
4540.0269239947
 10
6441.0137999805
 20
4539.4911613907
 10
6440.2561172397
 20
4539.0514723847
 10
6439.3916832364
 20
4538.7247539785
 10
6438.4537176847
 20
4538.5235617774
 10
6437.4782660746
 20
4538.4556274848
  0
LINE
  5
10C
330
1F
100
AcDbEntity
  8
0
  6
Continuous
 62
     7
370
    25
100
AcDbLine
 10
6437.4782660746
 20
4538.4556274848
 30
0.0
 11
6092.4782660746
 21
4538.4556274848
 31
0.0
  0
LINE
  5
10D
330
1F
100
AcDbEntity
  8
0
  6
Continuous
 62
     7
370
    25
100
AcDbLine
 10
6092.4782660746
 20
4538.4556274848
 30
0.0
 11
6092.4782660746
 21
4541.9911613907
 31
0.0
  0
LWPOLYLINE
  5
10E
330
1F
100
AcDbEntity
  8
0
  6
Continuous
 62
     7
370
    25
100
AcDbPolyline
 90
        9
 70
   128
 43
0.0
 10
6092.4782660746
 20
4538.4556274848
 10
6091.5028144645
 20
4538.5235617774
 10
6090.5648489128
 20
4538.7247539785
 10
6089.7004149095
 20
4539.0514723847
 10
6088.9427321687
 20
4539.4911613907
 10
6088.3209180131
 20
4540.0269239947
 10
6087.858868412
 20
4540.6381711403
 10
6087.5743396726
 20
4541.3014129425
 10
6087.4782660746
 20
4541.9911613907
  0
LWPOLYLINE
  5
10F
330
1F
100
AcDbEntity
  8
0
  6
Continuous
 62
     7
370
    25
100
AcDbPolyline
 90
       70
 70
   128
 43
0.0
 10
6092.4782660746
 20
4326.0202922699
 10
6092.6570323705
 20
4320.4686071784
 10
6093.1929607379
 20
4314.928428802
 10
6094.0849403833
 20
4309.4112400065
 10
6095.3311225428
 20
4303.9284760081
 10
6096.9289243134
 20
4298.4915006724
 10
6098.8750340071
 20
4293.1115829612
 10
6101.1654180143
 20
4287.7998735754
 10
6103.7953291644
 20
4282.5673818438
 10
6106.7593165649
 20
4277.4249529046
 10
6110.0512368994
 20
4272.3832452271
 10
6113.6642671602
 20
4267.4527085204
 10
6117.5909187903
 20
4262.6435620746
 10
6121.8230532048
 20
4257.9657735801
 10
6126.3518986586
 20
4253.4290384681
 10
6131.1680684281
 20
4249.0427598146
 10
6136.2615802659
 20
4244.8160288522
 10
6141.6218770909
 20
4240.7576061262
 10
6147.2378488694
 20
4236.8759033373
 10
6153.0978556423
 20
4233.1789659074
 10
6159.1897516507
 20
4229.6744563039
 10
6165.5009105098
 20
4226.3696381581
 10
6172.0182513792
 20
4223.2713612102
 10
6178.7282660746
 20
4220.3860471124
 10
6185.617047066
 20
4217.7196761187
 10
6192.6703163027
 20
4215.2777746902
 10
6199.8734548073
 20
4213.0654040405
 10
6207.2115329751
 20
4211.0871496456
 10
6214.6693415186
 20
4209.3471117398
 10
6222.2314229908
 20
4207.8488968174
 10
6229.882103823
 20
4206.5956101577
 10
6237.6055268109
 20
4205.5898493885
 10
6245.3856839809
 20
4204.8336991028
 10
6253.2064497692
 20
4204.3287265374
 10
6261.0516144444
 20
4204.075978325
 10
6268.9049177048
 20
4204.075978325
 10
6276.75008238
 20
4204.3287265374
 10
6284.5708481683
 20
4204.8336991028
 10
6292.3510053383
 20
4205.5898493885
 10
6300.0744283262
 20
4206.5956101577
 10
6307.7251091584
 20
4207.8488968174
 10
6315.2871906306
 20
4209.3471117398
 10
6322.7449991741
 20
4211.0871496456
 10
6330.0830773419
 20
4213.0654040405
 10
6337.2862158465
 20
4215.2777746902
 10
6344.3394850832
 20
4217.7196761187
 10
6351.2282660746
 20
4220.3860471124
 10
6357.93828077
 20
4223.2713612102
 10
6364.4556216394
 20
4226.3696381581
 10
6370.7667804985
 20
4229.6744563039
 10
6376.8586765069
 20
4233.1789659074
 10
6382.7186832798
 20
4236.8759033373
 10
6388.3346550583
 20
4240.7576061262
 10
6393.6949518833
 20
4244.8160288522
 10
6398.7884637211
 20
4249.0427598146
 10
6403.6046334906
 20
4253.4290384681
 10
6408.1334789444
 20
4257.9657735801
 10
6412.3656133589
 20
4262.6435620746
 10
6416.292264989
 20
4267.4527085204
 10
6419.9052952498
 20
4272.3832452271
 10
6423.1972155843
 20
4277.4249529046
 10
6426.1612029848
 20
4282.5673818438
 10
6428.7911141349
 20
4287.7998735754
 10
6431.0814981421
 20
4293.1115829612
 10
6433.0276078358
 20
4298.4915006724
 10
6434.6254096064
 20
4303.9284760081
 10
6435.8715917659
 20
4309.4112400065
 10
6436.7635714113
 20
4314.928428802
 10
6437.2994997787
 20
4320.4686071784
 10
6437.4782660746
 20
4326.0202922699
  0
LINE
  5
110
330
1F
100
AcDbEntity
  8
0
  6
Continuous
 62
     7
370
    25
100
AcDbLine
 10
6092.4782660746
 20
4538.4556274848
 30
0.0
 11
6092.4782660746
 21
4326.0202922699
 31
0.0
  0
LINE
  5
111
330
1F
100
AcDbEntity
  8
0
  6
Continuous
 62
     7
370
    25
100
AcDbLine
 10
6437.4782660746
 20
4326.0202922699
 30
0.0
 11
6437.4782660746
 21
4538.4556274848
 31
0.0
  0
LWPOLYLINE
  5
112
330
1F
100
AcDbEntity
  8
0
  6
Continuous
 62
     7
370
    25
100
AcDbPolyline
 90
       62
 70
   128
 43
0.0
 10
6397.4782660746
 20
4325.7591838387
 10
6397.3025829843
 20
4320.9360544412
 10
6396.7759995935
 20
4316.1257151158
 10
6395.8999123067
 20
4311.3409220176
 10
6394.6766443497
 20
4306.5943635578
 10
6393.1094396094
 20
4301.8986267562
 10
6391.202454031
 20
4297.2661638625
 10
6388.9607445975
 20
4292.7092593356
 10
6386.3902559191
 20
4288.2399972671
 10
6383.4978044699
 20
4283.8702293366
 10
6380.2910605111
 20
4279.6115433831
 10
6376.7785277512
 20
4275.4752326761
 10
6372.9695207956
 20
4271.4722659681
 10
6368.874140446
 20
4267.6132584071
 10
6364.5032469149
 20
4263.9084433875
 10
6359.8684310263
 20
4260.3676454127
 10
6354.9819834785
 20
4257.0002540424
 10
6349.8568622521
 20
4253.8151989931
 10
6344.5066582473
 20
4250.8209264583
 10
6338.9455592432
 20
4248.0253767105
 10
6333.1883122746
 20
4245.4359630449
 10
6327.2501845257
 20
4243.0595521213
 10
6321.1469228437
 20
4240.902445754
 10
6314.8947119813
 20
4238.9703642015
 10
6308.5101316778
 20
4237.2684309967
 10
6302.0101126924
 20
4235.8011593605
 10
6295.4118919071
 20
4234.5724402334
 10
6288.732966617
 20
4233.5855319578
 10
6281.9910481315
 20
4232.8430516369
 10
6275.2040148064
 20
4232.3469681952
 10
6268.3898646339
 20
4232.0985971566
 10
6261.5666675153
 20
4232.0985971566
 10
6254.7525173428
 20
4232.3469681952
 10
6247.9654840177
 20
4232.8430516369
 10
6241.2235655322
 20
4233.5855319578
 10
6234.5446402421
 20
4234.5724402334
 10
6227.9464194568
 20
4235.8011593605
 10
6221.4464004714
 20
4237.2684309967
 10
6215.0618201679
 20
4238.9703642015
 10
6208.8096093055
 20
4240.902445754
 10
6202.7063476235
 20
4243.0595521213
 10
6196.7682198745
 20
4245.4359630449
 10
6191.010972906
 20
4248.0253767105
 10
6185.4498739019
 20
4250.8209264583
 10
6180.0996698971
 20
4253.8151989931
 10
6174.9745486707
 20
4257.0002540424
 10
6170.0881011229
 20
4260.3676454127
 10
6165.4532852343
 20
4263.9084433875
 10
6161.0823917032
 20
4267.6132584071
 10
6156.9870113536
 20
4271.4722659681
 10
6153.178004398
 20
4275.4752326761
 10
6149.6654716381
 20
4279.6115433831
 10
6146.4587276793
 20
4283.8702293366
 10
6143.5662762301
 20
4288.2399972671
 10
6140.9957875517
 20
4292.7092593356
 10
6138.7540781181
 20
4297.2661638625
 10
6136.8470925397
 20
4301.8986267562
 10
6135.2798877995
 20
4306.5943635578
 10
6134.0566198425
 20
4311.3409220176
 10
6133.1805325557
 20
4316.1257151158
 10
6132.6539491649
 20
4320.9360544412
 10
6132.4782660746
 20
4325.7591838387
  0
LINE
  5
113
330
1F
100
AcDbEntity
  8
0
  6
Continuous
 62
     7
370
    25
100
AcDbLine
 10
6397.4782660746
 20
4458.6028137424
 30
0.0
 11
6397.4782660746
 21
4325.7591838387
 31
0.0
  0
LWPOLYLINE
  5
114
330
1F
100
AcDbEntity
  8
0
  6
Continuous
 62
     7
370
    25
100
AcDbPolyline
 90
       15
 70
   128
 43
0.0
 10
6367.4782660746
 20
4479.816017178
 10
6370.8372003577
 20
4479.6826330073
 10
6374.1538940933
 20
4479.2841578785
 10
6377.3866379333
 20
4478.6256028477
 10
6380.4947782481
 20
4477.7152496263
 10
6383.4392283701
 20
4476.5645464345
 10
6386.1829601304
 20
4475.1879640323
 10
6388.6914695102
 20
4473.6028137424
 10
6390.9332105486
 20
4471.8290297492
 10
6392.8799920514
 20
4469.8889184158
 10
6394.5073321117
 20
4467.8068777677
 10
6395.7947659838
 20
4465.6090906742
 10
6396.7261034401
 20
4463.3231955831
 10
6397.2896323714
 20
4460.9779389515
 10
6397.4782660746
 20
4458.6028137424
  0
LINE
  5
115
330
1F
100
AcDbEntity
  8
0
  6
Continuous
 62
     7
370
    25
100
AcDbLine
 10
6162.4782660746
 20
4479.816017178
 30
0.0
 11
6367.4782660746
 21
4479.816017178
 31
0.0
  0
LWPOLYLINE
  5
116
330
1F
100
AcDbEntity
  8
0
  6
Continuous
 62
     7
370
    25
100
AcDbPolyline
 90
       15
 70
   128
 43
0.0
 10
6132.4782660746
 20
4458.6028137424
 10
6132.6668997778
 20
4460.9779389515
 10
6133.2304287091
 20
4463.3231955831
 10
6134.1617661653
 20
4465.6090906742
 10
6135.4492000375
 20
4467.8068777677
 10
6137.0765400977
 20
4469.8889184158
 10
6139.0233216006
 20
4471.8290297492
 10
6141.265062639
 20
4473.6028137424
 10
6143.7735720188
 20
4475.1879640323
 10
6146.5173037791
 20
4476.5645464345
 10
6149.4617539011
 20
4477.7152496263
 10
6152.5698942159
 20
4478.6256028477
 10
6155.8026380559
 20
4479.2841578785
 10
6159.1193317915
 20
4479.6826330073
 10
6162.4782660746
 20
4479.816017178
  0
LINE
  5
117
330
1F
100
AcDbEntity
  8
0
  6
Continuous
 62
     7
370
    25
100
AcDbLine
 10
6132.4782660746
 20
4325.7591838387
 30
0.0
 11
6132.4782660746
 21
4458.6028137424
 31
0.0
  0
LWPOLYLINE
  5
118
330
1F
100
AcDbEntity
  8
0
  6
Continuous
 62
     7
370
    25
100
AcDbPolyline
 90
        9
 70
   128
 43
0.0
 10
6442.4782660746
 20
4329.5558261758
 10
6442.3821924766
 20
4328.8660777276
 10
6442.0976637372
 20
4328.2028359255
 10
6441.6356141361
 20
4327.5915887799
 10
6441.0137999805
 20
4327.0558261758
 10
6440.2561172397
 20
4326.6161371698
 10
6439.3916832364
 20
4326.2894187636
 10
6438.4537176847
 20
4326.0882265625
 10
6437.4782660746
 20
4326.0202922699
  0
LINE
  5
119
330
1F
100
AcDbEntity
  8
0
  6
Continuous
 62
     7
370
    25
100
AcDbLine
 10
6442.4782660746
 20
4541.9911613907
 30
0.0
 11
6442.4782660746
 21
4329.5558261758
 31
0.0
  0
LWPOLYLINE
  5
11A
330
1F
100
AcDbEntity
  8
0
  6
Continuous
 62
     7
370
    25
100
AcDbPolyline
 90
        9
 70
   128
 43
0.0
 10
6087.4782660746
 20
4329.5558261758
 10
6087.5743396726
 20
4328.8660777276
 10
6087.858868412
 20
4328.2028359255
 10
6088.3209180131
 20
4327.5915887799
 10
6088.9427321687
 20
4327.0558261758
 10
6089.7004149095
 20
4326.6161371698
 10
6090.5648489128
 20
4326.2894187636
 10
6091.5028144645
 20
4326.0882265625
 10
6092.4782660746
 20
4326.0202922699
  0
LINE
  5
11B
330
1F
100
AcDbEntity
  8
0
  6
Continuous
 62
     7
370
    25
100
AcDbLine
 10
6087.4782660746
 20
4329.5558261758
 30
0.0
 11
6087.4782660746
 21
4541.9911613907
 31
0.0
  0
LWPOLYLINE
  5
11C
330
1F
100
AcDbEntity
  8
0
  6
Continuous
 62
     7
370
    25
100
AcDbPolyline
 90
        9
 70
   128
 43
0.0
 10
6392.4782660746
 20
4462.1383476483
 10
6392.5743396726
 20
4461.4485992001
 10
6392.858868412
 20
4460.785357398
 10
6393.3209180131
 20
4460.1741102524
 10
6393.9427321687
 20
4459.6383476483
 10
6394.7004149095
 20
4459.1986586423
 10
6395.5648489128
 20
4458.8719402361
 10
6396.5028144645
 20
4458.670748035
 10
6397.4782660746
 20
4458.6028137424
  0
LWPOLYLINE
  5
11D
330
1F
100
AcDbEntity
  8
0
  6
Continuous
 62
     7
370
    25
100
AcDbPolyline
 90
        9
 70
   128
 43
0.0
 10
6132.4782660746
 20
4458.6028137424
 10
6133.4537176847
 20
4458.670748035
 10
6134.3916832364
 20
4458.8719402361
 10
6135.2561172397
 20
4459.1986586423
 10
6136.0137999805
 20
4459.6383476483
 10
6136.6356141361
 20
4460.1741102524
 10
6137.0976637372
 20
4460.785357398
 10
6137.3821924766
 20
4461.4485992001
 10
6137.4782660746
 20
4462.1383476483
  0
ARC
  5
11E
330
1F
100
AcDbEntity
  8
0
  6
Continuous
 62
     7
370
    25
100
AcDbCircle
 10
6264.9782660746
 20
4469.4775751315
 30
0.0
 40
25.00000000000091
100
AcDbArc
 50
270.0
 51
20.7909339418
  0
ARC
  5
11F
330
1F
100
AcDbEntity
  8
0
  6
Continuous
 62
     7
370
    25
100
AcDbCircle
 10
6264.9782660746
 20
4469.4775751315
 30
0.0
 40
25.00000000000091
100
AcDbArc
 50
159.2090660582
 51
270.0
  0
LINE
  5
120
330
1F
100
AcDbEntity
  8
0
  6
Continuous
 62
     7
370
    25
100
AcDbLine
 10
6137.4782660746
 20
4462.1383476483
 30
0.0
 11
6137.4782660746
 21
4329.2947177447
 31
0.0
  0
LWPOLYLINE
  5
121
330
1F
100
AcDbEntity
  8
0
  6
Continuous
 62
     7
370
    25
100
AcDbPolyline
 90
        9
 70
   128
 43
0.0
 10
6132.4782660746
 20
4325.7591838387
 10
6133.4537176847
 20
4325.8271181314
 10
6134.3916832364
 20
4326.0283103325
 10
6135.2561172397
 20
4326.3550287386
 10
6136.0137999805
 20
4326.7947177447
 10
6136.6356141361
 20
4327.3304803487
 10
6137.0976637372
 20
4327.9417274943
 10
6137.3821924766
 20
4328.6049692965
 10
6137.4782660746
 20
4329.2947177447
  0
LINE
  5
122
330
1F
100
AcDbEntity
  8
0
  6
Continuous
 62
     7
370
    25
100
AcDbLine
 10
6392.4782660746
 20
4329.2947177447
 30
0.0
 11
6392.4782660746
 21
4462.1383476483
 31
0.0
  0
LWPOLYLINE
  5
123
330
1F
100
AcDbEntity
  8
0
  6
Continuous
 62
     7
370
    25
100
AcDbPolyline
 90
        9
 70
   128
 43
0.0
 10
6397.4782660746
 20
4325.7591838387
 10
6396.5028144645
 20
4325.8271181314
 10
6395.5648489128
 20
4326.0283103325
 10
6394.7004149095
 20
4326.3550287386
 10
6393.9427321687
 20
4326.7947177447
 10
6393.3209180131
 20
4327.3304803487
 10
6392.858868412
 20
4327.9417274943
 10
6392.5743396726
 20
4328.6049692965
 10
6392.4782660746
 20
4329.2947177447
  0
LWPOLYLINE
  5
124
330
1F
100
AcDbEntity
  8
0
  6
Continuous
 62
     7
370
    25
100
AcDbPolyline
 90
       60
 70
   128
 43
0.0
 10
6137.4782660746
 20
4329.2947177447
 10
6137.6589723758
 20
4324.4964132503
 10
6138.2005790478
 20
4319.7117100713
 10
6139.1015508476
 20
4314.9541709687
 10
6140.3593338728
 20
4310.237281704
 10
6141.9703628007
 20
4305.5744128123
 10
6143.9300709949
 20
4300.978781702
 10
6146.2329034494
 20
4296.4634151889
 10
6148.8723325356
 20
4292.0411125699
 10
6151.8408765049
 20
4287.7244093422
 10
6155.1301206969
 20
4283.5255416702
 10
6158.7307413916
 20
4279.4564117004
 10
6162.6325322384
 20
4275.5285538238
 10
6166.8244331873
 20
4271.7531019804
 10
6171.2945618396
 20
4268.1407580985
 10
6176.0302471299
 20
4264.7017617595
 10
6181.0180652438
 20
4261.445861172
 10
6186.243877669
 20
4258.3822855399
 10
6191.6928712723
 20
4255.5197189014
 10
6197.3496002893
 20
4252.8662755124
 10
6203.1980301072
 20
4250.4294768466
 10
6209.2215827161
 20
4248.2162302746
 10
6215.4031837017
 20
4246.2328094843
 10
6221.7253106445
 20
4244.4848366972
 10
6228.1700427888
 20
4242.9772667323
 10
6234.719111841
 20
4241.7143729604
 10
6241.3539537535
 20
4240.6997351911
 10
6248.0557613459
 20
4239.9362295253
 10
6254.8055376166
 20
4239.4260202029
 10
6261.5841495913
 20
4239.1705534676
 10
6268.3723825579
 20
4239.1705534676
 10
6275.1509945326
 20
4239.4260202029
 10
6281.9007708033
 20
4239.9362295253
 10
6288.6025783957
 20
4240.6997351911
 10
6295.2374203082
 20
4241.7143729604
 10
6301.7864893604
 20
4242.9772667323
 10
6308.2312215046
 20
4244.4848366972
 10
6314.5533484474
 20
4246.2328094843
 10
6320.7349494331
 20
4248.2162302746
 10
6326.758502042
 20
4250.4294768466
 10
6332.6069318599
 20
4252.8662755124
 10
6338.2636608769
 20
4255.5197189014
 10
6343.7126544802
 20
4258.3822855399
 10
6348.9384669054
 20
4261.445861172
 10
6353.9262850193
 20
4264.7017617595
 10
6358.6619703096
 20
4268.1407580985
 10
6363.1320989619
 20
4271.7531019804
 10
6367.3239999108
 20
4275.5285538238
 10
6371.2257907576
 20
4279.4564117004
 10
6374.8264114523
 20
4283.5255416702
 10
6378.1156556443
 20
4287.7244093422
 10
6381.0841996136
 20
4292.0411125699
 10
6383.7236286998
 20
4296.4634151889
 10
6386.0264611543
 20
4300.978781702
 10
6387.9861693484
 20
4305.5744128123
 10
6389.5971982764
 20
4310.237281704
 10
6390.8549813016
 20
4314.9541709687
 10
6391.7559531014
 20
4319.7117100713
 10
6392.2975597734
 20
4324.4964132503
 10
6392.4782660746
 20
4329.2947177447
  0
LWPOLYLINE
  5
125
330
1F
100
AcDbEntity
  8
0
  6
Continuous
 62
     7
370
    25
100
AcDbPolyline
 90
       60
 70
   128
 43
0.0
 10
6392.4782660746
 20
4354.0434550862
 10
6392.2975597734
 20
4349.2451505918
 10
6391.7559531014
 20
4344.4604474128
 10
6390.8549813016
 20
4339.7029083102
 10
6389.5971982764
 20
4334.9860190455
 10
6387.9861693484
 20
4330.3231501538
 10
6386.0264611543
 20
4325.7275190436
 10
6383.7236286998
 20
4321.2121525304
 10
6381.0841996136
 20
4316.7898499114
 10
6378.1156556443
 20
4312.4731466837
 10
6374.8264114523
 20
4308.2742790117
 10
6371.2257907576
 20
4304.2051490419
 10
6367.3239999108
 20
4300.2772911653
 10
6363.1320989619
 20
4296.5018393219
 10
6358.6619703096
 20
4292.8894954401
 10
6353.9262850193
 20
4289.450499101
 10
6348.9384669054
 20
4286.1945985135
 10
6343.7126544802
 20
4283.1310228814
 10
6338.2636608769
 20
4280.2684562429
 10
6332.6069318599
 20
4277.6150128539
 10
6326.758502042
 20
4275.1782141882
 10
6320.7349494331
 20
4272.9649676162
 10
6314.5533484474
 20
4270.9815468258
 10
6308.2312215046
 20
4269.2335740388
 10
6301.7864893604
 20
4267.7260040738
 10
6295.2374203082
 20
4266.4631103019
 10
6288.6025783957
 20
4265.4484725326
 10
6281.9007708033
 20
4264.6849668668
 10
6275.1509945326
 20
4264.1747575444
 10
6268.3723825579
 20
4263.9192908091
 10
6261.5841495913
 20
4263.9192908091
 10
6254.8055376166
 20
4264.1747575444
 10
6248.0557613459
 20
4264.6849668668
 10
6241.3539537535
 20
4265.4484725326
 10
6234.719111841
 20
4266.4631103019
 10
6228.1700427888
 20
4267.7260040738
 10
6221.7253106445
 20
4269.2335740388
 10
6215.4031837017
 20
4270.9815468258
 10
6209.2215827161
 20
4272.9649676162
 10
6203.1980301072
 20
4275.1782141882
 10
6197.3496002893
 20
4277.6150128539
 10
6191.6928712723
 20
4280.2684562429
 10
6186.243877669
 20
4283.1310228814
 10
6181.0180652438
 20
4286.1945985135
 10
6176.0302471299
 20
4289.450499101
 10
6171.2945618396
 20
4292.8894954401
 10
6166.8244331873
 20
4296.5018393219
 10
6162.6325322384
 20
4300.2772911653
 10
6158.7307413916
 20
4304.2051490419
 10
6155.1301206969
 20
4308.2742790117
 10
6151.8408765049
 20
4312.4731466837
 10
6148.8723325356
 20
4316.7898499114
 10
6146.2329034494
 20
4321.2121525304
 10
6143.9300709949
 20
4325.7275190436
 10
6141.9703628007
 20
4330.3231501538
 10
6140.3593338728
 20
4334.9860190455
 10
6139.1015508476
 20
4339.7029083102
 10
6138.2005790478
 20
4344.4604474128
 10
6137.6589723758
 20
4349.2451505918
 10
6137.4782660746
 20
4354.0434550862
  0
LINE
  5
126
330
1F
100
AcDbEntity
  8
0
  6
Continuous
 62
     8
370
    25
100
AcDbLine
 10
6162.4782660746
 20
4478.3515510839
 30
0.0
 11
6162.4782660746
 21
4479.816017178
 31
0.0
  0
LINE
  5
127
330
1F
100
AcDbEntity
  8
0
  6
Continuous
 62
     8
370
    25
100
AcDbLine
 10
6367.4782660746
 20
4478.3515510839
 30
0.0
 11
6367.4782660746
 21
4479.816017178
 31
0.0
  0
ENDSEC
  0
SECTION
  2
OBJECTS
  0
DICTIONARY
  5
C
330
0
100
AcDbDictionary
281
     1
  3
ACAD_GROUP
350
D
  3
ACAD_LAYOUT
350
1A
  3
ACAD_MLINESTYLE
350
17
  3
ACAD_PLOTSETTINGS
350
19
  3
ACAD_PLOTSTYLENAME
350
E
  3
ACAD_SCALELIST
350
47
  3
DWGPROPS
350
128
  0
DICTIONARY
  5
D
102
{ACAD_REACTORS
330
C
102
}
330
C
100
AcDbDictionary
281
     1
  0
DICTIONARY
  5
1A
102
{ACAD_REACTORS
330
C
102
}
330
C
100
AcDbDictionary
281
     1
  3
Layout1
350
1E
  3
Layout2
350
26
  3
Model
350
22
  0
DICTIONARY
  5
17
102
{ACAD_REACTORS
330
C
102
}
330
C
100
AcDbDictionary
281
     1
  3
Standard
350
18
  0
DICTIONARY
  5
19
102
{ACAD_REACTORS
330
C
102
}
330
C
100
AcDbDictionary
281
     1
  0
ACDBDICTIONARYWDFLT
  5
E
102
{ACAD_REACTORS
330
C
102
}
330
C
100
AcDbDictionary
281
     1
  3
Normal
350
F
100
AcDbDictionaryWithDefault
340
F
  0
DICTIONARY
  5
47
102
{ACAD_REACTORS
330
C
102
}
330
C
100
AcDbDictionary
281
     1
  3
A0
350
48
  3
A1
350
49
  3
A2
350
4A
  3
A3
350
4B
  3
A4
350
4C
  3
A5
350
4D
  3
A6
350
4E
  3
A7
350
4F
  3
A8
350
50
  3
A9
350
51
  3
B0
350
52
  3
B1
350
53
  3
B2
350
54
  3
B3
350
55
  3
B4
350
56
  3
B5
350
57
  3
B6
350
58
  3
B7
350
59
  3
B8
350
5A
  3
B9
350
5B
  3
C0
350
5C
  3
C1
350
5D
  3
C2
350
5E
  3
C3
350
5F
  3
C4
350
60
  3
C5
350
61
  3
C6
350
62
  3
C7
350
63
  3
C8
350
64
  3
C9
350
65
  3
D0
350
66
  3
D1
350
67
  3
D2
350
68
  0
XRECORD
  5
128
102
{ACAD_REACTORS
330
C
102
}
330
C
100
AcDbXrecord
280
     1
  1
DWGPROPS COOKIE
  2

  3

  4

  6

  7

  8
radek.stransky
  9

300
=
301
=
302
=
303
=
304
=
305
=
306
=
307
=
308
=
309
=
 40
0.0
 41
2459136.237912025
 42
2459136.237912489
  1

 90
        0
  0
LAYOUT
  5
1E
102
{ACAD_REACTORS
330
1A
102
}
330
1A
100
AcDbPlotSettings
  1

  2
none_device
  4

  6

 40
0.0
 41
0.0
 42
0.0
 43
0.0
 44
0.0
 45
0.0
 46
0.0
 47
0.0
 48
0.0
 49
0.0
140
0.0
141
0.0
142
1.0
143
1.0
 70
   688
 72
     1
 73
     0
 74
     5
  7

 75
    16
147
1.0
148
0.0
149
0.0
100
AcDbLayout
  1
Layout1
 70
     1
 71
     1
 10
0.0
 20
0.0
 11
420.0
 21
297.0
 12
0.0
 22
0.0
 32
0.0
 14
1.0000000000E+20
 24
1.0000000000E+20
 34
1.0000000000E+20
 15
-1.0000000000E+20
 25
-1.0000000000E+20
 35
-1.0000000000E+20
146
0.0
 13
0.0
 23
0.0
 33
0.0
 16
1.0
 26
0.0
 36
0.0
 17
0.0
 27
1.0
 37
0.0
 76
     0
330
1B
  0
LAYOUT
  5
26
102
{ACAD_REACTORS
330
1A
102
}
330
1A
100
AcDbPlotSettings
  1

  2
none_device
  4

  6

 40
0.0
 41
0.0
 42
0.0
 43
0.0
 44
0.0
 45
0.0
 46
0.0
 47
0.0
 48
0.0
 49
0.0
140
0.0
141
0.0
142
1.0
143
1.0
 70
   688
 72
     1
 73
     0
 74
     5
  7

 75
    16
147
1.0
148
0.0
149
0.0
100
AcDbLayout
  1
Layout2
 70
     1
 71
     2
 10
0.0
 20
0.0
 11
0.0
 21
0.0
 12
0.0
 22
0.0
 32
0.0
 14
0.0
 24
0.0
 34
0.0
 15
0.0
 25
0.0
 35
0.0
146
0.0
 13
0.0
 23
0.0
 33
0.0
 16
1.0
 26
0.0
 36
0.0
 17
0.0
 27
1.0
 37
0.0
 76
     0
330
23
  0
LAYOUT
  5
22
102
{ACAD_REACTORS
330
1A
102
}
330
1A
100
AcDbPlotSettings
  1

  2
none_device
  4
Letter_(8.50_x_11.00_Inches)
  6

 40
6.35
 41
6.35
 42
6.35000508
 43
6.35000508
 44
215.9
 45
279.4
 46
0.0
 47
0.0
 48
0.0
 49
0.0
140
0.0
141
0.0
142
1.0
143
1.0
 70
  1712
 72
     1
 73
     0
 74
     0
  7

 75
     0
147
1.0
148
0.0
149
0.0
100
AcDbLayout
  1
Model
 70
     1
 71
     0
 10
0.0
 20
0.0
 11
20000.0
 21
10000.0
 12
0.0
 22
0.0
 32
0.0
 14
0.0
 24
0.0
 34
0.0
 15
20000.0
 25
10000.0
 35
0.0
146
0.0
 13
0.0
 23
0.0
 33
0.0
 16
1.0
 26
0.0
 36
0.0
 17
0.0
 27
1.0
 37
0.0
 76
     0
330
1F
331
29
  0
MLINESTYLE
  5
18
102
{ACAD_REACTORS
330
17
102
}
330
17
100
AcDbMlineStyle
  2
Standard
 70
     0
  3

 62
   256
 51
90.0
 52
90.0
 71
     2
 49
0.5
 62
   256
  6
BYLAYER
 49
-0.5
 62
   256
  6
BYLAYER
  0
ACDBPLACEHOLDER
  5
F
102
{ACAD_REACTORS
330
E
102
}
330
E
  0
SCALE
  5
48
102
{ACAD_REACTORS
330
47
102
}
330
47
100
AcDbScale
 70
     0
300
1:1
140
1.0
141
1.0
290
     1
  0
SCALE
  5
49
102
{ACAD_REACTORS
330
47
102
}
330
47
100
AcDbScale
 70
     0
300
1:2
140
1.0
141
2.0
290
     0
  0
SCALE
  5
4A
102
{ACAD_REACTORS
330
47
102
}
330
47
100
AcDbScale
 70
     0
300
1:4
140
1.0
141
4.0
290
     0
  0
SCALE
  5
4B
102
{ACAD_REACTORS
330
47
102
}
330
47
100
AcDbScale
 70
     0
300
1:5
140
1.0
141
5.0
290
     0
  0
SCALE
  5
4C
102
{ACAD_REACTORS
330
47
102
}
330
47
100
AcDbScale
 70
     0
300
1:8
140
1.0
141
8.0
290
     0
  0
SCALE
  5
4D
102
{ACAD_REACTORS
330
47
102
}
330
47
100
AcDbScale
 70
     0
300
1:10
140
1.0
141
10.0
290
     0
  0
SCALE
  5
4E
102
{ACAD_REACTORS
330
47
102
}
330
47
100
AcDbScale
 70
     0
300
1:16
140
1.0
141
16.0
290
     0
  0
SCALE
  5
4F
102
{ACAD_REACTORS
330
47
102
}
330
47
100
AcDbScale
 70
     0
300
1:20
140
1.0
141
20.0
290
     0
  0
SCALE
  5
50
102
{ACAD_REACTORS
330
47
102
}
330
47
100
AcDbScale
 70
     0
300
1:30
140
1.0
141
30.0
290
     0
  0
SCALE
  5
51
102
{ACAD_REACTORS
330
47
102
}
330
47
100
AcDbScale
 70
     0
300
1:40
140
1.0
141
40.0
290
     0
  0
SCALE
  5
52
102
{ACAD_REACTORS
330
47
102
}
330
47
100
AcDbScale
 70
     0
300
1:50
140
1.0
141
50.0
290
     0
  0
SCALE
  5
53
102
{ACAD_REACTORS
330
47
102
}
330
47
100
AcDbScale
 70
     0
300
1:100
140
1.0
141
100.0
290
     0
  0
SCALE
  5
54
102
{ACAD_REACTORS
330
47
102
}
330
47
100
AcDbScale
 70
     0
300
2:1
140
2.0
141
1.0
290
     0
  0
SCALE
  5
55
102
{ACAD_REACTORS
330
47
102
}
330
47
100
AcDbScale
 70
     0
300
4:1
140
4.0
141
1.0
290
     0
  0
SCALE
  5
56
102
{ACAD_REACTORS
330
47
102
}
330
47
100
AcDbScale
 70
     0
300
8:1
140
8.0
141
1.0
290
     0
  0
SCALE
  5
57
102
{ACAD_REACTORS
330
47
102
}
330
47
100
AcDbScale
 70
     0
300
10:1
140
10.0
141
1.0
290
     0
  0
SCALE
  5
58
102
{ACAD_REACTORS
330
47
102
}
330
47
100
AcDbScale
 70
     0
300
100:1
140
100.0
141
1.0
290
     0
  0
SCALE
  5
59
102
{ACAD_REACTORS
330
47
102
}
330
47
100
AcDbScale
 70
     0
300
1/128" = 1'-0"
140
0.0078125
141
12.0
290
     0
  0
SCALE
  5
5A
102
{ACAD_REACTORS
330
47
102
}
330
47
100
AcDbScale
 70
     0
300
1/64" = 1'-0"
140
0.015625
141
12.0
290
     0
  0
SCALE
  5
5B
102
{ACAD_REACTORS
330
47
102
}
330
47
100
AcDbScale
 70
     0
300
1/32" = 1'-0"
140
0.03125
141
12.0
290
     0
  0
SCALE
  5
5C
102
{ACAD_REACTORS
330
47
102
}
330
47
100
AcDbScale
 70
     0
300
1/16" = 1'-0"
140
0.0625
141
12.0
290
     0
  0
SCALE
  5
5D
102
{ACAD_REACTORS
330
47
102
}
330
47
100
AcDbScale
 70
     0
300
3/32" = 1'-0"
140
0.09375
141
12.0
290
     0
  0
SCALE
  5
5E
102
{ACAD_REACTORS
330
47
102
}
330
47
100
AcDbScale
 70
     0
300
1/8" = 1'-0"
140
0.125
141
12.0
290
     0
  0
SCALE
  5
5F
102
{ACAD_REACTORS
330
47
102
}
330
47
100
AcDbScale
 70
     0
300
3/16" = 1'-0"
140
0.1875
141
12.0
290
     0
  0
SCALE
  5
60
102
{ACAD_REACTORS
330
47
102
}
330
47
100
AcDbScale
 70
     0
300
1/4" = 1'-0"
140
0.25
141
12.0
290
     0
  0
SCALE
  5
61
102
{ACAD_REACTORS
330
47
102
}
330
47
100
AcDbScale
 70
     0
300
3/8" = 1'-0"
140
0.375
141
12.0
290
     0
  0
SCALE
  5
62
102
{ACAD_REACTORS
330
47
102
}
330
47
100
AcDbScale
 70
     0
300
1/2" = 1'-0"
140
0.5
141
12.0
290
     0
  0
SCALE
  5
63
102
{ACAD_REACTORS
330
47
102
}
330
47
100
AcDbScale
 70
     0
300
3/4" = 1'-0"
140
0.75
141
12.0
290
     0
  0
SCALE
  5
64
102
{ACAD_REACTORS
330
47
102
}
330
47
100
AcDbScale
 70
     0
300
1" = 1'-0"
140
1.0
141
12.0
290
     0
  0
SCALE
  5
65
102
{ACAD_REACTORS
330
47
102
}
330
47
100
AcDbScale
 70
     0
300
1-1/2" = 1'-0"
140
1.5
141
12.0
290
     0
  0
SCALE
  5
66
102
{ACAD_REACTORS
330
47
102
}
330
47
100
AcDbScale
 70
     0
300
3" = 1'-0"
140
3.0
141
12.0
290
     0
  0
SCALE
  5
67
102
{ACAD_REACTORS
330
47
102
}
330
47
100
AcDbScale
 70
     0
300
6" = 1'-0"
140
6.0
141
12.0
290
     0
  0
SCALE
  5
68
102
{ACAD_REACTORS
330
47
102
}
330
47
100
AcDbScale
 70
     0
300
1'-0" = 1'-0"
140
12.0
141
12.0
290
     0
  0
ENDSEC
  0
EOF
