  0
SECTION
  2
HEADER
  9
$ACADVER
  1
AC1015
  9
$ACADMAINTVER
 70
     6
  9
$DWGCODEPAGE
  3
ANSI_1250
  9
$INSBASE
 10
0.0
 20
0.0
 30
0.0
  9
$EXTMIN
 10
0.0
 20
0.0
 30
0.0
  9
$EXTMAX
 10
20000.0
 20
10000.0
 30
0.0
  9
$LIMMIN
 10
0.0
 20
0.0
  9
$LIMMAX
 10
20000.0
 20
10000.0
  9
$ORTHOMODE
 70
     0
  9
$REGENMODE
 70
     1
  9
$FILLMODE
 70
     1
  9
$QTEXTMODE
 70
     0
  9
$MIRRTEXT
 70
     1
  9
$LTSCALE
 40
1.0
  9
$ATTMODE
 70
     1
  9
$TEXTSIZE
 40
2.0
  9
$TRACEWID
 40
1.0
  9
$TEXTSTYLE
  7
Standard
  9
$CLAYER
  8
0
  9
$CELTYPE
  6
ByLayer
  9
$CECOLOR
 62
   256
  9
$CELTSCALE
 40
1.0
  9
$DISPSILH
 70
     0
  9
$DIMSCALE
 40
1.0
  9
$DIMASZ
 40
2.0
  9
$DIMEXO
 40
1.0
  9
$DIMDLI
 40
3.75
  9
$DIMRND
 40
0.0
  9
$DIMDLE
 40
0.0
  9
$DIMEXE
 40
1.0
  9
$DIMTP
 40
0.0
  9
$DIMTM
 40
0.0
  9
$DIMTXT
 40
2.0
  9
$DIMCEN
 40
2.5
  9
$DIMTSZ
 40
0.0
  9
$DIMTOL
 70
     0
  9
$DIMLIM
 70
     0
  9
$DIMTIH
 70
     1
  9
$DIMTOH
 70
     1
  9
$DIMSE1
 70
     0
  9
$DIMSE2
 70
     0
  9
$DIMTAD
 70
     1
  9
$DIMZIN
 70
     0
  9
$DIMBLK
  1

  9
$DIMASO
 70
     1
  9
$DIMSHO
 70
     1
  9
$DIMPOST
  1

  9
$DIMAPOST
  1

  9
$DIMALT
 70
     0
  9
$DIMALTD
 70
     3
  9
$DIMALTF
 40
0.0393700787
  9
$DIMLFAC
 40
1.0
  9
$DIMTOFL
 70
     1
  9
$DIMTVP
 40
0.0
  9
$DIMTIX
 70
     0
  9
$DIMSOXD
 70
     0
  9
$DIMSAH
 70
     0
  9
$DIMBLK1
  1

  9
$DIMBLK2
  1

  9
$DIMSTYLE
  2
ISO-25
  9
$DIMCLRD
 70
     0
  9
$DIMCLRE
 70
     0
  9
$DIMCLRT
 70
     0
  9
$DIMTFAC
 40
1.0
  9
$DIMGAP
 40
1.524
  9
$DIMJUST
 70
     0
  9
$DIMSD1
 70
     0
  9
$DIMSD2
 70
     0
  9
$DIMTOLJ
 70
     0
  9
$DIMTZIN
 70
     0
  9
$DIMALTZ
 70
     0
  9
$DIMALTTZ
 70
     0
  9
$DIMUPT
 70
     0
  9
$DIMDEC
 70
     2
  9
$DIMTDEC
 70
     0
  9
$DIMALTU
 70
     2
  9
$DIMALTTD
 70
     3
  9
$DIMTXSTY
  7
Standard
  9
$DIMAUNIT
 70
     0
  9
$DIMADEC
 70
     2
  9
$DIMALTRND
 40
0.0
  9
$DIMAZIN
 70
     0
  9
$DIMDSEP
 70
    44
  9
$DIMATFIT
 70
     3
  9
$DIMFRAC
 70
     0
  9
$DIMLDRBLK
  1

  9
$DIMLUNIT
 70
     2
  9
$DIMLWD
 70
    -2
  9
$DIMLWE
 70
    -2
  9
$DIMTMOVE
 70
     0
  9
$LUNITS
 70
     2
  9
$LUPREC
 70
     3
  9
$SKETCHINC
 40
1.0
  9
$FILLETRAD
 40
10.0
  9
$AUNITS
 70
     0
  9
$AUPREC
 70
     2
  9
$MENU
  1
.
  9
$ELEVATION
 40
0.0
  9
$PELEVATION
 40
0.0
  9
$THICKNESS
 40
0.0
  9
$LIMCHECK
 70
     0
  9
$CHAMFERA
 40
0.0
  9
$CHAMFERB
 40
0.0
  9
$CHAMFERC
 40
0.0
  9
$CHAMFERD
 40
0.0
  9
$SKPOLY
 70
     0
  9
$TDCREATE
 40
2459138.473026273
  9
$TDUCREATE
 40
2459138.38969294
  9
$TDUPDATE
 40
2459138.473026424
  9
$TDUUPDATE
 40
2459138.38969309
  9
$TDINDWG
 40
0.0000000116
  9
$TDUSRTIMER
 40
0.0000000116
  9
$USRTIMER
 70
     1
  9
$ANGBASE
 50
0.0
  9
$ANGDIR
 70
     0
  9
$PDMODE
 70
     0
  9
$PDSIZE
 40
-1.0
  9
$PLINEWID
 40
0.0
  9
$SPLFRAME
 70
     0
  9
$SPLINETYPE
 70
     6
  9
$SPLINESEGS
 70
     8
  9
$HANDSEED
  5
186
  9
$SURFTAB1
 70
     6
  9
$SURFTAB2
 70
     6
  9
$SURFTYPE
 70
     6
  9
$SURFU
 70
     6
  9
$SURFV
 70
     6
  9
$UCSBASE
  2

  9
$UCSNAME
  2

  9
$UCSORG
 10
0.0
 20
0.0
 30
0.0
  9
$UCSXDIR
 10
1.0
 20
0.0
 30
0.0
  9
$UCSYDIR
 10
0.0
 20
1.0
 30
0.0
  9
$UCSORTHOREF
  2

  9
$UCSORTHOVIEW
 70
     0
  9
$UCSORGTOP
 10
0.0
 20
0.0
 30
0.0
  9
$UCSORGBOTTOM
 10
0.0
 20
0.0
 30
0.0
  9
$UCSORGLEFT
 10
0.0
 20
0.0
 30
0.0
  9
$UCSORGRIGHT
 10
0.0
 20
0.0
 30
0.0
  9
$UCSORGFRONT
 10
0.0
 20
0.0
 30
0.0
  9
$UCSORGBACK
 10
0.0
 20
0.0
 30
0.0
  9
$PUCSBASE
  2

  9
$PUCSNAME
  2

  9
$PUCSORG
 10
0.0
 20
0.0
 30
0.0
  9
$PUCSXDIR
 10
1.0
 20
0.0
 30
0.0
  9
$PUCSYDIR
 10
0.0
 20
1.0
 30
0.0
  9
$PUCSORTHOREF
  2

  9
$PUCSORTHOVIEW
 70
     0
  9
$PUCSORGTOP
 10
0.0
 20
0.0
 30
0.0
  9
$PUCSORGBOTTOM
 10
0.0
 20
0.0
 30
0.0
  9
$PUCSORGLEFT
 10
0.0
 20
0.0
 30
0.0
  9
$PUCSORGRIGHT
 10
0.0
 20
0.0
 30
0.0
  9
$PUCSORGFRONT
 10
0.0
 20
0.0
 30
0.0
  9
$PUCSORGBACK
 10
0.0
 20
0.0
 30
0.0
  9
$USERI1
 70
     0
  9
$USERI2
 70
     0
  9
$USERI3
 70
     0
  9
$USERI4
 70
     0
  9
$USERI5
 70
     0
  9
$USERR1
 40
0.0
  9
$USERR2
 40
0.0
  9
$USERR3
 40
0.0
  9
$USERR4
 40
0.0
  9
$USERR5
 40
0.0
  9
$WORLDVIEW
 70
     1
  9
$SHADEDGE
 70
     3
  9
$SHADEDIF
 70
    70
  9
$TILEMODE
 70
     1
  9
$MAXACTVP
 70
    64
  9
$PINSBASE
 10
0.0
 20
0.0
 30
0.0
  9
$PLIMCHECK
 70
     0
  9
$PEXTMIN
 10
1.0000000000E+20
 20
1.0000000000E+20
 30
1.0000000000E+20
  9
$PEXTMAX
 10
-1.0000000000E+20
 20
-1.0000000000E+20
 30
-1.0000000000E+20
  9
$PLIMMIN
 10
0.0
 20
0.0
  9
$PLIMMAX
 10
420.0
 20
297.0
  9
$UNITMODE
 70
     0
  9
$VISRETAIN
 70
     1
  9
$PLINEGEN
 70
     0
  9
$PSLTSCALE
 70
     1
  9
$TREEDEPTH
 70
  3020
  9
$CMLSTYLE
  2
Standard
  9
$CMLJUST
 70
     0
  9
$CMLSCALE
 40
20.0
  9
$PROXYGRAPHICS
 70
     1
  9
$MEASUREMENT
 70
     1
  9
$CELWEIGHT
370
    -1
  9
$ENDCAPS
280
     0
  9
$JOINSTYLE
280
     0
  9
$LWDISPLAY
290
     1
  9
$INSUNITS
 70
     4
  9
$HYPERLINKBASE
  1

  9
$STYLESHEET
  1

  9
$XEDIT
290
     1
  9
$CEPSNTYPE
380
     0
  9
$PSTYLEMODE
290
     1
  9
$FINGERPRINTGUID
  2
{51b8e096-f10f-4c04-960f-95b8dc32d5aa}
  9
$VERSIONGUID
  2
{FAEB1C32-E019-11D5-929B-00C0DF256EC4}
  9
$EXTNAMES
290
     1
  9
$PSVPSCALE
 40
0.0
  9
$OLESTARTUP
290
     0
  0
ENDSEC
  0
SECTION
  2
CLASSES
  0
CLASS
  1
ACDBDICTIONARYWDFLT
  2
AcDbDictionaryWithDefault
  3
ObjectDBX Classes
 90
        0
280
     0
281
     0
  0
CLASS
  1
VISUALSTYLE
  2
AcDbVisualStyle
  3
ObjectDBX Classes
 90
     4095
280
     0
281
     0
  0
CLASS
  1
MATERIAL
  2
AcDbMaterial
  3
ObjectDBX Classes
 90
     1153
280
     0
281
     0
  0
CLASS
  1
SCALE
  2
AcDbScale
  3
ObjectDBX Classes
 90
     1153
280
     0
281
     0
  0
CLASS
  1
TABLESTYLE
  2
AcDbTableStyle
  3
ObjectDBX Classes
 90
     4095
280
     0
281
     0
  0
CLASS
  1
MLEADERSTYLE
  2
AcDbMLeaderStyle
  3
ACDB_MLEADERSTYLE_CLASS
 90
     4095
280
     0
281
     0
  0
CLASS
  1
SUN
  2
AcDbSun
  3
SCENEOE
 90
     1153
280
     0
281
     0
  0
CLASS
  1
ACDBPLACEHOLDER
  2
AcDbPlaceHolder
  3
ObjectDBX Classes
 90
        0
280
     0
281
     0
  0
CLASS
  1
LAYOUT
  2
AcDbLayout
  3
ObjectDBX Classes
 90
        0
280
     0
281
     0
  0
ENDSEC
  0
SECTION
  2
TABLES
  0
TABLE
  2
VPORT
  5
8
330
0
100
AcDbSymbolTable
 70
     1
  0
VPORT
  5
29
330
8
100
AcDbSymbolTableRecord
100
AcDbViewportTableRecord
  2
*Active
 70
     0
 10
0.0
 20
0.0
 11
1.0
 21
1.0
 12
10000.0
 22
5000.0
 13
0.0
 23
0.0
 14
10.0
 24
10.0
 15
10.0
 25
10.0
 16
0.0
 26
0.0
 36
1.0
 17
0.0
 27
0.0
 37
0.0
 40
10000.0
 41
2.0
 42
50.0
 43
0.0
 44
0.0
 50
0.0
 51
0.0
 71
     0
 72
  2000
 73
     1
 74
     3
 75
     0
 76
     0
 77
     0
 78
     0
281
     0
 65
     1
110
0.0
120
0.0
130
0.0
111
1.0
121
0.0
131
0.0
112
0.0
122
1.0
132
0.0
 79
     0
146
0.0
  0
ENDTAB
  0
TABLE
  2
LTYPE
  5
5
330
0
100
AcDbSymbolTable
 70
     6
  0
LTYPE
  5
14
330
5
100
AcDbSymbolTableRecord
100
AcDbLinetypeTableRecord
  2
ByBlock
 70
     0
  3

 72
    65
 73
     0
 40
0.0
  0
LTYPE
  5
15
330
5
100
AcDbSymbolTableRecord
100
AcDbLinetypeTableRecord
  2
ByLayer
 70
     0
  3

 72
    65
 73
     0
 40
0.0
  0
LTYPE
  5
16
330
5
100
AcDbSymbolTableRecord
100
AcDbLinetypeTableRecord
  2
Continuous
 70
     0
  3
Solid line
 72
    65
 73
     0
 40
0.0
  0
LTYPE
  5
6E
330
5
100
AcDbSymbolTableRecord
100
AcDbLinetypeTableRecord
  2
HIDDEN
 70
     0
  3
Hidden __ __ __ __ __ __ __ __ __ __ __ __ __ __
 72
    65
 73
     2
 40
1.905
 49
1.27
 74
     0
 49
-0.635
 74
     0
  0
LTYPE
  5
6F
330
5
100
AcDbSymbolTableRecord
100
AcDbLinetypeTableRecord
  2
PHANTOM
 70
     0
  3
Phantom ______  __  __  ______  __  __  ______
 72
    65
 73
     6
 40
12.7
 49
6.35
 74
     0
 49
-1.27
 74
     0
 49
1.27
 74
     0
 49
-1.27
 74
     0
 49
1.27
 74
     0
 49
-1.27
 74
     0
  0
LTYPE
  5
70
330
5
100
AcDbSymbolTableRecord
100
AcDbLinetypeTableRecord
  2
CENTER
 70
     0
  3
Center ____ _ ____ _ ____ _ ____ _ ____ _ ____
 72
    65
 73
     4
 40
10.16
 49
6.35
 74
     0
 49
-1.27
 74
     0
 49
1.27
 74
     0
 49
-1.27
 74
     0
  0
LTYPE
  5
71
330
5
100
AcDbSymbolTableRecord
100
AcDbLinetypeTableRecord
  2
CENTERX2
 70
     0
  3
Center (2x) ________  __  ________  __  _____
 72
    65
 73
     4
 40
20.32
 49
12.7
 74
     0
 49
-2.54
 74
     0
 49
2.54
 74
     0
 49
-2.54
 74
     0
  0
LTYPE
  5
72
330
5
100
AcDbSymbolTableRecord
100
AcDbLinetypeTableRecord
  2
DOT2
 70
     0
  3
Dot (.5x) ........................................
 72
    65
 73
     2
 40
0.635
 49
0.0
 74
     0
 49
-0.635
 74
     0
  0
ENDTAB
  0
TABLE
  2
LAYER
  5
2
330
0
100
AcDbSymbolTable
 70
    13
  0
LAYER
  5
10
330
2
100
AcDbSymbolTableRecord
100
AcDbLayerTableRecord
  2
0
 70
     0
 62
     7
  6
Continuous
370
    -3
390
F
  0
LAYER
  5
73
330
2
100
AcDbSymbolTableRecord
100
AcDbLayerTableRecord
  2
FORMAT
 70
     0
 62
     7
  6
Continuous
370
    -3
390
F
  0
LAYER
  5
74
330
2
100
AcDbSymbolTableRecord
100
AcDbLayerTableRecord
  2
OSA
 70
     0
 62
     7
  6
CENTER
370
    -3
390
F
  0
LAYER
  5
75
330
2
100
AcDbSymbolTableRecord
100
AcDbLayerTableRecord
  2
0_35
 70
     0
 62
     7
  6
Continuous
370
    35
390
F
  0
LAYER
  5
76
330
2
100
AcDbSymbolTableRecord
100
AcDbLayerTableRecord
  2
0_5
 70
     0
 62
     7
  6
Continuous
370
    50
390
F
  0
LAYER
  5
77
330
2
100
AcDbSymbolTableRecord
100
AcDbLayerTableRecord
  2
0_25
 70
     0
 62
     7
  6
Continuous
370
    25
390
F
  0
LAYER
  5
78
330
2
100
AcDbSymbolTableRecord
100
AcDbLayerTableRecord
  2
0_18
 70
     0
 62
     7
  6
Continuous
370
    -3
390
F
  0
LAYER
  5
79
330
2
100
AcDbSymbolTableRecord
100
AcDbLayerTableRecord
  2
SLD-0
 70
     0
 62
   179
  6
Continuous
370
    -3
390
F
  0
LAYER
  5
7A
330
2
100
AcDbSymbolTableRecord
100
AcDbLayerTableRecord
  2
KOTY
 70
     0
 62
     7
  6
Continuous
370
    -3
390
F
  0
LAYER
  5
7B
330
2
100
AcDbSymbolTableRecord
100
AcDbLayerTableRecord
  2
SILNA
 70
     0
 62
   179
  6
Continuous
370
    -3
390
F
  0
LAYER
  5
7C
330
2
100
AcDbSymbolTableRecord
100
AcDbLayerTableRecord
  2
0_18_1
 70
     0
 62
   179
  6
Continuous
370
    -3
390
F
  0
LAYER
  5
7D
330
2
100
AcDbSymbolTableRecord
100
AcDbLayerTableRecord
  2
0_35_1
 70
     0
 62
   179
  6
Continuous
370
    35
390
F
  0
LAYER
  5
7E
330
2
100
AcDbSymbolTableRecord
100
AcDbLayerTableRecord
  2
0_5_1
 70
     0
 62
   179
  6
Continuous
370
    50
390
F
  0
ENDTAB
  0
TABLE
  2
STYLE
  5
3
330
0
100
AcDbSymbolTable
 70
     1
  0
STYLE
  5
11
330
3
100
AcDbSymbolTableRecord
100
AcDbTextStyleTableRecord
  2
Standard
 70
     0
 40
0.0
 41
1.0
 50
0.0
 71
     0
 42
2.0
  3
txt
  4

  0
ENDTAB
  0
TABLE
  2
VIEW
  5
6
330
0
100
AcDbSymbolTable
 70
     0
  0
ENDTAB
  0
TABLE
  2
UCS
  5
7
330
0
100
AcDbSymbolTable
 70
     0
  0
ENDTAB
  0
TABLE
  2
APPID
  5
9
330
0
100
AcDbSymbolTable
 70
     1
  0
APPID
  5
12
330
9
100
AcDbSymbolTableRecord
100
AcDbRegAppTableRecord
  2
ACAD
 70
     0
  0
ENDTAB
  0
TABLE
  2
DIMSTYLE
  5
A
330
0
100
AcDbSymbolTable
 70
     1
100
AcDbDimStyleTable
  0
DIMSTYLE
105
27
330
A
100
AcDbSymbolTableRecord
100
AcDbDimStyleTableRecord
  2
ISO-25
 70
     0
 41
2.5
 42
0.625
 43
3.75
 44
1.25
 73
     0
 74
     0
 77
     1
 78
     8
140
2.5
141
2.5
143
0.0393700787
147
0.625
171
     3
172
     1
178
     0
271
     2
272
     2
274
     3
278
    44
283
     0
284
     8
340
11
  0
ENDTAB
  0
TABLE
  2
BLOCK_RECORD
  5
1
330
0
100
AcDbSymbolTable
 70
     1
  0
BLOCK_RECORD
  5
1F
330
1
100
AcDbSymbolTableRecord
100
AcDbBlockTableRecord
  2
*Model_Space
340
22
  0
BLOCK_RECORD
  5
1B
330
1
100
AcDbSymbolTableRecord
100
AcDbBlockTableRecord
  2
*Paper_Space
340
1E
  0
BLOCK_RECORD
  5
23
330
1
100
AcDbSymbolTableRecord
100
AcDbBlockTableRecord
  2
*Paper_Space0
340
26
  0
ENDTAB
  0
ENDSEC
  0
SECTION
  2
BLOCKS
  0
BLOCK
  5
20
330
1F
100
AcDbEntity
  8
0
100
AcDbBlockBegin
  2
*Model_Space
 70
     0
 10
0.0
 20
0.0
 30
0.0
  3
*Model_Space
  1

  0
ENDBLK
  5
21
330
1F
100
AcDbEntity
  8
0
100
AcDbBlockEnd
  0
BLOCK
  5
1C
330
1B
100
AcDbEntity
 67
     1
  8
0
100
AcDbBlockBegin
  2
*Paper_Space
 70
     0
 10
0.0
 20
0.0
 30
0.0
  3
*Paper_Space
  1

  0
ENDBLK
  5
1D
330
1B
100
AcDbEntity
 67
     1
  8
0
100
AcDbBlockEnd
  0
BLOCK
  5
24
330
23
100
AcDbEntity
  8
0
100
AcDbBlockBegin
  2
*Paper_Space0
 70
     0
 10
0.0
 20
0.0
 30
0.0
  3
*Paper_Space0
  1

  0
ENDBLK
  5
25
330
23
100
AcDbEntity
  8
0
100
AcDbBlockEnd
  0
ENDSEC
  0
SECTION
  2
ENTITIES
  0
LWPOLYLINE
  5
7F
330
1F
100
AcDbEntity
  8
0
  6
Continuous
 62
     7
370
    25
100
AcDbPolyline
 90
       13
 70
   128
 43
0.0
 10
6107.1132138271
 20
5001.2672125174
 10
6107.6280664303
 20
5003.415368937
 10
6108.2417412593
 20
5005.2870718421
 10
6108.9493192261
 20
5006.8156957625
 10
6109.6779808476
 20
5007.9778439787
 10
6110.3625051193
 20
5008.8233911299
 10
6111.0978598893
 20
5009.5466552831
 10
6111.9109280296
 20
5010.1870512014
 10
6112.7925260175
 20
5010.7457000939
 10
6113.7770737372
 20
5011.2476391082
 10
6115.0720714384
 20
5011.7644108432
 10
6116.6897035649
 20
5012.2484279423
 10
6118.5918512164
 20
5012.6866981172
  0
LINE
  5
80
330
1F
100
AcDbEntity
  8
0
  6
Continuous
 62
     7
370
    25
100
AcDbLine
 10
6084.7873331291
 20
5044.5502961699
 30
0.0
 11
6058.9873331291
 21
4984.8899240624
 31
0.0
  0
LINE
  5
81
330
1F
100
AcDbEntity
  8
0
  6
Continuous
 62
     7
370
    25
100
AcDbLine
 10
6114.1476560268
 20
5033.0404117588
 30
0.0
 11
6114.1873331291
 21
5033.2196250754
 31
0.0
  0
LINE
  5
82
330
1F
100
AcDbEntity
  8
0
  6
Continuous
 62
     7
370
    25
100
AcDbLine
 10
6103.4873331291
 20
4984.8899240624
 30
0.0
 11
6107.1129734932
 21
5001.2661964715
 31
0.0
  0
LWPOLYLINE
  5
83
330
1F
100
AcDbEntity
  8
0
  6
Continuous
 62
     7
370
    25
100
AcDbPolyline
 90
       10
 70
   128
 43
0.0
 10
6116.522851517
 20
5030.6548747956
 10
6115.7800783069
 20
5030.528662913
 10
6115.1868678912
 20
5030.5372808397
 10
6114.7796881946
 20
5030.6409502771
 10
6114.5277196525
 20
5030.7752383891
 10
6114.2779083519
 20
5031.0184443409
 10
6114.1621505636
 20
5031.2132461379
 10
6114.0697328463
 20
5031.4688790288
 10
6114.0081381039
 20
5032.1654670396
 10
6114.1480397676
 20
5033.0421490824
  0
ARC
  5
84
330
1F
100
AcDbEntity
  8
0
  6
Continuous
 62
     7
370
    25
100
AcDbCircle
 10
6102.7095817078
 20
5075.6180889685
 30
0.0
 40
3.000000000000263
100
AcDbArc
 50
66.6140344641
 51
246.6140344641
  0
ARC
  5
85
330
1F
100
AcDbEntity
  8
0
  6
Continuous
 62
     7
370
    25
100
AcDbCircle
 10
6126.2169689184
 20
5065.4523697714
 30
0.0
 40
3.000000000000263
100
AcDbArc
 50
246.6140344641
 51
66.6140344641
  0
LINE
  5
86
330
1F
100
AcDbEntity
  8
0
  6
Continuous
 62
     7
370
    25
100
AcDbLine
 10
6101.518812477
 20
5072.8645333327
 30
0.0
 11
6094.6833998326
 21
5057.0582053531
 31
0.0
  0
LINE
  5
87
330
1F
100
AcDbEntity
  8
0
  6
Continuous
 62
     7
370
    25
100
AcDbLine
 10
6118.1907870433
 20
5046.8924861561
 30
0.0
 11
6125.0261996877
 21
5062.6988141357
 31
0.0
  0
LINE
  5
88
330
1F
100
AcDbEntity
  8
0
  6
Continuous
 62
     7
370
    25
100
AcDbLine
 10
6092.0909468812
 20
5047.284301952
 30
0.0
 11
6090.034172245
 21
5042.5281802411
 31
0.0
  0
LINE
  5
89
330
1F
100
AcDbEntity
  8
0
  6
Continuous
 62
     7
370
    25
100
AcDbLine
 10
6111.1499582971
 20
5034.3902201506
 30
0.0
 11
6112.8447784562
 21
5038.3093519857
 31
0.0
  0
LINE
  5
8A
330
1F
100
AcDbEntity
  8
0
  6
Continuous
 62
     7
370
    25
100
AcDbLine
 10
6175.2140767221
 20
5024.9158999492
 30
0.0
 11
6175.4251878332
 21
5023.9384378789
 31
0.0
  0
LINE
  5
8B
330
1F
100
AcDbEntity
  8
0
  6
Continuous
 62
     7
370
    25
100
AcDbLine
 10
6190.0871188869
 20
5027.1051045456
 30
0.0
 11
6189.8760077757
 21
5028.0825666159
 31
0.0
  0
ARC
  5
8C
330
1F
100
AcDbEntity
  8
0
  6
Continuous
 62
     7
370
    25
100
AcDbCircle
 10
6110.8532750779
 20
5075.4744134232
 30
0.0
 40
0.546742976985779
100
AcDbArc
 50
75.3204787095
 51
167.2111400992
  0
ARC
  5
8D
330
1F
100
AcDbEntity
  8
0
  6
Continuous
 62
     7
370
    25
100
AcDbCircle
 10
6120.5346328281
 20
5071.287731022
 30
0.0
 40
0.546742976986029
100
AcDbArc
 50
326.0169288289
 51
57.9075902187
  0
ARC
  5
8E
330
1F
100
AcDbEntity
  8
0
  6
Continuous
 62
     7
370
    25
100
AcDbCircle
 10
6103.2413633094
 20
5046.4172231428
 30
0.0
 40
30.58441112488946
100
AcDbArc
 50
66.6140344641
 51
75.3204787095
  0
ARC
  5
8F
330
1F
100
AcDbEntity
  8
0
  6
Continuous
 62
     7
370
    25
100
AcDbCircle
 10
6104.5760296662
 20
5045.8400495385
 30
0.0
 40
30.58441112488946
100
AcDbArc
 50
57.9075902187
 51
66.6140344641
  0
LINE
  5
90
330
1F
100
AcDbEntity
  8
0
  6
Continuous
 62
     7
370
    25
100
AcDbLine
 10
6116.7156882357
 20
5073.9120087446
 30
0.0
 11
6115.381021879
 21
5074.4891823489
 31
0.0
  0
LINE
  5
91
330
1F
100
AcDbEntity
  8
0
  6
Continuous
 62
     7
370
    25
100
AcDbLine
 10
6110.532294435
 20
5029.3650818421
 30
0.0
 11
6110.4230763251
 21
5029.3432695045
 31
0.0
  0
LINE
  5
92
330
1F
100
AcDbEntity
  8
0
  6
Continuous
 62
     7
370
    25
100
AcDbLine
 10
6111.132527149
 20
5029.4853994805
 30
0.0
 11
6111.1057464597
 21
5029.4800181034
 31
0.0
  0
LINE
  5
93
330
1F
100
AcDbEntity
  8
0
  6
Continuous
 62
     7
370
    25
100
AcDbLine
 10
6091.8629368673
 20
4992.8279392536
 30
0.0
 11
6093.8651208487
 21
4995.8424374232
 31
0.0
  0
LWPOLYLINE
  5
94
330
1F
100
AcDbEntity
  8
0
  6
Continuous
 62
     7
370
    25
100
AcDbPolyline
 90
       11
 70
   128
 43
0.0
 10
6116.146563406
 20
5012.1585677249
 10
6113.785166429
 20
5011.6163576975
 10
6111.503736842
 20
5010.946805384
 10
6109.305460773
 20
5010.0956875403
 10
6107.1911771269
 20
5009.0438537596
 10
6105.2050645654
 20
5007.8121302702
 10
6103.3465972188
 20
5006.4146348358
 10
6100.7476283721
 20
5004.0456187962
 10
6098.3241912273
 20
5001.4369241939
 10
6096.0477100192
 20
4998.6826046155
 10
6093.8645478614
 20
4995.8423992572
  0
LWPOLYLINE
  5
95
330
1F
100
AcDbEntity
  8
0
  6
Continuous
 62
     7
370
    25
100
AcDbPolyline
 90
        3
 70
   128
 43
0.0
 10
6100.067635291
 20
5027.1008973049
 10
6100.3258401052
 20
5028.2060337446
 10
6100.5854538426
 20
5029.3123333902
  0
LINE
  5
96
330
1F
100
AcDbEntity
  8
0
  6
Continuous
 62
     7
370
    25
100
AcDbLine
 10
6095.4459352385
 20
5007.6876703462
 30
0.0
 11
6100.0676424568
 21
5027.1008980491
 31
0.0
  0
LWPOLYLINE
  5
97
330
1F
100
AcDbEntity
  8
0
  6
Continuous
 62
     7
370
    25
100
AcDbPolyline
 90
        3
 70
   128
 43
0.0
 10
6091.8669980699
 20
4992.8268054327
 10
6093.8729985576
 20
5001.1534590008
 10
6095.4459352385
 20
5007.6876703462
  0
LINE
  5
98
330
1F
100
AcDbEntity
  8
0
  6
Continuous
 62
     7
370
    25
100
AcDbLine
 10
6114.1873331291
 20
5033.2196250754
 30
0.0
 11
6084.7873331291
 21
5044.5502961699
 31
0.0
  0
LINE
  5
99
330
1F
100
AcDbEntity
  8
0
  6
Continuous
 62
     7
370
    25
100
AcDbLine
 10
6081.2373331291
 20
4984.8899240624
 30
0.0
 11
6103.4873331291
 21
4984.8899240624
 31
0.0
  0
LINE
  5
9A
330
1F
100
AcDbEntity
  8
0
  6
Continuous
 62
     7
370
    25
100
AcDbLine
 10
6058.98733313
 20
4984.8899240624
 30
0.0
 11
6081.2373331291
 21
4984.8899240624
 31
0.0
  0
LINE
  5
9B
330
1F
100
AcDbEntity
  8
0
  6
Continuous
 62
     7
370
    25
100
AcDbLine
 10
6101.0234137774
 20
5029.1997185911
 30
0.0
 11
6100.5854658015
 21
5029.3123310319
 31
0.0
  0
ARC
  5
9C
330
1F
100
AcDbEntity
  8
0
  6
Continuous
 62
     7
370
    25
100
AcDbCircle
 10
6107.4102884723
 20
5046.6588025929
 30
0.0
 40
18.59388339870812
100
AcDbArc
 50
249.9077903143
 51
282.6385160155
  0
LWPOLYLINE
  5
9D
330
1F
100
AcDbEntity
  8
0
  6
Continuous
 62
     7
370
    25
100
AcDbPolyline
 90
        4
 70
   128
 43
0.0
 10
6127.5461405918
 20
5032.0126142365
 10
6122.1387951632
 20
5030.8410930715
 10
6116.7850437269
 20
5029.6744754195
 10
6111.478615914
 20
5028.5154508719
  0
ARC
  5
9E
330
1F
100
AcDbEntity
  8
0
  6
Continuous
 62
     7
370
    25
100
AcDbCircle
 10
5879.8297522192
 20
5004.4547697714
 30
0.0
 40
249.2445462789768
100
AcDbArc
 50
2.5196526394
 51
6.3479158914
  0
LWPOLYLINE
  5
9F
330
1F
100
AcDbEntity
  8
0
  6
Continuous
 62
     7
370
    25
100
AcDbPolyline
 90
        4
 70
   128
 43
0.0
 10
6116.0968412583
 20
5012.6477521869
 10
6120.3256191129
 20
5013.567264407
 10
6124.5706967215
 20
5014.4882075699
 10
6128.8334156596
 20
5015.4101879898
  0
LWPOLYLINE
  5
A0
330
1F
100
AcDbEntity
  8
0
  6
Continuous
 62
     7
370
    25
100
AcDbPolyline
 90
       11
 70
   128
 43
0.0
 10
6093.8361804921
 20
4995.8676938816
 10
6095.9666844089
 20
4998.7581719175
 10
6098.1923192337
 20
5001.5761948588
 10
6100.5779261196
 20
5004.2601506827
 10
6103.1645421847
 20
5006.7154776035
 10
6105.0357538125
 20
5008.1715108879
 10
6107.0491231341
 20
5009.4535275852
 10
6109.1973982615
 20
5010.5424095453
 10
6111.4279829936
 20
5011.4175269276
 10
6113.7332521447
 20
5012.1007406493
 10
6116.096781965
 20
5012.6477392866
  0
LWPOLYLINE
  5
A1
330
1F
100
AcDbEntity
  8
0
  6
Continuous
 62
     7
370
    25
100
AcDbPolyline
 90
        3
 70
   128
 43
0.0
 10
6093.8651785197
 20
4995.8423852365
 10
6093.8506468824
 20
4995.8550401751
 10
6093.8361805084
 20
4995.8676938812
  0
ARC
  5
A2
330
1F
100
AcDbEntity
  8
0
  6
Continuous
 62
     7
370
    25
100
AcDbCircle
 10
6115.3535449247
 20
5012.3249897584
 30
0.0
 40
0.8103487057200239
100
AcDbArc
 50
348.14972039
 51
23.4719877519
  0
ARC
  5
A3
330
1F
100
AcDbEntity
  8
0
  6
Continuous
 62
     7
370
    25
100
AcDbCircle
 10
6105.3842696345
 20
5054.5986674066
 30
0.0
 40
25.75714366590829
100
AcDbArc
 50
260.2618997338
 51
282.8091519488
  0
LWPOLYLINE
  5
A4
330
1F
100
AcDbEntity
  8
0
  6
Continuous
 62
     7
370
    25
100
AcDbPolyline
 90
        7
 70
   128
 43
0.0
 10
6111.0948186286
 20
5029.4825346209
 10
6111.1748101851
 20
5029.4625615785
 10
6111.2233320514
 20
5029.3994750171
 10
6111.2754125242
 20
5029.2896187486
 10
6111.3293338843
 20
5029.1323758216
 10
6111.3829550529
 20
5028.9380912155
 10
6111.478615914
 20
5028.5154508719
  0
LINE
  5
A5
330
1F
100
AcDbEntity
  8
0
  6
Continuous
 62
     7
370
    25
100
AcDbLine
 10
6101.518812477
 20
5072.8645333327
 30
0.0
 11
6125.0261969864
 21
5062.6988153038
 31
0.0
  0
LINE
  5
A6
330
1F
100
AcDbEntity
  8
0
  6
Continuous
 62
     7
370
    25
100
AcDbLine
 10
6103.9003509386
 20
5078.3716446042
 30
0.0
 11
6127.4077381492
 21
5068.2059254072
 31
0.0
  0
LINE
  5
A7
330
1F
100
AcDbEntity
  8
0
  6
Continuous
 62
     7
370
    25
100
AcDbLine
 10
6111.0947380333
 20
5029.482517214
 30
0.0
 11
6127.3350294807
 21
5032.9900763067
 31
0.0
  0
LINE
  5
A8
330
1F
100
AcDbEntity
  8
0
  6
Continuous
 62
     7
370
    25
100
AcDbLine
 10
6127.3350294807
 20
5032.9900763067
 30
0.0
 11
6127.5461405918
 21
5032.0126142365
 31
0.0
  0
LINE
  5
A9
330
1F
100
AcDbEntity
  8
0
  6
Continuous
 62
     7
370
    25
100
AcDbLine
 10
6128.833417299
 20
5015.4101883439
 30
0.0
 11
6128.9389728546
 21
5014.9214573088
 31
0.0
  0
LINE
  5
AA
330
1F
100
AcDbEntity
  8
0
  6
Continuous
 62
     7
370
    25
100
AcDbLine
 10
6128.9389712151
 20
5014.9214569547
 30
0.0
 11
6116.1466231201
 21
5012.1585806219
 31
0.0
  0
LINE
  5
AB
330
1F
100
AcDbEntity
  8
0
  6
Continuous
 62
     7
370
    25
100
AcDbLine
 10
6094.6833998326
 20
5057.0582053531
 30
0.0
 11
6118.1907870433
 21
5046.8924861561
 31
0.0
  0
LINE
  5
AC
330
1F
100
AcDbEntity
  8
0
  6
Continuous
 62
     7
370
    25
100
AcDbLine
 10
6181.691437327
 20
5043.7068518987
 30
0.0
 11
6127.5461405918
 21
5032.0126142365
 31
0.0
  0
LINE
  5
AD
330
1F
100
AcDbEntity
  8
0
  6
Continuous
 62
     7
370
    25
100
AcDbLine
 10
6185.1747706603
 20
5027.5787277399
 30
0.0
 11
6181.691437327
 21
5043.7068518987
 31
0.0
  0
LINE
  5
AE
330
1F
100
AcDbEntity
  8
0
  6
Continuous
 62
     7
370
    25
100
AcDbLine
 10
6128.833417299
 20
5015.4101883439
 30
0.0
 11
6185.1747706604
 21
5027.5787277396
 31
0.0
  0
LINE
  5
AF
330
1F
100
AcDbEntity
  8
0
  6
Continuous
 62
     7
370
    25
100
AcDbLine
 10
6185.1747706604
 20
5027.5787277396
 30
0.0
 11
6197.8784587332
 21
5030.3224553848
 31
0.0
  0
ARC
  5
B0
330
1F
100
AcDbEntity
  8
0
  6
Continuous
 62
     7
370
    25
100
AcDbCircle
 10
6197.4845112331
 20
5030.1557900418
 30
0.0
 40
0.4277522290230233
100
AcDbArc
 50
271.4463074435
 51
22.9315140924
  0
LINE
  5
B1
330
1F
100
AcDbEntity
  8
0
  6
Continuous
 62
     7
370
    25
100
AcDbLine
 10
6185.1747706604
 20
5027.5787277396
 30
0.0
 11
6185.2803262159
 21
5027.0899967045
 31
0.0
  0
LINE
  5
B2
330
1F
100
AcDbEntity
  8
0
  6
Continuous
 62
     7
370
    25
100
AcDbLine
 10
6197.4953077619
 20
5029.7281740874
 30
0.0
 11
6185.2803262159
 21
5027.0899967045
 31
0.0
  0
ARC
  5
B3
330
1F
100
AcDbEntity
  8
0
  6
Continuous
 62
     7
370
    25
100
AcDbCircle
 10
6193.5399022569
 20
5046.4290314329
 30
0.0
 40
0.855504541992398
100
AcDbArc
 50
1.4434398008
 51
112.9286464505
  0
LINE
  5
B4
330
1F
100
AcDbEntity
  8
0
  6
Continuous
 62
     7
370
    25
100
AcDbLine
 10
6194.3951353292
 20
5046.4505816884
 30
0.0
 11
6181.691437327
 21
5043.7068518987
 31
0.0
  0
LINE
  5
B5
330
1F
100
AcDbEntity
  8
0
  6
Continuous
 62
     7
370
    25
100
AcDbLine
 10
6181.4803262159
 20
5044.6843139689
 30
0.0
 11
6181.691437327
 21
5043.7068518987
 31
0.0
  0
LINE
  5
B6
330
1F
100
AcDbEntity
  8
0
  6
Continuous
 62
     7
370
    25
100
AcDbLine
 10
6181.4803262159
 20
5044.6843139689
 30
0.0
 11
6193.2066109725
 21
5047.2169431926
 31
0.0
  0
LINE
  5
B7
330
1F
100
AcDbEntity
  8
0
  6
Continuous
 62
     7
370
    25
100
AcDbLine
 10
6194.3980184813
 20
5046.4512043882
 30
0.0
 11
6194.3951353292
 21
5046.4505816884
 31
0.0
  0
LINE
  5
B8
330
1F
100
AcDbEntity
  8
0
  6
Continuous
 62
     7
370
    25
100
AcDbLine
 10
6197.8813518147
 20
5030.3230802292
 30
0.0
 11
6194.3980184813
 21
5046.4512043882
 31
0.0
  0
LINE
  5
B9
330
1F
100
AcDbEntity
  8
0
  6
Continuous
 62
     7
370
    25
100
AcDbLine
 10
6197.8784587332
 20
5030.3224553848
 30
0.0
 11
6197.8813518147
 21
5030.3230802292
 31
0.0
  0
LINE
  5
BA
330
1F
100
AcDbEntity
  8
0
  6
Continuous
 62
     7
370
    25
100
AcDbLine
 10
6185.2803262159
 20
5027.0899967045
 30
0.0
 11
6128.9389728546
 21
5014.9214573088
 31
0.0
  0
LINE
  5
BB
330
1F
100
AcDbEntity
  8
0
  6
Continuous
 62
     7
370
    25
100
AcDbLine
 10
6127.3350294807
 20
5032.9900763067
 30
0.0
 11
6181.4803262159
 21
5044.6843139689
 31
0.0
  0
LINE
  5
BC
330
1F
100
AcDbEntity
  8
0
  6
Continuous
 62
     7
370
    25
100
AcDbLine
 10
6093.0087987598
 20
5046.887378875
 30
0.0
 11
6092.0909468812
 21
5047.284301952
 31
0.0
  0
LINE
  5
BD
330
1F
100
AcDbEntity
  8
0
  6
Continuous
 62
     7
370
    25
100
AcDbLine
 10
6096.978029529
 20
5056.0658976608
 30
0.0
 11
6093.0087987598
 21
5046.887378875
 31
0.0
  0
LINE
  5
BE
330
1F
100
AcDbEntity
  8
0
  6
Continuous
 62
     7
370
    25
100
AcDbLine
 10
6094.0430812747
 20
5046.4401056191
 30
0.0
 11
6098.0123120439
 21
5055.6186244049
 31
0.0
  0
LINE
  5
BF
330
1F
100
AcDbEntity
  8
0
  6
Continuous
 62
     7
370
    25
100
AcDbLine
 10
6101.4335801538
 20
5043.2441002248
 30
0.0
 11
6094.0430812747
 21
5046.4401056191
 31
0.0
  0
LINE
  5
C0
330
1F
100
AcDbEntity
  8
0
  6
Continuous
 62
     7
370
    25
100
AcDbLine
 10
6105.4028109231
 20
5052.4226190105
 30
0.0
 11
6101.4335801538
 21
5043.2441002248
 31
0.0
  0
LINE
  5
C1
330
1F
100
AcDbEntity
  8
0
  6
Continuous
 62
     7
370
    25
100
AcDbLine
 10
6103.5021451835
 20
5042.3495537129
 30
0.0
 11
6107.4713759528
 21
5051.5280724987
 31
0.0
  0
LINE
  5
C2
330
1F
100
AcDbEntity
  8
0
  6
Continuous
 62
     7
370
    25
100
AcDbLine
 10
6110.8926440627
 20
5039.1535483186
 30
0.0
 11
6103.5021451835
 21
5042.3495537129
 31
0.0
  0
LINE
  5
C3
330
1F
100
AcDbEntity
  8
0
  6
Continuous
 62
     7
370
    25
100
AcDbLine
 10
6114.861874832
 20
5048.3320671043
 30
0.0
 11
6110.8926440627
 21
5039.1535483186
 31
0.0
  0
LINE
  5
C4
330
1F
100
AcDbEntity
  8
0
  6
Continuous
 62
     7
370
    25
100
AcDbLine
 10
6111.9269265776
 20
5038.7062750626
 30
0.0
 11
6115.8961573468
 21
5047.8847938484
 31
0.0
  0
LINE
  5
C5
330
1F
100
AcDbEntity
  8
0
  6
Continuous
 62
     7
370
    25
100
AcDbLine
 10
6112.8447784562
 20
5038.3093519857
 30
0.0
 11
6111.9269265776
 21
5038.7062750626
 31
0.0
  0
LINE
  5
C6
330
1F
100
AcDbEntity
  8
0
  6
Continuous
 62
     7
370
    25
100
AcDbLine
 10
6190.0871188869
 20
5027.1051045456
 30
0.0
 11
6175.4251878332
 21
5023.9384378789
 31
0.0
  0
ARC
  5
C7
330
1F
100
AcDbEntity
  8
0
  6
Continuous
 62
     7
370
    25
100
AcDbCircle
 10
6197.4873912001
 20
5030.1564202032
 30
0.0
 40
0.4277622354618801
100
AcDbArc
 50
271.4449670422
 51
22.9301737588
  0
ARC
  5
C8
330
1F
100
AcDbEntity
  8
0
  6
Continuous
 62
     7
370
    25
100
AcDbCircle
 10
6193.5427659888
 20
5046.4296337075
 30
0.0
 40
0.855524470924953
100
AcDbArc
 50
1.4447745121
 51
112.9299812285
  0
LWPOLYLINE
  5
C9
330
1F
100
AcDbEntity
  8
0
  6
Continuous
 62
     8
370
    25
100
AcDbPolyline
 90
       13
 70
   128
 43
0.0
 10
6107.1115272193
 20
5001.2662594959
 10
6107.0427200683
 20
5001.2274654192
 10
6106.8262446339
 20
5001.1054900132
 10
6106.4665263462
 20
5000.9031835874
 10
6105.9648457407
 20
5000.6211012174
 10
6105.0957384516
 20
5000.1307465528
 10
6104.0071483615
 20
4999.5205168794
 10
6102.7073577402
 20
4998.7969008537
 10
6101.2359345298
 20
4997.9768291516
 10
6099.6136498895
 20
4997.0725496931
 10
6097.8338663335
 20
4996.0889677733
 10
6094.9507892686
 20
4994.5111741091
 10
6091.8599360941
 20
4992.8279520625
  0
LWPOLYLINE
  5
CA
330
1F
100
AcDbEntity
  8
0
  6
Continuous
 62
     8
370
    25
100
AcDbPolyline
 90
       12
 70
   128
 43
0.0
 10
6100.5854621324
 20
5029.312330604
 10
6103.2329313407
 20
5030.0328925863
 10
6105.7492864737
 20
5030.7203249908
 10
6108.0476719656
 20
5031.3506672251
 10
6110.0682228096
 20
5031.9084312166
 10
6111.2484911001
 20
5032.2348217408
 10
6112.248083373
 20
5032.5120852928
 10
6113.0511548431
 20
5032.7359224248
 10
6113.6493777963
 20
5032.90289531
 10
6114.0190798794
 20
5033.0060688841
 10
6114.1479261414
 20
5033.0421173669
 10
6114.1444038064
 20
5033.0411317872
  0
LINE
  5
CB
330
1F
100
AcDbEntity
  8
0
  6
Continuous
 62
     8
370
    25
100
AcDbLine
 10
6110.9918264221
 20
5076.0033098288
 30
0.0
 11
6120.8251099103
 21
5071.7509274679
 31
0.0
  0
LINE
  5
CC
330
1F
100
AcDbEntity
  8
0
  6
Continuous
 62
     7
370
    25
100
AcDbLine
 10
5943.6210144947
 20
5047.2727742302
 30
0.0
 11
5943.1316265859
 21
5047.2721600248
 31
0.0
  0
LINE
  5
CD
330
1F
100
AcDbEntity
  8
0
  6
Continuous
 62
     7
370
    25
100
AcDbLine
 10
5944.1231856869
 20
5047.2721471723
 30
0.0
 11
5943.6228471733
 21
5047.272776936
 31
0.0
  0
LWPOLYLINE
  5
CE
330
1F
100
AcDbEntity
  8
0
  6
Continuous
 62
     7
370
    25
100
AcDbPolyline
 90
       16
 70
   128
 43
0.0
 10
5943.1316265859
 20
5047.2721600248
 10
5941.0446160702
 20
5047.2536254128
 10
5939.2593875486
 20
5047.2024473874
 10
5937.7993445511
 20
5047.1245143609
 10
5936.6735054501
 20
5047.03348932
 10
5935.8684358139
 20
5046.9454893654
 10
5935.1890319001
 20
5046.8514222811
 10
5933.938121071
 20
5046.6057119076
 10
5932.906389356
 20
5046.2799710373
 10
5932.1245823931
 20
5045.8782128686
 10
5931.9115019304
 20
5045.7221440585
 10
5931.723003277
 20
5045.5529274433
 10
5931.554850804
 20
5045.3629873835
 10
5931.3624740492
 20
5045.0598709684
 10
5931.1978220521
 20
5044.5909439455
 10
5931.1306472185
 20
5043.9623998084
  0
LWPOLYLINE
  5
CF
330
1F
100
AcDbEntity
  8
0
  6
Continuous
 62
     7
370
    25
100
AcDbPolyline
 90
       18
 70
   128
 43
0.0
 10
5956.0790638204
 20
5044.2202913034
 10
5955.9513161887
 20
5044.8723473936
 10
5955.7331402362
 20
5045.3062377373
 10
5955.5425365992
 20
5045.5356143732
 10
5955.3221769991
 20
5045.7337254398
 10
5955.0266470986
 20
5045.9404279005
 10
5954.6305729893
 20
5046.1543760661
 10
5954.1188007662
 20
5046.3647236825
 10
5953.5353630395
 20
5046.5470860778
 10
5952.9051658063
 20
5046.6986257734
 10
5952.2520543199
 20
5046.8206570257
 10
5951.6103784491
 20
5046.9159357908
 10
5951.0119928579
 20
5046.9885502943
 10
5950.2748428653
 20
5047.0608680229
 10
5949.2133985987
 20
5047.1397388945
 10
5947.8259639571
 20
5047.2091260564
 10
5946.1279072438
 20
5047.2549050792
 10
5944.1231856869
 20
5047.2721471723
  0
LINE
  5
D0
330
1F
100
AcDbEntity
  8
0
  6
Continuous
 62
     7
370
    25
100
AcDbLine
 10
5936.1243788271
 20
5026.4992332825
 30
0.0
 11
5936.1243788271
 21
5025.5217712123
 31
0.0
  0
LINE
  5
D1
330
1F
100
AcDbEntity
  8
0
  6
Continuous
 62
     7
370
    25
100
AcDbLine
 10
5951.1243788271
 20
5025.5217712123
 30
0.0
 11
5951.1243788271
 21
5026.4992332825
 31
0.0
  0
LWPOLYLINE
  5
D2
330
1F
100
AcDbEntity
  8
0
  6
Continuous
 62
     7
370
    25
100
AcDbPolyline
 90
       77
 70
   128
 43
0.0
 10
5943.6243788271
 20
5078.6180889685
 10
5942.9385022156
 20
5078.6114148564
 10
5941.648027151
 20
5078.5624460043
 10
5940.3702548954
 20
5078.4660090627
 10
5939.1129516712
 20
5078.3222044124
 10
5937.8832229094
 20
5078.1310095456
 10
5936.6876854119
 20
5077.8921492501
 10
5935.5323400068
 20
5077.6048806533
 10
5934.4224968583
 20
5077.2676724561
 10
5933.362844029
 20
5076.8777570707
 10
5932.3578795132
 20
5076.430597016
 10
5931.4131934586
 20
5075.9195691559
 10
5930.5384000106
 20
5075.336957134
 10
5929.8379742764
 20
5074.7591120716
 10
5929.2478323976
 20
5074.1531133639
 10
5928.7650375547
 20
5073.5240230135
 10
5928.383656741
 20
5072.8727919236
 10
5928.1001437137
 20
5072.2002912488
 10
5927.8991028494
 20
5071.4309636801
 10
5927.8204210632
 20
5070.6656905325
 10
5927.8569852259
 20
5069.9163775123
 10
5928.0007706071
 20
5069.1916810189
 10
5928.2438456805
 20
5068.4982704659
 10
5928.5810682198
 20
5067.8369155859
 10
5929.0114546906
 20
5067.2056911041
 10
5929.5389959374
 20
5066.6011677395
 10
5930.1718018808
 20
5066.0206347696
 10
5930.9177711892
 20
5065.4652067367
 10
5931.776625568
 20
5064.9420296333
 10
5932.7349557102
 20
5064.4619386854
 10
5933.769222111
 20
5064.0343589843
 10
5934.8623774117
 20
5063.6612359826
 10
5936.004722103
 20
5063.3408780618
 10
5937.189150159
 20
5063.0713548126
 10
5938.4092891988
 20
5062.8512438319
 10
5939.6586678461
 20
5062.6796740114
 10
5940.9304508639
 20
5062.556172777
 10
5942.2174232997
 20
5062.4805044395
 10
5943.5120753782
 20
5062.4525486062
 10
5944.8067266839
 20
5062.4722248091
 10
5946.0934150925
 20
5062.5394425179
 10
5947.3641917773
 20
5062.6540781916
 10
5948.6117217938
 20
5062.8160704644
 10
5949.8290708001
 20
5063.0255190302
 10
5951.0098452216
 20
5063.2828481466
 10
5952.1483055771
 20
5063.5890588512
 10
5953.2394016716
 20
5063.9460973505
 10
5954.2786014103
 20
5064.3573481343
 10
5955.2612095632
 20
5064.8281467308
 10
5956.1805526344
 20
5065.3657905825
 10
5957.0234036728
 20
5065.9767573152
 10
5957.6767946329
 20
5066.5676334359
 10
5958.2202725251
 20
5067.1837889594
 10
5958.6590333276
 20
5067.8223889493
 10
5958.9982967336
 20
5068.4829229977
 10
5959.2402477175
 20
5069.1637663429
 10
5959.3936969645
 20
5069.9321045546
 10
5959.4275736375
 20
5070.6923098072
 10
5959.3492065524
 20
5071.4334446482
 10
5959.1668079388
 20
5072.1465234889
 10
5958.8874875438
 20
5072.8276607995
 10
5958.5149481723
 20
5073.4772017391
 10
5958.0483194577
 20
5074.0978366084
 10
5957.4817954039
 20
5074.6930430439
 10
5956.8065946116
 20
5075.2644602506
 10
5956.0169185572
 20
5075.8087708867
 10
5955.1179884042
 20
5076.3168230691
 10
5954.127196319
 20
5076.7780203342
 10
5953.0690563481
 20
5077.1847226446
 10
5951.9561973934
 20
5077.5374841874
 10
5950.7970363897
 20
5077.8382534358
 10
5949.5982453582
 20
5078.0888008294
 10
5948.366176626
 20
5078.2903261928
 10
5947.1074273756
 20
5078.4435281663
 10
5945.8289832609
 20
5078.5487717286
 10
5944.5381846088
 20
5078.6062368139
 10
5943.6243788271
 20
5078.6180889685
  0
ARC
  5
D3
330
1F
100
AcDbEntity
  8
0
  6
Continuous
 62
     7
370
    25
100
AcDbCircle
 10
5959.6952615744
 20
5031.6637622046
 30
0.0
 40
3.571399236777435
100
AcDbArc
 50
180.9744384032
 51
222.6222917824
  0
ARC
  5
D4
330
1F
100
AcDbEntity
  8
0
  6
Continuous
 62
     7
370
    25
100
AcDbCircle
 10
5927.4368074726
 20
5031.7176078389
 30
0.0
 40
3.693939934787239
100
AcDbArc
 50
317.986977835
 51
3.3649331913
  0
LINE
  5
D5
330
1F
100
AcDbEntity
  8
0
  6
Continuous
 62
     7
370
    25
100
AcDbLine
 10
5930.8187247998
 20
5065.5389539279
 30
0.0
 11
5930.8187247998
 21
5051.9753457546
 31
0.0
  0
LINE
  5
D6
330
1F
100
AcDbEntity
  8
0
  6
Continuous
 62
     7
370
    25
100
AcDbLine
 10
5956.4300328544
 20
5051.9753457546
 30
0.0
 11
5956.4300328544
 21
5065.5466340624
 31
0.0
  0
LINE
  5
D7
330
1F
100
AcDbEntity
  8
0
  6
Continuous
 62
     7
370
    25
100
AcDbLine
 10
5943.7236281041
 20
5076.0205833069
 30
0.0
 11
5943.6243788271
 21
5076.0211564002
 31
0.0
  0
LWPOLYLINE
  5
D8
330
1F
100
AcDbEntity
  8
0
  6
Continuous
 62
     7
370
    25
100
AcDbPolyline
 90
       15
 70
   128
 43
0.0
 10
5949.4156941655
 20
5073.1016290402
 10
5949.4178346751
 20
5073.107931283
 10
5949.4386304689
 20
5073.5139228743
 10
5949.3479238109
 20
5073.8939679456
 10
5949.1616425018
 20
5074.2435948569
 10
5948.8796693499
 20
5074.5725514287
 10
5948.4915803179
 20
5074.8850594311
 10
5947.9970128511
 20
5075.1728757574
 10
5947.4144861197
 20
5075.4234894681
 10
5946.7641243774
 20
5075.6313476885
 10
5946.0590235681
 20
5075.7956759297
 10
5945.3115169426
 20
5075.9158189767
 10
5944.5345422942
 20
5075.9910138128
 10
5943.7841061627
 20
5076.0202340895
 10
5943.7236281041
 20
5076.0205833069
  0
LWPOLYLINE
  5
D9
330
1F
100
AcDbEntity
  8
0
  6
Continuous
 62
     7
370
    25
100
AcDbPolyline
 90
       14
 70
   128
 43
0.0
 10
5943.6243788271
 20
5076.0211564002
 10
5943.2060507297
 20
5076.014822453
 10
5942.4191412948
 20
5075.9680289451
 10
5941.654235619
 20
5075.8762169491
 10
5940.9252683528
 20
5075.7404365547
 10
5940.2446504603
 20
5075.5618404179
 10
5939.6234036045
 20
5075.3411764125
 10
5939.071071934
 20
5075.0778403348
 10
5938.5966202566
 20
5074.768443554
 10
5938.2125042516
 20
5074.406584509
 10
5937.976168079
 20
5074.060140661
 10
5937.8410241418
 20
5073.7006356404
 10
5937.8065859386
 20
5073.2921434621
 10
5937.8553865499
 20
5073.056054083
  0
LINE
  5
DA
330
1F
100
AcDbEntity
  8
0
  6
Continuous
 62
     7
370
    25
100
AcDbLine
 10
5932.3187247998
 20
5049.5882910895
 30
0.0
 11
5932.3187247998
 21
5045.9779795649
 31
0.0
  0
LINE
  5
DB
330
1F
100
AcDbEntity
  8
0
  6
Continuous
 62
     7
370
    25
100
AcDbLine
 10
5954.9300328544
 20
5045.9926162153
 30
0.0
 11
5954.9300328544
 21
5049.5882910895
 31
0.0
  0
LWPOLYLINE
  5
DC
330
1F
100
AcDbEntity
  8
0
  6
Continuous
 62
     7
370
    25
100
AcDbPolyline
 90
        3
 70
   128
 43
0.0
 10
5927.8846967479
 20
5039.1291341028
 10
5923.576523926
 20
5003.2105923996
 10
5921.3736141665
 20
4984.8899240624
  0
LWPOLYLINE
  5
DD
330
1F
100
AcDbEntity
  8
0
  6
Continuous
 62
     7
370
    25
100
AcDbPolyline
 90
        4
 70
   128
 43
0.0
 10
5965.8751434876
 20
4984.8899240624
 10
5965.1695860703
 20
4990.7553221812
 10
5963.946810765
 20
5000.9257158115
 10
5959.3640609062
 20
5039.1291341028
  0
LINE
  5
DE
330
1F
100
AcDbEntity
  8
0
  6
Continuous
 62
     7
370
    25
100
AcDbLine
 10
5943.1247061417
 20
5030.3224553848
 30
0.0
 11
5943.6243788268
 21
5030.3230802292
 31
0.0
  0
ARC
  5
DF
330
1F
100
AcDbEntity
  8
0
  6
Continuous
 62
     7
370
    25
100
AcDbCircle
 10
5876.4238729242
 20
5030.172507085
 30
0.0
 40
67.2006745935761
100
AcDbArc
 50
359.6216842709
 51
0.1283798554
  0
LINE
  5
E0
330
1F
100
AcDbEntity
  8
0
  6
Continuous
 62
     7
370
    25
100
AcDbLine
 10
5943.6230826435
 20
5029.7287925671
 30
0.0
 11
5943.1297134074
 21
5029.7281740874
 31
0.0
  0
ARC
  5
E1
330
1F
100
AcDbEntity
  8
0
  6
Continuous
 62
     7
370
    25
100
AcDbCircle
 10
5960.5232843062
 20
5030.1718897136
 30
0.0
 40
17.39922964296346
100
AcDbArc
 50
179.5041800498
 51
181.4613169474
  0
LINE
  5
E2
330
1F
100
AcDbEntity
  8
0
  6
Continuous
 62
     7
370
    25
100
AcDbLine
 10
5943.6243788267
 20
5030.3230802292
 30
0.0
 11
5944.1237079423
 21
5030.322456111
 31
0.0
  0
ARC
  5
E3
330
1F
100
AcDbEntity
  8
0
  6
Continuous
 62
     7
370
    25
100
AcDbCircle
 10
5926.7135905231
 20
5030.1718904292
 30
0.0
 40
17.41076846591433
100
AcDbArc
 50
358.5396517482
 51
0.4954913768
  0
LINE
  5
E4
330
1F
100
AcDbEntity
  8
0
  6
Continuous
 62
     7
370
    25
100
AcDbLine
 10
5944.1187039964
 20
5029.7281748066
 30
0.0
 11
5943.6230826258
 21
5029.7287939932
 31
0.0
  0
LWPOLYLINE
  5
E5
330
1F
100
AcDbEntity
  8
0
  6
Continuous
 62
     7
370
    25
100
AcDbPolyline
 90
       19
 70
   128
 43
0.0
 10
5955.6243788271
 20
5027.0899967045
 10
5955.6166360991
 20
5027.3358872659
 10
5955.593407897
 20
5027.5325239302
 10
5955.5405423721
 20
5027.7231444045
 10
5955.4344727217
 20
5027.9336375382
 10
5955.2814951934
 20
5028.1293952406
 10
5954.9480049602
 20
5028.4099814454
 10
5954.5001470899
 20
5028.6616711498
 10
5953.9379215825
 20
5028.8844643537
 10
5953.261328438
 20
5029.0783610571
 10
5952.4299679454
 20
5029.2502332282
 10
5951.4498005573
 20
5029.3956152489
 10
5950.7136851343
 20
5029.4778198458
 10
5949.9114333133
 20
5029.5482510426
 10
5949.0430450942
 20
5029.6069088391
 10
5947.8699255142
 20
5029.6635686981
 10
5946.5998814679
 20
5029.7018737976
 10
5945.4525580681
 20
5029.7200918871
 10
5944.1187039964
 20
5029.7281748066
  0
LWPOLYLINE
  5
E6
330
1F
100
AcDbEntity
  8
0
  6
Continuous
 62
     7
370
    25
100
AcDbPolyline
 90
       15
 70
   128
 43
0.0
 10
5944.1237079423
 20
5030.322456111
 10
5945.8796123094
 20
5030.3094989372
 10
5947.6413042757
 20
5030.2678602677
 10
5949.3597947316
 20
5030.186286908
 10
5950.5790049628
 20
5030.0946451566
 10
5951.7051139517
 20
5029.9750013339
 10
5952.7128983892
 20
5029.8265217848
 10
5953.5866547938
 20
5029.6489000147
 10
5954.3223352229
 20
5029.4425872476
 10
5954.9209036305
 20
5029.2102990585
 10
5955.3856149251
 20
5028.9569778802
 10
5955.7231518318
 20
5028.6888105849
 10
5955.9958108096
 20
5028.3191777078
 10
5956.1070102997
 20
5027.9471469207
 10
5956.1243788271
 20
5027.5787277396
  0
ARC
  5
E7
330
1F
100
AcDbEntity
  8
0
  6
Continuous
 62
     7
370
    25
100
AcDbCircle
 10
5955.707906849
 20
5027.5046726445
 30
0.0
 40
0.4230048056919088
100
AcDbArc
 50
258.6113278087
 51
10.0826826982
  0
LWPOLYLINE
  5
E8
330
1F
100
AcDbEntity
  8
0
  6
Continuous
 62
     7
370
    25
100
AcDbPolyline
 90
       15
 70
   128
 43
0.0
 10
5931.1243788271
 20
5027.5787277396
 10
5931.1417465219
 20
5027.9471408448
 10
5931.2529408479
 20
5028.3191654882
 10
5931.525587632
 20
5028.6887926477
 10
5931.8631099553
 20
5028.9569564091
 10
5932.3278017856
 20
5029.2102750706
 10
5932.9263458788
 20
5029.4425619934
 10
5933.6619972777
 20
5029.6488747978
 10
5934.5357201665
 20
5029.8264977198
 10
5935.5434681302
 20
5029.9749793604
 10
5936.6695402747
 20
5030.0946261324
 10
5937.8887157452
 20
5030.1862715363
 10
5939.6071662667
 20
5030.2678504046
 10
5941.3688270485
 20
5030.3094944264
 10
5943.1247061417
 20
5030.3224553848
  0
LWPOLYLINE
  5
E9
330
1F
100
AcDbEntity
  8
0
  6
Continuous
 62
     7
370
    25
100
AcDbPolyline
 90
       21
 70
   128
 43
0.0
 10
5943.1297134074
 20
5029.7281740874
 10
5942.0505708748
 20
5029.7225022018
 10
5941.0835995019
 20
5029.7102869335
 10
5940.1243322796
 20
5029.6887124048
 10
5939.1354830705
 20
5029.653820318
 10
5938.2090901713
 20
5029.6071071184
 10
5936.9305475447
 20
5029.5144130773
 10
5935.8007963488
 20
5029.3954004387
 10
5934.8198365834
 20
5029.2500692026
 10
5933.9876682486
 20
5029.0784193689
 10
5933.3103476694
 20
5028.8847584272
 10
5932.7479833131
 20
5028.6621878884
 10
5932.5099097185
 20
5028.5400615201
 10
5932.3005751797
 20
5028.4107077526
 10
5932.1199796966
 20
5028.2741265857
 10
5931.9681232693
 20
5028.1303180196
 10
5931.8149035233
 20
5027.9338564091
 10
5931.708493507
 20
5027.7232480342
 10
5931.6553953485
 20
5027.5332508142
 10
5931.6321329529
 20
5027.3367641845
 10
5931.6243788271
 20
5027.0899967045
  0
ARC
  5
EA
330
1F
100
AcDbEntity
  8
0
  6
Continuous
 62
     7
370
    25
100
AcDbCircle
 10
5931.5408508052
 20
5027.5046726445
 30
0.0
 40
0.4230048056928005
100
AcDbArc
 50
169.917317302
 51
281.3886721913
  0
LINE
  5
EB
330
1F
100
AcDbEntity
  8
0
  6
Continuous
 62
     7
370
    25
100
AcDbLine
 10
5931.1243788271
 20
5027.5787277399
 30
0.0
 11
5931.1243788271
 21
5043.7068518987
 31
0.0
  0
LINE
  5
EC
330
1F
100
AcDbEntity
  8
0
  6
Continuous
 62
     7
370
    25
100
AcDbLine
 10
5931.1364596376
 20
5043.9630928919
 30
0.0
 11
5931.1243788271
 21
5043.7068518987
 31
0.0
  0
LINE
  5
ED
330
1F
100
AcDbEntity
  8
0
  6
Continuous
 62
     7
370
    25
100
AcDbLine
 10
5943.6243788266
 20
5046.4512043882
 30
0.0
 11
5943.1257214348
 21
5046.4505816884
 31
0.0
  0
LINE
  5
EE
330
1F
100
AcDbEntity
  8
0
  6
Continuous
 62
     7
370
    25
100
AcDbLine
 10
5943.6243788268
 20
5030.3230802292
 30
0.0
 11
5943.6243788266
 21
5046.4512043882
 31
0.0
  0
LINE
  5
EF
330
1F
100
AcDbEntity
  8
0
  6
Continuous
 62
     7
370
    25
100
AcDbLine
 10
5944.1291609057
 20
5046.4505686878
 30
0.0
 11
5943.6243788267
 21
5046.4512043882
 31
0.0
  0
LWPOLYLINE
  5
F0
330
1F
100
AcDbEntity
  8
0
  6
Continuous
 62
     7
370
    25
100
AcDbPolyline
 90
        3
 70
   128
 43
0.0
 10
5956.1243788271
 20
5043.7068518987
 10
5956.1070235106
 20
5044.0751746482
 10
5956.0633725334
 20
5044.2212834447
  0
LINE
  5
F1
330
1F
100
AcDbEntity
  8
0
  6
Continuous
 62
     7
370
    25
100
AcDbLine
 10
5956.1243788271
 20
5043.7068518988
 30
0.0
 11
5956.1243788271
 21
5027.5787277396
 31
0.0
  0
ARC
  5
F2
330
1F
100
AcDbEntity
  8
0
  6
Continuous
 62
     7
370
    25
100
AcDbCircle
 10
5925.7938649992
 20
5014.5765433919
 30
0.0
 40
5.840706880444841
100
AcDbArc
 50
335.544611091
 51
3.385479871
  0
LINE
  5
F3
330
1F
100
AcDbEntity
  8
0
  6
Continuous
 62
     7
370
    25
100
AcDbLine
 10
5931.6243788271
 20
5027.0899967045
 30
0.0
 11
5931.6243788271
 21
5014.9214573088
 31
0.0
  0
LINE
  5
F4
330
1F
100
AcDbEntity
  8
0
  6
Continuous
 62
     7
370
    25
100
AcDbLine
 10
5955.6243788271
 20
5014.9214573088
 30
0.0
 11
5955.6243788271
 21
5027.0899967045
 31
0.0
  0
ARC
  5
F5
330
1F
100
AcDbEntity
  8
0
  6
Continuous
 62
     7
370
    25
100
AcDbCircle
 10
5961.40044388
 20
5014.5664235546
 30
0.0
 40
5.786966062697799
100
AcDbArc
 50
176.4826650735
 51
204.5879153532
  0
ARC
  5
F6
330
1F
100
AcDbEntity
  8
0
  6
Continuous
 62
     7
370
    25
100
AcDbCircle
 10
5943.6240976612
 20
4864.903959454
 30
0.0
 40
147.7853575769476
100
AcDbArc
 50
85.142513433
 51
94.857265953
  0
LWPOLYLINE
  5
F7
330
1F
100
AcDbEntity
  8
0
  6
Continuous
 62
     7
370
    25
100
AcDbPolyline
 90
       25
 70
   128
 43
0.0
 10
5951.1243788271
 20
5026.4992332825
 10
5951.0602152874
 20
5026.7058997535
 10
5950.8688225242
 20
5026.9090301039
 10
5950.5534753209
 20
5027.1051487171
 10
5950.1195693555
 20
5027.2908999492
 10
5949.5745288793
 20
5027.4631055451
 10
5948.927679686
 20
5027.6188190194
 10
5948.1900895446
 20
5027.7553760713
 10
5947.3743788271
 20
5027.8704401719
 10
5946.4945045698
 20
5027.9620425423
 10
5945.5655216654
 20
5028.0286158408
 10
5944.6033252687
 20
5028.0690209797
 10
5943.6243788271
 20
5028.0825666159
 10
5942.6454323854
 20
5028.0690209797
 10
5941.6832359888
 20
5028.0286158408
 10
5940.7542530843
 20
5027.9620425423
 10
5939.8743788271
 20
5027.8704401719
 10
5939.0586681095
 20
5027.7553760713
 10
5938.3210779682
 20
5027.6188190194
 10
5937.6742287749
 20
5027.4631055451
 10
5937.1291882987
 20
5027.2908999492
 10
5936.6952823332
 20
5027.1051487171
 10
5936.3799351299
 20
5026.9090301039
 10
5936.1885423668
 20
5026.7058997535
 10
5936.1243788271
 20
5026.4992332825
  0
LWPOLYLINE
  5
F8
330
1F
100
AcDbEntity
  8
0
  6
Continuous
 62
     7
370
    25
100
AcDbPolyline
 90
       49
 70
   128
 43
0.0
 10
5943.6243788271
 20
5027.1051045456
 10
5942.6454323854
 20
5027.0915589095
 10
5941.6832359888
 20
5027.0511537706
 10
5940.7542530843
 20
5026.9845804721
 10
5939.8743788271
 20
5026.8929781016
 10
5939.0586681095
 20
5026.7779140011
 10
5938.3210779682
 20
5026.6413569492
 10
5937.6742287749
 20
5026.4856434749
 10
5937.1291882987
 20
5026.3134378789
 10
5936.6952823332
 20
5026.1276866469
 10
5936.3799351299
 20
5025.9315680337
 10
5936.1885423668
 20
5025.7284376833
 10
5936.1243788271
 20
5025.5217712123
 10
5936.1885423668
 20
5025.3151047413
 10
5936.3799351299
 20
5025.1119743909
 10
5936.6952823332
 20
5024.9158557777
 10
5937.1291882987
 20
5024.7301045456
 10
5937.6742287749
 20
5024.5578989497
 10
5938.3210779682
 20
5024.4021854754
 10
5939.0586681095
 20
5024.2656284235
 10
5939.8743788271
 20
5024.150564323
 10
5940.7542530843
 20
5024.0589619525
 10
5941.6832359888
 20
5023.992388654
 10
5942.6454323854
 20
5023.9519835151
 10
5943.6243788271
 20
5023.9384378789
 10
5944.6033252687
 20
5023.9519835151
 10
5945.5655216654
 20
5023.992388654
 10
5946.4945045698
 20
5024.0589619525
 10
5947.3743788271
 20
5024.150564323
 10
5948.1900895446
 20
5024.2656284235
 10
5948.927679686
 20
5024.4021854754
 10
5949.5745288793
 20
5024.5578989497
 10
5950.1195693555
 20
5024.7301045456
 10
5950.5534753209
 20
5024.9158557777
 10
5950.8688225242
 20
5025.1119743909
 10
5951.0602152874
 20
5025.3151047413
 10
5951.1243788271
 20
5025.5217712123
 10
5951.0602152874
 20
5025.7284376833
 10
5950.8688225242
 20
5025.9315680337
 10
5950.5534753209
 20
5026.1276866469
 10
5950.1195693555
 20
5026.3134378789
 10
5949.5745288793
 20
5026.4856434749
 10
5948.927679686
 20
5026.6413569492
 10
5948.1900895446
 20
5026.7779140011
 10
5947.3743788271
 20
5026.8929781016
 10
5946.4945045698
 20
5026.9845804721
 10
5945.5655216654
 20
5027.0511537706
 10
5944.6033252687
 20
5027.0915589095
 10
5943.6243788271
 20
5027.1051045456
  0
LINE
  5
F9
330
1F
100
AcDbEntity
  8
0
  6
Continuous
 62
     7
370
    25
100
AcDbLine
 10
5931.1243788271
 20
5015.4101883439
 30
0.0
 11
5931.1243788271
 21
5027.5787277396
 31
0.0
  0
ARC
  5
FA
330
1F
100
AcDbEntity
  8
0
  6
Continuous
 62
     7
370
    25
100
AcDbCircle
 10
5931.5408508052
 20
5015.3361332487
 30
0.0
 40
0.4230048056918952
100
AcDbArc
 50
169.9173173018
 51
281.3886721915
  0
LINE
  5
FB
330
1F
100
AcDbEntity
  8
0
  6
Continuous
 62
     7
370
    25
100
AcDbLine
 10
5956.1243788271
 20
5027.5787277396
 30
0.0
 11
5956.1243788271
 21
5015.4101883439
 31
0.0
  0
ARC
  5
FC
330
1F
100
AcDbEntity
  8
0
  6
Continuous
 62
     7
370
    25
100
AcDbCircle
 10
5955.707906849
 20
5015.3361332488
 30
0.0
 40
0.423004805691159
100
AcDbArc
 50
258.6113278086
 51
10.0826826983
  0
LWPOLYLINE
  5
FD
330
1F
100
AcDbEntity
  8
0
  6
Continuous
 62
     7
370
    25
100
AcDbPolyline
 90
        3
 70
   128
 43
0.0
 10
5923.8806233199
 20
4992.8268054327
 10
5924.6713864837
 20
5001.1534590008
 10
5925.2930826611
 20
5007.6876703462
  0
LINE
  5
FE
330
1F
100
AcDbEntity
  8
0
  6
Continuous
 62
     7
370
    25
100
AcDbLine
 10
5925.2930826611
 20
5007.6876703462
 30
0.0
 11
5927.1682579583
 21
5027.1008980491
 31
0.0
  0
LWPOLYLINE
  5
FF
330
1F
100
AcDbEntity
  8
0
  6
Continuous
 62
     7
370
    25
100
AcDbPolyline
 90
        3
 70
   128
 43
0.0
 10
5927.1682828035
 20
5027.1008973049
 10
5927.2760205572
 20
5028.2060337446
 10
5927.3845067242
 20
5029.3123333902
  0
LINE
  5
100
330
1F
100
AcDbEntity
  8
0
  6
Continuous
 62
     7
370
    25
100
AcDbLine
 10
5927.5082020965
 20
5029.1997185911
 30
0.0
 11
5927.3845022817
 21
5029.3123310319
 31
0.0
  0
LWPOLYLINE
  5
101
330
1F
100
AcDbEntity
  8
0
  6
Continuous
 62
     7
370
    25
100
AcDbPolyline
 90
        6
 70
   128
 43
0.0
 10
5930.019081744
 20
5028.5154508719
 10
5929.6869306209
 20
5028.1959339974
 10
5929.3119553518
 20
5028.0584212959
 10
5928.9025853175
 20
5028.1019912376
 10
5928.2330108429
 20
5028.4854550006
 10
5927.5079035647
 20
5029.1965249079
  0
ARC
  5
102
330
1F
100
AcDbEntity
  8
0
  6
Continuous
 62
     7
370
    25
100
AcDbCircle
 10
5926.3354887998
 20
5031.6029192086
 30
0.0
 40
4.806383017369843
100
AcDbArc
 50
320.0313509195
 51
4.8898132562
  0
ARC
  5
103
330
1F
100
AcDbEntity
  8
0
  6
Continuous
 62
     7
370
    25
100
AcDbCircle
 10
5925.6082024171
 20
5015.0015405142
 30
0.0
 40
5.531292339562079
100
AcDbArc
 50
334.8151265512
 51
4.2368267619
  0
LWPOLYLINE
  5
104
330
1F
100
AcDbEntity
  8
0
  6
Continuous
 62
     7
370
    25
100
AcDbPolyline
 90
       11
 70
   128
 43
0.0
 10
5924.6785322471
 20
4995.8676938816
 10
5925.5193891333
 20
4998.7581719175
 10
5926.3395258998
 20
5001.5761948588
 10
5927.1488828894
 20
5004.2601506827
 10
5927.9472433496
 20
5006.7154776035
 10
5928.4737866169
 20
5008.1715108879
 10
5928.9912793047
 20
5009.4535275852
 10
5929.484611144
 20
5010.5424095453
 10
5929.9276423848
 20
5011.4175269276
 10
5930.3070548087
 20
5012.1007406493
 10
5930.6136802877
 20
5012.6477392866
  0
LWPOLYLINE
  5
105
330
1F
100
AcDbEntity
  8
0
  6
Continuous
 62
     7
370
    25
100
AcDbPolyline
 90
        3
 70
   128
 43
0.0
 10
5924.6908798292
 20
4995.8423852365
 10
5924.6846923364
 20
4995.8550401751
 10
5924.6785322081
 20
4995.8676938812
  0
LINE
  5
106
330
1F
100
AcDbEntity
  8
0
  6
Continuous
 62
     7
370
    25
100
AcDbLine
 10
5923.8789913383
 20
4992.8279392536
 30
0.0
 11
5924.6908552549
 21
4995.8424374232
 31
0.0
  0
ARC
  5
107
330
1F
100
AcDbEntity
  8
0
  6
Continuous
 62
     7
370
    25
100
AcDbCircle
 10
5960.9132514682
 20
5031.6029162144
 30
0.0
 40
4.806365949676612
100
AcDbArc
 50
175.1101335189
 51
219.967247132
  0
LWPOLYLINE
  5
108
330
1F
100
AcDbEntity
  8
0
  6
Continuous
 62
     7
370
    25
100
AcDbPolyline
 90
       13
 70
   128
 43
0.0
 10
5959.8640575074
 20
5029.3124136072
 10
5959.8616931444
 20
5029.2922567915
 10
5959.8578364282
 20
5029.2769979625
 10
5959.8466551191
 20
5029.2596611959
 10
5959.8215876418
 20
5029.2417898079
 10
5959.7721085501
 20
5029.1972793233
 10
5959.6740353481
 20
5029.0985213199
 10
5959.4802264172
 20
5028.9019309364
 10
5959.1037504301
 20
5028.5556713487
 10
5958.40169789
 20
5028.1218011716
 10
5957.9719776856
 20
5028.0550042386
 10
5957.5779164519
 20
5028.1850975404
 10
5957.2295960599
 20
5028.5155489744
  0
LWPOLYLINE
  5
109
330
1F
100
AcDbEntity
  8
0
  6
Continuous
 62
     7
370
    25
100
AcDbPolyline
 90
        3
 70
   128
 43
0.0
 10
5959.8642514043
 20
5029.3123285452
 10
5959.9727373325
 20
5028.2060313246
 10
5960.0804748507
 20
5027.1008973048
  0
LINE
  5
10A
330
1F
100
AcDbEntity
  8
0
  6
Continuous
 62
     7
370
    25
100
AcDbLine
 10
5960.0804996959
 20
5027.100898049
 30
0.0
 11
5961.9556749936
 21
5007.6876703413
 31
0.0
  0
LWPOLYLINE
  5
10B
330
1F
100
AcDbEntity
  8
0
  6
Continuous
 62
     7
370
    25
100
AcDbPolyline
 90
        3
 70
   128
 43
0.0
 10
5961.9556749931
 20
5007.6876703461
 10
5962.7468150514
 20
4999.3692326209
 10
5963.3681247475
 20
4992.8269063745
  0
LINE
  5
10C
330
1F
100
AcDbEntity
  8
0
  6
Continuous
 62
     7
370
    25
100
AcDbLine
 10
5962.5490270584
 20
4995.8745018673
 30
0.0
 11
5963.3695608155
 21
4992.8286244915
 31
0.0
  0
LWPOLYLINE
  5
10D
330
1F
100
AcDbEntity
  8
0
  6
Continuous
 62
     7
370
    25
100
AcDbPolyline
 90
        3
 70
   128
 43
0.0
 10
5962.5615913706
 20
4995.9002626413
 10
5962.5553198432
 20
4995.8873749905
 10
5962.5490201037
 20
4995.8744860665
  0
LWPOLYLINE
  5
10E
330
1F
100
AcDbEntity
  8
0
  6
Continuous
 62
     7
370
    25
100
AcDbPolyline
 90
       11
 70
   128
 43
0.0
 10
5956.635096571
 20
5012.647702128
 10
5956.9412687923
 20
5012.101514214
 10
5957.3200278598
 20
5011.4194974005
 10
5957.7623284002
 20
5010.5460561742
 10
5958.2548037083
 20
5009.4600204098
 10
5958.7715250074
 20
5008.1809072856
 10
5959.297252306
 20
5006.7279884371
 10
5960.0945156785
 20
5004.2782240892
 10
5960.9025192274
 20
5001.5983967093
 10
5961.7215642123
 20
4998.7854107335
 10
5962.5615913088
 20
4995.9002626418
  0
ARC
  5
10F
330
1F
100
AcDbEntity
  8
0
  6
Continuous
 62
     7
370
    25
100
AcDbCircle
 10
5961.6405061008
 20
5015.0015356545
 30
0.0
 40
5.531243696553014
100
AcDbArc
 50
175.763085433
 51
205.1856277747
  0
LWPOLYLINE
  5
110
330
1F
100
AcDbEntity
  8
0
  6
Continuous
 62
     7
370
    25
100
AcDbPolyline
 90
       64
 70
   128
 43
0.0
 10
5943.6243788271
 20
5078.3716446042
 10
5942.3493474313
 20
5078.3463867331
 10
5941.0869878704
 20
5078.2708641437
 10
5939.8498460408
 20
5078.1458274136
 10
5938.6502172138
 20
5077.972519214
 10
5937.5000238397
 20
5077.7526619595
 10
5936.4106970569
 20
5077.4884406904
 10
5935.3930630844
 20
5077.1824813563
 10
5934.4572356259
 20
5076.8378247185
 10
5933.612515355
 20
5076.4578961296
 10
5932.8672974813
 20
5076.0464714906
 10
5932.2289883148
 20
5075.6076397243
 10
5931.7039316589
 20
5075.1457621381
 10
5931.2973457624
 20
5074.6654290788
 10
5931.0132714586
 20
5074.1714143123
 10
5930.8545320057
 20
5073.6686275792
 10
5930.8227050276
 20
5073.1620657999
 10
5930.9181068351
 20
5072.656763413
 10
5931.1397892821
 20
5072.1577423406
 10
5931.4855491891
 20
5071.6699620784
 10
5931.9519502385
 20
5071.1982704058
 10
5932.5343571274
 20
5070.7473552064
 10
5933.2269816343
 20
5070.3216978782
 10
5934.0229401457
 20
5069.9255287948
 10
5934.9143220684
 20
5069.5627852627
 10
5935.8922684483
 20
5069.23707239
 10
5936.947060015
 20
5068.9516272576
 10
5938.0682137759
 20
5068.7092867475
 10
5939.2445872013
 20
5068.5124593485
 10
5940.4644889636
 20
5068.3631012197
 10
5941.715795131
 20
5068.2626967493
 10
5942.9860696606
 20
5068.2122438021
 10
5944.2626879935
 20
5068.2122438021
 10
5945.5329625232
 20
5068.2626967493
 10
5946.7842686906
 20
5068.3631012197
 10
5948.0041704529
 20
5068.5124593485
 10
5949.1805438783
 20
5068.7092867475
 10
5950.3016976392
 20
5068.9516272576
 10
5951.3564892059
 20
5069.23707239
 10
5952.3344355858
 20
5069.5627852627
 10
5953.2258175084
 20
5069.9255287948
 10
5954.0217760199
 20
5070.3216978782
 10
5954.7144005268
 20
5070.7473552064
 10
5955.2968074156
 20
5071.1982704058
 10
5955.7632084651
 20
5071.6699620784
 10
5956.108968372
 20
5072.1577423406
 10
5956.3306508191
 20
5072.656763413
 10
5956.4260526266
 20
5073.1620657999
 10
5956.3942256485
 20
5073.6686275792
 10
5956.2354861955
 20
5074.1714143123
 10
5955.9514118918
 20
5074.6654290788
 10
5955.5448259953
 20
5075.1457621381
 10
5955.0197693393
 20
5075.6076397243
 10
5954.3814601729
 20
5076.0464714906
 10
5953.6362422992
 20
5076.4578961296
 10
5952.7915220283
 20
5076.8378247185
 10
5951.8556945697
 20
5077.1824813563
 10
5950.8380605973
 20
5077.4884406904
 10
5949.7487338145
 20
5077.7526619595
 10
5948.5985404403
 20
5077.972519214
 10
5947.3989116133
 20
5078.1458274136
 10
5946.1617697837
 20
5078.2708641437
 10
5944.8994102228
 20
5078.3463867331
 10
5943.6243788271
 20
5078.3716446042
  0
ARC
  5
111
330
1F
100
AcDbEntity
  8
0
  6
Continuous
 62
     7
370
    25
100
AcDbCircle
 10
5956.2079594561
 20
5012.5846295233
 30
0.0
 40
0.4317687672844543
100
AcDbArc
 50
260.7044936338
 51
8.3998008826
  0
ARC
  5
112
330
1F
100
AcDbEntity
  8
0
  6
Continuous
 62
     7
370
    25
100
AcDbCircle
 10
5931.0408237954
 20
5012.5846792662
 30
0.0
 40
0.431768542233549
100
AcDbArc
 50
171.6001523299
 51
279.2955727626
  0
LWPOLYLINE
  5
113
330
1F
100
AcDbEntity
  8
0
  6
Continuous
 62
     7
370
    25
100
AcDbPolyline
 90
       22
 70
   128
 43
0.0
 10
5937.839493523
 20
5073.0689414905
 10
5937.9097068214
 20
5072.8698114846
 10
5938.1242957917
 20
5072.5440113579
 10
5938.4561094829
 20
5072.2340847884
 10
5938.8980758623
 20
5071.946637323
 10
5939.4407751838
 20
5071.6877954053
 10
5940.0726407536
 20
5071.4630758013
 10
5940.7802054541
 20
5071.2772680193
 10
5941.5483887721
 20
5071.1343322296
 10
5942.3608182139
 20
5071.0373148603
 10
5943.2001782565
 20
5070.9882836684
 10
5944.0485793977
 20
5070.9882836684
 10
5944.8879394402
 20
5071.0373148603
 10
5945.7003688821
 20
5071.1343322296
 10
5946.4685522001
 20
5071.2772680193
 10
5947.1761169006
 20
5071.4630758013
 10
5947.8079824704
 20
5071.6877954053
 10
5948.3506817919
 20
5071.946637323
 10
5948.7926481712
 20
5072.2340847884
 10
5949.1244618625
 20
5072.5440113579
 10
5949.3390508327
 20
5072.8698114846
 10
5949.4166355108
 20
5073.1020067724
  0
LWPOLYLINE
  5
114
330
1F
100
AcDbEntity
  8
0
  6
Continuous
 62
     7
370
    25
100
AcDbPolyline
 90
       15
 70
   128
 43
0.0
 10
5930.8187247998
 20
5051.9753457546
 10
5930.8227050276
 20
5051.8486265488
 10
5930.9181068351
 20
5051.3433241619
 10
5931.1397892821
 20
5050.8443030896
 10
5931.4855491891
 20
5050.3565228274
 10
5931.9519502385
 20
5049.8848311547
 10
5932.5343571274
 20
5049.4339159553
 10
5933.2269816343
 20
5049.0082586271
 10
5934.0229401457
 20
5048.6120895438
 10
5934.9143220684
 20
5048.2493460117
 10
5935.8922684483
 20
5047.923633139
 10
5936.947060015
 20
5047.6381880066
 10
5938.0682137759
 20
5047.3958474964
 10
5939.2445872013
 20
5047.1990200974
 10
5939.3277827504
 20
5047.1871299404
  0
LWPOLYLINE
  5
115
330
1F
100
AcDbEntity
  8
0
  6
Continuous
 62
     7
370
    25
100
AcDbPolyline
 90
       15
 70
   128
 43
0.0
 10
5947.920852615
 20
5047.1871126525
 10
5948.0041704529
 20
5047.1990200974
 10
5949.1805438783
 20
5047.3958474964
 10
5950.3016976392
 20
5047.6381880066
 10
5951.3564892059
 20
5047.923633139
 10
5952.3344355858
 20
5048.2493460117
 10
5953.2258175084
 20
5048.6120895438
 10
5954.0217760199
 20
5049.0082586271
 10
5954.7144005268
 20
5049.4339159553
 10
5955.2968074156
 20
5049.8848311547
 10
5955.7632084651
 20
5050.3565228274
 10
5956.108968372
 20
5050.8443030896
 10
5956.3306508191
 20
5051.3433241619
 10
5956.4260526266
 20
5051.8486265488
 10
5956.4300328544
 20
5051.9753457546
  0
LWPOLYLINE
  5
116
330
1F
100
AcDbEntity
  8
0
  6
Continuous
 62
     7
370
    25
100
AcDbPolyline
 90
       42
 70
   128
 43
0.0
 10
5943.6243788271
 20
5076.0033098288
 10
5942.8066849698
 20
5075.9783917692
 10
5942.0081571635
 20
5075.9042216487
 10
5941.2475122232
 20
5075.7825379518
 10
5940.5425790215
 20
5075.6161928415
 10
5939.9098805952
 20
5075.409085306
 10
5939.3642468592
 20
5075.1660697706
 10
5938.9184670059
 20
5074.8928423132
 10
5938.582989737
 20
5074.5958071541
 10
5938.3656783556
 20
5074.2819265455
 10
5938.2716264562
 20
5073.9585575829
 10
5938.3030385355
 20
5073.6332797608
 10
5938.4591783211
 20
5073.3137173154
 10
5938.7363860288
 20
5073.0073605198
 10
5939.1281641447
 20
5072.7213901176
 10
5939.6253297221
 20
5072.4625090126
 10
5940.216229621
 20
5072.2367851584
 10
5940.8870136486
 20
5072.049509331
 10
5941.621959196
 20
5071.905071117
 10
5942.4038397624
 20
5071.8068560257
 10
5943.2143287299
 20
5071.7571661356
 10
5944.0344289242
 20
5071.7571661356
 10
5944.8449178918
 20
5071.8068560257
 10
5945.6267984581
 20
5071.905071117
 10
5946.3617440055
 20
5072.049509331
 10
5947.0325280332
 20
5072.2367851584
 10
5947.6234279321
 20
5072.4625090126
 10
5948.1205935094
 20
5072.7213901176
 10
5948.5123716254
 20
5073.0073605198
 10
5948.789579333
 20
5073.3137173154
 10
5948.9457191187
 20
5073.6332797608
 10
5948.977131198
 20
5073.9585575829
 10
5948.8830792986
 20
5074.2819265455
 10
5948.6657679171
 20
5074.5958071541
 10
5948.3302906483
 20
5074.8928423132
 10
5947.8845107949
 20
5075.1660697706
 10
5947.338877059
 20
5075.409085306
 10
5946.7061786327
 20
5075.6161928415
 10
5946.001245431
 20
5075.7825379518
 10
5945.2406004907
 20
5075.9042216487
 10
5944.4420726844
 20
5075.9783917692
 10
5943.6243788271
 20
5076.0033098288
  0
LWPOLYLINE
  5
117
330
1F
100
AcDbEntity
  8
0
  6
Continuous
 62
     7
370
    25
100
AcDbPolyline
 90
       11
 70
   128
 43
0.0
 10
5962.547453729
 20
4995.8745006215
 10
5961.6730228988
 20
4998.7093018745
 10
5960.8043894916
 20
5001.4585613874
 10
5959.9305578878
 20
5004.063134737
 10
5959.0498805648
 20
5006.4266719782
 10
5958.462199522
 20
5007.8211259198
 10
5957.885562578
 20
5009.0500941901
 10
5957.341891557
 20
5010.0992236632
 10
5956.8607152044
 20
5010.9487330897
 10
5956.4556703686
 20
5011.6171216444
 10
5956.1382173917
 20
5012.158530576
  0
LWPOLYLINE
  5
118
330
1F
100
AcDbEntity
  8
0
  6
Continuous
 62
     7
370
    25
100
AcDbPolyline
 90
       25
 70
   128
 43
0.0
 10
5963.3624520938
 20
4992.8280234392
 10
5961.9219977817
 20
4994.5014312632
 10
5960.121712184
 20
4996.0829696794
 10
5958.7538857325
 20
4997.0546422203
 10
5957.2549109926
 20
4997.9538609555
 10
5955.6032276111
 20
4998.7742893957
 10
5953.8190264526
 20
4999.4999122675
 10
5951.9479191342
 20
5000.1116103387
 10
5949.9883566178
 20
5000.6023824273
 10
5948.4518845345
 20
5000.8875862285
 10
5946.8690035179
 20
5001.0963967667
 10
5945.2673340501
 20
5001.2233085086
 10
5943.6543227294
 20
5001.2671854809
 10
5942.0522364482
 20
5001.2274654192
 10
5940.4671752778
 20
5001.1054900132
 10
5938.8959527592
 20
5000.9031835874
 10
5937.348772281
 20
5000.6211012174
 10
5935.3708029196
 20
5000.1307465528
 10
5933.4860704053
 20
4999.5205168794
 10
5931.6949823121
 20
4998.7969008537
 10
5930.0358927133
 20
4997.9768291516
 10
5928.5220641543
 20
4997.0725496931
 10
5927.1348657776
 20
4996.0889677733
 10
5925.3365357724
 20
4994.5111741091
 10
5923.886467695
 20
4992.8279520625
  0
LWPOLYLINE
  5
119
330
1F
100
AcDbEntity
  8
0
  6
Continuous
 62
     7
370
    25
100
AcDbPolyline
 90
       11
 70
   128
 43
0.0
 10
5931.1105596031
 20
5012.1585677249
 10
5930.7926219237
 20
5011.6163576975
 10
5930.3868667657
 20
5010.946805384
 10
5929.9049296174
 20
5010.0956875403
 10
5929.3602633725
 20
5009.0438537596
 10
5928.7826206475
 20
5007.8121302702
 10
5928.1941058852
 20
5006.4146348358
 10
5927.3123305564
 20
5004.0456187962
 10
5926.4371923548
 20
5001.4369241939
 10
5925.5675002291
 20
4998.6826046155
 10
5924.692389635
 20
4995.8423992572
  0
LWPOLYLINE
  5
11A
330
1F
100
AcDbEntity
  8
0
  6
Continuous
 62
     7
370
    25
100
AcDbPolyline
 90
       11
 70
   128
 43
0.0
 10
5957.1274742659
 20
5029.0403836638
 10
5957.3614917035
 20
5028.9697305888
 10
5958.0519321224
 20
5028.859130737
 10
5958.6081752318
 20
5028.8269307857
 10
5959.1182898592
 20
5028.8941341159
 10
5959.5345041374
 20
5029.0594083269
 10
5959.7106543419
 20
5029.1677125653
 10
5959.8465104757
 20
5029.2617871482
 10
5959.8576990569
 20
5029.2778558418
 10
5959.8615498127
 20
5029.2926677147
 10
5959.8639473488
 20
5029.3125961186
  0
LINE
  5
11B
330
1F
100
AcDbEntity
  8
0
  6
Continuous
 62
     7
370
    25
100
AcDbLine
 10
5954.8737352219
 20
5049.5467487647
 30
0.0
 11
5954.8737352219
 21
5046.0230266231
 31
0.0
  0
LINE
  5
11C
330
1F
100
AcDbEntity
  8
0
  6
Continuous
 62
     7
370
    25
100
AcDbLine
 10
5932.3750224322
 20
5046.0069100231
 30
0.0
 11
5932.3750224322
 21
5049.5467487647
 31
0.0
  0
LINE
  5
11D
330
1F
100
AcDbEntity
  8
0
  6
Continuous
 62
     7
370
    25
100
AcDbLine
 10
5937.0238188415
 20
5047.6197161448
 30
0.0
 11
5937.0238188415
 21
5047.0618124532
 31
0.0
  0
LINE
  5
11E
330
1F
100
AcDbEntity
  8
0
  6
Continuous
 62
     7
370
    25
100
AcDbLine
 10
5938.9755824178
 20
5047.1872986604
 30
0.0
 11
5938.9755824178
 21
5047.2392455792
 31
0.0
  0
LINE
  5
11F
330
1F
100
AcDbEntity
  8
0
  6
Continuous
 62
     7
370
    25
100
AcDbLine
 10
5948.2731752363
 20
5047.2392455792
 30
0.0
 11
5948.2731752363
 21
5047.1867605189
 31
0.0
  0
LINE
  5
120
330
1F
100
AcDbEntity
  8
0
  6
Continuous
 62
     7
370
    25
100
AcDbLine
 10
5950.2249388127
 20
5047.0645761555
 30
0.0
 11
5950.2249388127
 21
5047.6197161448
 31
0.0
  0
LINE
  5
121
330
1F
100
AcDbEntity
  8
0
  6
Continuous
 62
     7
370
    25
100
AcDbLine
 10
5921.3743788271
 20
4984.8899240624
 30
0.0
 11
5965.8743787854
 21
4984.8899240624
 31
0.0
  0
LWPOLYLINE
  5
122
330
1F
100
AcDbEntity
  8
0
  6
Continuous
 62
     7
370
    25
100
AcDbPolyline
 90
       16
 70
   128
 43
0.0
 10
5931.0927516769
 20
5035.4517389533
 10
5930.4765777195
 20
5035.7639443707
 10
5929.7515463856
 20
5036.2003356444
 10
5929.1382109413
 20
5036.6583419399
 10
5928.6415096032
 20
5037.1342756597
 10
5928.2654415182
 20
5037.6243048655
 10
5928.0130345656
 20
5038.1244841302
 10
5927.8863209776
 20
5038.6307863044
 10
5927.8863209776
 20
5039.1391349409
 10
5928.0130345656
 20
5039.6454371151
 10
5928.2654415182
 20
5040.1456163798
 10
5928.6415096032
 20
5040.6356455856
 10
5929.1382109413
 20
5041.1115793054
 10
5929.7515463856
 20
5041.5695856009
 10
5930.4765777195
 20
5042.0059768745
 10
5931.0753660048
 20
5042.3099600062
  0
LWPOLYLINE
  5
123
330
1F
100
AcDbEntity
  8
0
  6
Continuous
 62
     7
370
    25
100
AcDbPolyline
 90
       16
 70
   128
 43
0.0
 10
5956.1369912676
 20
5042.3271395172
 10
5956.7721799346
 20
5042.0059768745
 10
5957.4972112686
 20
5041.5695856009
 10
5958.1105467128
 20
5041.1115793054
 10
5958.607248051
 20
5040.6356455856
 10
5958.9833161359
 20
5040.1456163798
 10
5959.2357230886
 20
5039.6454371151
 10
5959.3624366766
 20
5039.1391349409
 10
5959.3624366766
 20
5038.6307863044
 10
5959.2357230886
 20
5038.1244841302
 10
5958.9833161359
 20
5037.6243048655
 10
5958.607248051
 20
5037.1342756597
 10
5958.1105467128
 20
5036.6583419399
 10
5957.4972112686
 20
5036.2003356444
 10
5956.7721799346
 20
5035.7639443707
 10
5956.1639117588
 20
5035.4554740138
  0
LWPOLYLINE
  5
124
330
1F
100
AcDbEntity
  8
0
  6
Continuous
 62
     8
370
    25
100
AcDbPolyline
 90
       15
 70
   128
 43
0.0
 10
5943.1257214348
 20
5046.4505816884
 10
5941.3697676551
 20
5046.4376319127
 10
5939.608014723
 20
5046.3960037072
 10
5937.8894461941
 20
5046.314441118
 10
5936.6701680026
 20
5046.2228065077
 10
5935.5439869788
 20
5046.1031684518
 10
5934.5361312293
 20
5045.9546929923
 10
5933.6623092953
 20
5045.7770734746
 10
5932.9265721069
 20
5045.5707607807
 10
5932.3279561598
 20
5045.3384701165
 10
5931.8632068084
 20
5045.085144018
 10
5931.5256413885
 20
5044.8169698134
 10
5931.2529585695
 20
5044.4473257578
 10
5931.1417489823
 20
5044.0752829589
 10
5931.1364596376
 20
5043.9630928919
  0
LWPOLYLINE
  5
125
330
1F
100
AcDbEntity
  8
0
  6
Continuous
 62
     8
370
    25
100
AcDbPolyline
 90
       14
 70
   128
 43
0.0
 10
5956.0633725334
 20
5044.2212834447
 10
5955.9959059636
 20
5044.4471079269
 10
5955.7234404761
 20
5044.8166500547
 10
5955.3861349821
 20
5045.084761254
 10
5954.9217325589
 20
5045.3380424759
 10
5954.3235499905
 20
5045.5703105524
 10
5953.5883302375
 20
5045.7766238925
 10
5952.7151057014
 20
5045.9542639278
 10
5951.7079001175
 20
5046.1027766554
 10
5950.5823759109
 20
5046.2224672716
 10
5949.3637174461
 20
5046.3141669774
 10
5947.6458609528
 20
5046.3958277599
 10
5945.8846640891
 20
5046.4375513926
 10
5944.1291609057
 20
5046.4505686878
  0
LWPOLYLINE
  5
126
330
1F
100
AcDbEntity
  8
0
  6
Continuous
 62
     8
370
    25
100
AcDbPolyline
 90
        7
 70
   128
 43
0.0
 10
5943.6228460239
 20
5047.2707216922
 10
5943.6228842619
 20
5047.2726402928
 10
5943.6233928334
 20
5047.2460148998
 10
5943.623809354
 20
5047.1675728456
 10
5943.6241073555
 20
5047.0347917601
 10
5943.6242878111
 20
5046.8577307655
 10
5943.6243788267
 20
5046.4512043882
  0
LWPOLYLINE
  5
127
330
1F
100
AcDbEntity
  8
0
  6
Continuous
 62
     8
370
    25
100
AcDbPolyline
 90
        7
 70
   128
 43
0.0
 10
5943.1316282668
 20
5047.2701417164
 10
5943.1314836778
 20
5047.2720232634
 10
5943.1295228982
 20
5047.2453959409
 10
5943.1279170171
 20
5047.1669523064
 10
5943.1267680826
 20
5047.0341700903
 10
5943.1260723425
 20
5046.857108411
 10
5943.1257214348
 20
5046.4505816884
  0
LWPOLYLINE
  5
128
330
1F
100
AcDbEntity
  8
0
  6
Continuous
 62
     8
370
    25
100
AcDbPolyline
 90
        7
 70
   128
 43
0.0
 10
5944.1291609057
 20
5046.4505686878
 10
5944.1288058342
 20
5046.8570954192
 10
5944.1281018385
 20
5047.034157116
 10
5944.1269392709
 20
5047.1669393611
 10
5944.1253143346
 20
5047.2453830361
 10
5944.1233302885
 20
5047.272010408
 10
5944.1231839861
 20
5047.2701288934
  0
ARC
  5
129
330
1F
100
AcDbEntity
  8
0
  6
Continuous
 62
     8
370
    25
100
AcDbCircle
 10
5956.3447611159
 20
5028.6928548846
 30
0.0
 40
0.9024246583007685
100
AcDbArc
 50
348.6689669625
 51
37.2592784383
  0
ARC
  5
12A
330
1F
100
AcDbEntity
  8
0
  6
Continuous
 62
     8
370
    25
100
AcDbCircle
 10
5930.9037555593
 20
5028.6927828219
 30
0.0
 40
0.9022717883279016
100
AcDbArc
 50
142.7565985981
 51
191.3346647231
  0
ARC
  5
12B
330
1F
100
AcDbEntity
  8
0
  6
Continuous
 62
     8
370
    25
100
AcDbCircle
 10
5933.9511069355
 20
5021.3765123256
 30
0.0
 40
10.30035611307736
100
AcDbArc
 50
106.1030971805
 51
129.6064791172
  0
ARC
  5
12C
330
1F
100
AcDbEntity
  8
0
  6
Continuous
 62
     8
370
    25
100
AcDbCircle
 10
5953.315293886
 20
5021.400865336
 30
0.0
 40
10.27038600076059
100
AcDbArc
 50
50.3855766436
 51
73.940755937
  0
ARC
  5
12D
330
1F
100
AcDbEntity
  8
0
  6
Continuous
 62
     8
370
    25
100
AcDbCircle
 10
5928.9965864527
 20
5031.9595788271
 30
0.0
 40
3.123417225909014
100
AcDbArc
 50
241.5774961457
 51
288.7687729481
  0
LWPOLYLINE
  5
12E
330
1F
100
AcDbEntity
  8
0
  6
Continuous
 62
     7
370
    25
100
AcDbPolyline
 90
       76
 70
   128
 43
0.0
 10
5943.6243788271
 20
4863.7697495967
 10
5942.8619600617
 20
4863.7525943931
 10
5941.5338716452
 20
4863.6402774544
 10
5940.2199359978
 20
4863.4238178919
 10
5938.9298246938
 20
4863.104650956
 10
5937.6728023482
 20
4862.6849416492
 10
5936.4579293773
 20
4862.1675928235
 10
5935.2939937877
 20
4861.5562372069
 10
5934.189439517
 20
4860.8552235083
 10
5933.1522920578
 20
4860.0695945233
 10
5932.1900828596
 20
4859.2050551479
 10
5931.3097750203
 20
4858.2679286516
 10
5930.5176936467
 20
4857.265100486
 10
5929.8194647205
 20
4856.2039502471
 10
5929.219966137
 20
4855.0922739526
 10
5928.7232936888
 20
4853.938200229
 10
5928.332743224
 20
4852.7501049585
 10
5928.0508083074
 20
4851.5365291565
 10
5927.8791908473
 20
4850.3061042271
 10
5927.8188207227
 20
4849.067487399
 10
5927.8698797478
 20
4847.8293083542
 10
5928.0318117542
 20
4846.6002034025
 10
5928.3033264802
 20
4845.3887063946
 10
5928.682450267
 20
4844.2031062476
 10
5929.1665388747
 20
4843.0515124943
 10
5929.7522838468
 20
4841.9418261478
 10
5930.4357154545
 20
4840.8817051538
 10
5931.2122059755
 20
4839.8785225802
 10
5932.0764773877
 20
4838.9393173665
 10
5933.0226170762
 20
4838.0707391151
 10
5934.0441039993
 20
4837.2789896854
 10
5935.1338462315
 20
4836.5697649989
 10
5936.2842292561
 20
4835.9482004242
 10
5937.487173144
 20
4835.4188224585
 10
5938.7341960418
 20
4834.9855084088
 10
5940.0164812388
 20
4834.6514546593
 10
5941.3249454104
 20
4834.4191531351
 10
5942.6503062681
 20
4834.290374891
 10
5943.9831486041
 20
4834.2661594062
 10
5945.3139884553
 20
4834.3468081392
 10
5946.6332853922
 20
4834.5318720155
 10
5947.93159163
 20
4834.8201522982
 10
5949.1995940183
 20
4835.2097082198
 10
5950.4281633363
 20
4835.6978595976
 10
5951.6084217263
 20
4836.2811934208
 10
5952.7318133852
 20
4836.9555757482
 10
5953.7901782301
 20
4837.7161709532
 10
5954.7758273458
 20
4838.5574704516
 10
5955.6816180054
 20
4839.4733327486
 10
5956.5010251178
 20
4840.4570358547
 10
5957.2282053441
 20
4841.5013418955
 10
5957.85805009
 20
4842.5985722226
 10
5958.3862242556
 20
4843.7406898332
 10
5958.8091889914
 20
4844.9193847663
 10
5959.1242085407
 20
4846.1261576845
 10
5959.3293431715
 20
4847.3523972213
 10
5959.423431797
 20
4848.5894478187
 10
5959.4060688238
 20
4849.8286664788
 10
5959.2775838276
 20
4851.0614423254
 10
5959.0390527247
 20
4852.2791498312
 10
5958.692244117
 20
4853.4734511003
 10
5958.2396002305
 20
4854.6361794201
 10
5957.6842289241
 20
4855.7593673289
 10
5957.0299000695
 20
4856.8352792666
 10
5956.2810428053
 20
4857.8564510874
 10
5955.4427395962
 20
4858.8157371439
 10
5954.5207132722
 20
4859.7063639365
 10
5953.5213041978
 20
4860.5219878952
 10
5952.4514361733
 20
4861.2567540085
 10
5951.3185712461
 20
4861.9053518487
 10
5950.1306549705
 20
4862.4630660254
 10
5948.8960545376
 20
4862.9258190378
 10
5947.6234925146
 20
4863.2902056045
 10
5946.3219787381
 20
4863.553518591
 10
5945.000742342
 20
4863.7137674377
 10
5943.6243788271
 20
4863.7697495967
  0
ARC
  5
12F
330
1F
100
AcDbEntity
  8
0
  6
Continuous
 62
     7
370
    25
100
AcDbCircle
 10
5943.6324896951
 20
4848.1493193692
 30
0.0
 40
5.84091391758003
100
AcDbArc
 50
184.5336400033
 51
351.985618473
  0
LINE
  5
130
330
1F
100
AcDbEntity
  8
0
  6
Continuous
 62
     7
370
    25
100
AcDbLine
 10
5954.9300328544
 20
4862.5621049037
 30
0.0
 11
5954.9300328544
 21
4862.8872660334
 31
0.0
  0
LINE
  5
131
330
1F
100
AcDbEntity
  8
0
  6
Continuous
 62
     7
370
    25
100
AcDbLine
 10
5932.3187247998
 20
4862.8872660334
 30
0.0
 11
5932.3187247998
 21
4862.5621049037
 31
0.0
  0
LINE
  5
132
330
1F
100
AcDbEntity
  8
0
  6
Continuous
 62
     7
370
    25
100
AcDbLine
 10
5963.1168393212
 20
4870.9860296901
 30
0.0
 11
5964.3502238476
 21
4874.1467975489
 31
0.0
  0
LINE
  5
133
330
1F
100
AcDbEntity
  8
0
  6
Continuous
 62
     7
370
    25
100
AcDbLine
 10
5958.4283914455
 20
4858.9637182743
 30
0.0
 11
5959.2416765788
 21
4861.0496903
 31
0.0
  0
LINE
  5
134
330
1F
100
AcDbEntity
  8
0
  6
Continuous
 62
     7
370
    25
100
AcDbLine
 10
5928.0071011014
 20
4861.0496389357
 30
0.0
 11
5928.8203662087
 21
4858.9637182743
 31
0.0
  0
LINE
  5
135
330
1F
100
AcDbEntity
  8
0
  6
Continuous
 62
     7
370
    25
100
AcDbLine
 10
5922.8985338066
 20
4874.1467975489
 30
0.0
 11
5924.1319183306
 21
4870.9860296963
 31
0.0
  0
ARC
  5
136
330
1F
100
AcDbEntity
  8
0
  6
Continuous
 62
     7
370
    25
100
AcDbCircle
 10
5832.314017304
 20
4832.2970945062
 30
0.0
 40
99.6232423282369
100
AcDbArc
 50
13.2839136071
 51
22.6147163152
  0
ARC
  5
137
330
1F
100
AcDbEntity
  8
0
  6
Continuous
 62
     7
370
    25
100
AcDbCircle
 10
6055.7195813595
 20
4831.9684865511
 30
0.0
 40
100.4741275149915
100
AcDbArc
 50
157.3834333546
 51
166.6370125822
  0
LWPOLYLINE
  5
138
330
1F
100
AcDbEntity
  8
0
  6
Continuous
 62
     7
370
    25
100
AcDbPolyline
 90
        3
 70
   128
 43
0.0
 10
5943.6243372672
 20
4765.570370119
 10
5943.8500151095
 20
4765.5712322268
 10
5944.1235475119
 20
4765.5732590923
  0
LWPOLYLINE
  5
139
330
1F
100
AcDbEntity
  8
0
  6
Continuous
 62
     7
370
    25
100
AcDbPolyline
 90
        3
 70
   128
 43
0.0
 10
5943.1248666784
 20
4765.5732624534
 10
5943.3511084249
 20
4765.5714990534
 10
5943.6244203863
 20
4765.570370119
  0
LWPOLYLINE
  5
13A
330
1F
100
AcDbEntity
  8
0
  6
Continuous
 62
     7
370
    25
100
AcDbPolyline
 90
       14
 70
   128
 43
0.0
 10
5944.1235475119
 20
4765.5732590923
 10
5946.048494236
 20
4765.6451328694
 10
5947.7936496052
 20
4765.8514676268
 10
5949.3377823069
 20
4766.197845036
 10
5950.6622630773
 20
4766.6627289266
 10
5951.7585707381
 20
4767.2158438686
 10
5952.61834392
 20
4767.7985558238
 10
5953.2950392898
 20
4768.3917174266
 10
5953.9127320826
 20
4769.0852370575
 10
5954.924586303
 20
4770.7417208358
 10
5955.6051911486
 20
4772.6648979517
 10
5955.9034414303
 20
4774.1416710801
 10
5956.0731880312
 20
4775.8205031618
 10
5956.1232361012
 20
4777.6967674315
  0
LWPOLYLINE
  5
13B
330
1F
100
AcDbEntity
  8
0
  6
Continuous
 62
     7
370
    25
100
AcDbPolyline
 90
       14
 70
   128
 43
0.0
 10
5931.1254640185
 20
4777.6966301303
 10
5931.1756292708
 20
4775.8196736543
 10
5931.346476483
 20
4774.1380061378
 10
5931.6429844836
 20
4772.6628920477
 10
5932.3267215631
 20
4770.7374115054
 10
5932.7932363717
 20
4769.8678127957
 10
5933.3377977454
 20
4769.0822112179
 10
5933.9525960157
 20
4768.3933655547
 10
5934.6308807801
 20
4767.7981268453
 10
5935.4918661921
 20
4767.2146841682
 10
5936.5847630819
 20
4766.6648825726
 10
5938.4052731904
 20
4766.0667750181
 10
5940.5905296508
 20
4765.6983931574
 10
5943.1248666784
 20
4765.5732624534
  0
LWPOLYLINE
  5
13C
330
1F
100
AcDbEntity
  8
0
  6
Continuous
 62
     7
370
    25
100
AcDbPolyline
 90
       64
 70
   128
 43
0.0
 10
5943.6243788271
 20
4859.5789803659
 10
5942.3493474313
 20
4859.5205736221
 10
5941.0869878704
 20
4859.3459338631
 10
5939.8498460408
 20
4859.0567967374
 10
5938.6502172138
 20
4858.6560358195
 10
5937.5000238397
 20
4858.1476340516
 10
5936.4106970569
 20
4857.5366441587
 10
5935.3930630844
 20
4856.8291384331
 10
5934.4572356259
 20
4856.0321483843
 10
5933.612515355
 20
4855.1535948577
 10
5932.8672974813
 20
4854.2022093128
 10
5932.2289883148
 20
4853.1874470466
 10
5931.7039316589
 20
4852.1193932224
 10
5931.2973457624
 20
4851.008662639
 10
5931.0132714586
 20
4849.866294236
 10
5930.8545320057
 20
4848.7036413837
 10
5930.8227050276
 20
4847.5322590485
 10
5930.9181068351
 20
4846.3637889544
 10
5931.1397892821
 20
4845.2098438821
 10
5931.4855491891
 20
4844.0818922561
 10
5931.9519502385
 20
4842.9911441665
 10
5932.5343571274
 20
4841.9484399579
 10
5933.2269816343
 20
4840.9641424931
 10
5934.0229401457
 20
4840.0480341625
 10
5934.9143220684
 20
4839.2092196623
 10
5935.8922684483
 20
4838.4560355078
 10
5936.947060015
 20
4837.7959671816
 10
5938.0682137759
 20
4837.2355747393
 10
5939.2445872013
 20
4836.7804276127
 10
5940.4644889636
 20
4836.4350492583
 10
5941.715795131
 20
4836.2028722016
 10
5942.9860696606
 20
4836.0862039224
 10
5944.2626879935
 20
4836.0862039224
 10
5945.5329625232
 20
4836.2028722016
 10
5946.7842686906
 20
4836.4350492583
 10
5948.0041704529
 20
4836.7804276127
 10
5949.1805438783
 20
4837.2355747393
 10
5950.3016976392
 20
4837.7959671816
 10
5951.3564892059
 20
4838.4560355078
 10
5952.3344355858
 20
4839.2092196623
 10
5953.2258175084
 20
4840.0480341625
 10
5954.0217760199
 20
4840.9641424931
 10
5954.7144005268
 20
4841.9484399579
 10
5955.2968074156
 20
4842.9911441665
 10
5955.7632084651
 20
4844.0818922561
 10
5956.108968372
 20
4845.2098438821
 10
5956.3306508191
 20
4846.3637889544
 10
5956.4260526266
 20
4847.5322590485
 10
5956.3942256485
 20
4848.7036413837
 10
5956.2354861955
 20
4849.866294236
 10
5955.9514118918
 20
4851.008662639
 10
5955.5448259953
 20
4852.1193932224
 10
5955.0197693393
 20
4853.1874470466
 10
5954.3814601729
 20
4854.2022093128
 10
5953.6362422992
 20
4855.1535948577
 10
5952.7915220283
 20
4856.0321483843
 10
5951.8556945697
 20
4856.8291384331
 10
5950.8380605973
 20
4857.5366441587
 10
5949.7487338145
 20
4858.1476340516
 10
5948.5985404403
 20
4858.6560358195
 10
5947.3989116133
 20
4859.0567967374
 10
5946.1617697837
 20
4859.3459338631
 10
5944.8994102228
 20
4859.5205736221
 10
5943.6243788271
 20
4859.5789803659
  0
ARC
  5
13D
330
1F
100
AcDbEntity
  8
0
  6
Continuous
 62
     7
370
    25
100
AcDbCircle
 10
5943.3648863026
 20
4847.6131685181
 30
0.0
 40
5.552134633400107
100
AcDbArc
 50
87.3211664294
 51
178.7979633488
  0
ARC
  5
13E
330
1F
100
AcDbEntity
  8
0
  6
Continuous
 62
     7
370
    25
100
AcDbCircle
 10
5943.8942632927
 20
4847.6384498824
 30
0.0
 40
5.527378681827343
100
AcDbArc
 50
357.3581460665
 51
92.7986849722
  0
LWPOLYLINE
  5
13F
330
1F
100
AcDbEntity
  8
0
  6
Continuous
 62
     7
370
    25
100
AcDbPolyline
 90
       42
 70
   128
 43
0.0
 10
5943.6243788271
 20
4852.4875048823
 10
5942.8066849698
 20
4852.4298839246
 10
5942.0081571635
 20
4852.2583716381
 10
5941.2475122232
 20
4851.9769881252
 10
5940.5425790215
 20
4851.5923287771
 10
5939.9098805952
 20
4851.1134096828
 10
5939.3642468592
 20
4850.5514563001
 10
5938.9184670059
 20
4849.9196403399
 10
5938.582989737
 20
4849.2327710328
 10
5938.3656783556
 20
4848.5069480132
 10
5938.2716264562
 20
4847.7591839576
 10
5938.3030385355
 20
4847.0070058216
 10
5938.4591783211
 20
4846.2680440231
 10
5938.7363860288
 20
4845.5596192005
 10
5939.1281641447
 20
4844.8983362312
 10
5939.6253297221
 20
4844.2996950274
 10
5940.216229621
 20
4843.7777272316
 10
5940.8870136486
 20
4843.3446673266
 10
5941.621959196
 20
4843.0106658694
 10
5942.4038397624
 20
4842.7835515712
 10
5943.2143287299
 20
4842.6686477985
 10
5944.0344289242
 20
4842.6686477985
 10
5944.8449178918
 20
4842.7835515712
 10
5945.6267984581
 20
4843.0106658694
 10
5946.3617440055
 20
4843.3446673266
 10
5947.0325280332
 20
4843.7777272316
 10
5947.6234279321
 20
4844.2996950274
 10
5948.1205935094
 20
4844.8983362312
 10
5948.5123716254
 20
4845.5596192005
 10
5948.789579333
 20
4846.2680440231
 10
5948.9457191187
 20
4847.0070058216
 10
5948.977131198
 20
4847.7591839576
 10
5948.8830792986
 20
4848.5069480132
 10
5948.6657679171
 20
4849.2327710328
 10
5948.3302906483
 20
4849.9196403399
 10
5947.8845107949
 20
4850.5514563001
 10
5947.338877059
 20
4851.1134096828
 10
5946.7061786327
 20
4851.5923287771
 10
5946.001245431
 20
4851.9769881252
 10
5945.2406004907
 20
4852.2583716381
 10
5944.4420726844
 20
4852.4298839246
 10
5943.6243788271
 20
4852.4875048823
  0
ARC
  5
140
330
1F
100
AcDbEntity
  8
0
  6
Continuous
 62
     7
370
    25
100
AcDbCircle
 10
5943.1323563125
 20
4856.4465931584
 30
0.0
 40
12.35913601088372
100
AcDbArc
 50
87.7184274639
 51
173.9669909559
  0
ARC
  5
141
330
1F
100
AcDbEntity
  8
0
  6
Continuous
 62
     7
370
    25
100
AcDbCircle
 10
5944.1159253383
 20
4856.4453296217
 30
0.0
 40
12.36037960720685
100
AcDbArc
 50
6.1122756699
 51
92.2791346292
  0
ELLIPSE
  5
142
330
1F
100
AcDbEntity
  8
0
  6
Continuous
 62
     7
370
    25
100
AcDbEllipse
 10
5943.6243788271
 20
4862.8872660334
 30
0.0
 11
11.30565402727279
 21
0.0
 31
0.0
210
0.0
220
0.0
230
1.0
 40
0.9338595539
 41
0.0
 42
3.141592653589793
  0
ARC
  5
143
330
1F
100
AcDbEntity
  8
0
  6
Continuous
 62
     7
370
    25
100
AcDbCircle
 10
5944.6674330666
 20
4860.7683687183
 30
0.0
 40
10.29650603594931
100
AcDbArc
 50
11.7490149373
 51
57.3335988055
  0
LINE
  5
144
330
1F
100
AcDbEntity
  8
0
  6
Continuous
 62
     7
370
    25
100
AcDbLine
 10
5950.2249388127
 20
4867.1142721022
 30
0.0
 11
5950.2249388127
 21
4869.4362500298
 31
0.0
  0
LINE
  5
145
330
1F
100
AcDbEntity
  8
0
  6
Continuous
 62
     7
370
    25
100
AcDbLine
 10
5948.2731752363
 20
4870.4705325446
 30
0.0
 11
5948.2731752363
 21
4867.9940789054
 31
0.0
  0
ARC
  5
146
330
1F
100
AcDbEntity
  8
0
  6
Continuous
 62
     7
370
    25
100
AcDbCircle
 10
5943.6243788271
 20
4859.1711597605
 30
0.0
 40
12.21831139597559
100
AcDbArc
 50
67.6367173148
 51
112.3632826852
  0
LINE
  5
147
330
1F
100
AcDbEntity
  8
0
  6
Continuous
 62
     7
370
    25
100
AcDbLine
 10
5938.9755824178
 20
4867.9940789054
 30
0.0
 11
5938.9755824178
 21
4870.4705325446
 31
0.0
  0
LINE
  5
148
330
1F
100
AcDbEntity
  8
0
  6
Continuous
 62
     7
370
    25
100
AcDbLine
 10
5937.0238188415
 20
4869.4362500298
 30
0.0
 11
5937.0238188415
 21
4867.1142721022
 31
0.0
  0
ARC
  5
149
330
1F
100
AcDbEntity
  8
0
  6
Continuous
 62
     7
370
    25
100
AcDbCircle
 10
5942.5813245876
 20
4860.7683687183
 30
0.0
 40
10.2965060359549
100
AcDbArc
 50
122.6664011945
 51
168.2509850627
  0
LINE
  5
14A
330
1F
100
AcDbEntity
  8
0
  6
Continuous
 62
     7
370
    25
100
AcDbLine
 10
5938.9755824178
 20
4870.4705325446
 30
0.0
 11
5948.2731752363
 21
4870.4705325446
 31
0.0
  0
LINE
  5
14B
330
1F
100
AcDbEntity
  8
0
  6
Continuous
 62
     7
370
    25
100
AcDbLine
 10
5950.2249388127
 20
4869.4362500298
 30
0.0
 11
5952.96103426
 21
4865.0864982754
 31
0.0
  0
LINE
  5
14C
330
1F
100
AcDbEntity
  8
0
  6
Continuous
 62
     7
370
    25
100
AcDbLine
 10
5934.2877233942
 20
4865.0864982754
 30
0.0
 11
5937.0238188415
 21
4869.4362500298
 31
0.0
  0
LINE
  5
14D
330
1F
100
AcDbEntity
  8
0
  6
Continuous
 62
     7
370
    25
100
AcDbLine
 10
5943.1357163507
 20
4770.272720332
 30
0.0
 11
5943.6217864608
 21
4770.2698959947
 31
0.0
  0
LWPOLYLINE
  5
14E
330
1F
100
AcDbEntity
  8
0
  6
Continuous
 62
     7
370
    25
100
AcDbPolyline
 90
        7
 70
   128
 43
0.0
 10
5943.6217864249
 20
4770.2698827199
 10
5943.6228842619
 20
4769.848534119
 10
5943.6233928334
 20
4769.6420831833
 10
5943.623809354
 20
4769.4607674621
 10
5943.6241073555
 20
4769.3144875432
 10
5943.6242878111
 20
4769.2050319328
 10
5943.6243788267
 20
4769.0813128231
  0
LINE
  5
14F
330
1F
100
AcDbEntity
  8
0
  6
Continuous
 62
     7
370
    25
100
AcDbLine
 10
5943.6243788266
 20
4769.0813128231
 30
0.0
 11
5943.1257214348
 21
4769.0841959753
 31
0.0
  0
ARC
  5
150
330
1F
100
AcDbEntity
  8
0
  6
Continuous
 62
     7
370
    25
100
AcDbCircle
 10
6104.5234809152
 20
4768.3212229694
 30
0.0
 40
161.3995628652852
100
AcDbArc
 50
179.307214436
 51
179.7291486101
  0
LINE
  5
151
330
1F
100
AcDbEntity
  8
0
  6
Continuous
 62
     7
370
    25
100
AcDbLine
 10
5943.6217864249
 20
4770.2698827199
 30
0.0
 11
5944.1190473911
 21
4770.2727793602
 31
0.0
  0
ARC
  5
152
330
1F
100
AcDbEntity
  8
0
  6
Continuous
 62
     7
370
    25
100
AcDbCircle
 10
5784.6241798919
 20
4768.3212831525
 30
0.0
 40
159.5068057985721
100
AcDbArc
 50
0.2740654245
 51
0.7010063646
  0
LINE
  5
153
330
1F
100
AcDbEntity
  8
0
  6
Continuous
 62
     7
370
    25
100
AcDbLine
 10
5944.1291609057
 20
4769.0842561691
 30
0.0
 11
5943.6243788267
 21
4769.0813128231
 31
0.0
  0
LWPOLYLINE
  5
154
330
1F
100
AcDbEntity
  8
0
  6
Continuous
 62
     7
370
    25
100
AcDbPolyline
 90
       19
 70
   128
 43
0.0
 10
5932.1243788271
 20
4781.9990050885
 10
5932.1315032617
 20
4780.8923915977
 10
5932.1528765835
 20
4780.0150204185
 10
5932.2021030815
 20
4779.1664222355
 10
5932.3014438847
 20
4778.2238914368
 10
5932.4447150806
 20
4777.3469954674
 10
5932.7577984866
 20
4776.0935004371
 10
5933.1804375225
 20
4774.9720249125
 10
5933.7126321883
 20
4773.9825688935
 10
5934.3543824841
 20
4773.1251323803
 10
5935.1476857442
 20
4772.366416899
 10
5936.0884858522
 20
4771.7254519905
 10
5936.7976286176
 20
4771.3635590364
 10
5937.5723255377
 20
4771.0539996702
 10
5938.4125766125
 20
4770.7967738918
 10
5939.5366800721
 20
4770.5517586149
 10
5940.7572808602
 20
4770.3861925099
 10
5941.8565147352
 20
4770.3077769388
 10
5943.1357163507
 20
4770.272720332
  0
LWPOLYLINE
  5
155
330
1F
100
AcDbEntity
  8
0
  6
Continuous
 62
     7
370
    25
100
AcDbPolyline
 90
       15
 70
   128
 43
0.0
 10
5943.1257214348
 20
4769.0841959753
 10
5941.3697676551
 20
4769.144154518
 10
5939.608014723
 20
4769.3368965847
 10
5937.8894461941
 20
4769.7145381828
 10
5936.6701680026
 20
4770.1388140789
 10
5935.5439869788
 20
4770.6927482666
 10
5934.5361312293
 20
4771.3802020401
 10
5933.6623092953
 20
4772.2025952367
 10
5932.9265721069
 20
4773.1578402344
 10
5932.3279561598
 20
4774.2333654039
 10
5931.8632068084
 20
4775.4062863905
 10
5931.5256413885
 20
4776.6479553477
 10
5931.2529585695
 20
4778.3594381871
 10
5931.1417489823
 20
4780.0820274078
 10
5931.1243788271
 20
4781.7878939774
  0
LWPOLYLINE
  5
156
330
1F
100
AcDbEntity
  8
0
  6
Continuous
 62
     7
370
    25
100
AcDbPolyline
 90
        7
 70
   128
 43
0.0
 10
5932.1243788271
 20
4781.9990050885
 10
5931.700896234
 20
4781.9915932688
 10
5931.5047185321
 20
4781.9768979514
 10
5931.3440487412
 20
4781.9526303289
 10
5931.2290968451
 20
4781.9187111508
 10
5931.159487447
 20
4781.8772958582
 10
5931.1243788271
 20
4781.7878939774
  0
LWPOLYLINE
  5
157
330
1F
100
AcDbEntity
  8
0
  6
Continuous
 62
     7
370
    25
100
AcDbPolyline
 90
       15
 70
   128
 43
0.0
 10
5956.1243788271
 20
4781.7878939774
 10
5956.1070235106
 20
4780.0825288954
 10
5955.9959059636
 20
4778.3604467624
 10
5955.7234404761
 20
4776.6494358573
 10
5955.3861349821
 20
4775.4080586199
 10
5954.9217325589
 20
4774.2353454157
 10
5954.3235499905
 20
4773.1599248293
 10
5953.5883302375
 20
4772.2046768393
 10
5952.7151057014
 20
4771.3821886449
 10
5951.7079001175
 20
4770.6945623167
 10
5950.5823759109
 20
4770.1403847703
 10
5949.3637174461
 20
4769.7158074764
 10
5947.6458609528
 20
4769.3377112358
 10
5945.8846640891
 20
4769.1445273328
 10
5944.1291609057
 20
4769.0842561691
  0
LWPOLYLINE
  5
158
330
1F
100
AcDbEntity
  8
0
  6
Continuous
 62
     7
370
    25
100
AcDbPolyline
 90
       20
 70
   128
 43
0.0
 10
5944.1190473911
 20
4770.2727793602
 10
5945.1528943662
 20
4770.2975011082
 10
5946.0775787269
 20
4770.3501457816
 10
5946.9990155954
 20
4770.4435336785
 10
5947.9518818436
 20
4770.5952305637
 10
5948.8418213067
 20
4770.7982713936
 10
5950.0803117369
 20
4771.2065442243
 10
5951.1696951187
 20
4771.7317276941
 10
5952.1099714521
 20
4772.3738218031
 10
5952.901140737
 20
4773.1328265512
 10
5953.5420296108
 20
4773.992796084
 10
5954.0735960502
 20
4774.9858447348
 10
5954.2983833571
 20
4775.5322737294
 10
5954.4958400554
 20
4776.1119725034
 10
5954.6659661451
 20
4776.7249410569
 10
5954.8087616262
 20
4777.3711793899
 10
5954.9785677688
 20
4778.4698261844
 10
5955.0804910719
 20
4779.6739425411
 10
5955.1134068938
 20
4780.66090736
 10
5955.1243788271
 20
4781.9990050886
  0
LWPOLYLINE
  5
159
330
1F
100
AcDbEntity
  8
0
  6
Continuous
 62
     7
370
    25
100
AcDbPolyline
 90
        7
 70
   128
 43
0.0
 10
5956.1243788271
 20
4781.7878939774
 10
5956.0892702072
 20
4781.8772958582
 10
5956.019660809
 20
4781.9187111508
 10
5955.904708913
 20
4781.9526303289
 10
5955.744039122
 20
4781.9768979514
 10
5955.5478614201
 20
4781.9915932688
 10
5955.1243788271
 20
4781.9990050886
  0
LINE
  5
15A
330
1F
100
AcDbEntity
  8
0
  6
Continuous
 62
     7
370
    25
100
AcDbLine
 10
5932.1243788271
 20
4836.1443018238
 30
0.0
 11
5932.1243788271
 21
4781.9990050885
 31
0.0
  0
LINE
  5
15B
330
1F
100
AcDbEntity
  8
0
  6
Continuous
 62
     7
370
    25
100
AcDbLine
 10
5955.1243788271
 20
4781.9990050885
 30
0.0
 11
5955.1243788271
 21
4836.1443018259
 31
0.0
  0
LINE
  5
15C
330
1F
100
AcDbEntity
  8
0
  6
Continuous
 62
     7
370
    25
100
AcDbLine
 10
5956.1243788271
 20
4781.7878939775
 30
0.0
 11
5956.1243788271
 21
4778.3045606441
 31
0.0
  0
LWPOLYLINE
  5
15D
330
1F
100
AcDbEntity
  8
0
  6
Continuous
 62
     7
370
    25
100
AcDbPolyline
 90
       15
 70
   128
 43
0.0
 10
5944.1237079423
 20
4765.600869209
 10
5945.8796123094
 20
4765.6608620056
 10
5947.6413042757
 20
4765.8536525217
 10
5949.3597947316
 20
4766.2313439876
 10
5950.5790049628
 20
4766.6556529481
 10
5951.7051139517
 20
4767.2096138364
 10
5952.7128983892
 20
4767.8970865452
 10
5953.5866547938
 20
4768.7194901707
 10
5954.3223352229
 20
4769.6747355076
 10
5954.9209036305
 20
4770.7502492168
 10
5955.3856149251
 20
4771.9231474221
 10
5955.7231518318
 20
4773.1647843891
 10
5955.9958108096
 20
4774.8762154708
 10
5956.1070102997
 20
4776.598749076
 10
5956.1243788271
 20
4778.3045606441
  0
LINE
  5
15E
330
1F
100
AcDbEntity
  8
0
  6
Continuous
 62
     7
370
    25
100
AcDbLine
 10
5943.6243788267
 20
4765.5979794898
 30
0.0
 11
5944.1237079423
 21
4765.600869209
 31
0.0
  0
LINE
  5
15F
330
1F
100
AcDbEntity
  8
0
  6
Continuous
 62
     7
370
    25
100
AcDbLine
 10
5943.6243788268
 20
4765.5979794898
 30
0.0
 11
5943.6243788266
 21
4769.0813128231
 31
0.0
  0
LINE
  5
160
330
1F
100
AcDbEntity
  8
0
  6
Continuous
 62
     7
370
    25
100
AcDbLine
 10
5931.1243788271
 20
4778.3045606441
 30
0.0
 11
5931.1243788271
 21
4781.7878939774
 31
0.0
  0
LINE
  5
161
330
1F
100
AcDbEntity
  8
0
  6
Continuous
 62
     7
370
    25
100
AcDbLine
 10
5943.1247061417
 20
4765.6008725712
 30
0.0
 11
5943.6243788268
 21
4765.5979794898
 31
0.0
  0
LINE
  5
162
330
1F
100
AcDbEntity
  8
0
  6
Continuous
 62
     7
370
    25
100
AcDbLine
 10
5931.1243788271
 20
4778.3045606441
 30
0.0
 11
5931.1311395424
 21
4777.6405510411
 31
0.0
  0
LINE
  5
163
330
1F
100
AcDbEntity
  8
0
  6
Continuous
 62
     7
370
    25
100
AcDbLine
 10
5931.1243788271
 20
4781.7878939774
 30
0.0
 11
5931.1243788271
 21
4835.9331907127
 31
0.0
  0
LWPOLYLINE
  5
164
330
1F
100
AcDbEntity
  8
0
  6
Continuous
 62
     7
370
    25
100
AcDbPolyline
 90
        7
 70
   128
 43
0.0
 10
5932.1243788271
 20
4836.1443018238
 10
5931.700896234
 20
4836.136890004
 10
5931.5047185321
 20
4836.1221946866
 10
5931.3440487412
 20
4836.0979270641
 10
5931.2290968451
 20
4836.0640078861
 10
5931.159487447
 20
4836.0225925934
 10
5931.1243788271
 20
4835.9331907127
  0
LINE
  5
165
330
1F
100
AcDbEntity
  8
0
  6
Continuous
 62
     7
370
    25
100
AcDbLine
 10
5956.1243788271
 20
4835.9331907148
 30
0.0
 11
5956.1243788271
 21
4781.7878939774
 31
0.0
  0
LWPOLYLINE
  5
166
330
1F
100
AcDbEntity
  8
0
  6
Continuous
 62
     7
370
    25
100
AcDbPolyline
 90
        7
 70
   128
 43
0.0
 10
5956.1243788271
 20
4835.9331907148
 10
5956.0892702072
 20
4836.0225925956
 10
5956.019660809
 20
4836.0640078882
 10
5955.904708913
 20
4836.0979270663
 10
5955.744039122
 20
4836.1221946888
 10
5955.5478614201
 20
4836.1368900062
 10
5955.1243788271
 20
4836.1443018259
  0
LWPOLYLINE
  5
167
330
1F
100
AcDbEntity
  8
0
  6
Continuous
 62
     7
370
    25
100
AcDbPolyline
 90
        3
 70
   128
 43
0.0
 10
5927.1682828035
 20
4863.4116960134
 10
5927.2760205572
 20
4863.1534911993
 10
5927.3845067242
 20
4862.8938774619
  0
LINE
  5
168
330
1F
100
AcDbEntity
  8
0
  6
Continuous
 62
     7
370
    25
100
AcDbLine
 10
5925.2930826611
 20
4868.0333960659
 30
0.0
 11
5927.1682579583
 21
4863.4116888477
 31
0.0
  0
LINE
  5
169
330
1F
100
AcDbEntity
  8
0
  6
Continuous
 62
     7
370
    25
100
AcDbLine
 10
5923.8806233199
 20
4871.6123332345
 30
0.0
 11
5924.4615673238
 21
4870.1385999999
 31
0.0
  0
LINE
  5
16A
330
1F
100
AcDbEntity
  8
0
  6
Continuous
 62
     7
370
    25
100
AcDbLine
 10
5962.787190329
 20
4870.1385999964
 30
0.0
 11
5963.3681247475
 21
4871.6123089149
 31
0.0
  0
LINE
  5
16B
330
1F
100
AcDbEntity
  8
0
  6
Continuous
 62
     7
370
    25
100
AcDbLine
 10
5960.0804996959
 20
4863.4116888479
 30
0.0
 11
5961.9556749936
 21
4868.0333960674
 31
0.0
  0
LWPOLYLINE
  5
16C
330
1F
100
AcDbEntity
  8
0
  6
Continuous
 62
     7
370
    25
100
AcDbPolyline
 90
        3
 70
   128
 43
0.0
 10
5959.8642514043
 20
4862.8938785937
 10
5959.9727373325
 20
4863.1534917622
 10
5960.0804748507
 20
4863.4116960137
  0
ARC
  5
16D
330
1F
100
AcDbEntity
  8
0
  6
Continuous
 62
     7
370
    25
100
AcDbCircle
 10
5943.6243788271
 20
4882.2419981754
 30
0.0
 40
22.24999999999948
100
AcDbArc
 50
180.0
 51
201.356038314
  0
ARC
  5
16E
330
1F
100
AcDbEntity
  8
0
  6
Continuous
 62
     7
370
    25
100
AcDbCircle
 10
5943.6243788271
 20
4882.2419981754
 30
0.0
 40
22.25000000000053
100
AcDbArc
 50
338.6438582947
 51
180.0
  0
LWPOLYLINE
  5
16F
330
1F
100
AcDbEntity
  8
0
  6
Continuous
 62
     7
370
    25
100
AcDbPolyline
 90
       49
 70
   128
 43
0.0
 10
5930.0360810366
 20
4856.5538196873
 10
5929.7515463856
 20
4857.026128837
 10
5929.1382109413
 20
4858.2145302101
 10
5928.6415096032
 20
4859.4494483581
 10
5928.2654415182
 20
4860.7209404462
 10
5928.0130345656
 20
4862.0187691679
 10
5927.8863209776
 20
4863.3324851692
 10
5927.8863209776
 20
4864.6515111815
 10
5928.0130345656
 20
4865.9652271829
 10
5928.2654415182
 20
4867.2630559045
 10
5928.6415096032
 20
4868.5345479927
 10
5929.1382109413
 20
4869.7694661407
 10
5929.7515463856
 20
4870.9578675137
 10
5930.4765777195
 20
4872.0901838027
 10
5931.3074674172
 20
4873.1572982627
 10
5932.2375256434
 20
4874.1506191155
 10
5933.259264116
 20
4875.0621487256
 10
5934.3644563977
 20
4875.8845479927
 10
5935.5442041301
 20
4876.6111954413
 10
5936.789008678
 20
4877.2362405335
 10
5938.0888476072
 20
4877.7546507738
 10
5939.433255379
 20
4878.1622522276
 10
5940.8114076125
 20
4878.4557631278
 10
5942.2122082362
 20
4878.6328202971
 10
5943.6243788271
 20
4878.6919981754
 10
5945.036549418
 20
4878.6328202971
 10
5946.4373500417
 20
4878.4557631278
 10
5947.8155022751
 20
4878.1622522276
 10
5949.1599100469
 20
4877.7546507738
 10
5950.4597489762
 20
4877.2362405335
 10
5951.7045535241
 20
4876.6111954413
 10
5952.8843012565
 20
4875.8845479927
 10
5953.9894935381
 20
4875.0621487256
 10
5955.0112320108
 20
4874.1506191155
 10
5955.9412902369
 20
4873.1572982627
 10
5956.7721799346
 20
4872.0901838027
 10
5957.4972112686
 20
4870.9578675137
 10
5958.1105467128
 20
4869.7694661407
 10
5958.607248051
 20
4868.5345479927
 10
5958.9833161359
 20
4867.2630559045
 10
5959.2357230886
 20
4865.9652271829
 10
5959.3624366766
 20
4864.6515111815
 10
5959.3624366766
 20
4863.3324851692
 10
5959.2357230886
 20
4862.0187691679
 10
5958.9833161359
 20
4860.7209404462
 10
5958.607248051
 20
4859.4494483581
 10
5958.1105467128
 20
4858.2145302101
 10
5957.4972112686
 20
4857.026128837
 10
5957.2244364966
 20
4856.5725564211
  0
ARC
  5
170
330
1F
100
AcDbEntity
  8
0
  6
Continuous
 62
     7
370
    25
100
AcDbCircle
 10
5914.0051489382
 20
4875.2483266408
 30
0.0
 40
47.49408816677851
100
AcDbArc
 50
336.2345689914
 51
344.9211136438
  0
LINE
  5
171
330
1F
100
AcDbEntity
  8
0
  6
Continuous
 62
     7
370
    25
100
AcDbLine
 10
5927.5082020965
 20
4862.455917527
 30
0.0
 11
5927.3845022817
 21
4862.893865503
 31
0.0
  0
LWPOLYLINE
  5
172
330
1F
100
AcDbEntity
  8
0
  6
Continuous
 62
     7
370
    25
100
AcDbPolyline
 90
        3
 70
   128
 43
0.0
 10
5931.0661404446
 20
4840.0672311236
 10
5931.1044552672
 20
4838.908634583
 10
5931.1243788271
 20
4834.6459156448
  0
LINE
  5
173
330
1F
100
AcDbEntity
  8
0
  6
Continuous
 62
     7
370
    25
100
AcDbLine
 10
5923.9159668716
 20
4871.5252069623
 30
0.0
 11
5924.0634667028
 21
4871.1614492027
 31
0.0
  0
ARC
  5
174
330
1F
100
AcDbEntity
  8
0
  6
Continuous
 62
     7
370
    25
100
AcDbCircle
 10
5603.8326580246
 20
4951.4686091539
 30
0.0
 40
366.8841306339161
100
AcDbArc
 50
344.8087784693
 51
346.029269726
  0
LINE
  5
175
330
1F
100
AcDbEntity
  8
0
  6
Continuous
 62
     7
370
    25
100
AcDbLine
 10
5963.1850464614
 20
4871.1608226537
 30
0.0
 11
5963.3695608155
 21
4871.615879504
 31
0.0
  0
LWPOLYLINE
  5
176
330
1F
100
AcDbEntity
  8
0
  6
Continuous
 62
     7
370
    25
100
AcDbPolyline
 90
        3
 70
   128
 43
0.0
 10
5956.1266490199
 20
4835.1316134243
 10
5956.1443035011
 20
4838.9087120289
 10
5956.182877252
 20
4840.0750974519
  0
LWPOLYLINE
  5
177
330
1F
100
AcDbEntity
  8
0
  6
Continuous
 62
     8
370
    25
100
AcDbPolyline
 90
        3
 70
   128
 43
0.0
 10
5932.1142488067
 20
4838.9046423249
 10
5932.1198766907
 20
4838.2255082017
 10
5932.1243788271
 20
4836.1443018238
  0
LWPOLYLINE
  5
178
330
1F
100
AcDbEntity
  8
0
  6
Continuous
 62
     8
370
    25
100
AcDbPolyline
 90
        3
 70
   128
 43
0.0
 10
5955.1243788271
 20
4836.1443018259
 10
5955.1267604314
 20
4837.7021697575
 10
5955.1333485662
 20
4838.9189670101
  0
LWPOLYLINE
  5
179
330
1F
100
AcDbEntity
  8
0
  6
Continuous
 62
     8
370
    25
100
AcDbPolyline
 90
       15
 70
   128
 43
0.0
 10
5931.1311395424
 20
4777.6405510411
 10
5931.1417465219
 20
4776.5987772079
 10
5931.2529408479
 20
4774.8762720485
 10
5931.525587632
 20
4773.1648674398
 10
5931.8631099553
 20
4771.9232468355
 10
5932.3278017856
 20
4770.750360283
 10
5932.9263458788
 20
4769.6748524363
 10
5933.6619972777
 20
4768.719606927
 10
5934.5357201665
 20
4767.8971979683
 10
5935.5434681302
 20
4767.2097155755
 10
5936.6695402747
 20
4766.6557410314
 10
5937.8887157452
 20
4766.2314151602
 10
5939.6071662667
 20
4765.8536981885
 10
5941.3688270485
 20
4765.6608828909
 10
5943.1247061417
 20
4765.6008725712
  0
LWPOLYLINE
  5
17A
330
1F
100
AcDbEntity
  8
0
  6
Continuous
 62
     8
370
    25
100
AcDbPolyline
 90
        3
 70
   128
 43
0.0
 10
5924.4615673238
 20
4870.1385999999
 10
5924.6713864837
 20
4869.6063327469
 10
5925.2930826611
 20
4868.0333960659
  0
LWPOLYLINE
  5
17B
330
1F
100
AcDbEntity
  8
0
  6
Continuous
 62
     8
370
    25
100
AcDbPolyline
 90
        3
 70
   128
 43
0.0
 10
5961.9556749931
 20
4868.0333960662
 10
5962.7468150514
 20
4870.0361763755
 10
5962.787190329
 20
4870.1385999964
  0
LINE
  5
17C
330
1F
100
AcDbEntity
  8
0
  6
Continuous
 62
     8
370
    25
100
AcDbLine
 10
5927.3845154065
 20
4862.893869172
 30
0.0
 11
5928.0445965855
 21
4861.0630635575
 31
0.0
  0
LINE
  5
17D
330
1F
100
AcDbEntity
  8
0
  6
Continuous
 62
     8
370
    25
100
AcDbLine
 10
5959.2023671838
 20
4861.0638150038
 30
0.0
 11
5959.8638761969
 21
4862.8925596041
 31
0.0
  0
ARC
  5
17E
330
1F
100
AcDbEntity
  8
0
  6
Continuous
 62
     8
370
    25
100
AcDbCircle
 10
5983.8310870379
 20
4879.0172857906
 30
0.0
 40
58.70680733090062
100
AcDbArc
 50
196.3900010891
 51
202.9567949817
  0
LINE
  5
17F
330
1F
100
AcDbEntity
  8
0
  6
Continuous
 62
     8
370
    25
100
AcDbLine
 10
5956.1640250082
 20
4840.0524652213
 30
0.0
 11
5956.1243788271
 21
4835.9331907148
 31
0.0
  0
LINE
  5
180
330
1F
100
AcDbEntity
  8
0
  6
Continuous
 62
     8
370
    25
100
AcDbLine
 10
5931.1243788271
 20
4835.9331907127
 30
0.0
 11
5931.0848253763
 21
4840.043091231
 31
0.0
  0
ARC
  5
181
330
1F
100
AcDbEntity
  8
0
  6
Continuous
 62
     8
370
    25
100
AcDbCircle
 10
5839.4961484376
 20
4835.8628486363
 30
0.0
 40
91.9418219008719
100
AcDbArc
 50
12.2283802155
 51
16.8128101426
  0
LINE
  5
182
330
1F
100
AcDbEntity
  8
0
  6
Continuous
 62
     8
370
    25
100
AcDbLine
 10
5944.1235379173
 20
4765.5742129257
 30
0.0
 11
5944.1237079423
 21
4765.600869209
 31
0.0
  0
LINE
  5
183
330
1F
100
AcDbEntity
  8
0
  6
Continuous
 62
     8
370
    25
100
AcDbLine
 10
5943.6243788267
 20
4765.5979794898
 30
0.0
 11
5943.6243347833
 21
4765.5713234484
 31
0.0
  0
LINE
  5
184
330
1F
100
AcDbEntity
  8
0
  6
Continuous
 62
     8
370
    25
100
AcDbLine
 10
5943.1247061417
 20
4765.6008725712
 30
0.0
 11
5943.1248762794
 21
4765.5742162876
 31
0.0
  0
ENDSEC
  0
SECTION
  2
OBJECTS
  0
DICTIONARY
  5
C
330
0
100
AcDbDictionary
281
     1
  3
ACAD_GROUP
350
D
  3
ACAD_LAYOUT
350
1A
  3
ACAD_MLINESTYLE
350
17
  3
ACAD_PLOTSETTINGS
350
19
  3
ACAD_PLOTSTYLENAME
350
E
  3
ACAD_SCALELIST
350
47
  3
DWGPROPS
350
185
  0
DICTIONARY
  5
D
102
{ACAD_REACTORS
330
C
102
}
330
C
100
AcDbDictionary
281
     1
  0
DICTIONARY
  5
1A
102
{ACAD_REACTORS
330
C
102
}
330
C
100
AcDbDictionary
281
     1
  3
Layout1
350
1E
  3
Layout2
350
26
  3
Model
350
22
  0
DICTIONARY
  5
17
102
{ACAD_REACTORS
330
C
102
}
330
C
100
AcDbDictionary
281
     1
  3
Standard
350
18
  0
DICTIONARY
  5
19
102
{ACAD_REACTORS
330
C
102
}
330
C
100
AcDbDictionary
281
     1
  0
ACDBDICTIONARYWDFLT
  5
E
102
{ACAD_REACTORS
330
C
102
}
330
C
100
AcDbDictionary
281
     1
  3
Normal
350
F
100
AcDbDictionaryWithDefault
340
F
  0
DICTIONARY
  5
47
102
{ACAD_REACTORS
330
C
102
}
330
C
100
AcDbDictionary
281
     1
  3
A0
350
48
  3
A1
350
49
  3
A2
350
4A
  3
A3
350
4B
  3
A4
350
4C
  3
A5
350
4D
  3
A6
350
4E
  3
A7
350
4F
  3
A8
350
50
  3
A9
350
51
  3
B0
350
52
  3
B1
350
53
  3
B2
350
54
  3
B3
350
55
  3
B4
350
56
  3
B5
350
57
  3
B6
350
58
  3
B7
350
59
  3
B8
350
5A
  3
B9
350
5B
  3
C0
350
5C
  3
C1
350
5D
  3
C2
350
5E
  3
C3
350
5F
  3
C4
350
60
  3
C5
350
61
  3
C6
350
62
  3
C7
350
63
  3
C8
350
64
  3
C9
350
65
  3
D0
350
66
  3
D1
350
67
  3
D2
350
68
  0
XRECORD
  5
185
102
{ACAD_REACTORS
330
C
102
}
330
C
100
AcDbXrecord
280
     1
  1
DWGPROPS COOKIE
  2

  3

  4

  6

  7

  8
radek.stransky
  9

300
=
301
=
302
=
303
=
304
=
305
=
306
=
307
=
308
=
309
=
 40
0.0
 41
2459138.38969294
 42
2459138.38969309
  1

 90
        0
  0
LAYOUT
  5
1E
102
{ACAD_REACTORS
330
1A
102
}
330
1A
100
AcDbPlotSettings
  1

  2
none_device
  4

  6

 40
0.0
 41
0.0
 42
0.0
 43
0.0
 44
0.0
 45
0.0
 46
0.0
 47
0.0
 48
0.0
 49
0.0
140
0.0
141
0.0
142
1.0
143
1.0
 70
   688
 72
     1
 73
     0
 74
     5
  7

 75
    16
147
1.0
148
0.0
149
0.0
100
AcDbLayout
  1
Layout1
 70
     1
 71
     1
 10
0.0
 20
0.0
 11
420.0
 21
297.0
 12
0.0
 22
0.0
 32
0.0
 14
1.0000000000E+20
 24
1.0000000000E+20
 34
1.0000000000E+20
 15
-1.0000000000E+20
 25
-1.0000000000E+20
 35
-1.0000000000E+20
146
0.0
 13
0.0
 23
0.0
 33
0.0
 16
1.0
 26
0.0
 36
0.0
 17
0.0
 27
1.0
 37
0.0
 76
     0
330
1B
  0
LAYOUT
  5
26
102
{ACAD_REACTORS
330
1A
102
}
330
1A
100
AcDbPlotSettings
  1

  2
none_device
  4

  6

 40
0.0
 41
0.0
 42
0.0
 43
0.0
 44
0.0
 45
0.0
 46
0.0
 47
0.0
 48
0.0
 49
0.0
140
0.0
141
0.0
142
1.0
143
1.0
 70
   688
 72
     1
 73
     0
 74
     5
  7

 75
    16
147
1.0
148
0.0
149
0.0
100
AcDbLayout
  1
Layout2
 70
     1
 71
     2
 10
0.0
 20
0.0
 11
0.0
 21
0.0
 12
0.0
 22
0.0
 32
0.0
 14
0.0
 24
0.0
 34
0.0
 15
0.0
 25
0.0
 35
0.0
146
0.0
 13
0.0
 23
0.0
 33
0.0
 16
1.0
 26
0.0
 36
0.0
 17
0.0
 27
1.0
 37
0.0
 76
     0
330
23
  0
LAYOUT
  5
22
102
{ACAD_REACTORS
330
1A
102
}
330
1A
100
AcDbPlotSettings
  1

  2
none_device
  4
Letter_(8.50_x_11.00_Inches)
  6

 40
6.35
 41
6.35
 42
6.35000508
 43
6.35000508
 44
215.9
 45
279.4
 46
0.0
 47
0.0
 48
0.0
 49
0.0
140
0.0
141
0.0
142
1.0
143
1.0
 70
  1712
 72
     1
 73
     0
 74
     0
  7

 75
     0
147
1.0
148
0.0
149
0.0
100
AcDbLayout
  1
Model
 70
     1
 71
     0
 10
0.0
 20
0.0
 11
20000.0
 21
10000.0
 12
0.0
 22
0.0
 32
0.0
 14
0.0
 24
0.0
 34
0.0
 15
20000.0
 25
10000.0
 35
0.0
146
0.0
 13
0.0
 23
0.0
 33
0.0
 16
1.0
 26
0.0
 36
0.0
 17
0.0
 27
1.0
 37
0.0
 76
     0
330
1F
331
29
  0
MLINESTYLE
  5
18
102
{ACAD_REACTORS
330
17
102
}
330
17
100
AcDbMlineStyle
  2
Standard
 70
     0
  3

 62
   256
 51
90.0
 52
90.0
 71
     2
 49
0.5
 62
   256
  6
BYLAYER
 49
-0.5
 62
   256
  6
BYLAYER
  0
ACDBPLACEHOLDER
  5
F
102
{ACAD_REACTORS
330
E
102
}
330
E
  0
SCALE
  5
48
102
{ACAD_REACTORS
330
47
102
}
330
47
100
AcDbScale
 70
     0
300
1:1
140
1.0
141
1.0
290
     1
  0
SCALE
  5
49
102
{ACAD_REACTORS
330
47
102
}
330
47
100
AcDbScale
 70
     0
300
1:2
140
1.0
141
2.0
290
     0
  0
SCALE
  5
4A
102
{ACAD_REACTORS
330
47
102
}
330
47
100
AcDbScale
 70
     0
300
1:4
140
1.0
141
4.0
290
     0
  0
SCALE
  5
4B
102
{ACAD_REACTORS
330
47
102
}
330
47
100
AcDbScale
 70
     0
300
1:5
140
1.0
141
5.0
290
     0
  0
SCALE
  5
4C
102
{ACAD_REACTORS
330
47
102
}
330
47
100
AcDbScale
 70
     0
300
1:8
140
1.0
141
8.0
290
     0
  0
SCALE
  5
4D
102
{ACAD_REACTORS
330
47
102
}
330
47
100
AcDbScale
 70
     0
300
1:10
140
1.0
141
10.0
290
     0
  0
SCALE
  5
4E
102
{ACAD_REACTORS
330
47
102
}
330
47
100
AcDbScale
 70
     0
300
1:16
140
1.0
141
16.0
290
     0
  0
SCALE
  5
4F
102
{ACAD_REACTORS
330
47
102
}
330
47
100
AcDbScale
 70
     0
300
1:20
140
1.0
141
20.0
290
     0
  0
SCALE
  5
50
102
{ACAD_REACTORS
330
47
102
}
330
47
100
AcDbScale
 70
     0
300
1:30
140
1.0
141
30.0
290
     0
  0
SCALE
  5
51
102
{ACAD_REACTORS
330
47
102
}
330
47
100
AcDbScale
 70
     0
300
1:40
140
1.0
141
40.0
290
     0
  0
SCALE
  5
52
102
{ACAD_REACTORS
330
47
102
}
330
47
100
AcDbScale
 70
     0
300
1:50
140
1.0
141
50.0
290
     0
  0
SCALE
  5
53
102
{ACAD_REACTORS
330
47
102
}
330
47
100
AcDbScale
 70
     0
300
1:100
140
1.0
141
100.0
290
     0
  0
SCALE
  5
54
102
{ACAD_REACTORS
330
47
102
}
330
47
100
AcDbScale
 70
     0
300
2:1
140
2.0
141
1.0
290
     0
  0
SCALE
  5
55
102
{ACAD_REACTORS
330
47
102
}
330
47
100
AcDbScale
 70
     0
300
4:1
140
4.0
141
1.0
290
     0
  0
SCALE
  5
56
102
{ACAD_REACTORS
330
47
102
}
330
47
100
AcDbScale
 70
     0
300
8:1
140
8.0
141
1.0
290
     0
  0
SCALE
  5
57
102
{ACAD_REACTORS
330
47
102
}
330
47
100
AcDbScale
 70
     0
300
10:1
140
10.0
141
1.0
290
     0
  0
SCALE
  5
58
102
{ACAD_REACTORS
330
47
102
}
330
47
100
AcDbScale
 70
     0
300
100:1
140
100.0
141
1.0
290
     0
  0
SCALE
  5
59
102
{ACAD_REACTORS
330
47
102
}
330
47
100
AcDbScale
 70
     0
300
1/128" = 1'-0"
140
0.0078125
141
12.0
290
     0
  0
SCALE
  5
5A
102
{ACAD_REACTORS
330
47
102
}
330
47
100
AcDbScale
 70
     0
300
1/64" = 1'-0"
140
0.015625
141
12.0
290
     0
  0
SCALE
  5
5B
102
{ACAD_REACTORS
330
47
102
}
330
47
100
AcDbScale
 70
     0
300
1/32" = 1'-0"
140
0.03125
141
12.0
290
     0
  0
SCALE
  5
5C
102
{ACAD_REACTORS
330
47
102
}
330
47
100
AcDbScale
 70
     0
300
1/16" = 1'-0"
140
0.0625
141
12.0
290
     0
  0
SCALE
  5
5D
102
{ACAD_REACTORS
330
47
102
}
330
47
100
AcDbScale
 70
     0
300
3/32" = 1'-0"
140
0.09375
141
12.0
290
     0
  0
SCALE
  5
5E
102
{ACAD_REACTORS
330
47
102
}
330
47
100
AcDbScale
 70
     0
300
1/8" = 1'-0"
140
0.125
141
12.0
290
     0
  0
SCALE
  5
5F
102
{ACAD_REACTORS
330
47
102
}
330
47
100
AcDbScale
 70
     0
300
3/16" = 1'-0"
140
0.1875
141
12.0
290
     0
  0
SCALE
  5
60
102
{ACAD_REACTORS
330
47
102
}
330
47
100
AcDbScale
 70
     0
300
1/4" = 1'-0"
140
0.25
141
12.0
290
     0
  0
SCALE
  5
61
102
{ACAD_REACTORS
330
47
102
}
330
47
100
AcDbScale
 70
     0
300
3/8" = 1'-0"
140
0.375
141
12.0
290
     0
  0
SCALE
  5
62
102
{ACAD_REACTORS
330
47
102
}
330
47
100
AcDbScale
 70
     0
300
1/2" = 1'-0"
140
0.5
141
12.0
290
     0
  0
SCALE
  5
63
102
{ACAD_REACTORS
330
47
102
}
330
47
100
AcDbScale
 70
     0
300
3/4" = 1'-0"
140
0.75
141
12.0
290
     0
  0
SCALE
  5
64
102
{ACAD_REACTORS
330
47
102
}
330
47
100
AcDbScale
 70
     0
300
1" = 1'-0"
140
1.0
141
12.0
290
     0
  0
SCALE
  5
65
102
{ACAD_REACTORS
330
47
102
}
330
47
100
AcDbScale
 70
     0
300
1-1/2" = 1'-0"
140
1.5
141
12.0
290
     0
  0
SCALE
  5
66
102
{ACAD_REACTORS
330
47
102
}
330
47
100
AcDbScale
 70
     0
300
3" = 1'-0"
140
3.0
141
12.0
290
     0
  0
SCALE
  5
67
102
{ACAD_REACTORS
330
47
102
}
330
47
100
AcDbScale
 70
     0
300
6" = 1'-0"
140
6.0
141
12.0
290
     0
  0
SCALE
  5
68
102
{ACAD_REACTORS
330
47
102
}
330
47
100
AcDbScale
 70
     0
300
1'-0" = 1'-0"
140
12.0
141
12.0
290
     0
  0
ENDSEC
  0
EOF
