  0
SECTION
  2
HEADER
  9
$ACADVER
  1
AC1015
  9
$ACADMAINTVER
 70
     6
  9
$DWGCODEPAGE
  3
ANSI_1250
  9
$INSBASE
 10
0.0
 20
0.0
 30
0.0
  9
$EXTMIN
 10
0.0
 20
0.0
 30
0.0
  9
$EXTMAX
 10
20000.0
 20
10000.0
 30
0.0
  9
$LIMMIN
 10
0.0
 20
0.0
  9
$LIMMAX
 10
20000.0
 20
10000.0
  9
$ORTHOMODE
 70
     0
  9
$REGENMODE
 70
     1
  9
$FILLMODE
 70
     1
  9
$QTEXTMODE
 70
     0
  9
$MIRRTEXT
 70
     1
  9
$LTSCALE
 40
1.0
  9
$ATTMODE
 70
     1
  9
$TEXTSIZE
 40
2.0
  9
$TRACEWID
 40
1.0
  9
$TEXTSTYLE
  7
Standard
  9
$CLAYER
  8
0
  9
$CELTYPE
  6
ByLayer
  9
$CECOLOR
 62
   256
  9
$CELTSCALE
 40
1.0
  9
$DISPSILH
 70
     0
  9
$DIMSCALE
 40
1.0
  9
$DIMASZ
 40
2.0
  9
$DIMEXO
 40
1.0
  9
$DIMDLI
 40
3.75
  9
$DIMRND
 40
0.0
  9
$DIMDLE
 40
0.0
  9
$DIMEXE
 40
1.0
  9
$DIMTP
 40
0.0
  9
$DIMTM
 40
0.0
  9
$DIMTXT
 40
2.0
  9
$DIMCEN
 40
2.5
  9
$DIMTSZ
 40
0.0
  9
$DIMTOL
 70
     0
  9
$DIMLIM
 70
     0
  9
$DIMTIH
 70
     1
  9
$DIMTOH
 70
     1
  9
$DIMSE1
 70
     0
  9
$DIMSE2
 70
     0
  9
$DIMTAD
 70
     1
  9
$DIMZIN
 70
     0
  9
$DIMBLK
  1

  9
$DIMASO
 70
     1
  9
$DIMSHO
 70
     1
  9
$DIMPOST
  1

  9
$DIMAPOST
  1

  9
$DIMALT
 70
     0
  9
$DIMALTD
 70
     3
  9
$DIMALTF
 40
0.0393700787
  9
$DIMLFAC
 40
1.0
  9
$DIMTOFL
 70
     1
  9
$DIMTVP
 40
0.0
  9
$DIMTIX
 70
     0
  9
$DIMSOXD
 70
     0
  9
$DIMSAH
 70
     0
  9
$DIMBLK1
  1

  9
$DIMBLK2
  1

  9
$DIMSTYLE
  2
ISO-25
  9
$DIMCLRD
 70
     0
  9
$DIMCLRE
 70
     0
  9
$DIMCLRT
 70
     0
  9
$DIMTFAC
 40
1.0
  9
$DIMGAP
 40
1.524
  9
$DIMJUST
 70
     0
  9
$DIMSD1
 70
     0
  9
$DIMSD2
 70
     0
  9
$DIMTOLJ
 70
     0
  9
$DIMTZIN
 70
     0
  9
$DIMALTZ
 70
     0
  9
$DIMALTTZ
 70
     0
  9
$DIMUPT
 70
     0
  9
$DIMDEC
 70
     2
  9
$DIMTDEC
 70
     0
  9
$DIMALTU
 70
     2
  9
$DIMALTTD
 70
     3
  9
$DIMTXSTY
  7
Standard
  9
$DIMAUNIT
 70
     0
  9
$DIMADEC
 70
     2
  9
$DIMALTRND
 40
0.0
  9
$DIMAZIN
 70
     0
  9
$DIMDSEP
 70
    44
  9
$DIMATFIT
 70
     3
  9
$DIMFRAC
 70
     0
  9
$DIMLDRBLK
  1

  9
$DIMLUNIT
 70
     2
  9
$DIMLWD
 70
    -2
  9
$DIMLWE
 70
    -2
  9
$DIMTMOVE
 70
     0
  9
$LUNITS
 70
     2
  9
$LUPREC
 70
     3
  9
$SKETCHINC
 40
1.0
  9
$FILLETRAD
 40
10.0
  9
$AUNITS
 70
     0
  9
$AUPREC
 70
     2
  9
$MENU
  1
.
  9
$ELEVATION
 40
0.0
  9
$PELEVATION
 40
0.0
  9
$THICKNESS
 40
0.0
  9
$LIMCHECK
 70
     0
  9
$CHAMFERA
 40
0.0
  9
$CHAMFERB
 40
0.0
  9
$CHAMFERC
 40
0.0
  9
$CHAMFERD
 40
0.0
  9
$SKPOLY
 70
     0
  9
$TDCREATE
 40
2459129.450665104
  9
$TDUCREATE
 40
2459129.367331771
  9
$TDUPDATE
 40
2459129.45066529
  9
$TDUUPDATE
 40
2459129.367331956
  9
$TDINDWG
 40
0.0000000116
  9
$TDUSRTIMER
 40
0.0000000116
  9
$USRTIMER
 70
     1
  9
$ANGBASE
 50
0.0
  9
$ANGDIR
 70
     0
  9
$PDMODE
 70
     0
  9
$PDSIZE
 40
-1.0
  9
$PLINEWID
 40
0.0
  9
$SPLFRAME
 70
     0
  9
$SPLINETYPE
 70
     6
  9
$SPLINESEGS
 70
     8
  9
$HANDSEED
  5
451
  9
$SURFTAB1
 70
     6
  9
$SURFTAB2
 70
     6
  9
$SURFTYPE
 70
     6
  9
$SURFU
 70
     6
  9
$SURFV
 70
     6
  9
$UCSBASE
  2

  9
$UCSNAME
  2

  9
$UCSORG
 10
0.0
 20
0.0
 30
0.0
  9
$UCSXDIR
 10
1.0
 20
0.0
 30
0.0
  9
$UCSYDIR
 10
0.0
 20
1.0
 30
0.0
  9
$UCSORTHOREF
  2

  9
$UCSORTHOVIEW
 70
     0
  9
$UCSORGTOP
 10
0.0
 20
0.0
 30
0.0
  9
$UCSORGBOTTOM
 10
0.0
 20
0.0
 30
0.0
  9
$UCSORGLEFT
 10
0.0
 20
0.0
 30
0.0
  9
$UCSORGRIGHT
 10
0.0
 20
0.0
 30
0.0
  9
$UCSORGFRONT
 10
0.0
 20
0.0
 30
0.0
  9
$UCSORGBACK
 10
0.0
 20
0.0
 30
0.0
  9
$PUCSBASE
  2

  9
$PUCSNAME
  2

  9
$PUCSORG
 10
0.0
 20
0.0
 30
0.0
  9
$PUCSXDIR
 10
1.0
 20
0.0
 30
0.0
  9
$PUCSYDIR
 10
0.0
 20
1.0
 30
0.0
  9
$PUCSORTHOREF
  2

  9
$PUCSORTHOVIEW
 70
     0
  9
$PUCSORGTOP
 10
0.0
 20
0.0
 30
0.0
  9
$PUCSORGBOTTOM
 10
0.0
 20
0.0
 30
0.0
  9
$PUCSORGLEFT
 10
0.0
 20
0.0
 30
0.0
  9
$PUCSORGRIGHT
 10
0.0
 20
0.0
 30
0.0
  9
$PUCSORGFRONT
 10
0.0
 20
0.0
 30
0.0
  9
$PUCSORGBACK
 10
0.0
 20
0.0
 30
0.0
  9
$USERI1
 70
     0
  9
$USERI2
 70
     0
  9
$USERI3
 70
     0
  9
$USERI4
 70
     0
  9
$USERI5
 70
     0
  9
$USERR1
 40
0.0
  9
$USERR2
 40
0.0
  9
$USERR3
 40
0.0
  9
$USERR4
 40
0.0
  9
$USERR5
 40
0.0
  9
$WORLDVIEW
 70
     1
  9
$SHADEDGE
 70
     3
  9
$SHADEDIF
 70
    70
  9
$TILEMODE
 70
     1
  9
$MAXACTVP
 70
    64
  9
$PINSBASE
 10
0.0
 20
0.0
 30
0.0
  9
$PLIMCHECK
 70
     0
  9
$PEXTMIN
 10
1.0000000000E+20
 20
1.0000000000E+20
 30
1.0000000000E+20
  9
$PEXTMAX
 10
-1.0000000000E+20
 20
-1.0000000000E+20
 30
-1.0000000000E+20
  9
$PLIMMIN
 10
0.0
 20
0.0
  9
$PLIMMAX
 10
420.0
 20
297.0
  9
$UNITMODE
 70
     0
  9
$VISRETAIN
 70
     1
  9
$PLINEGEN
 70
     0
  9
$PSLTSCALE
 70
     1
  9
$TREEDEPTH
 70
  3020
  9
$CMLSTYLE
  2
Standard
  9
$CMLJUST
 70
     0
  9
$CMLSCALE
 40
20.0
  9
$PROXYGRAPHICS
 70
     1
  9
$MEASUREMENT
 70
     1
  9
$CELWEIGHT
370
    -1
  9
$ENDCAPS
280
     0
  9
$JOINSTYLE
280
     0
  9
$LWDISPLAY
290
     1
  9
$INSUNITS
 70
     4
  9
$HYPERLINKBASE
  1

  9
$STYLESHEET
  1

  9
$XEDIT
290
     1
  9
$CEPSNTYPE
380
     0
  9
$PSTYLEMODE
290
     1
  9
$FINGERPRINTGUID
  2
{0d06bbf1-2c66-4e89-887e-43b2113fd480}
  9
$VERSIONGUID
  2
{FAEB1C32-E019-11D5-929B-00C0DF256EC4}
  9
$EXTNAMES
290
     1
  9
$PSVPSCALE
 40
0.0
  9
$OLESTARTUP
290
     0
  0
ENDSEC
  0
SECTION
  2
CLASSES
  0
CLASS
  1
ACDBDICTIONARYWDFLT
  2
AcDbDictionaryWithDefault
  3
ObjectDBX Classes
 90
        0
280
     0
281
     0
  0
CLASS
  1
VISUALSTYLE
  2
AcDbVisualStyle
  3
ObjectDBX Classes
 90
     4095
280
     0
281
     0
  0
CLASS
  1
MATERIAL
  2
AcDbMaterial
  3
ObjectDBX Classes
 90
     1153
280
     0
281
     0
  0
CLASS
  1
SCALE
  2
AcDbScale
  3
ObjectDBX Classes
 90
     1153
280
     0
281
     0
  0
CLASS
  1
TABLESTYLE
  2
AcDbTableStyle
  3
ObjectDBX Classes
 90
     4095
280
     0
281
     0
  0
CLASS
  1
MLEADERSTYLE
  2
AcDbMLeaderStyle
  3
ACDB_MLEADERSTYLE_CLASS
 90
     4095
280
     0
281
     0
  0
CLASS
  1
SUN
  2
AcDbSun
  3
SCENEOE
 90
     1153
280
     0
281
     0
  0
CLASS
  1
ACDBPLACEHOLDER
  2
AcDbPlaceHolder
  3
ObjectDBX Classes
 90
        0
280
     0
281
     0
  0
CLASS
  1
LAYOUT
  2
AcDbLayout
  3
ObjectDBX Classes
 90
        0
280
     0
281
     0
  0
ENDSEC
  0
SECTION
  2
TABLES
  0
TABLE
  2
VPORT
  5
8
330
0
100
AcDbSymbolTable
 70
     1
  0
VPORT
  5
29
330
8
100
AcDbSymbolTableRecord
100
AcDbViewportTableRecord
  2
*Active
 70
     0
 10
0.0
 20
0.0
 11
1.0
 21
1.0
 12
10000.0
 22
5000.0
 13
0.0
 23
0.0
 14
10.0
 24
10.0
 15
10.0
 25
10.0
 16
0.0
 26
0.0
 36
1.0
 17
0.0
 27
0.0
 37
0.0
 40
10000.0
 41
2.0
 42
50.0
 43
0.0
 44
0.0
 50
0.0
 51
0.0
 71
     0
 72
  2000
 73
     1
 74
     3
 75
     0
 76
     0
 77
     0
 78
     0
281
     0
 65
     1
110
0.0
120
0.0
130
0.0
111
1.0
121
0.0
131
0.0
112
0.0
122
1.0
132
0.0
 79
     0
146
0.0
  0
ENDTAB
  0
TABLE
  2
LTYPE
  5
5
330
0
100
AcDbSymbolTable
 70
     6
  0
LTYPE
  5
14
330
5
100
AcDbSymbolTableRecord
100
AcDbLinetypeTableRecord
  2
ByBlock
 70
     0
  3

 72
    65
 73
     0
 40
0.0
  0
LTYPE
  5
15
330
5
100
AcDbSymbolTableRecord
100
AcDbLinetypeTableRecord
  2
ByLayer
 70
     0
  3

 72
    65
 73
     0
 40
0.0
  0
LTYPE
  5
16
330
5
100
AcDbSymbolTableRecord
100
AcDbLinetypeTableRecord
  2
Continuous
 70
     0
  3
Solid line
 72
    65
 73
     0
 40
0.0
  0
LTYPE
  5
6E
330
5
100
AcDbSymbolTableRecord
100
AcDbLinetypeTableRecord
  2
HIDDEN
 70
     0
  3
Hidden __ __ __ __ __ __ __ __ __ __ __ __ __ __
 72
    65
 73
     2
 40
1.905
 49
1.27
 74
     0
 49
-0.635
 74
     0
  0
LTYPE
  5
6F
330
5
100
AcDbSymbolTableRecord
100
AcDbLinetypeTableRecord
  2
PHANTOM
 70
     0
  3
Phantom ______  __  __  ______  __  __  ______
 72
    65
 73
     6
 40
12.7
 49
6.35
 74
     0
 49
-1.27
 74
     0
 49
1.27
 74
     0
 49
-1.27
 74
     0
 49
1.27
 74
     0
 49
-1.27
 74
     0
  0
LTYPE
  5
70
330
5
100
AcDbSymbolTableRecord
100
AcDbLinetypeTableRecord
  2
CENTER
 70
     0
  3
Center ____ _ ____ _ ____ _ ____ _ ____ _ ____
 72
    65
 73
     4
 40
10.16
 49
6.35
 74
     0
 49
-1.27
 74
     0
 49
1.27
 74
     0
 49
-1.27
 74
     0
  0
LTYPE
  5
71
330
5
100
AcDbSymbolTableRecord
100
AcDbLinetypeTableRecord
  2
CENTERX2
 70
     0
  3
Center (2x) ________  __  ________  __  _____
 72
    65
 73
     4
 40
20.32
 49
12.7
 74
     0
 49
-2.54
 74
     0
 49
2.54
 74
     0
 49
-2.54
 74
     0
  0
LTYPE
  5
72
330
5
100
AcDbSymbolTableRecord
100
AcDbLinetypeTableRecord
  2
DOT2
 70
     0
  3
Dot (.5x) ........................................
 72
    65
 73
     2
 40
0.635
 49
0.0
 74
     0
 49
-0.635
 74
     0
  0
ENDTAB
  0
TABLE
  2
LAYER
  5
2
330
0
100
AcDbSymbolTable
 70
    13
  0
LAYER
  5
10
330
2
100
AcDbSymbolTableRecord
100
AcDbLayerTableRecord
  2
0
 70
     0
 62
     7
  6
Continuous
370
    -3
390
F
  0
LAYER
  5
73
330
2
100
AcDbSymbolTableRecord
100
AcDbLayerTableRecord
  2
FORMAT
 70
     0
 62
     7
  6
Continuous
370
    -3
390
F
  0
LAYER
  5
74
330
2
100
AcDbSymbolTableRecord
100
AcDbLayerTableRecord
  2
OSA
 70
     0
 62
     7
  6
CENTER
370
    -3
390
F
  0
LAYER
  5
75
330
2
100
AcDbSymbolTableRecord
100
AcDbLayerTableRecord
  2
0_35
 70
     0
 62
     7
  6
Continuous
370
    35
390
F
  0
LAYER
  5
76
330
2
100
AcDbSymbolTableRecord
100
AcDbLayerTableRecord
  2
0_5
 70
     0
 62
     7
  6
Continuous
370
    50
390
F
  0
LAYER
  5
77
330
2
100
AcDbSymbolTableRecord
100
AcDbLayerTableRecord
  2
0_25
 70
     0
 62
     7
  6
Continuous
370
    25
390
F
  0
LAYER
  5
78
330
2
100
AcDbSymbolTableRecord
100
AcDbLayerTableRecord
  2
0_18
 70
     0
 62
     7
  6
Continuous
370
    -3
390
F
  0
LAYER
  5
79
330
2
100
AcDbSymbolTableRecord
100
AcDbLayerTableRecord
  2
SLD-0
 70
     0
 62
   179
  6
Continuous
370
    -3
390
F
  0
LAYER
  5
7A
330
2
100
AcDbSymbolTableRecord
100
AcDbLayerTableRecord
  2
KOTY
 70
     0
 62
     7
  6
Continuous
370
    -3
390
F
  0
LAYER
  5
7B
330
2
100
AcDbSymbolTableRecord
100
AcDbLayerTableRecord
  2
SILNA
 70
     0
 62
   179
  6
Continuous
370
    -3
390
F
  0
LAYER
  5
7C
330
2
100
AcDbSymbolTableRecord
100
AcDbLayerTableRecord
  2
0_18_1
 70
     0
 62
   179
  6
Continuous
370
    -3
390
F
  0
LAYER
  5
7D
330
2
100
AcDbSymbolTableRecord
100
AcDbLayerTableRecord
  2
0_35_1
 70
     0
 62
   179
  6
Continuous
370
    35
390
F
  0
LAYER
  5
7E
330
2
100
AcDbSymbolTableRecord
100
AcDbLayerTableRecord
  2
0_5_1
 70
     0
 62
   179
  6
Continuous
370
    50
390
F
  0
ENDTAB
  0
TABLE
  2
STYLE
  5
3
330
0
100
AcDbSymbolTable
 70
     1
  0
STYLE
  5
11
330
3
100
AcDbSymbolTableRecord
100
AcDbTextStyleTableRecord
  2
Standard
 70
     0
 40
0.0
 41
1.0
 50
0.0
 71
     0
 42
2.0
  3
txt
  4

  0
ENDTAB
  0
TABLE
  2
VIEW
  5
6
330
0
100
AcDbSymbolTable
 70
     0
  0
ENDTAB
  0
TABLE
  2
UCS
  5
7
330
0
100
AcDbSymbolTable
 70
     0
  0
ENDTAB
  0
TABLE
  2
APPID
  5
9
330
0
100
AcDbSymbolTable
 70
     1
  0
APPID
  5
12
330
9
100
AcDbSymbolTableRecord
100
AcDbRegAppTableRecord
  2
ACAD
 70
     0
  0
ENDTAB
  0
TABLE
  2
DIMSTYLE
  5
A
330
0
100
AcDbSymbolTable
 70
     1
100
AcDbDimStyleTable
  0
DIMSTYLE
105
27
330
A
100
AcDbSymbolTableRecord
100
AcDbDimStyleTableRecord
  2
ISO-25
 70
     0
 41
2.5
 42
0.625
 43
3.75
 44
1.25
 73
     0
 74
     0
 77
     1
 78
     8
140
2.5
141
2.5
143
0.0393700787
147
0.625
171
     3
172
     1
178
     0
271
     2
272
     2
274
     3
278
    44
283
     0
284
     8
340
11
  0
ENDTAB
  0
TABLE
  2
BLOCK_RECORD
  5
1
330
0
100
AcDbSymbolTable
 70
     1
  0
BLOCK_RECORD
  5
1F
330
1
100
AcDbSymbolTableRecord
100
AcDbBlockTableRecord
  2
*Model_Space
340
22
  0
BLOCK_RECORD
  5
1B
330
1
100
AcDbSymbolTableRecord
100
AcDbBlockTableRecord
  2
*Paper_Space
340
1E
  0
BLOCK_RECORD
  5
23
330
1
100
AcDbSymbolTableRecord
100
AcDbBlockTableRecord
  2
*Paper_Space0
340
26
  0
ENDTAB
  0
ENDSEC
  0
SECTION
  2
BLOCKS
  0
BLOCK
  5
20
330
1F
100
AcDbEntity
  8
0
100
AcDbBlockBegin
  2
*Model_Space
 70
     0
 10
0.0
 20
0.0
 30
0.0
  3
*Model_Space
  1

  0
ENDBLK
  5
21
330
1F
100
AcDbEntity
  8
0
100
AcDbBlockEnd
  0
BLOCK
  5
1C
330
1B
100
AcDbEntity
 67
     1
  8
0
100
AcDbBlockBegin
  2
*Paper_Space
 70
     0
 10
0.0
 20
0.0
 30
0.0
  3
*Paper_Space
  1

  0
ENDBLK
  5
1D
330
1B
100
AcDbEntity
 67
     1
  8
0
100
AcDbBlockEnd
  0
BLOCK
  5
24
330
23
100
AcDbEntity
  8
0
100
AcDbBlockBegin
  2
*Paper_Space0
 70
     0
 10
0.0
 20
0.0
 30
0.0
  3
*Paper_Space0
  1

  0
ENDBLK
  5
25
330
23
100
AcDbEntity
  8
0
100
AcDbBlockEnd
  0
ENDSEC
  0
SECTION
  2
ENTITIES
  0
LINE
  5
7F
330
1F
100
AcDbEntity
  8
0
  6
Continuous
 62
     7
370
    25
100
AcDbLine
 10
6442.1647003997
 20
4885.3561083905
 30
0.0
 11
6526.450477312
 21
5212.8665558211
 31
0.0
  0
ARC
  5
80
330
1F
100
AcDbEntity
  8
0
  6
Continuous
 62
     7
370
    25
100
AcDbCircle
 10
6516.7653270208
 20
5215.3561083905
 30
0.0
 40
9.999999999998508
100
AcDbArc
 50
345.5679370639
 51
90.0
  0
ARC
  5
81
330
1F
100
AcDbEntity
  8
0
  6
Continuous
 62
     7
370
    25
100
AcDbCircle
 10
6599.6647003997
 20
5318.2668226762
 30
0.0
 40
2.660714285714675
100
AcDbArc
 50
270.0
 51
339.9840403971
  0
ARC
  5
82
330
1F
100
AcDbEntity
  8
0
  6
Continuous
 62
     7
370
    25
100
AcDbCircle
 10
6599.6647003997
 20
5322.4453941048
 30
0.0
 40
2.660714285714675
100
AcDbArc
 50
20.0159596029
 51
90.0
  0
ARC
  5
83
330
1F
100
AcDbEntity
  8
0
  6
Continuous
 62
     7
370
    25
100
AcDbCircle
 10
6599.6647003997
 20
5134.2668226762
 30
0.0
 40
2.660714285714675
100
AcDbArc
 50
270.0
 51
339.9840403971
  0
ARC
  5
84
330
1F
100
AcDbEntity
  8
0
  6
Continuous
 62
     7
370
    25
100
AcDbCircle
 10
6599.6647003997
 20
5138.4453941048
 30
0.0
 40
2.660714285714675
100
AcDbArc
 50
20.0159596029
 51
90.0
  0
ARC
  5
85
330
1F
100
AcDbEntity
  8
0
  6
Continuous
 62
     7
370
    25
100
AcDbCircle
 10
6599.6647003997
 20
4974.2668226762
 30
0.0
 40
2.660714285714675
100
AcDbArc
 50
270.0
 51
339.9840403971
  0
ARC
  5
86
330
1F
100
AcDbEntity
  8
0
  6
Continuous
 62
     7
370
    25
100
AcDbCircle
 10
6599.6647003997
 20
4978.4453941048
 30
0.0
 40
2.660714285713766
100
AcDbArc
 50
20.0159596029
 51
90.0
  0
ARC
  5
87
330
1F
100
AcDbEntity
  8
0
  6
Continuous
 62
     7
370
    25
100
AcDbCircle
 10
6599.6647003997
 20
5478.2668226762
 30
0.0
 40
2.660714285713766
100
AcDbArc
 50
270.0
 51
339.9840403971
  0
ARC
  5
88
330
1F
100
AcDbEntity
  8
0
  6
Continuous
 62
     7
370
    25
100
AcDbCircle
 10
6599.6647003997
 20
5482.4453941048
 30
0.0
 40
2.660714285714675
100
AcDbArc
 50
20.0159596029
 51
90.0
  0
LINE
  5
89
330
1F
100
AcDbEntity
  8
0
  6
Continuous
 62
     7
370
    25
100
AcDbLine
 10
6145.2547978237
 20
5625.8606091701
 30
0.0
 11
6144.9012444331
 21
5625.8606091701
 31
0.0
  0
LINE
  5
8A
330
1F
100
AcDbEntity
  8
0
  6
Continuous
 62
     7
370
    25
100
AcDbLine
 10
6144.9012444331
 20
5597.8606091701
 30
0.0
 11
6145.2547978237
 21
5597.8606091701
 31
0.0
  0
LINE
  5
8B
330
1F
100
AcDbEntity
  8
0
  6
Continuous
 62
     7
370
    25
100
AcDbLine
 10
6149.7773130137
 20
5607.4448892456
 30
0.0
 11
6150.1308664043
 21
5607.4448892456
 31
0.0
  0
LINE
  5
8C
330
1F
100
AcDbEntity
  8
0
  6
Continuous
 62
     7
370
    25
100
AcDbLine
 10
6149.3397155265
 20
5613.0145959572
 30
0.0
 11
6149.6932689171
 21
5613.0145959572
 31
0.0
  0
LINE
  5
8D
330
1F
100
AcDbEntity
  8
0
  6
Continuous
 62
     7
370
    25
100
AcDbLine
 10
6147.3833973483
 20
5616.7641370769
 30
0.0
 11
6147.7369507389
 21
5616.7641370769
 31
0.0
  0
LINE
  5
8E
330
1F
100
AcDbEntity
  8
0
  6
Continuous
 62
     7
370
    25
100
AcDbLine
 10
6147.7369507389
 20
5618.0729869806
 30
0.0
 11
6147.3833973483
 21
5618.0729869806
 31
0.0
  0
LINE
  5
8F
330
1F
100
AcDbEntity
  8
0
  6
Continuous
 62
     7
370
    25
100
AcDbLine
 10
6144.0405317775
 20
5617.4905339911
 30
0.0
 11
6143.6869783869
 21
5617.4905339911
 31
0.0
  0
LINE
  5
90
330
1F
100
AcDbEntity
  8
0
  6
Continuous
 62
     7
370
    25
100
AcDbLine
 10
6140.8721070446
 20
5614.6475731334
 30
0.0
 11
6140.518553654
 21
5614.6475731334
 31
0.0
  0
LINE
  5
91
330
1F
100
AcDbEntity
  8
0
  6
Continuous
 62
     7
370
    25
100
AcDbLine
 10
6145.2547978237
 20
5575.3606091701
 30
0.0
 11
6144.9012444331
 21
5575.3606091701
 31
0.0
  0
LINE
  5
92
330
1F
100
AcDbEntity
  8
0
  6
Continuous
 62
     7
370
    25
100
AcDbLine
 10
6144.9012444331
 20
5547.3606091701
 30
0.0
 11
6145.2547978237
 21
5547.3606091701
 31
0.0
  0
LINE
  5
93
330
1F
100
AcDbEntity
  8
0
  6
Continuous
 62
     7
370
    25
100
AcDbLine
 10
6148.2211343048
 20
5559.0478321312
 30
0.0
 11
6148.2564896439
 21
5559.0478321312
 31
0.0
  0
ARC
  5
94
330
1F
100
AcDbEntity
  8
0
  6
Continuous
 62
     7
370
    25
100
AcDbCircle
 10
6199.6647003997
 20
5709.3561083905
 30
0.0
 40
22.50000000000104
100
AcDbArc
 50
10.2403483212
 51
169.7596516788
  0
LINE
  5
95
330
1F
100
AcDbEntity
  8
0
  6
Continuous
 62
     7
370
    25
100
AcDbLine
 10
6182.5640737786
 20
5225.3561083905
 30
0.0
 11
6516.7587838286
 21
5225.3561083905
 31
0.0
  0
ARC
  5
96
330
1F
100
AcDbEntity
  8
0
  6
Continuous
 62
     7
370
    25
100
AcDbCircle
 10
6516.7585122725
 20
5215.3561928087
 30
0.0
 40
9.999915585464676
100
AcDbArc
 50
345.5077529688
 51
89.9984440849
  0
LWPOLYLINE
  5
97
330
1F
100
AcDbEntity
  8
0
  6
Continuous
 62
     7
370
    25
100
AcDbPolyline
 90
       39
 70
   128
 43
0.0
 10
6526.4402456603
 20
5212.8537239631
 10
6525.6252252351
 20
5212.7562425901
 10
6523.5575366184
 20
5212.6621200001
 10
6520.2457714567
 20
5212.5696452474
 10
6515.7316444431
 20
5212.4799596706
 10
6510.056870271
 20
5212.3942046085
 10
6503.2280261137
 20
5212.3126985487
 10
6495.2846022708
 20
5212.2354715771
 10
6486.3157230157
 20
5212.163206234
 10
6476.4105126216
 20
5212.0965850601
 10
6465.6093479393
 20
5212.0359725878
 10
6453.9495461616
 20
5211.9813306261
 10
6441.5580920956
 20
5211.9329985247
 10
6428.5619705482
 20
5211.8913156337
 10
6414.9956444463
 20
5211.8563587065
 10
6400.9186350145
 20
5211.8281359002
 10
6386.481585886
 20
5211.806843485
 10
6371.8351406938
 20
5211.7926777311
 10
6357.0291578602
 20
5211.7856654522
 10
6342.1191845176
 20
5211.7857163324
 10
6327.262231954
 20
5211.7928493964
 10
6312.6153114573
 20
5211.8070836685
 10
6298.2454376103
 20
5211.8284369394
 10
6284.1890150772
 20
5211.8567839212
 10
6270.5915007038
 20
5211.8918868302
 10
6257.5983513358
 20
5211.9335078828
 10
6245.2570047417
 20
5211.9818072774
 10
6233.6122043002
 20
5212.0366882977
 10
6222.782687815
 20
5212.0976081498
 10
6212.8871930898
 20
5212.1640240402
 10
6203.9733618247
 20
5212.2359123931
 10
6196.0600454088
 20
5212.3131386408
 10
6189.2258618194
 20
5212.3949709771
 10
6183.5494290341
 20
5212.4806775961
 10
6178.9465527832
 20
5212.5727499411
 10
6175.6134522759
 20
5212.6680387679
 10
6173.5808917546
 20
5212.7654249331
 10
6172.8796354615
 20
5212.8637892934
 10
6172.8796353619
 20
5212.8637896803
  0
ARC
  5
98
330
1F
100
AcDbEntity
  8
0
  6
Continuous
 62
     7
370
    25
100
AcDbCircle
 10
6182.5640737786
 20
5215.3561083905
 30
0.0
 40
10.0
100
AcDbArc
 50
90.0
 51
194.4320629361
  0
LINE
  5
99
330
1F
100
AcDbEntity
  8
0
  6
Continuous
 62
     7
370
    25
100
AcDbLine
 10
6442.1647003997
 20
4885.3561083905
 30
0.0
 11
6257.1647003997
 21
4885.3561083905
 31
0.0
  0
LINE
  5
9A
330
1F
100
AcDbEntity
  8
0
  6
Continuous
 62
     7
370
    25
100
AcDbLine
 10
6257.1647003997
 20
4885.3561083905
 30
0.0
 11
6172.8796353619
 21
5212.8637896803
 31
0.0
  0
LINE
  5
9B
330
1F
100
AcDbEntity
  8
0
  6
Continuous
 62
     7
370
    25
100
AcDbLine
 10
6526.5568994536
 20
5212.9272062551
 30
0.0
 11
6526.4576706106
 21
5212.8647002481
 31
0.0
  0
LINE
  5
9C
330
1F
100
AcDbEntity
  8
0
  6
Continuous
 62
     7
370
    25
100
AcDbLine
 10
6533.2149529314
 20
4835.3561083905
 30
0.0
 11
6166.114447868
 21
4835.3561083905
 31
0.0
  0
LINE
  5
9D
330
1F
100
AcDbEntity
  8
0
  6
Continuous
 62
     7
370
    25
100
AcDbLine
 10
6166.114447868
 20
4835.3561083905
 30
0.0
 11
6166.114447868
 21
5707.3561083905
 31
0.0
  0
LINE
  5
9E
330
1F
100
AcDbEntity
  8
0
  6
Continuous
 62
     7
370
    25
100
AcDbLine
 10
6533.2149529314
 20
5707.3561083905
 30
0.0
 11
6166.114447868
 21
5707.3561083905
 31
0.0
  0
LINE
  5
9F
330
1F
100
AcDbEntity
  8
0
  6
Continuous
 62
     7
370
    25
100
AcDbLine
 10
6533.2149529314
 20
4835.3561083905
 30
0.0
 11
6533.2149529314
 21
5707.3561083905
 31
0.0
  0
LINE
  5
A0
330
1F
100
AcDbEntity
  8
0
  6
Continuous
 62
     7
370
    25
100
AcDbLine
 10
6535.6898266656
 20
4835.3561083905
 30
0.0
 11
6533.2149529314
 21
4835.3561083905
 31
0.0
  0
LINE
  5
A1
330
1F
100
AcDbEntity
  8
0
  6
Continuous
 62
     7
370
    25
100
AcDbLine
 10
6535.6898266656
 20
5707.3561083905
 30
0.0
 11
6533.2149529314
 21
5707.3561083905
 31
0.0
  0
LINE
  5
A2
330
1F
100
AcDbEntity
  8
0
  6
Continuous
 62
     7
370
    25
100
AcDbLine
 10
6535.6898266656
 20
4835.3561083905
 30
0.0
 11
6535.6898266656
 21
5707.3561083905
 31
0.0
  0
LINE
  5
A3
330
1F
100
AcDbEntity
  8
0
  6
Continuous
 62
     7
370
    25
100
AcDbLine
 10
6166.114447868
 20
4835.3561083905
 30
0.0
 11
6163.6395741339
 21
4835.3561083905
 31
0.0
  0
LINE
  5
A4
330
1F
100
AcDbEntity
  8
0
  6
Continuous
 62
     7
370
    25
100
AcDbLine
 10
6163.6395741339
 20
4835.3561083905
 30
0.0
 11
6163.6395741339
 21
5707.3561083905
 31
0.0
  0
LINE
  5
A5
330
1F
100
AcDbEntity
  8
0
  6
Continuous
 62
     7
370
    25
100
AcDbLine
 10
6166.114447868
 20
5707.3561083905
 30
0.0
 11
6163.6395741339
 21
5707.3561083905
 31
0.0
  0
LINE
  5
A6
330
1F
100
AcDbEntity
  8
0
  6
Continuous
 62
     7
370
    25
100
AcDbLine
 10
6576.2332428946
 20
4835.3561083905
 30
0.0
 11
6535.6898266656
 21
4835.3561083905
 31
0.0
  0
LINE
  5
A7
330
1F
100
AcDbEntity
  8
0
  6
Continuous
 62
     7
370
    25
100
AcDbLine
 10
6576.2332428946
 20
4835.3561083905
 30
0.0
 11
6576.2332428946
 21
5707.3561083905
 31
0.0
  0
LINE
  5
A8
330
1F
100
AcDbEntity
  8
0
  6
Continuous
 62
     7
370
    25
100
AcDbLine
 10
6576.2332428946
 20
5707.3561083905
 30
0.0
 11
6535.6898266656
 21
5707.3561083905
 31
0.0
  0
LINE
  5
A9
330
1F
100
AcDbEntity
  8
0
  6
Continuous
 62
     7
370
    25
100
AcDbLine
 10
6123.0961579048
 20
4835.3561083905
 30
0.0
 11
6123.0961579048
 21
5707.3561083905
 31
0.0
  0
LINE
  5
AA
330
1F
100
AcDbEntity
  8
0
  6
Continuous
 62
     7
370
    25
100
AcDbLine
 10
6163.6395741339
 20
4835.3561083905
 30
0.0
 11
6123.0961579048
 21
4835.3561083905
 31
0.0
  0
LINE
  5
AB
330
1F
100
AcDbEntity
  8
0
  6
Continuous
 62
     7
370
    25
100
AcDbLine
 10
6163.6395741339
 20
5707.3561083905
 30
0.0
 11
6123.0961579048
 21
5707.3561083905
 31
0.0
  0
LINE
  5
AC
330
1F
100
AcDbEntity
  8
0
  6
Continuous
 62
     7
370
    25
100
AcDbLine
 10
6599.6647003997
 20
4835.3561083905
 30
0.0
 11
6576.2332428946
 21
4835.3561083905
 31
0.0
  0
LINE
  5
AD
330
1F
100
AcDbEntity
  8
0
  6
Continuous
 62
     7
370
    25
100
AcDbLine
 10
6599.6647003997
 20
4835.3561083905
 30
0.0
 11
6599.6647003997
 21
5707.3561083905
 31
0.0
  0
LINE
  5
AE
330
1F
100
AcDbEntity
  8
0
  6
Continuous
 62
     7
370
    25
100
AcDbLine
 10
6599.6647003997
 20
5707.3561083905
 30
0.0
 11
6576.2332428946
 21
5707.3561083905
 31
0.0
  0
LINE
  5
AF
330
1F
100
AcDbEntity
  8
0
  6
Continuous
 62
     7
370
    25
100
AcDbLine
 10
6099.6647003997
 20
4835.3561083905
 30
0.0
 11
6099.6647003997
 21
5707.3561083905
 31
0.0
  0
LINE
  5
B0
330
1F
100
AcDbEntity
  8
0
  6
Continuous
 62
     7
370
    25
100
AcDbLine
 10
6123.0961579048
 20
5707.3561083905
 30
0.0
 11
6099.6647003997
 21
5707.3561083905
 31
0.0
  0
LINE
  5
B1
330
1F
100
AcDbEntity
  8
0
  6
Continuous
 62
     7
370
    25
100
AcDbLine
 10
6123.0961579048
 20
4835.3561083905
 30
0.0
 11
6099.6647003997
 21
4835.3561083905
 31
0.0
  0
LINE
  5
B2
330
1F
100
AcDbEntity
  8
0
  6
Continuous
 62
     7
370
    25
100
AcDbLine
 10
6163.6395741339
 20
4836.8561083905
 30
0.0
 11
6163.6395741339
 21
4835.3561083905
 31
0.0
  0
LINE
  5
B3
330
1F
100
AcDbEntity
  8
0
  6
Continuous
 62
     7
370
    25
100
AcDbLine
 10
6166.114447868
 20
4836.8561083905
 30
0.0
 11
6163.6395741339
 21
4836.8561083905
 31
0.0
  0
LINE
  5
B4
330
1F
100
AcDbEntity
  8
0
  6
Continuous
 62
     7
370
    25
100
AcDbLine
 10
6166.114447868
 20
4836.8561083905
 30
0.0
 11
6166.114447868
 21
4835.3561083905
 31
0.0
  0
LINE
  5
B5
330
1F
100
AcDbEntity
  8
0
  6
Continuous
 62
     7
370
    25
100
AcDbLine
 10
6533.2149529314
 20
4836.8561083905
 30
0.0
 11
6533.2149529314
 21
4835.3561083905
 31
0.0
  0
LINE
  5
B6
330
1F
100
AcDbEntity
  8
0
  6
Continuous
 62
     7
370
    25
100
AcDbLine
 10
6533.2149529314
 20
4836.8561083905
 30
0.0
 11
6535.6898266656
 21
4836.8561083905
 31
0.0
  0
LINE
  5
B7
330
1F
100
AcDbEntity
  8
0
  6
Continuous
 62
     7
370
    25
100
AcDbLine
 10
6535.6898266656
 20
4836.8561083905
 30
0.0
 11
6535.6898266656
 21
4835.3561083905
 31
0.0
  0
LINE
  5
B8
330
1F
100
AcDbEntity
  8
0
  6
Continuous
 62
     7
370
    25
100
AcDbLine
 10
6166.114447868
 20
4836.8561083905
 30
0.0
 11
6533.2149529314
 21
4836.8561083905
 31
0.0
  0
LINE
  5
B9
330
1F
100
AcDbEntity
  8
0
  6
Continuous
 62
     7
370
    25
100
AcDbLine
 10
6576.2332428946
 20
4836.8561083905
 30
0.0
 11
6576.2332428946
 21
4835.3561083905
 31
0.0
  0
LINE
  5
BA
330
1F
100
AcDbEntity
  8
0
  6
Continuous
 62
     7
370
    25
100
AcDbLine
 10
6535.6898266656
 20
4836.8561083905
 30
0.0
 11
6576.2332428946
 21
4836.8561083905
 31
0.0
  0
LINE
  5
BB
330
1F
100
AcDbEntity
  8
0
  6
Continuous
 62
     7
370
    25
100
AcDbLine
 10
6123.0961579048
 20
4836.8561083905
 30
0.0
 11
6123.0961579048
 21
4835.3561083905
 31
0.0
  0
LINE
  5
BC
330
1F
100
AcDbEntity
  8
0
  6
Continuous
 62
     7
370
    25
100
AcDbLine
 10
6163.6395741339
 20
4836.8561083905
 30
0.0
 11
6123.0961579048
 21
4836.8561083905
 31
0.0
  0
LINE
  5
BD
330
1F
100
AcDbEntity
  8
0
  6
Continuous
 62
     7
370
    25
100
AcDbLine
 10
6599.6647003997
 20
4836.8561083905
 30
0.0
 11
6599.6647003997
 21
4835.3561083905
 31
0.0
  0
LINE
  5
BE
330
1F
100
AcDbEntity
  8
0
  6
Continuous
 62
     7
370
    25
100
AcDbLine
 10
6576.2332428946
 20
4836.8561083905
 30
0.0
 11
6599.6647003997
 21
4836.8561083905
 31
0.0
  0
LINE
  5
BF
330
1F
100
AcDbEntity
  8
0
  6
Continuous
 62
     7
370
    25
100
AcDbLine
 10
6099.6647003997
 20
4836.8561083905
 30
0.0
 11
6099.6647003997
 21
4835.3561083905
 31
0.0
  0
LINE
  5
C0
330
1F
100
AcDbEntity
  8
0
  6
Continuous
 62
     7
370
    25
100
AcDbLine
 10
6123.0961579048
 20
4836.8561083905
 30
0.0
 11
6099.6647003997
 21
4836.8561083905
 31
0.0
  0
LINE
  5
C1
330
1F
100
AcDbEntity
  8
0
  6
Continuous
 62
     7
370
    25
100
AcDbLine
 10
6602.1647003997
 20
5318.478185149
 30
0.0
 11
6602.1647003997
 21
5323.3561083905
 31
0.0
  0
LINE
  5
C2
330
1F
100
AcDbEntity
  8
0
  6
Continuous
 62
     7
370
    25
100
AcDbLine
 10
6602.1647003997
 20
5317.3561083905
 30
0.0
 11
6602.1647003997
 21
5318.478185149
 31
0.0
  0
LINE
  5
C3
330
1F
100
AcDbEntity
  8
0
  6
Continuous
 62
     7
370
    25
100
AcDbLine
 10
6602.1647003997
 20
5133.7769077775
 30
0.0
 11
6602.1647003997
 21
5139.3561083905
 31
0.0
  0
LINE
  5
C4
330
1F
100
AcDbEntity
  8
0
  6
Continuous
 62
     7
370
    25
100
AcDbLine
 10
6602.1647003997
 20
5133.3561083905
 30
0.0
 11
6602.1647003997
 21
5133.7769077775
 31
0.0
  0
LINE
  5
C5
330
1F
100
AcDbEntity
  8
0
  6
Continuous
 62
     7
370
    25
100
AcDbLine
 10
6602.1647003997
 20
4974.478185149
 30
0.0
 11
6602.1647003997
 21
4979.3561083905
 31
0.0
  0
LINE
  5
C6
330
1F
100
AcDbEntity
  8
0
  6
Continuous
 62
     7
370
    25
100
AcDbLine
 10
6602.1647003997
 20
4973.3561083905
 30
0.0
 11
6602.1647003997
 21
4974.478185149
 31
0.0
  0
LINE
  5
C7
330
1F
100
AcDbEntity
  8
0
  6
Continuous
 62
     7
370
    25
100
AcDbLine
 10
6602.1647003997
 20
5478.478185149
 30
0.0
 11
6602.1647003997
 21
5483.3561083905
 31
0.0
  0
LINE
  5
C8
330
1F
100
AcDbEntity
  8
0
  6
Continuous
 62
     7
370
    25
100
AcDbLine
 10
6602.1647003997
 20
5477.3561083905
 30
0.0
 11
6602.1647003997
 21
5478.478185149
 31
0.0
  0
ARC
  5
C9
330
1F
100
AcDbEntity
  8
0
  6
Continuous
 62
     7
370
    25
100
AcDbCircle
 10
6166.7331663016
 20
5710.2936083905
 30
0.0
 40
3.124374937490777
100
AcDbArc
 50
101.421753659
 51
188.0494669755
  0
LINE
  5
CA
330
1F
100
AcDbEntity
  8
0
  6
Continuous
 62
     7
370
    25
100
AcDbLine
 10
6166.114447868
 20
5709.8561083905
 30
0.0
 11
6166.114447868
 21
5713.3561083905
 31
0.0
  0
LINE
  5
CB
330
1F
100
AcDbEntity
  8
0
  6
Continuous
 62
     7
370
    25
100
AcDbLine
 10
6163.6395741339
 20
5709.8561083905
 30
0.0
 11
6166.114447868
 21
5709.8561083905
 31
0.0
  0
LINE
  5
CC
330
1F
100
AcDbEntity
  8
0
  6
Continuous
 62
     7
370
    25
100
AcDbLine
 10
6533.2149529314
 20
5709.8561083905
 30
0.0
 11
6166.114447868
 21
5709.8561083905
 31
0.0
  0
LINE
  5
CD
330
1F
100
AcDbEntity
  8
0
  6
Continuous
 62
     7
370
    25
100
AcDbLine
 10
6166.114447868
 20
5713.3561083905
 30
0.0
 11
6533.2149529314
 21
5713.3561083905
 31
0.0
  0
LINE
  5
CE
330
1F
100
AcDbEntity
  8
0
  6
Continuous
 62
     7
370
    25
100
AcDbLine
 10
6533.2149529314
 20
5709.8561083905
 30
0.0
 11
6533.2149529314
 21
5713.3561083905
 31
0.0
  0
LINE
  5
CF
330
1F
100
AcDbEntity
  8
0
  6
Continuous
 62
     7
370
    25
100
AcDbLine
 10
6533.2149529314
 20
5707.3561083905
 30
0.0
 11
6533.2149529314
 21
5709.8561083905
 31
0.0
  0
LINE
  5
D0
330
1F
100
AcDbEntity
  8
0
  6
Continuous
 62
     7
370
    25
100
AcDbLine
 10
6166.114447868
 20
5709.8561083905
 30
0.0
 11
6166.114447868
 21
5707.3561083905
 31
0.0
  0
ARC
  5
D1
330
1F
100
AcDbEntity
  8
0
  6
Continuous
 62
     7
370
    25
100
AcDbCircle
 10
6532.5962344979
 20
5710.2936083905
 30
0.0
 40
3.124374937491669
100
AcDbArc
 50
351.9505330245
 51
78.578246341
  0
LINE
  5
D2
330
1F
100
AcDbEntity
  8
0
  6
Continuous
 62
     7
370
    25
100
AcDbLine
 10
6533.2149529314
 20
5709.8561083905
 30
0.0
 11
6535.6898266656
 21
5709.8561083905
 31
0.0
  0
LINE
  5
D3
330
1F
100
AcDbEntity
  8
0
  6
Continuous
 62
     7
370
    25
100
AcDbLine
 10
6163.6395741339
 20
5707.3561083905
 30
0.0
 11
6163.6395741339
 21
5709.8561083905
 31
0.0
  0
LINE
  5
D4
330
1F
100
AcDbEntity
  8
0
  6
Continuous
 62
     7
370
    25
100
AcDbLine
 10
6535.6898266656
 20
5709.8561083905
 30
0.0
 11
6535.6898266656
 21
5707.3561083905
 31
0.0
  0
LINE
  5
D5
330
1F
100
AcDbEntity
  8
0
  6
Continuous
 62
     7
370
    25
100
AcDbLine
 10
6163.6395741339
 20
5709.8561083905
 30
0.0
 11
6123.0961579048
 21
5709.8561083905
 31
0.0
  0
ARC
  5
D6
330
1F
100
AcDbEntity
  8
0
  6
Continuous
 62
     7
370
    25
100
AcDbCircle
 10
6126.1897500725
 20
5710.2936083905
 30
0.0
 40
3.124374937490237
100
AcDbArc
 50
101.421753659
 51
188.0494669755
  0
LINE
  5
D7
330
1F
100
AcDbEntity
  8
0
  6
Continuous
 62
     7
370
    25
100
AcDbLine
 10
6125.5710316389
 20
5713.3561083905
 30
0.0
 11
6166.114447868
 21
5713.3561083905
 31
0.0
  0
LINE
  5
D8
330
1F
100
AcDbEntity
  8
0
  6
Continuous
 62
     7
370
    25
100
AcDbLine
 10
6576.2332428946
 20
5709.8561083905
 30
0.0
 11
6535.6898266656
 21
5709.8561083905
 31
0.0
  0
LINE
  5
D9
330
1F
100
AcDbEntity
  8
0
  6
Continuous
 62
     7
370
    25
100
AcDbLine
 10
6533.2149529314
 20
5713.3561083905
 30
0.0
 11
6573.7583691605
 21
5713.3561083905
 31
0.0
  0
ARC
  5
DA
330
1F
100
AcDbEntity
  8
0
  6
Continuous
 62
     7
370
    25
100
AcDbCircle
 10
6573.1396507269
 20
5710.2936083905
 30
0.0
 40
3.124374937489526
100
AcDbArc
 50
351.9505330245
 51
78.578246341
  0
LINE
  5
DB
330
1F
100
AcDbEntity
  8
0
  6
Continuous
 62
     7
370
    25
100
AcDbLine
 10
6576.2332428946
 20
5707.3561083905
 30
0.0
 11
6576.2332428946
 21
5709.8561083905
 31
0.0
  0
LINE
  5
DC
330
1F
100
AcDbEntity
  8
0
  6
Continuous
 62
     7
370
    25
100
AcDbLine
 10
6123.0961579048
 20
5709.8561083905
 30
0.0
 11
6123.0961579048
 21
5707.3561083905
 31
0.0
  0
LINE
  5
DD
330
1F
100
AcDbEntity
  8
0
  6
Continuous
 62
     7
370
    25
100
AcDbLine
 10
6599.6647003997
 20
5709.8561083905
 30
0.0
 11
6576.2332428946
 21
5709.8561083905
 31
0.0
  0
LINE
  5
DE
330
1F
100
AcDbEntity
  8
0
  6
Continuous
 62
     7
370
    25
100
AcDbLine
 10
6599.6647003997
 20
5709.8561083905
 30
0.0
 11
6599.6647003997
 21
5707.3561083905
 31
0.0
  0
ARC
  5
DF
330
1F
100
AcDbEntity
  8
0
  6
Continuous
 62
     7
370
    25
100
AcDbCircle
 10
6596.1647003997
 20
5709.8561083905
 30
0.0
 40
3.500000000000909
100
AcDbArc
 50
0.0
 51
90.0
  0
LINE
  5
E0
330
1F
100
AcDbEntity
  8
0
  6
Continuous
 62
     7
370
    25
100
AcDbLine
 10
6573.7583691605
 20
5713.3561083905
 30
0.0
 11
6596.1647003997
 21
5713.3561083905
 31
0.0
  0
LINE
  5
E1
330
1F
100
AcDbEntity
  8
0
  6
Continuous
 62
     7
370
    25
100
AcDbLine
 10
6099.6647003997
 20
5707.3561083905
 30
0.0
 11
6099.6647003997
 21
5709.8561083905
 31
0.0
  0
LINE
  5
E2
330
1F
100
AcDbEntity
  8
0
  6
Continuous
 62
     7
370
    25
100
AcDbLine
 10
6123.0961579048
 20
5709.8561083905
 30
0.0
 11
6099.6647003997
 21
5709.8561083905
 31
0.0
  0
ARC
  5
E3
330
1F
100
AcDbEntity
  8
0
  6
Continuous
 62
     7
370
    25
100
AcDbCircle
 10
6103.1647003997
 20
5709.8561083905
 30
0.0
 40
3.500000000000909
100
AcDbArc
 50
90.0
 51
180.0
  0
LINE
  5
E4
330
1F
100
AcDbEntity
  8
0
  6
Continuous
 62
     7
370
    25
100
AcDbLine
 10
6103.1647003997
 20
5713.3561083905
 30
0.0
 11
6125.5710316389
 21
5713.3561083905
 31
0.0
  0
LWPOLYLINE
  5
E5
330
1F
100
AcDbEntity
  8
0
  6
Continuous
 62
     7
370
    25
100
AcDbPolyline
 90
       38
 70
   128
 43
0.0
 10
6143.8405842613
 20
5599.3606091701
 10
6145.3343545872
 20
5599.5404102908
 10
6146.7851518606
 20
5600.0746411019
 10
6148.1512392853
 20
5600.9479327556
 10
6149.3933170133
 20
5602.1351622411
 10
6150.4756527299
 20
5603.6021751277
 10
6151.3671096071
 20
5605.3067681257
 10
6152.0420420537
 20
5607.1999031979
 10
6152.4810334918
 20
5609.2271182952
 10
6152.6714549373
 20
5611.3300941302
 10
6152.6078283117
 20
5613.448331917
 10
6152.2919840373
 20
5615.5208938111
 10
6151.7330083787
 20
5617.4881559803
 10
6150.946982048
 20
5619.2935238739
 10
6149.9565175915
 20
5620.8850603445
 10
6148.7901088684
 20
5622.2169797857
 10
6147.4813113339
 20
5623.2509653
 10
6146.0677767102
 20
5623.9572710068
 10
6144.5901698148
 20
5624.3155777769
 10
6143.0909987078
 20
5624.3155777769
 10
6141.6133918123
 20
5623.9572710068
 10
6140.1998571886
 20
5623.2509653
 10
6138.8910596541
 20
5622.2169797857
 10
6137.724650931
 20
5620.8850603445
 10
6136.7341864746
 20
5619.2935238739
 10
6135.9481601439
 20
5617.4881559803
 10
6135.3891844853
 20
5615.5208938111
 10
6135.0733402109
 20
5613.448331917
 10
6135.0097135853
 20
5611.3300941302
 10
6135.2001350307
 20
5609.2271182952
 10
6135.6391264689
 20
5607.1999031979
 10
6136.3140589154
 20
5605.3067681257
 10
6137.2055157926
 20
5603.6021751277
 10
6138.2878515092
 20
5602.1351622411
 10
6139.5299292373
 20
5600.9479327556
 10
6140.896016662
 20
5600.0746411019
 10
6142.3468139353
 20
5599.5404102908
 10
6143.8405842613
 20
5599.3606091701
  0
LWPOLYLINE
  5
E6
330
1F
100
AcDbEntity
  8
0
  6
Continuous
 62
     7
370
    25
100
AcDbPolyline
 90
       40
 70
   128
 43
0.0
 10
6144.9012444331
 20
5597.8606091701
 10
6143.3132537704
 20
5598.0419054932
 10
6141.7663912318
 20
5598.5810989829
 10
6140.3007197445
 20
5599.464224811
 10
6138.95419943
 20
5600.6684104825
 10
6137.7617044573
 20
5602.162468221
 10
6136.7541198197
 20
5603.9077027159
 10
6135.9575414302
 20
5605.8589133105
 10
6135.3926002504
 20
5607.9655646753
 10
6135.0739279604
 20
5610.1730956465
 10
6135.0097780049
 20
5612.4243323317
 10
6135.2018118342
 20
5614.660968883
 10
6135.6450558729
 20
5616.8250775887
 10
6136.3280303333
 20
5618.8606091701
 10
6137.2330465356
 20
5620.7148444285
 10
6138.3366650355
 20
5622.3397596445
 10
6139.6103026935
 20
5623.6932703677
 10
6141.0209729634
 20
5624.7403213813
 10
6142.5321402262
 20
5625.4537946141
 10
6144.1046660435
 20
5625.815211484
 10
6145.6978228226
 20
5625.815211484
 10
6147.2703486399
 20
5625.4537946141
 10
6148.7815159027
 20
5624.7403213813
 10
6150.1921861726
 20
5623.6932703677
 10
6151.4658238307
 20
5622.3397596445
 10
6152.5694423305
 20
5620.7148444285
 10
6153.4744585328
 20
5618.8606091701
 10
6154.1574329932
 20
5616.8250775887
 10
6154.6006770319
 20
5614.660968883
 10
6154.7927108612
 20
5612.4243323317
 10
6154.7285609057
 20
5610.1730956465
 10
6154.4098886157
 20
5607.9655646753
 10
6153.844947436
 20
5605.8589133105
 10
6153.0483690464
 20
5603.9077027159
 10
6152.0407844088
 20
5602.162468221
 10
6150.8482894361
 20
5600.6684104825
 10
6149.5017691216
 20
5599.464224811
 10
6148.0360976343
 20
5598.5810989829
 10
6146.4892350957
 20
5598.0419054932
 10
6144.9012444331
 20
5597.8606091701
  0
LWPOLYLINE
  5
E7
330
1F
100
AcDbEntity
  8
0
  6
Continuous
 62
     7
370
    25
100
AcDbPolyline
 90
       11
 70
   128
 43
0.0
 10
6149.965507611
 20
5614.5415410458
 10
6150.1669381901
 20
5614.1175460912
 10
6150.2321430924
 20
5613.6151349854
 10
6150.1503105003
 20
5613.1176139994
 10
6149.9350093178
 20
5612.707478559
 10
6149.6219392707
 20
5612.4527344343
 10
6149.2630114292
 20
5612.395621502
 10
6148.9177406801
 20
5612.5456098262
 10
6148.6433773872
 20
5612.8778293994
 10
6148.4854145394
 20
5613.3371939118
 10
6148.4700444236
 20
5613.8475347753
  0
LINE
  5
E8
330
1F
100
AcDbEntity
  8
0
  6
Continuous
 62
     7
370
    25
100
AcDbLine
 10
6148.9792749334
 20
5615.9053150378
 30
0.0
 11
6149.965507611
 21
5614.5415410458
 31
0.0
  0
LWPOLYLINE
  5
E9
330
1F
100
AcDbEntity
  8
0
  6
Continuous
 62
     7
370
    25
100
AcDbPolyline
 90
        9
 70
   128
 43
0.0
 10
6148.6931588414
 20
5615.772535867
 10
6148.7067487321
 20
5615.8349144226
 10
6148.7317206124
 20
5615.8898076358
 10
6148.7662274066
 20
5615.9331552628
 10
6148.8077167775
 20
5615.9617510435
 10
6148.853119913
 20
5615.9734798558
 10
6148.8990785146
 20
5615.9674741638
 10
6148.9421931982
 20
5615.944178186
 10
6148.9792749334
 20
5615.9053150378
  0
LINE
  5
EA
330
1F
100
AcDbEntity
  8
0
  6
Continuous
 62
     7
370
    25
100
AcDbLine
 10
6148.4700444236
 20
5613.8475347753
 30
0.0
 11
6148.6931588414
 21
5615.772535867
 31
0.0
  0
LWPOLYLINE
  5
EB
330
1F
100
AcDbEntity
  8
0
  6
Continuous
 62
     7
370
    25
100
AcDbPolyline
 90
       11
 70
   128
 43
0.0
 10
6150.5642743369
 20
5608.6524024423
 10
6150.6621853985
 20
5608.1607245744
 10
6150.6133731535
 20
5607.6546069919
 10
6150.4259313045
 20
5607.2179705478
 10
6150.1309401387
 20
5606.923215222
 10
6149.7773130137
 20
5606.8192152667
 10
6149.4236858887
 20
5606.923215222
 10
6149.1286947229
 20
5607.2179705478
 10
6148.9412528739
 20
5607.6546069919
 10
6148.8924406289
 20
5608.1607245744
 10
6148.9903516905
 20
5608.6524024423
  0
LINE
  5
EC
330
1F
100
AcDbEntity
  8
0
  6
Continuous
 62
     7
370
    25
100
AcDbLine
 10
6149.9278765985
 20
5610.3830627576
 30
0.0
 11
6150.5642743369
 21
5608.6524024423
 31
0.0
  0
LWPOLYLINE
  5
ED
330
1F
100
AcDbEntity
  8
0
  6
Continuous
 62
     7
370
    25
100
AcDbPolyline
 90
        9
 70
   128
 43
0.0
 10
6149.626749429
 20
5610.3830627576
 10
6149.6534144851
 20
5610.436339432
 10
6149.6892438474
 20
5610.477485125
 10
6149.7315873533
 20
5610.5034564451
 10
6149.7773130137
 20
5610.5123323919
 10
6149.8230386741
 20
5610.5034564451
 10
6149.86538218
 20
5610.477485125
 10
6149.9012115424
 20
5610.436339432
 10
6149.9278765985
 20
5610.3830627576
  0
LINE
  5
EE
330
1F
100
AcDbEntity
  8
0
  6
Continuous
 62
     7
370
    25
100
AcDbLine
 10
6148.9903516905
 20
5608.6524024423
 30
0.0
 11
6149.626749429
 21
5610.3830627576
 31
0.0
  0
LWPOLYLINE
  5
EF
330
1F
100
AcDbEntity
  8
0
  6
Continuous
 62
     7
370
    25
100
AcDbPolyline
 90
       11
 70
   128
 43
0.0
 10
6147.3495732245
 20
5618.6604294581
 10
6147.7068063495
 20
5618.5850022309
 10
6148.0131593142
 20
5618.3144176789
 10
6148.2178348278
 20
5617.8935422269
 10
6148.2868950381
 20
5617.3921624781
 10
6148.2088888673
 20
5616.8934136911
 10
6147.9967507494
 20
5616.4799948772
 10
6147.6856559329
 20
5616.2204562324
 10
6147.3271879694
 20
5616.1578326268
 10
6146.9807854917
 20
5616.3025078656
 10
6146.703886519
 20
5616.6304929197
  0
LINE
  5
F0
330
1F
100
AcDbEntity
  8
0
  6
Continuous
 62
     7
370
    25
100
AcDbLine
 10
6145.9724541716
 20
5618.5496345183
 30
0.0
 11
6147.3495732245
 21
5618.6604294581
 31
0.0
  0
LWPOLYLINE
  5
F1
330
1F
100
AcDbEntity
  8
0
  6
Continuous
 62
     7
370
    25
100
AcDbPolyline
 90
        9
 70
   128
 43
0.0
 10
6145.8489196317
 20
5618.1612615283
 10
6145.8255024315
 20
5618.2175085187
 10
6145.8136676505
 20
5618.2805983783
 10
6145.8142906627
 20
5618.3458645883
 10
6145.8273253862
 20
5618.4084796538
 10
6145.8518076919
 20
5618.4638121748
 10
6145.885926716
 20
5618.5077694137
 10
6145.9271588032
 20
5618.5371000196
 10
6145.9724541716
 20
5618.5496345183
  0
LINE
  5
F2
330
1F
100
AcDbEntity
  8
0
  6
Continuous
 62
     7
370
    25
100
AcDbLine
 10
6146.703886519
 20
5616.6304929197
 30
0.0
 11
6145.8489196317
 21
5618.1612615283
 31
0.0
  0
LWPOLYLINE
  5
F3
330
1F
100
AcDbEntity
  8
0
  6
Continuous
 62
     7
370
    25
100
AcDbPolyline
 90
       11
 70
   128
 43
0.0
 10
6142.8539685764
 20
5617.2319779139
 10
6143.0305739347
 20
5617.6775577302
 10
6143.3181481954
 20
5617.9866246598
 10
6143.6690078199
 20
5618.1079314013
 10
6144.0249757365
 20
5618.0213637252
 10
6144.3270278523
 20
5617.7412756738
 10
6144.5250800128
 20
5617.3141094751
 10
6144.5862926036
 20
5616.8106948197
 10
6144.500515784
 20
5616.3145043802
 10
6144.2819724623
 20
5615.9078129605
 10
6143.9668999526
 20
5615.6580552676
  0
LINE
  5
F4
330
1F
100
AcDbEntity
  8
0
  6
Continuous
 62
     7
370
    25
100
AcDbLine
 10
6142.4386395751
 20
5615.3718185306
 30
0.0
 11
6142.8539685764
 21
5617.2319779139
 31
0.0
  0
LWPOLYLINE
  5
F5
330
1F
100
AcDbEntity
  8
0
  6
Continuous
 62
     7
370
    25
100
AcDbPolyline
 90
        9
 70
   128
 43
0.0
 10
6142.6515686386
 20
5615.0706913611
 10
6142.6060752594
 20
5615.0596841195
 10
6142.5601672279
 20
5615.0664190833
 10
6142.5172401876
 20
5615.0903980927
 10
6142.4804692897
 20
5615.1298475109
 10
6142.4525743386
 20
5615.1818494134
 10
6142.4356186184
 20
5615.2425574159
 10
6142.4308562799
 20
5615.3074811768
 10
6142.4386395751
 20
5615.3718185306
  0
LINE
  5
F6
330
1F
100
AcDbEntity
  8
0
  6
Continuous
 62
     7
370
    25
100
AcDbLine
 10
6143.9668999526
 20
5615.6580552676
 30
0.0
 11
6142.6515686386
 21
5615.0706913611
 31
0.0
  0
ARC
  5
F7
330
1F
100
AcDbEntity
  8
0
  6
Continuous
 62
     7
370
    25
100
AcDbCircle
 10
6143.0116953554
 20
5606.1133017934
 30
0.0
 40
0.7498499849948854
100
AcDbArc
 50
281.4217536588
 51
8.0494669757
  0
LINE
  5
F8
330
1F
100
AcDbEntity
  8
0
  6
Continuous
 62
     7
370
    25
100
AcDbLine
 10
6143.7541574757
 20
5610.6717383263
 30
0.0
 11
6143.7541574757
 21
5606.2183017934
 31
0.0
  0
LWPOLYLINE
  5
F9
330
1F
100
AcDbEntity
  8
0
  6
Continuous
 62
     7
370
    25
100
AcDbPolyline
 90
       12
 70
   128
 43
0.0
 10
6137.2829498323
 20
5610.6717383263
 10
6137.4140145216
 20
5611.9608999662
 10
6137.7965905081
 20
5613.145621397
 10
6138.3996837605
 20
5614.1299235341
 10
6139.1744352503
 20
5614.8340640723
 10
6140.0580792194
 20
5615.2009977329
 10
6140.9790280886
 20
5615.2009977329
 10
6141.8626720576
 20
5614.8340640723
 10
6142.6374235474
 20
5614.1299235341
 10
6143.2405167998
 20
5613.145621397
 10
6143.6230927863
 20
5611.9608999662
 10
6143.7541574757
 20
5610.6717383263
  0
LINE
  5
FA
330
1F
100
AcDbEntity
  8
0
  6
Continuous
 62
     7
370
    25
100
AcDbLine
 10
6137.2829498323
 20
5606.2183017934
 30
0.0
 11
6137.2829498323
 21
5610.6717383263
 31
0.0
  0
ARC
  5
FB
330
1F
100
AcDbEntity
  8
0
  6
Continuous
 62
     7
370
    25
100
AcDbCircle
 10
6138.0254119525
 20
5606.1133017934
 30
0.0
 40
0.7498499849941124
100
AcDbArc
 50
171.9505330243
 51
258.5782463412
  0
LINE
  5
FC
330
1F
100
AcDbEntity
  8
0
  6
Continuous
 62
     7
370
    25
100
AcDbLine
 10
6143.1601877795
 20
5605.3783017934
 30
0.0
 11
6137.8769195285
 21
5605.3783017934
 31
0.0
  0
LWPOLYLINE
  5
FD
330
1F
100
AcDbEntity
  8
0
  6
Continuous
 62
     7
370
    25
100
AcDbPolyline
 90
       21
 70
   128
 43
0.0
 10
6145.2547978237
 20
5597.8606091701
 10
6146.8427884863
 20
5598.0419054932
 10
6148.3896510249
 20
5598.5810989829
 10
6149.8553225122
 20
5599.464224811
 10
6151.2018428267
 20
5600.6684104825
 10
6152.3943377994
 20
5602.162468221
 10
6153.401922437
 20
5603.9077027159
 10
6154.1985008266
 20
5605.8589133105
 10
6154.7634420063
 20
5607.9655646753
 10
6155.0821142963
 20
5610.1730956465
 10
6155.1462642518
 20
5612.4243323317
 10
6154.9542304225
 20
5614.660968883
 10
6154.5109863838
 20
5616.8250775887
 10
6153.8280119234
 20
5618.8606091701
 10
6152.9229957211
 20
5620.7148444285
 10
6151.8193772213
 20
5622.3397596445
 10
6150.5457395632
 20
5623.6932703677
 10
6149.1350692933
 20
5624.7403213813
 10
6147.6239020305
 20
5625.4537946141
 10
6146.0513762132
 20
5625.815211484
 10
6145.2547978237
 20
5625.8606091701
  0
LINE
  5
FE
330
1F
100
AcDbEntity
  8
0
  6
Continuous
 62
     7
370
    25
100
AcDbLine
 10
6149.3439050811
 20
5608.6524024423
 30
0.0
 11
6148.9903516905
 21
5608.6524024423
 31
0.0
  0
ARC
  5
FF
330
1F
100
AcDbEntity
  8
0
  6
Continuous
 62
     7
370
    25
100
AcDbCircle
 10
6150.5855006882
 20
5608.0644488471
 30
0.0
 40
1.373771844836269
100
AcDbArc
 50
154.660255831
 51
242.6375061017
  0
LINE
  5
100
330
1F
100
AcDbEntity
  8
0
  6
Continuous
 62
     7
370
    25
100
AcDbLine
 10
6150.1308664043
 20
5609.5177326
 30
0.0
 11
6150.5414187656
 21
5608.4012505069
 31
0.0
  0
LWPOLYLINE
  5
101
330
1F
100
AcDbEntity
  8
0
  6
Continuous
 62
     7
370
    25
100
AcDbPolyline
 90
        6
 70
   128
 43
0.0
 10
6150.5414187656
 20
5608.4012505069
 10
6150.5924982995
 20
5608.1447455126
 10
6150.5670332838
 20
5607.8807074177
 10
6150.469246148
 20
5607.6529171593
 10
6150.3153512664
 20
5607.4991453138
 10
6150.1308664043
 20
5607.4448892456
  0
LINE
  5
102
330
1F
100
AcDbEntity
  8
0
  6
Continuous
 62
     7
370
    25
100
AcDbLine
 10
6149.3439050811
 20
5608.6524024423
 30
0.0
 11
6149.954089709
 21
5610.3117771646
 31
0.0
  0
LINE
  5
103
330
1F
100
AcDbEntity
  8
0
  6
Continuous
 62
     7
370
    25
100
AcDbLine
 10
6150.5414187656
 20
5608.4012505069
 30
0.0
 11
6150.187865375
 21
5608.4012505069
 31
0.0
  0
LWPOLYLINE
  5
104
330
1F
100
AcDbEntity
  8
0
  6
Continuous
 62
     7
370
    25
100
AcDbPolyline
 90
       11
 70
   128
 43
0.0
 10
6150.187865375
 20
5608.4012505069
 10
6150.2389449089
 20
5608.1447455126
 10
6150.2134798932
 20
5607.8807074177
 10
6150.1156927574
 20
5607.6529171593
 10
6149.9617978758
 20
5607.4991453138
 10
6149.7773130137
 20
5607.4448892456
 10
6149.5928281516
 20
5607.4991453138
 10
6149.43893327
 20
5607.6529171593
 10
6149.3411461343
 20
5607.8807074177
 10
6149.3156811186
 20
5608.1447455126
 10
6149.3667606524
 20
5608.4012505069
  0
LINE
  5
105
330
1F
100
AcDbEntity
  8
0
  6
Continuous
 62
     7
370
    25
100
AcDbLine
 10
6149.3667606524
 20
5608.4012505069
 30
0.0
 11
6149.7773130137
 21
5609.5177326
 31
0.0
  0
LINE
  5
106
330
1F
100
AcDbEntity
  8
0
  6
Continuous
 62
     7
370
    25
100
AcDbLine
 10
6149.7773130137
 20
5609.5177326
 30
0.0
 11
6150.187865375
 21
5608.4012505069
 31
0.0
  0
LINE
  5
107
330
1F
100
AcDbEntity
  8
0
  6
Continuous
 62
     7
370
    25
100
AcDbLine
 10
6148.8235978142
 20
5613.8475347753
 30
0.0
 11
6148.4700444236
 21
5613.8475347753
 31
0.0
  0
ARC
  5
108
330
1F
100
AcDbEntity
  8
0
  6
Continuous
 62
     7
370
    25
100
AcDbCircle
 10
6150.066934315
 20
5613.5675367621
 30
0.0
 40
1.274474221696836
100
AcDbArc
 50
167.3087699322
 51
244.6937759282
  0
LINE
  5
109
330
1F
100
AcDbEntity
  8
0
  6
Continuous
 62
     7
370
    25
100
AcDbLine
 10
6150.1308664043
 20
5609.5177326
 30
0.0
 11
6149.7773130137
 21
5609.5177326
 31
0.0
  0
LINE
  5
10A
330
1F
100
AcDbEntity
  8
0
  6
Continuous
 62
     7
370
    25
100
AcDbLine
 10
6149.3805498429
 20
5615.0167316815
 30
0.0
 11
6150.0167874191
 21
5614.1369349775
 31
0.0
  0
LWPOLYLINE
  5
10B
330
1F
100
AcDbEntity
  8
0
  6
Continuous
 62
     7
370
    25
100
AcDbPolyline
 90
        7
 70
   128
 43
0.0
 10
6150.0167874191
 20
5614.1369349775
 10
6150.12187238
 20
5613.9157396981
 10
6150.1558893333
 20
5613.6536352468
 10
6150.1131978275
 20
5613.3940819376
 10
6150.0008766673
 20
5613.1801170723
 10
6149.8375501564
 20
5613.0472187979
 10
6149.6932689171
 20
5613.0145959572
  0
LINE
  5
10C
330
1F
100
AcDbEntity
  8
0
  6
Continuous
 62
     7
370
    25
100
AcDbLine
 10
6148.8235978142
 20
5613.8475347753
 30
0.0
 11
6149.046712232
 21
5615.772535867
 31
0.0
  0
LINE
  5
10D
330
1F
100
AcDbEntity
  8
0
  6
Continuous
 62
     7
370
    25
100
AcDbLine
 10
6149.046712232
 20
5615.772535867
 30
0.0
 11
6149.0520623053
 21
5615.8046638153
 31
0.0
  0
LINE
  5
10E
330
1F
100
AcDbEntity
  8
0
  6
Continuous
 62
     7
370
    25
100
AcDbLine
 10
6150.0167874191
 20
5614.1369349775
 30
0.0
 11
6149.6632340285
 21
5614.1369349775
 31
0.0
  0
LWPOLYLINE
  5
10F
330
1F
100
AcDbEntity
  8
0
  6
Continuous
 62
     7
370
    25
100
AcDbPolyline
 90
       11
 70
   128
 43
0.0
 10
6149.6632340285
 20
5614.1369349775
 10
6149.7683189894
 20
5613.9157396981
 10
6149.8023359427
 20
5613.6536352468
 10
6149.7596444369
 20
5613.3940819376
 10
6149.6473232767
 20
5613.1801170723
 10
6149.4839967658
 20
5613.0472187979
 10
6149.2967465561
 20
5613.0174233701
 10
6149.1166211583
 20
5613.0956712571
 10
6148.9734876975
 20
5613.2689879453
 10
6148.8910795559
 20
5613.5086352821
 10
6148.8830610712
 20
5613.774876634
  0
LINE
  5
110
330
1F
100
AcDbEntity
  8
0
  6
Continuous
 62
     7
370
    25
100
AcDbLine
 10
6148.8830610712
 20
5613.774876634
 30
0.0
 11
6149.0269964523
 21
5615.0167316815
 31
0.0
  0
LINE
  5
111
330
1F
100
AcDbEntity
  8
0
  6
Continuous
 62
     7
370
    25
100
AcDbLine
 10
6149.0269964523
 20
5615.0167316815
 30
0.0
 11
6149.6632340285
 21
5614.1369349775
 31
0.0
  0
LINE
  5
112
330
1F
100
AcDbEntity
  8
0
  6
Continuous
 62
     7
370
    25
100
AcDbLine
 10
6149.3805498429
 20
5615.0167316815
 30
0.0
 11
6149.0269964523
 21
5615.0167316815
 31
0.0
  0
LINE
  5
113
330
1F
100
AcDbEntity
  8
0
  6
Continuous
 62
     7
370
    25
100
AcDbLine
 10
6149.046712232
 20
5615.772535867
 30
0.0
 11
6148.6931588414
 21
5615.772535867
 31
0.0
  0
LINE
  5
114
330
1F
100
AcDbEntity
  8
0
  6
Continuous
 62
     7
370
    25
100
AcDbLine
 10
6147.0574399096
 20
5616.6304929197
 30
0.0
 11
6146.703886519
 21
5616.6304929197
 31
0.0
  0
LWPOLYLINE
  5
115
330
1F
100
AcDbEntity
  8
0
  6
Continuous
 62
     7
370
    25
100
AcDbPolyline
 90
        3
 70
   128
 43
0.0
 10
6147.5767303044
 20
5616.1787687874
 10
6147.3343388823
 20
5616.3025078656
 10
6147.0574399096
 20
5616.6304929197
  0
LWPOLYLINE
  5
116
330
1F
100
AcDbEntity
  8
0
  6
Continuous
 62
     7
370
    25
100
AcDbPolyline
 90
        9
 70
   128
 43
0.0
 10
6147.7369507389
 20
5618.0729869806
 10
6147.8970337231
 20
5618.0325806717
 10
6148.0568559779
 20
5617.8914185543
 10
6148.163633799
 20
5617.6718506981
 10
6148.1996620403
 20
5617.4102842987
 10
6148.1589667524
 20
5617.1500904541
 10
6148.0482957414
 20
5616.9344126753
 10
6147.8859996949
 20
5616.7990131323
 10
6147.7369507389
 20
5616.7641370769
  0
LINE
  5
117
330
1F
100
AcDbEntity
  8
0
  6
Continuous
 62
     7
370
    25
100
AcDbLine
 10
6146.3260075622
 20
5618.5496345183
 30
0.0
 11
6147.5380835789
 21
5618.6471510613
 31
0.0
  0
LINE
  5
118
330
1F
100
AcDbEntity
  8
0
  6
Continuous
 62
     7
370
    25
100
AcDbLine
 10
6147.0574399096
 20
5616.6304929197
 30
0.0
 11
6146.2024730223
 21
5618.1612615283
 31
0.0
  0
LWPOLYLINE
  5
119
330
1F
100
AcDbEntity
  8
0
  6
Continuous
 62
     7
370
    25
100
AcDbPolyline
 90
        9
 70
   128
 43
0.0
 10
6146.2024730223
 20
5618.1612615283
 10
6146.1790558221
 20
5618.2175085187
 10
6146.167221041
 20
5618.2805983783
 10
6146.1678440533
 20
5618.3458645883
 10
6146.1808787768
 20
5618.4084796538
 10
6146.2053610825
 20
5618.4638121748
 10
6146.2394801066
 20
5618.5077694137
 10
6146.2807121938
 20
5618.5371000196
 10
6146.3260075622
 20
5618.5496345183
  0
LWPOLYLINE
  5
11A
330
1F
100
AcDbEntity
  8
0
  6
Continuous
 62
     7
370
    25
100
AcDbPolyline
 90
       11
 70
   128
 43
0.0
 10
6147.3571142448
 20
5618.0719305423
 10
6147.5434803326
 20
5618.0325806717
 10
6147.7033025873
 20
5617.8914185543
 10
6147.8100804084
 20
5617.6718506981
 10
6147.8461086497
 20
5617.4102842987
 10
6147.8054133618
 20
5617.1500904541
 10
6147.6947423508
 20
5616.9344126753
 10
6147.5324463043
 20
5616.7990131323
 10
6147.3454360097
 20
5616.7663428239
 10
6147.1647201969
 20
5616.8418189104
 10
6147.0202638892
 20
5617.0129264788
  0
LINE
  5
11B
330
1F
100
AcDbEntity
  8
0
  6
Continuous
 62
     7
370
    25
100
AcDbLine
 10
6147.0202638892
 20
5617.0129264788
 30
0.0
 11
6146.4687083867
 21
5618.0004546061
 31
0.0
  0
LINE
  5
11C
330
1F
100
AcDbEntity
  8
0
  6
Continuous
 62
     7
370
    25
100
AcDbLine
 10
6146.4687083867
 20
5618.0004546061
 30
0.0
 11
6147.3571142448
 21
5618.0719305423
 31
0.0
  0
LINE
  5
11D
330
1F
100
AcDbEntity
  8
0
  6
Continuous
 62
     7
370
    25
100
AcDbLine
 10
6146.3260075622
 20
5618.5496345183
 30
0.0
 11
6145.9724541716
 21
5618.5496345183
 31
0.0
  0
LINE
  5
11E
330
1F
100
AcDbEntity
  8
0
  6
Continuous
 62
     7
370
    25
100
AcDbLine
 10
6146.2024730223
 20
5618.1612615283
 30
0.0
 11
6145.8489196317
 21
5618.1612615283
 31
0.0
  0
ARC
  5
11F
330
1F
100
AcDbEntity
  8
0
  6
Continuous
 62
     7
370
    25
100
AcDbCircle
 10
6144.254691097
 20
5617.0978257291
 30
0.0
 40
1.055727235441173
100
AcDbArc
 50
110.9860616769
 51
172.6996379571
  0
LINE
  5
120
330
1F
100
AcDbEntity
  8
0
  6
Continuous
 62
     7
370
    25
100
AcDbLine
 10
6143.2075219669
 20
5617.2319779139
 30
0.0
 11
6142.8539685764
 21
5617.2319779139
 31
0.0
  0
LINE
  5
121
330
1F
100
AcDbEntity
  8
0
  6
Continuous
 62
     7
370
    25
100
AcDbLine
 10
6144.1798679815
 20
5616.2120554661
 30
0.0
 11
6143.3313225763
 21
5615.8331357683
 31
0.0
  0
LWPOLYLINE
  5
122
330
1F
100
AcDbEntity
  8
0
  6
Continuous
 62
     7
370
    25
100
AcDbPolyline
 90
        8
 70
   128
 43
0.0
 10
6144.0405317775
 20
5617.4905339911
 10
6144.2101657223
 20
5617.4449773889
 10
6144.3677442534
 20
5617.2988573605
 10
6144.4710667164
 20
5617.0760076647
 10
6144.503000908
 20
5616.8133796683
 10
6144.4582517256
 20
5616.5545204962
 10
6144.3442391634
 20
5616.3423523531
 10
6144.1798679815
 20
5616.2120554661
  0
LINE
  5
123
330
1F
100
AcDbEntity
  8
0
  6
Continuous
 62
     7
370
    25
100
AcDbLine
 10
6142.7921929656
 20
5615.3718185306
 30
0.0
 11
6143.2075219669
 21
5617.2319779139
 31
0.0
  0
ARC
  5
124
330
1F
100
AcDbEntity
  8
0
  6
Continuous
 62
     7
370
    25
100
AcDbCircle
 10
6143.1010961406
 20
5615.2996345596
 30
0.0
 40
0.317224994553638
100
AcDbArc
 50
166.8472341317
 51
208.7200509689
  0
LWPOLYLINE
  5
125
330
1F
100
AcDbEntity
  8
0
  6
Continuous
 62
     7
370
    25
100
AcDbPolyline
 90
       11
 70
   128
 43
0.0
 10
6143.2457058735
 20
5617.0331601887
 10
6143.3378396859
 20
5617.2656161434
 10
6143.4878652186
 20
5617.4268542551
 10
6143.6709062946
 20
5617.4901391558
 10
6143.8566123317
 20
5617.4449773889
 10
6144.0141908628
 20
5617.2988573605
 10
6144.1175133258
 20
5617.0760076647
 10
6144.1494475174
 20
5616.8133796683
 10
6144.104698335
 20
5616.5545204962
 10
6143.9906857728
 20
5616.3423523531
 10
6143.8263145909
 20
5616.2120554661
  0
LINE
  5
126
330
1F
100
AcDbEntity
  8
0
  6
Continuous
 62
     7
370
    25
100
AcDbLine
 10
6143.8263145909
 20
5616.2120554661
 30
0.0
 11
6142.9777691857
 21
5615.8331357683
 31
0.0
  0
LINE
  5
127
330
1F
100
AcDbEntity
  8
0
  6
Continuous
 62
     7
370
    25
100
AcDbLine
 10
6142.9777691857
 20
5615.8331357683
 30
0.0
 11
6143.2457058735
 21
5617.0331601887
 31
0.0
  0
LINE
  5
128
330
1F
100
AcDbEntity
  8
0
  6
Continuous
 62
     7
370
    25
100
AcDbLine
 10
6144.1798679815
 20
5616.2120554661
 30
0.0
 11
6143.8263145909
 21
5616.2120554661
 31
0.0
  0
LINE
  5
129
330
1F
100
AcDbEntity
  8
0
  6
Continuous
 62
     7
370
    25
100
AcDbLine
 10
6143.3313225763
 20
5615.8331357683
 30
0.0
 11
6142.9777691857
 21
5615.8331357683
 31
0.0
  0
LWPOLYLINE
  5
12A
330
1F
100
AcDbEntity
  8
0
  6
Continuous
 62
     7
370
    25
100
AcDbPolyline
 90
        7
 70
   128
 43
0.0
 10
6137.6365032229
 20
5610.6717383263
 10
6137.7675679122
 20
5611.9608999662
 10
6138.1501438987
 20
5613.145621397
 10
6138.7532371511
 20
5614.1299235341
 10
6139.5279886409
 20
5614.8340640723
 10
6140.41163261
 20
5615.2009977329
 10
6140.6953303494
 20
5615.2407386746
  0
LINE
  5
12B
330
1F
100
AcDbEntity
  8
0
  6
Continuous
 62
     7
370
    25
100
AcDbLine
 10
6137.6365032229
 20
5610.6717383263
 30
0.0
 11
6137.2829498323
 21
5610.6717383263
 31
0.0
  0
LWPOLYLINE
  5
12C
330
1F
100
AcDbEntity
  8
0
  6
Continuous
 62
     7
370
    25
100
AcDbPolyline
 90
        6
 70
   128
 43
0.0
 10
6140.8721070446
 20
5614.6475731334
 10
6141.7408588052
 20
5614.4529819273
 10
6142.5245710905
 20
5613.8882562521
 10
6143.1465286817
 20
5613.0086753915
 10
6143.5458500362
 20
5611.9003388486
 10
6143.6834467975
 20
5610.6717383263
  0
ARC
  5
12D
330
1F
100
AcDbEntity
  8
0
  6
Continuous
 62
     7
370
    25
100
AcDbCircle
 10
6143.4713147632
 20
5606.1883017934
 30
0.0
 40
0.214242852855332
100
AcDbArc
 50
281.4217536589
 51
8.0494669757
  0
LINE
  5
12E
330
1F
100
AcDbEntity
  8
0
  6
Continuous
 62
     7
370
    25
100
AcDbLine
 10
6143.6834467975
 20
5610.6717383263
 30
0.0
 11
6143.6834467975
 21
5606.2183017934
 31
0.0
  0
LINE
  5
12F
330
1F
100
AcDbEntity
  8
0
  6
Continuous
 62
     7
370
    25
100
AcDbLine
 10
6137.6365032229
 20
5606.2183017934
 30
0.0
 11
6137.6365032229
 21
5610.6717383263
 31
0.0
  0
ARC
  5
130
330
1F
100
AcDbEntity
  8
0
  6
Continuous
 62
     7
370
    25
100
AcDbCircle
 10
6138.3789653431
 20
5606.1133017934
 30
0.0
 40
0.7498499849944068
100
AcDbArc
 50
171.9505330243
 51
258.5782463412
  0
LINE
  5
131
330
1F
100
AcDbEntity
  8
0
  6
Continuous
 62
     7
370
    25
100
AcDbLine
 10
6143.329893407
 20
5610.6717383263
 30
0.0
 11
6143.329893407
 21
5606.2183017934
 31
0.0
  0
ARC
  5
132
330
1F
100
AcDbEntity
  8
0
  6
Continuous
 62
     7
370
    25
100
AcDbCircle
 10
6143.1177613726
 20
5606.1883017934
 30
0.0
 40
0.2142428528577789
100
AcDbArc
 50
281.4217536592
 51
8.0494669752
  0
LINE
  5
133
330
1F
100
AcDbEntity
  8
0
  6
Continuous
 62
     7
370
    25
100
AcDbLine
 10
6143.1601877795
 20
5605.9783017934
 30
0.0
 11
6137.8769195285
 21
5605.9783017934
 31
0.0
  0
ARC
  5
134
330
1F
100
AcDbEntity
  8
0
  6
Continuous
 62
     7
370
    25
100
AcDbCircle
 10
6137.9193459353
 20
5606.1883017934
 30
0.0
 40
0.214242852855676
100
AcDbArc
 50
171.9505330243
 51
258.5782463407
  0
LINE
  5
135
330
1F
100
AcDbEntity
  8
0
  6
Continuous
 62
     7
370
    25
100
AcDbLine
 10
6137.707213901
 20
5606.2183017934
 30
0.0
 11
6137.707213901
 21
5610.6717383263
 31
0.0
  0
LWPOLYLINE
  5
136
330
1F
100
AcDbEntity
  8
0
  6
Continuous
 62
     7
370
    25
100
AcDbPolyline
 90
       11
 70
   128
 43
0.0
 10
6137.707213901
 20
5610.6717383263
 10
6137.8448106624
 20
5611.9003388486
 10
6138.2441320168
 20
5613.0086753915
 10
6138.866089608
 20
5613.8882562521
 10
6139.6498018933
 20
5614.4529819273
 10
6140.518553654
 20
5614.6475731334
 10
6141.3873054146
 20
5614.4529819273
 10
6142.1710177
 20
5613.8882562521
 10
6142.7929752911
 20
5613.0086753915
 10
6143.1922966456
 20
5611.9003388486
 10
6143.329893407
 20
5610.6717383263
  0
LINE
  5
137
330
1F
100
AcDbEntity
  8
0
  6
Continuous
 62
     7
370
    25
100
AcDbLine
 10
6143.6834467975
 20
5610.6717383263
 30
0.0
 11
6143.329893407
 21
5610.6717383263
 31
0.0
  0
LINE
  5
138
330
1F
100
AcDbEntity
  8
0
  6
Continuous
 62
     7
370
    25
100
AcDbLine
 10
6143.6834467975
 20
5606.2183017934
 30
0.0
 11
6143.329893407
 21
5606.2183017934
 31
0.0
  0
LINE
  5
139
330
1F
100
AcDbEntity
  8
0
  6
Continuous
 62
     7
370
    25
100
AcDbLine
 10
6143.5137411701
 20
5605.9783017934
 30
0.0
 11
6143.1601877795
 21
5605.9783017934
 31
0.0
  0
LINE
  5
13A
330
1F
100
AcDbEntity
  8
0
  6
Continuous
 62
     7
370
    25
100
AcDbLine
 10
6142.7921929656
 20
5615.3718185306
 30
0.0
 11
6142.4386395751
 21
5615.3718185306
 31
0.0
  0
LINE
  5
13B
330
1F
100
AcDbEntity
  8
0
  6
Continuous
 62
     7
370
    25
100
AcDbLine
 10
6137.6365032229
 20
5606.2183017934
 30
0.0
 11
6137.2829498323
 21
5606.2183017934
 31
0.0
  0
LWPOLYLINE
  5
13C
330
1F
100
AcDbEntity
  8
0
  6
Continuous
 62
     7
370
    25
100
AcDbPolyline
 90
       38
 70
   128
 43
0.0
 10
6143.8405842613
 20
5548.8606091701
 10
6145.3343545872
 20
5549.0404102908
 10
6146.7851518606
 20
5549.5746411019
 10
6148.1512392853
 20
5550.4479327556
 10
6149.3933170133
 20
5551.6351622411
 10
6150.4756527299
 20
5553.1021751277
 10
6151.3671096071
 20
5554.8067681257
 10
6152.0420420537
 20
5556.6999031979
 10
6152.4810334918
 20
5558.7271182952
 10
6152.6714549373
 20
5560.8300941302
 10
6152.6078283117
 20
5562.948331917
 10
6152.2919840373
 20
5565.0208938111
 10
6151.7330083787
 20
5566.9881559803
 10
6150.946982048
 20
5568.7935238739
 10
6149.9565175915
 20
5570.3850603445
 10
6148.7901088684
 20
5571.7169797857
 10
6147.4813113339
 20
5572.7509653
 10
6146.0677767102
 20
5573.4572710068
 10
6144.5901698148
 20
5573.8155777769
 10
6143.0909987078
 20
5573.8155777769
 10
6141.6133918123
 20
5573.4572710068
 10
6140.1998571886
 20
5572.7509653
 10
6138.8910596541
 20
5571.7169797857
 10
6137.724650931
 20
5570.3850603445
 10
6136.7341864746
 20
5568.7935238739
 10
6135.9481601439
 20
5566.9881559803
 10
6135.3891844853
 20
5565.0208938111
 10
6135.0733402109
 20
5562.948331917
 10
6135.0097135853
 20
5560.8300941302
 10
6135.2001350307
 20
5558.7271182952
 10
6135.6391264689
 20
5556.6999031979
 10
6136.3140589154
 20
5554.8067681257
 10
6137.2055157926
 20
5553.1021751277
 10
6138.2878515092
 20
5551.6351622411
 10
6139.5299292373
 20
5550.4479327556
 10
6140.896016662
 20
5549.5746411019
 10
6142.3468139353
 20
5549.0404102908
 10
6143.8405842613
 20
5548.8606091701
  0
LWPOLYLINE
  5
13D
330
1F
100
AcDbEntity
  8
0
  6
Continuous
 62
     7
370
    25
100
AcDbPolyline
 90
       40
 70
   128
 43
0.0
 10
6144.9012444331
 20
5547.3606091701
 10
6143.3132537704
 20
5547.5419054932
 10
6141.7663912318
 20
5548.0810989829
 10
6140.3007197445
 20
5548.964224811
 10
6138.95419943
 20
5550.1684104825
 10
6137.7617044573
 20
5551.662468221
 10
6136.7541198197
 20
5553.4077027159
 10
6135.9575414302
 20
5555.3589133105
 10
6135.3926002504
 20
5557.4655646753
 10
6135.0739279604
 20
5559.6730956465
 10
6135.0097780049
 20
5561.9243323316
 10
6135.2018118342
 20
5564.160968883
 10
6135.6450558729
 20
5566.3250775887
 10
6136.3280303333
 20
5568.3606091701
 10
6137.2330465356
 20
5570.2148444285
 10
6138.3366650355
 20
5571.8397596445
 10
6139.6103026935
 20
5573.1932703677
 10
6141.0209729634
 20
5574.2403213813
 10
6142.5321402262
 20
5574.9537946141
 10
6144.1046660435
 20
5575.315211484
 10
6145.6978228226
 20
5575.315211484
 10
6147.2703486399
 20
5574.9537946141
 10
6148.7815159027
 20
5574.2403213813
 10
6150.1921861726
 20
5573.1932703677
 10
6151.4658238307
 20
5571.8397596445
 10
6152.5694423305
 20
5570.2148444285
 10
6153.4744585328
 20
5568.3606091701
 10
6154.1574329932
 20
5566.3250775887
 10
6154.6006770319
 20
5564.160968883
 10
6154.7927108612
 20
5561.9243323316
 10
6154.7285609057
 20
5559.6730956465
 10
6154.4098886157
 20
5557.4655646753
 10
6153.844947436
 20
5555.3589133105
 10
6153.0483690464
 20
5553.4077027159
 10
6152.0407844088
 20
5551.662468221
 10
6150.8482894361
 20
5550.1684104825
 10
6149.5017691216
 20
5548.964224811
 10
6148.0360976343
 20
5548.0810989829
 10
6146.4892350957
 20
5547.5419054932
 10
6144.9012444331
 20
5547.3606091701
  0
LINE
  5
13E
330
1F
100
AcDbEntity
  8
0
  6
Continuous
 62
     7
370
    25
100
AcDbLine
 10
6147.6114409481
 20
5553.6294324874
 30
0.0
 11
6148.2921091765
 21
5558.5493495517
 31
0.0
  0
ARC
  5
13F
330
1F
100
AcDbEntity
  8
0
  6
Continuous
 62
     7
370
    25
100
AcDbCircle
 10
6147.5921788554
 20
5561.4700730939
 30
0.0
 40
3.003419461941002
100
AcDbArc
 50
283.4763794364
 51
7.6198307146
  0
LINE
  5
140
330
1F
100
AcDbEntity
  8
0
  6
Continuous
 62
     7
370
    25
100
AcDbLine
 10
6150.5690772389
 20
5561.8683248723
 30
0.0
 11
6150.5690772389
 21
5563.6112762647
 31
0.0
  0
LINE
  5
141
330
1F
100
AcDbEntity
  8
0
  6
Continuous
 62
     7
370
    25
100
AcDbLine
 10
6150.5690772389
 20
5563.6112762647
 30
0.0
 11
6143.003509979
 21
5563.6112762647
 31
0.0
  0
ARC
  5
142
330
1F
100
AcDbEntity
  8
0
  6
Continuous
 62
     7
370
    25
100
AcDbCircle
 10
6143.0565429876
 20
5563.8737762647
 30
0.0
 40
0.2678035660690097
100
AcDbArc
 50
171.9505330243
 51
258.5782463413
  0
LINE
  5
143
330
1F
100
AcDbEntity
  8
0
  6
Continuous
 62
     7
370
    25
100
AcDbLine
 10
6142.7913779447
 20
5563.9112762647
 30
0.0
 11
6142.7913779447
 21
5568.3905796869
 31
0.0
  0
ARC
  5
144
330
1F
100
AcDbEntity
  8
0
  6
Continuous
 62
     7
370
    25
100
AcDbCircle
 10
6141.6423294252
 20
5568.5530796869
 30
0.0
 40
1.160482119637458
100
AcDbArc
 50
351.9505330244
 51
78.5782463411
  0
LINE
  5
145
330
1F
100
AcDbEntity
  8
0
  6
Continuous
 62
     7
370
    25
100
AcDbLine
 10
6141.8721391291
 20
5569.6905796869
 30
0.0
 11
6139.9380391739
 21
5569.6905796869
 31
0.0
  0
ARC
  5
146
330
1F
100
AcDbEntity
  8
0
  6
Continuous
 62
     7
370
    25
100
AcDbCircle
 10
6140.1678488778
 20
5568.5530796869
 30
0.0
 40
1.160482119639132
100
AcDbArc
 50
101.421753659
 51
188.0494669755
  0
LINE
  5
147
330
1F
100
AcDbEntity
  8
0
  6
Continuous
 62
     7
370
    25
100
AcDbLine
 10
6139.0188003584
 20
5568.3905796869
 30
0.0
 11
6139.0188003584
 21
5553.6294324874
 31
0.0
  0
LINE
  5
148
330
1F
100
AcDbEntity
  8
0
  6
Continuous
 62
     7
370
    25
100
AcDbLine
 10
6139.0188003584
 20
5553.6294324874
 30
0.0
 11
6147.6114409481
 21
5553.6294324874
 31
0.0
  0
LWPOLYLINE
  5
149
330
1F
100
AcDbEntity
  8
0
  6
Continuous
 62
     7
370
    25
100
AcDbPolyline
 90
       21
 70
   128
 43
0.0
 10
6145.2547978237
 20
5547.3606091701
 10
6146.8427884863
 20
5547.5419054932
 10
6148.3896510249
 20
5548.0810989829
 10
6149.8553225122
 20
5548.964224811
 10
6151.2018428267
 20
5550.1684104825
 10
6152.3943377994
 20
5551.662468221
 10
6153.401922437
 20
5553.4077027159
 10
6154.1985008266
 20
5555.3589133105
 10
6154.7634420063
 20
5557.4655646753
 10
6155.0821142963
 20
5559.6730956465
 10
6155.1462642518
 20
5561.9243323316
 10
6154.9542304225
 20
5564.160968883
 10
6154.5109863838
 20
5566.3250775887
 10
6153.8280119234
 20
5568.3606091701
 10
6152.9229957211
 20
5570.2148444285
 10
6151.8193772213
 20
5571.8397596445
 10
6150.5457395632
 20
5573.1932703677
 10
6149.1350692933
 20
5574.2403213813
 10
6147.6239020305
 20
5574.9537946141
 10
6146.0513762132
 20
5575.315211484
 10
6145.2547978237
 20
5575.3606091701
  0
LINE
  5
14A
330
1F
100
AcDbEntity
  8
0
  6
Continuous
 62
     7
370
    25
100
AcDbLine
 10
6139.0541556975
 20
5568.3905796869
 30
0.0
 11
6139.0541556975
 21
5553.6294324874
 31
0.0
  0
ARC
  5
14B
330
1F
100
AcDbEntity
  8
0
  6
Continuous
 62
     7
370
    25
100
AcDbCircle
 10
6140.2032042169
 20
5568.5530796869
 30
0.0
 40
1.160482119638231
100
AcDbArc
 50
101.421753659
 51
188.0494669755
  0
LINE
  5
14C
330
1F
100
AcDbEntity
  8
0
  6
Continuous
 62
     7
370
    25
100
AcDbLine
 10
6147.355713995
 20
5554.1294324874
 30
0.0
 11
6148.0378240469
 21
5559.0597711517
 31
0.0
  0
LWPOLYLINE
  5
14D
330
1F
100
AcDbEntity
  8
0
  6
Continuous
 62
     7
370
    25
100
AcDbPolyline
 90
        9
 70
   128
 43
0.0
 10
6148.2564896439
 20
5559.0478321312
 10
6148.4566356387
 20
5559.0620707028
 10
6148.8659639966
 20
5559.1827595074
 10
6149.2485032701
 20
5559.4214907477
 10
6149.587439172
 20
5559.7677711335
 10
6149.8678739753
 20
5560.2063801153
 10
6150.0774813343
 20
5560.7180388951
 10
6150.2070480815
 20
5561.280257814
 10
6150.2508791873
 20
5561.8683248723
  0
LINE
  5
14E
330
1F
100
AcDbEntity
  8
0
  6
Continuous
 62
     7
370
    25
100
AcDbLine
 10
6150.2508791873
 20
5561.8683248723
 30
0.0
 11
6150.2508791873
 21
5563.1112762647
 31
0.0
  0
ARC
  5
14F
330
1F
100
AcDbEntity
  8
0
  6
Continuous
 62
     7
370
    25
100
AcDbCircle
 10
6143.1802866743
 20
5563.8112762647
 30
0.0
 40
0.7141428428564708
100
AcDbArc
 50
171.9505330246
 51
258.5782463408
  0
LINE
  5
150
330
1F
100
AcDbEntity
  8
0
  6
Continuous
 62
     7
370
    25
100
AcDbLine
 10
6142.4731798931
 20
5563.9112762647
 30
0.0
 11
6142.4731798931
 21
5568.3905796869
 31
0.0
  0
ARC
  5
151
330
1F
100
AcDbEntity
  8
0
  6
Continuous
 62
     7
370
    25
100
AcDbCircle
 10
6141.7660731119
 20
5568.4905796869
 30
0.0
 40
0.714142842857002
100
AcDbArc
 50
351.9505330247
 51
78.578246341
  0
LINE
  5
152
330
1F
100
AcDbEntity
  8
0
  6
Continuous
 62
     7
370
    25
100
AcDbLine
 10
6150.2508791873
 20
5561.8683248723
 30
0.0
 11
6150.2155238483
 21
5561.8683248723
 31
0.0
  0
LWPOLYLINE
  5
153
330
1F
100
AcDbEntity
  8
0
  6
Continuous
 62
     7
370
    25
100
AcDbPolyline
 90
        9
 70
   128
 43
0.0
 10
6148.003154643
 20
5559.0647291388
 10
6148.4212802996
 20
5559.0620707028
 10
6148.8306086575
 20
5559.1827595074
 10
6149.2131479311
 20
5559.4214907477
 10
6149.552083833
 20
5559.7677711335
 10
6149.8325186363
 20
5560.2063801153
 10
6150.0421259952
 20
5560.7180388951
 10
6150.1716927424
 20
5561.280257814
 10
6150.2155238483
 20
5561.8683248723
  0
ARC
  5
154
330
1F
100
AcDbEntity
  8
0
  6
Continuous
 62
     7
370
    25
100
AcDbCircle
 10
6140.0794605302
 20
5568.4905796869
 30
0.0
 40
0.7141428428561278
100
AcDbArc
 50
101.4217536591
 51
188.0494669755
  0
LINE
  5
155
330
1F
100
AcDbEntity
  8
0
  6
Continuous
 62
     7
370
    25
100
AcDbLine
 10
6141.8721391291
 20
5569.1905796869
 30
0.0
 11
6139.9380391739
 21
5569.1905796869
 31
0.0
  0
ARC
  5
156
330
1F
100
AcDbEntity
  8
0
  6
Continuous
 62
     7
370
    25
100
AcDbCircle
 10
6141.7307177729
 20
5568.4905796869
 30
0.0
 40
0.7141428428584474
100
AcDbArc
 50
351.9505330248
 51
78.5782463408
  0
LINE
  5
157
330
1F
100
AcDbEntity
  8
0
  6
Continuous
 62
     7
370
    25
100
AcDbLine
 10
6142.4378245541
 20
5563.9112762647
 30
0.0
 11
6142.4378245541
 21
5568.3905796869
 31
0.0
  0
ARC
  5
158
330
1F
100
AcDbEntity
  8
0
  6
Continuous
 62
     7
370
    25
100
AcDbCircle
 10
6143.1449313353
 20
5563.8112762647
 30
0.0
 40
0.7141428428536809
100
AcDbArc
 50
171.9505330244
 51
258.578246341
  0
LINE
  5
159
330
1F
100
AcDbEntity
  8
0
  6
Continuous
 62
     7
370
    25
100
AcDbLine
 10
6150.2155238483
 20
5563.1112762647
 30
0.0
 11
6143.003509979
 21
5563.1112762647
 31
0.0
  0
LINE
  5
15A
330
1F
100
AcDbEntity
  8
0
  6
Continuous
 62
     7
370
    25
100
AcDbLine
 10
6150.2155238483
 20
5561.8683248723
 30
0.0
 11
6150.2155238483
 21
5563.1112762647
 31
0.0
  0
LINE
  5
15B
330
1F
100
AcDbEntity
  8
0
  6
Continuous
 62
     7
370
    25
100
AcDbLine
 10
6147.3203586559
 20
5554.1294324874
 30
0.0
 11
6148.003154643
 21
5559.0647291388
 31
0.0
  0
LINE
  5
15C
330
1F
100
AcDbEntity
  8
0
  6
Continuous
 62
     7
370
    25
100
AcDbLine
 10
6139.372353749
 20
5554.1294324874
 30
0.0
 11
6147.3203586559
 21
5554.1294324874
 31
0.0
  0
LINE
  5
15D
330
1F
100
AcDbEntity
  8
0
  6
Continuous
 62
     7
370
    25
100
AcDbLine
 10
6139.372353749
 20
5568.3905796869
 30
0.0
 11
6139.372353749
 21
5554.1294324874
 31
0.0
  0
LINE
  5
15E
330
1F
100
AcDbEntity
  8
0
  6
Continuous
 62
     7
370
    25
100
AcDbLine
 10
6150.2508791873
 20
5563.1112762647
 30
0.0
 11
6150.2155238483
 21
5563.1112762647
 31
0.0
  0
LINE
  5
15F
330
1F
100
AcDbEntity
  8
0
  6
Continuous
 62
     7
370
    25
100
AcDbLine
 10
6147.355713995
 20
5554.1294324874
 30
0.0
 11
6147.3203586559
 21
5554.1294324874
 31
0.0
  0
LINE
  5
160
330
1F
100
AcDbEntity
  8
0
  6
Continuous
 62
     7
370
    25
100
AcDbLine
 10
6142.4731798931
 20
5563.9112762647
 30
0.0
 11
6142.4378245541
 21
5563.9112762647
 31
0.0
  0
LINE
  5
161
330
1F
100
AcDbEntity
  8
0
  6
Continuous
 62
     7
370
    25
100
AcDbLine
 10
6142.4731798931
 20
5568.3905796869
 30
0.0
 11
6142.4378245541
 21
5568.3905796869
 31
0.0
  0
LINE
  5
162
330
1F
100
AcDbEntity
  8
0
  6
Continuous
 62
     7
370
    25
100
AcDbLine
 10
6141.9074944682
 20
5569.1905796869
 30
0.0
 11
6141.8721391291
 21
5569.1905796869
 31
0.0
  0
LINE
  5
163
330
1F
100
AcDbEntity
  8
0
  6
Continuous
 62
     7
370
    25
100
AcDbLine
 10
6139.0541556975
 20
5568.3905796869
 30
0.0
 11
6139.0188003584
 21
5568.3905796869
 31
0.0
  0
LWPOLYLINE
  5
164
330
1F
100
AcDbEntity
  8
0
  6
Continuous
 62
     7
370
    25
100
AcDbPolyline
 90
       21
 70
   128
 43
0.0
 10
6208.9142519602
 20
5727.6629811944
 10
6209.8121501932
 20
5727.5350910997
 10
6210.8030197976
 20
5727.1639395888
 10
6211.7898675528
 20
5726.5858575578
 10
6212.6760939248
 20
5725.8574317035
 10
6213.3749489016
 20
5725.0499654238
 10
6213.8180236887
 20
5724.2424991441
 10
6213.9619470391
 20
5723.5140732899
 10
6213.7926307323
 20
5722.9359912588
 10
6213.3266486281
 20
5722.564839748
 10
6212.6096143017
 20
5722.4369496532
 10
6211.7117160687
 20
5722.564839748
 10
6210.7208464643
 20
5722.9359912588
 10
6209.7339987091
 20
5723.5140732899
 10
6208.8477723371
 20
5724.2424991441
 10
6208.1489173603
 20
5725.0499654238
 10
6207.7058425732
 20
5725.8574317035
 10
6207.5619192229
 20
5726.5858575578
 10
6207.7312355297
 20
5727.1639395888
 10
6208.1972176338
 20
5727.5350910997
 10
6208.9142519602
 20
5727.6629811944
  0
LWPOLYLINE
  5
165
330
1F
100
AcDbEntity
  8
0
  6
Continuous
 62
     7
370
    25
100
AcDbPolyline
 90
       14
 70
   128
 43
0.0
 10
6212.2255269506
 20
5722.462692702
 10
6212.5493251793
 20
5722.5648809236
 10
6212.9268770579
 20
5722.9332443355
 10
6213.0013692673
 20
5723.497609825
 10
6212.7638169477
 20
5724.1899065849
 10
6212.2428724147
 20
5724.9266334087
 10
6211.5013692673
 20
5725.6189301686
 10
6210.6287437285
 20
5726.183295658
 10
6209.730247317
 20
5726.5516590699
 10
6208.9142519602
 20
5726.6795903403
 10
6208.2791787411
 20
5726.5516590699
 10
6207.9016268625
 20
5726.183295658
 10
6207.8271346531
 20
5725.6189301686
 10
6207.8347644094
 20
5725.567430669
  0
LINE
  5
166
330
1F
100
AcDbEntity
  8
0
  6
Continuous
 62
     8
370
    25
100
AcDbLine
 10
6526.4576706106
 20
5212.8647002481
 30
0.0
 11
6526.4402456603
 21
5212.8537239631
 31
0.0
  0
LINE
  5
167
330
1F
100
AcDbEntity
  8
0
  6
Continuous
 62
     8
370
    25
100
AcDbLine
 10
6149.9278765985
 20
5610.3830627576
 30
0.0
 11
6149.626749429
 21
5610.3830627576
 31
0.0
  0
LINE
  5
168
330
1F
100
AcDbEntity
  8
0
  6
Continuous
 62
     8
370
    25
100
AcDbLine
 10
6147.4503339938
 20
5618.6604294581
 30
0.0
 11
6147.3495732245
 21
5618.6604294581
 31
0.0
  0
LWPOLYLINE
  5
169
330
1F
100
AcDbEntity
  8
0
  6
Continuous
 62
     7
370
    25
100
AcDbPolyline
 90
        3
 70
   128
 43
0.0
 10
7681.8519035251
 20
4885.3561083905
 10
7744.907895022
 20
5050.2710360349
 10
7806.6441697705
 20
5211.7344134283
  0
ARC
  5
16A
330
1F
100
AcDbEntity
  8
0
  6
Continuous
 62
     7
370
    25
100
AcDbCircle
 10
7797.3228919244
 20
5215.3561083905
 30
0.0
 40
10.00000000000076
100
AcDbArc
 50
338.6878361169
 51
90.0002141962
  0
LINE
  5
16B
330
1F
100
AcDbEntity
  8
0
  6
Continuous
 62
     7
370
    25
100
AcDbLine
 10
7425.9072779737
 20
5225.3561079676
 30
0.0
 11
7425.9013798863
 21
5225.3561053014
 31
0.0
  0
LINE
  5
16C
330
1F
100
AcDbEntity
  8
0
  6
Continuous
 62
     7
370
    25
100
AcDbLine
 10
7342.4419049985
 20
5597.8606091701
 30
0.0
 11
7342.795458389
 21
5597.8606091701
 31
0.0
  0
LINE
  5
16D
330
1F
100
AcDbEntity
  8
0
  6
Continuous
 62
     7
370
    25
100
AcDbLine
 10
7342.795458389
 20
5625.8606091701
 30
0.0
 11
7342.4419049985
 21
5625.8606091701
 31
0.0
  0
LINE
  5
16E
330
1F
100
AcDbEntity
  8
0
  6
Continuous
 62
     7
370
    25
100
AcDbLine
 10
7340.5340879535
 20
5614.6475731334
 30
0.0
 11
7340.1805345629
 21
5614.6475731334
 31
0.0
  0
LINE
  5
16F
330
1F
100
AcDbEntity
  8
0
  6
Continuous
 62
     7
370
    25
100
AcDbLine
 10
7343.7025126865
 20
5617.4905339911
 30
0.0
 11
7343.3489592959
 21
5617.4905339911
 31
0.0
  0
LINE
  5
170
330
1F
100
AcDbEntity
  8
0
  6
Continuous
 62
     7
370
    25
100
AcDbLine
 10
7347.3989316479
 20
5618.0729869806
 30
0.0
 11
7347.0453782573
 21
5618.0729869806
 31
0.0
  0
LINE
  5
171
330
1F
100
AcDbEntity
  8
0
  6
Continuous
 62
     7
370
    25
100
AcDbLine
 10
7347.0453782573
 20
5616.7641370769
 30
0.0
 11
7347.3989316479
 21
5616.7641370769
 31
0.0
  0
LINE
  5
172
330
1F
100
AcDbEntity
  8
0
  6
Continuous
 62
     7
370
    25
100
AcDbLine
 10
7349.0016964354
 20
5613.0145959572
 30
0.0
 11
7349.355249826
 21
5613.0145959572
 31
0.0
  0
LINE
  5
173
330
1F
100
AcDbEntity
  8
0
  6
Continuous
 62
     7
370
    25
100
AcDbLine
 10
7349.4392939227
 20
5607.4448892456
 30
0.0
 11
7349.7928473133
 21
5607.4448892456
 31
0.0
  0
LINE
  5
174
330
1F
100
AcDbEntity
  8
0
  6
Continuous
 62
     7
370
    25
100
AcDbLine
 10
7342.4419049985
 20
5547.3606091701
 30
0.0
 11
7342.795458389
 21
5547.3606091701
 31
0.0
  0
LINE
  5
175
330
1F
100
AcDbEntity
  8
0
  6
Continuous
 62
     7
370
    25
100
AcDbLine
 10
7342.795458389
 20
5575.3606091701
 30
0.0
 11
7342.4419049985
 21
5575.3606091701
 31
0.0
  0
LINE
  5
176
330
1F
100
AcDbEntity
  8
0
  6
Continuous
 62
     7
370
    25
100
AcDbLine
 10
7348.2013132653
 20
5559.0478321312
 30
0.0
 11
7348.2366686043
 21
5559.0478321312
 31
0.0
  0
ARC
  5
177
330
1F
100
AcDbEntity
  8
0
  6
Continuous
 62
     7
370
    25
100
AcDbCircle
 10
7034.8518075748
 20
5709.3561083905
 30
0.0
 40
22.50000000000042
100
AcDbArc
 50
10.2403483212
 51
169.9112106481
  0
LINE
  5
178
330
1F
100
AcDbEntity
  8
0
  6
Continuous
 62
     7
370
    25
100
AcDbLine
 10
7263.714722585
 20
4835.3561083905
 30
0.0
 11
6963.3518075748
 21
4835.3561083905
 31
0.0
  0
LINE
  5
179
330
1F
100
AcDbEntity
  8
0
  6
Continuous
 62
     7
370
    25
100
AcDbLine
 10
6963.3518075748
 20
4835.3561083905
 30
0.0
 11
6963.3518075748
 21
5707.3561083905
 31
0.0
  0
LINE
  5
17A
330
1F
100
AcDbEntity
  8
0
  6
Continuous
 62
     7
370
    25
100
AcDbLine
 10
7263.714722585
 20
5707.3561083905
 30
0.0
 11
6963.3518075748
 21
5707.3561083905
 31
0.0
  0
LINE
  5
17B
330
1F
100
AcDbEntity
  8
0
  6
Continuous
 62
     7
370
    25
100
AcDbLine
 10
7263.714722585
 20
4835.3561083905
 30
0.0
 11
7263.714722585
 21
5707.3561083905
 31
0.0
  0
LINE
  5
17C
330
1F
100
AcDbEntity
  8
0
  6
Continuous
 62
     7
370
    25
100
AcDbLine
 10
7320.2832650799
 20
5707.3561083905
 30
0.0
 11
7263.714722585
 21
5707.3561083905
 31
0.0
  0
LINE
  5
17D
330
1F
100
AcDbEntity
  8
0
  6
Continuous
 62
     7
370
    25
100
AcDbLine
 10
7320.2832650799
 20
4835.3561083905
 30
0.0
 11
7320.2832650799
 21
5707.3561083905
 31
0.0
  0
LINE
  5
17E
330
1F
100
AcDbEntity
  8
0
  6
Continuous
 62
     7
370
    25
100
AcDbLine
 10
7320.2832650799
 20
4835.3561083905
 30
0.0
 11
7263.714722585
 21
4835.3561083905
 31
0.0
  0
LINE
  5
17F
330
1F
100
AcDbEntity
  8
0
  6
Continuous
 62
     7
370
    25
100
AcDbLine
 10
6961.8518075748
 20
4835.3561083905
 30
0.0
 11
6963.3518075748
 21
4835.3561083905
 31
0.0
  0
LINE
  5
180
330
1F
100
AcDbEntity
  8
0
  6
Continuous
 62
     7
370
    25
100
AcDbLine
 10
6961.8518075748
 20
5707.3561083905
 30
0.0
 11
6962.4453492489
 21
5707.3561083905
 31
0.0
  0
LINE
  5
181
330
1F
100
AcDbEntity
  8
0
  6
Continuous
 62
     7
370
    25
100
AcDbLine
 10
6961.8518075748
 20
4835.3561083905
 30
0.0
 11
6961.8518075748
 21
5707.3561083905
 31
0.0
  0
LINE
  5
182
330
1F
100
AcDbEntity
  8
0
  6
Continuous
 62
     7
370
    25
100
AcDbLine
 10
7360.826681309
 20
4835.3561083905
 30
0.0
 11
7360.826681309
 21
5707.3561083905
 31
0.0
  0
LINE
  5
183
330
1F
100
AcDbEntity
  8
0
  6
Continuous
 62
     7
370
    25
100
AcDbLine
 10
7360.826681309
 20
4835.3561083905
 30
0.0
 11
7320.2832650799
 21
4835.3561083905
 31
0.0
  0
LINE
  5
184
330
1F
100
AcDbEntity
  8
0
  6
Continuous
 62
     7
370
    25
100
AcDbLine
 10
7360.826681309
 20
5707.3561083905
 30
0.0
 11
7320.2832650799
 21
5707.3561083905
 31
0.0
  0
LINE
  5
185
330
1F
100
AcDbEntity
  8
0
  6
Continuous
 62
     7
370
    25
100
AcDbLine
 10
7681.8517429609
 20
4885.3561083905
 30
0.0
 11
7589.3518075748
 21
4885.3561083905
 31
0.0
  0
LINE
  5
186
330
1F
100
AcDbEntity
  8
0
  6
Continuous
 62
     7
370
    25
100
AcDbLine
 10
7589.3518075748
 20
4885.3561083905
 30
0.0
 11
7630.290267736
 21
5212.8637896803
 31
0.0
  0
LINE
  5
187
330
1F
100
AcDbEntity
  8
0
  6
Continuous
 62
     7
370
    25
100
AcDbLine
 10
7630.290267736
 20
5225.3561083905
 30
0.0
 11
7797.1691572378
 21
5225.3561083905
 31
0.0
  0
LINE
  5
188
330
1F
100
AcDbEntity
  8
0
  6
Continuous
 62
     7
370
    25
100
AcDbLine
 10
7630.290267736
 20
5225.3561083905
 30
0.0
 11
7630.290267736
 21
5212.8637896803
 31
0.0
  0
LINE
  5
189
330
1F
100
AcDbEntity
  8
0
  6
Continuous
 62
     7
370
    25
100
AcDbLine
 10
7361.8518075748
 20
4835.3561083905
 30
0.0
 11
7360.826681309
 21
4835.3561083905
 31
0.0
  0
LINE
  5
18A
330
1F
100
AcDbEntity
  8
0
  6
Continuous
 62
     7
370
    25
100
AcDbLine
 10
7361.8518075748
 20
5707.3561083905
 30
0.0
 11
7360.826681309
 21
5707.3561083905
 31
0.0
  0
LINE
  5
18B
330
1F
100
AcDbEntity
  8
0
  6
Continuous
 62
     7
370
    25
100
AcDbLine
 10
7361.8518075748
 20
4835.3561083905
 30
0.0
 11
7361.8518075748
 21
5707.3561083905
 31
0.0
  0
LINE
  5
18C
330
1F
100
AcDbEntity
  8
0
  6
Continuous
 62
     7
370
    25
100
AcDbLine
 10
7361.8518075748
 20
5225.3561083905
 30
0.0
 11
7630.290267736
 21
5225.3561083905
 31
0.0
  0
LINE
  5
18D
330
1F
100
AcDbEntity
  8
0
  6
Continuous
 62
     7
370
    25
100
AcDbLine
 10
7630.290267736
 20
5212.8637896803
 30
0.0
 11
7361.8518075748
 21
5212.8637896803
 31
0.0
  0
LINE
  5
18E
330
1F
100
AcDbEntity
  8
0
  6
Continuous
 62
     7
370
    25
100
AcDbLine
 10
7589.3518075748
 20
4885.3561083905
 30
0.0
 11
7361.8518075748
 21
4885.3561083905
 31
0.0
  0
LINE
  5
18F
330
1F
100
AcDbEntity
  8
0
  6
Continuous
 62
     7
370
    25
100
AcDbLine
 10
7221.8518075748
 20
4836.8561083905
 30
0.0
 11
7221.8518075748
 21
4835.3561083905
 31
0.0
  0
LINE
  5
190
330
1F
100
AcDbEntity
  8
0
  6
Continuous
 62
     7
370
    25
100
AcDbLine
 10
7263.714722585
 20
4836.8561083905
 30
0.0
 11
7221.8518075748
 21
4836.8561083905
 31
0.0
  0
LINE
  5
191
330
1F
100
AcDbEntity
  8
0
  6
Continuous
 62
     7
370
    25
100
AcDbLine
 10
7263.714722585
 20
4836.8561083905
 30
0.0
 11
7263.714722585
 21
4835.3561083905
 31
0.0
  0
LINE
  5
192
330
1F
100
AcDbEntity
  8
0
  6
Continuous
 62
     7
370
    25
100
AcDbLine
 10
7263.714722585
 20
4835.3561083905
 30
0.0
 11
7221.8518075748
 21
4835.3561083905
 31
0.0
  0
LINE
  5
193
330
1F
100
AcDbEntity
  8
0
  6
Continuous
 62
     7
370
    25
100
AcDbLine
 10
7320.2832650799
 20
4836.8561083905
 30
0.0
 11
7320.2832650799
 21
4835.3561083905
 31
0.0
  0
LINE
  5
194
330
1F
100
AcDbEntity
  8
0
  6
Continuous
 62
     7
370
    25
100
AcDbLine
 10
7320.2832650799
 20
4836.8561083905
 30
0.0
 11
7263.714722585
 21
4836.8561083905
 31
0.0
  0
LINE
  5
195
330
1F
100
AcDbEntity
  8
0
  6
Continuous
 62
     7
370
    25
100
AcDbLine
 10
7360.826681309
 20
4836.8561083905
 30
0.0
 11
7360.826681309
 21
4835.3561083905
 31
0.0
  0
LINE
  5
196
330
1F
100
AcDbEntity
  8
0
  6
Continuous
 62
     7
370
    25
100
AcDbLine
 10
7360.826681309
 20
4836.8561083905
 30
0.0
 11
7320.2832650799
 21
4836.8561083905
 31
0.0
  0
LINE
  5
197
330
1F
100
AcDbEntity
  8
0
  6
Continuous
 62
     7
370
    25
100
AcDbLine
 10
7361.8518075748
 20
4836.8561083905
 30
0.0
 11
7361.8518075748
 21
4835.3561083905
 31
0.0
  0
LINE
  5
198
330
1F
100
AcDbEntity
  8
0
  6
Continuous
 62
     7
370
    25
100
AcDbLine
 10
7361.8518075748
 20
4836.8561083905
 30
0.0
 11
7360.826681309
 21
4836.8561083905
 31
0.0
  0
LINE
  5
199
330
1F
100
AcDbEntity
  8
0
  6
Continuous
 62
     7
370
    25
100
AcDbLine
 10
7263.714722585
 20
5709.8561083905
 30
0.0
 11
7263.714722585
 21
5713.3561083905
 31
0.0
  0
LINE
  5
19A
330
1F
100
AcDbEntity
  8
0
  6
Continuous
 62
     7
370
    25
100
AcDbLine
 10
7263.714722585
 20
5709.8561083905
 30
0.0
 11
6965.3518075748
 21
5709.8561083905
 31
0.0
  0
LINE
  5
19B
330
1F
100
AcDbEntity
  8
0
  6
Continuous
 62
     7
370
    25
100
AcDbLine
 10
6963.8518075748
 20
5713.3561083905
 30
0.0
 11
6965.3518075748
 21
5709.8561083905
 31
0.0
  0
LINE
  5
19C
330
1F
100
AcDbEntity
  8
0
  6
Continuous
 62
     7
370
    25
100
AcDbLine
 10
6963.8518075748
 20
5713.3561083905
 30
0.0
 11
7263.714722585
 21
5713.3561083905
 31
0.0
  0
LINE
  5
19D
330
1F
100
AcDbEntity
  8
0
  6
Continuous
 62
     7
370
    25
100
AcDbLine
 10
6965.3518075748
 20
5709.8561083905
 30
0.0
 11
6965.3518075748
 21
5707.3561083905
 31
0.0
  0
LINE
  5
19E
330
1F
100
AcDbEntity
  8
0
  6
Continuous
 62
     7
370
    25
100
AcDbLine
 10
7263.714722585
 20
5707.3561083905
 30
0.0
 11
7263.714722585
 21
5709.8561083905
 31
0.0
  0
LINE
  5
19F
330
1F
100
AcDbEntity
  8
0
  6
Continuous
 62
     7
370
    25
100
AcDbLine
 10
6965.3518075748
 20
5707.3561083905
 30
0.0
 11
7263.714722585
 21
5707.3561083905
 31
0.0
  0
ARC
  5
1A0
330
1F
100
AcDbEntity
  8
0
  6
Continuous
 62
     7
370
    25
100
AcDbCircle
 10
6963.8518075748
 20
5711.3561083905
 30
0.0
 40
2.000000000000909
100
AcDbArc
 50
90.0
 51
180.0
  0
LINE
  5
1A1
330
1F
100
AcDbEntity
  8
0
  6
Continuous
 62
     7
370
    25
100
AcDbLine
 10
6965.3518075748
 20
5709.8561083905
 30
0.0
 11
6961.8518075748
 21
5711.3561083905
 31
0.0
  0
LINE
  5
1A2
330
1F
100
AcDbEntity
  8
0
  6
Continuous
 62
     7
370
    25
100
AcDbLine
 10
6961.8518075748
 20
5707.3561083905
 30
0.0
 11
6961.8518075748
 21
5711.3561083905
 31
0.0
  0
LINE
  5
1A3
330
1F
100
AcDbEntity
  8
0
  6
Continuous
 62
     7
370
    25
100
AcDbLine
 10
6963.3518075748
 20
5707.3561083905
 30
0.0
 11
6962.4453492489
 21
5707.3561083905
 31
0.0
  0
LINE
  5
1A4
330
1F
100
AcDbEntity
  8
0
  6
Continuous
 62
     7
370
    25
100
AcDbLine
 10
7320.2832650799
 20
5709.8561083905
 30
0.0
 11
7263.714722585
 21
5709.8561083905
 31
0.0
  0
LINE
  5
1A5
330
1F
100
AcDbEntity
  8
0
  6
Continuous
 62
     7
370
    25
100
AcDbLine
 10
7320.2832650799
 20
5709.8561083905
 30
0.0
 11
7320.2832650799
 21
5707.3561083905
 31
0.0
  0
LINE
  5
1A6
330
1F
100
AcDbEntity
  8
0
  6
Continuous
 62
     7
370
    25
100
AcDbLine
 10
7263.714722585
 20
5713.3561083905
 30
0.0
 11
7317.8083913457
 21
5713.3561083905
 31
0.0
  0
ARC
  5
1A7
330
1F
100
AcDbEntity
  8
0
  6
Continuous
 62
     7
370
    25
100
AcDbCircle
 10
7317.1896729122
 20
5710.2936083905
 30
0.0
 40
3.12437493749236
100
AcDbArc
 50
351.9505330245
 51
78.578246341
  0
LINE
  5
1A8
330
1F
100
AcDbEntity
  8
0
  6
Continuous
 62
     7
370
    25
100
AcDbLine
 10
7360.826681309
 20
5709.8561083905
 30
0.0
 11
7320.2832650799
 21
5709.8561083905
 31
0.0
  0
LINE
  5
1A9
330
1F
100
AcDbEntity
  8
0
  6
Continuous
 62
     7
370
    25
100
AcDbLine
 10
7360.826681309
 20
5707.3561083905
 30
0.0
 11
7360.826681309
 21
5709.8561083905
 31
0.0
  0
ARC
  5
1AA
330
1F
100
AcDbEntity
  8
0
  6
Continuous
 62
     7
370
    25
100
AcDbCircle
 10
7357.7330891413
 20
5710.2936083905
 30
0.0
 40
3.124374937490597
100
AcDbArc
 50
351.9505330245
 51
78.578246341
  0
LINE
  5
1AB
330
1F
100
AcDbEntity
  8
0
  6
Continuous
 62
     7
370
    25
100
AcDbLine
 10
7317.8083913457
 20
5713.3561083905
 30
0.0
 11
7358.3518075748
 21
5713.3561083905
 31
0.0
  0
ARC
  5
1AC
330
1F
100
AcDbEntity
  8
0
  6
Continuous
 62
     7
370
    25
100
AcDbCircle
 10
7358.3518075748
 20
5709.8561083905
 30
0.0
 40
3.5
100
AcDbArc
 50
0.0
 51
90.0
  0
LINE
  5
1AD
330
1F
100
AcDbEntity
  8
0
  6
Continuous
 62
     7
370
    25
100
AcDbLine
 10
7360.826681309
 20
5709.8561083905
 30
0.0
 11
7361.8518075748
 21
5709.8561083905
 31
0.0
  0
LINE
  5
1AE
330
1F
100
AcDbEntity
  8
0
  6
Continuous
 62
     7
370
    25
100
AcDbLine
 10
7361.8518075748
 20
5709.8561083905
 30
0.0
 11
7361.8518075748
 21
5707.3561083905
 31
0.0
  0
LWPOLYLINE
  5
1AF
330
1F
100
AcDbEntity
  8
0
  6
Continuous
 62
     7
370
    25
100
AcDbPolyline
 90
       38
 70
   128
 43
0.0
 10
7343.8561185608
 20
5599.3606091701
 10
7345.3498888868
 20
5599.5404102908
 10
7346.8006861601
 20
5600.0746411019
 10
7348.1667735848
 20
5600.9479327556
 10
7349.4088513129
 20
5602.1351622411
 10
7350.4911870295
 20
5603.6021751277
 10
7351.3826439067
 20
5605.3067681257
 10
7352.0575763532
 20
5607.1999031979
 10
7352.4965677914
 20
5609.2271182952
 10
7352.6869892368
 20
5611.3300941302
 10
7352.6233626112
 20
5613.448331917
 10
7352.3075183368
 20
5615.5208938111
 10
7351.7485426783
 20
5617.4881559803
 10
7350.9625163475
 20
5619.2935238739
 10
7349.9720518911
 20
5620.8850603445
 10
7348.805643168
 20
5622.2169797857
 10
7347.4968456335
 20
5623.2509653
 10
7346.0833110098
 20
5623.9572710068
 10
7344.6057041143
 20
5624.3155777769
 10
7343.1065330073
 20
5624.3155777769
 10
7341.6289261119
 20
5623.9572710068
 10
7340.2153914882
 20
5623.2509653
 10
7338.9065939537
 20
5622.2169797857
 10
7337.7401852306
 20
5620.8850603445
 10
7336.7497207741
 20
5619.2935238739
 10
7335.9636944434
 20
5617.4881559803
 10
7335.4047187848
 20
5615.5208938111
 10
7335.0888745104
 20
5613.448331917
 10
7335.0252478848
 20
5611.3300941302
 10
7335.2156693303
 20
5609.2271182952
 10
7335.6546607685
 20
5607.1999031979
 10
7336.329593215
 20
5605.3067681257
 10
7337.2210500922
 20
5603.6021751277
 10
7338.3033858088
 20
5602.1351622411
 10
7339.5454635368
 20
5600.9479327556
 10
7340.9115509615
 20
5600.0746411019
 10
7342.3623482349
 20
5599.5404102908
 10
7343.8561185608
 20
5599.3606091701
  0
LWPOLYLINE
  5
1B0
330
1F
100
AcDbEntity
  8
0
  6
Continuous
 62
     7
370
    25
100
AcDbPolyline
 90
       40
 70
   128
 43
0.0
 10
7342.795458389
 20
5597.8606091701
 10
7341.2074677264
 20
5598.0419054932
 10
7339.6606051878
 20
5598.5810989829
 10
7338.1949337005
 20
5599.464224811
 10
7336.848413386
 20
5600.6684104825
 10
7335.6559184133
 20
5602.162468221
 10
7334.6483337757
 20
5603.9077027159
 10
7333.8517553861
 20
5605.8589133105
 10
7333.2868142064
 20
5607.9655646753
 10
7332.9681419164
 20
5610.1730956465
 10
7332.9039919609
 20
5612.4243323317
 10
7333.0960257902
 20
5614.660968883
 10
7333.5392698289
 20
5616.8250775887
 10
7334.2222442893
 20
5618.8606091701
 10
7335.1272604916
 20
5620.7148444285
 10
7336.2308789914
 20
5622.3397596445
 10
7337.5045166495
 20
5623.6932703677
 10
7338.9151869194
 20
5624.7403213813
 10
7340.4263541822
 20
5625.4537946141
 10
7341.9988799995
 20
5625.815211484
 10
7343.5920367786
 20
5625.815211484
 10
7345.1645625959
 20
5625.4537946141
 10
7346.6757298587
 20
5624.7403213813
 10
7348.0864001286
 20
5623.6932703677
 10
7349.3600377867
 20
5622.3397596445
 10
7350.4636562865
 20
5620.7148444285
 10
7351.3686724888
 20
5618.8606091701
 10
7352.0516469492
 20
5616.8250775887
 10
7352.4948909879
 20
5614.660968883
 10
7352.6869248172
 20
5612.4243323317
 10
7352.6227748617
 20
5610.1730956465
 10
7352.3041025717
 20
5607.9655646753
 10
7351.739161392
 20
5605.8589133105
 10
7350.9425830024
 20
5603.9077027159
 10
7349.9349983648
 20
5602.162468221
 10
7348.7425033921
 20
5600.6684104825
 10
7347.3959830776
 20
5599.464224811
 10
7345.9303115903
 20
5598.5810989829
 10
7344.3834490517
 20
5598.0419054932
 10
7342.795458389
 20
5597.8606091701
  0
LWPOLYLINE
  5
1B1
330
1F
100
AcDbEntity
  8
0
  6
Continuous
 62
     7
370
    25
100
AcDbPolyline
 90
       11
 70
   128
 43
0.0
 10
7349.9810419105
 20
5614.5415410458
 10
7350.1824724896
 20
5614.1175460912
 10
7350.2476773919
 20
5613.6151349854
 10
7350.1658447998
 20
5613.1176139994
 10
7349.9505436174
 20
5612.707478559
 10
7349.6374735703
 20
5612.4527344343
 10
7349.2785457288
 20
5612.395621502
 10
7348.9332749796
 20
5612.5456098262
 10
7348.6589116867
 20
5612.8778293994
 10
7348.5009488389
 20
5613.3371939118
 10
7348.4855787231
 20
5613.8475347753
  0
LINE
  5
1B2
330
1F
100
AcDbEntity
  8
0
  6
Continuous
 62
     7
370
    25
100
AcDbLine
 10
7348.994809233
 20
5615.9053150378
 30
0.0
 11
7349.9810419105
 21
5614.5415410458
 31
0.0
  0
LWPOLYLINE
  5
1B3
330
1F
100
AcDbEntity
  8
0
  6
Continuous
 62
     7
370
    25
100
AcDbPolyline
 90
        9
 70
   128
 43
0.0
 10
7348.7086931409
 20
5615.772535867
 10
7348.7222830316
 20
5615.8349144226
 10
7348.7472549119
 20
5615.8898076358
 10
7348.7817617062
 20
5615.9331552628
 10
7348.823251077
 20
5615.9617510435
 10
7348.8686542125
 20
5615.9734798558
 10
7348.9146128142
 20
5615.9674741638
 10
7348.9577274977
 20
5615.944178186
 10
7348.994809233
 20
5615.9053150378
  0
LINE
  5
1B4
330
1F
100
AcDbEntity
  8
0
  6
Continuous
 62
     7
370
    25
100
AcDbLine
 10
7348.4855787231
 20
5613.8475347753
 30
0.0
 11
7348.7086931409
 21
5615.772535867
 31
0.0
  0
LWPOLYLINE
  5
1B5
330
1F
100
AcDbEntity
  8
0
  6
Continuous
 62
     7
370
    25
100
AcDbPolyline
 90
       11
 70
   128
 43
0.0
 10
7350.5798086364
 20
5608.6524024423
 10
7350.6777196981
 20
5608.1607245744
 10
7350.6289074531
 20
5607.6546069919
 10
7350.4414656041
 20
5607.2179705478
 10
7350.1464744383
 20
5606.923215222
 10
7349.7928473133
 20
5606.8192152667
 10
7349.4392201882
 20
5606.923215222
 10
7349.1442290225
 20
5607.2179705478
 10
7348.9567871734
 20
5607.6546069919
 10
7348.9079749284
 20
5608.1607245744
 10
7349.0058859901
 20
5608.6524024423
  0
LINE
  5
1B6
330
1F
100
AcDbEntity
  8
0
  6
Continuous
 62
     7
370
    25
100
AcDbLine
 10
7349.943410898
 20
5610.3830627576
 30
0.0
 11
7350.5798086364
 21
5608.6524024423
 31
0.0
  0
LWPOLYLINE
  5
1B7
330
1F
100
AcDbEntity
  8
0
  6
Continuous
 62
     7
370
    25
100
AcDbPolyline
 90
        9
 70
   128
 43
0.0
 10
7349.6422837285
 20
5610.3830627576
 10
7349.6689487846
 20
5610.436339432
 10
7349.7047781469
 20
5610.477485125
 10
7349.7471216529
 20
5610.5034564451
 10
7349.7928473133
 20
5610.5123323919
 10
7349.8385729736
 20
5610.5034564451
 10
7349.8809164796
 20
5610.477485125
 10
7349.9167458419
 20
5610.436339432
 10
7349.943410898
 20
5610.3830627576
  0
LINE
  5
1B8
330
1F
100
AcDbEntity
  8
0
  6
Continuous
 62
     7
370
    25
100
AcDbLine
 10
7349.0058859901
 20
5608.6524024423
 30
0.0
 11
7349.6422837285
 21
5610.3830627576
 31
0.0
  0
LWPOLYLINE
  5
1B9
330
1F
100
AcDbEntity
  8
0
  6
Continuous
 62
     7
370
    25
100
AcDbPolyline
 90
       11
 70
   128
 43
0.0
 10
7347.365107524
 20
5618.6604294581
 10
7347.722340649
 20
5618.5850022309
 10
7348.0286936138
 20
5618.3144176789
 10
7348.2333691274
 20
5617.8935422269
 10
7348.3024293376
 20
5617.3921624781
 10
7348.2244231669
 20
5616.8934136911
 10
7348.012285049
 20
5616.4799948772
 10
7347.7011902325
 20
5616.2204562324
 10
7347.3427222689
 20
5616.1578326268
 10
7346.9963197912
 20
5616.3025078656
 10
7346.7194208186
 20
5616.6304929197
  0
LINE
  5
1BA
330
1F
100
AcDbEntity
  8
0
  6
Continuous
 62
     7
370
    25
100
AcDbLine
 10
7345.9879884712
 20
5618.5496345183
 30
0.0
 11
7347.365107524
 21
5618.6604294581
 31
0.0
  0
LWPOLYLINE
  5
1BB
330
1F
100
AcDbEntity
  8
0
  6
Continuous
 62
     7
370
    25
100
AcDbPolyline
 90
        9
 70
   128
 43
0.0
 10
7345.8644539313
 20
5618.1612615283
 10
7345.841036731
 20
5618.2175085187
 10
7345.82920195
 20
5618.2805983783
 10
7345.8298249622
 20
5618.3458645883
 10
7345.8428596858
 20
5618.4084796538
 10
7345.8673419915
 20
5618.4638121748
 10
7345.9014610156
 20
5618.5077694137
 10
7345.9426931027
 20
5618.5371000196
 10
7345.9879884712
 20
5618.5496345183
  0
LINE
  5
1BC
330
1F
100
AcDbEntity
  8
0
  6
Continuous
 62
     7
370
    25
100
AcDbLine
 10
7346.7194208186
 20
5616.6304929197
 30
0.0
 11
7345.8644539313
 21
5618.1612615283
 31
0.0
  0
LWPOLYLINE
  5
1BD
330
1F
100
AcDbEntity
  8
0
  6
Continuous
 62
     7
370
    25
100
AcDbPolyline
 90
       11
 70
   128
 43
0.0
 10
7342.8695028759
 20
5617.2319779139
 10
7343.0461082342
 20
5617.6775577302
 10
7343.3336824949
 20
5617.9866246598
 10
7343.6845421195
 20
5618.1079314013
 10
7344.040510036
 20
5618.0213637252
 10
7344.3425621518
 20
5617.7412756738
 10
7344.5406143123
 20
5617.3141094751
 10
7344.6018269031
 20
5616.8106948197
 10
7344.5160500836
 20
5616.3145043802
 10
7344.2975067618
 20
5615.9078129605
 10
7343.9824342522
 20
5615.6580552676
  0
LINE
  5
1BE
330
1F
100
AcDbEntity
  8
0
  6
Continuous
 62
     7
370
    25
100
AcDbLine
 10
7342.4541738746
 20
5615.3718185306
 30
0.0
 11
7342.8695028759
 21
5617.2319779139
 31
0.0
  0
LWPOLYLINE
  5
1BF
330
1F
100
AcDbEntity
  8
0
  6
Continuous
 62
     7
370
    25
100
AcDbPolyline
 90
        9
 70
   128
 43
0.0
 10
7342.6671029382
 20
5615.0706913611
 10
7342.621609559
 20
5615.0596841195
 10
7342.5757015274
 20
5615.0664190833
 10
7342.5327744872
 20
5615.0903980927
 10
7342.4960035892
 20
5615.1298475109
 10
7342.4681086381
 20
5615.1818494134
 10
7342.451152918
 20
5615.2425574159
 10
7342.4463905794
 20
5615.3074811768
 10
7342.4541738746
 20
5615.3718185306
  0
LINE
  5
1C0
330
1F
100
AcDbEntity
  8
0
  6
Continuous
 62
     7
370
    25
100
AcDbLine
 10
7343.9824342522
 20
5615.6580552676
 30
0.0
 11
7342.6671029382
 21
5615.0706913611
 31
0.0
  0
ARC
  5
1C1
330
1F
100
AcDbEntity
  8
0
  6
Continuous
 62
     7
370
    25
100
AcDbCircle
 10
7343.027229655
 20
5606.1133017934
 30
0.0
 40
0.7498499849950129
100
AcDbArc
 50
281.4217536589
 51
8.0494669757
  0
LINE
  5
1C2
330
1F
100
AcDbEntity
  8
0
  6
Continuous
 62
     7
370
    25
100
AcDbLine
 10
7343.7696917752
 20
5610.6717383263
 30
0.0
 11
7343.7696917752
 21
5606.2183017934
 31
0.0
  0
LWPOLYLINE
  5
1C3
330
1F
100
AcDbEntity
  8
0
  6
Continuous
 62
     7
370
    25
100
AcDbPolyline
 90
       12
 70
   128
 43
0.0
 10
7337.2984841318
 20
5610.6717383263
 10
7337.4295488212
 20
5611.9608999662
 10
7337.8121248077
 20
5613.145621397
 10
7338.4152180601
 20
5614.1299235341
 10
7339.1899695499
 20
5614.8340640723
 10
7340.0736135189
 20
5615.2009977329
 10
7340.9945623881
 20
5615.2009977329
 10
7341.8782063572
 20
5614.8340640723
 10
7342.6529578469
 20
5614.1299235341
 10
7343.2560510994
 20
5613.145621397
 10
7343.6386270858
 20
5611.9608999662
 10
7343.7696917752
 20
5610.6717383263
  0
LINE
  5
1C4
330
1F
100
AcDbEntity
  8
0
  6
Continuous
 62
     7
370
    25
100
AcDbLine
 10
7337.2984841318
 20
5606.2183017934
 30
0.0
 11
7337.2984841318
 21
5610.6717383263
 31
0.0
  0
ARC
  5
1C5
330
1F
100
AcDbEntity
  8
0
  6
Continuous
 62
     7
370
    25
100
AcDbCircle
 10
7338.0409462521
 20
5606.1133017934
 30
0.0
 40
0.7498499849965592
100
AcDbArc
 50
171.9505330244
 51
258.5782463411
  0
LINE
  5
1C6
330
1F
100
AcDbEntity
  8
0
  6
Continuous
 62
     7
370
    25
100
AcDbLine
 10
7343.175722079
 20
5605.3783017934
 30
0.0
 11
7337.892453828
 21
5605.3783017934
 31
0.0
  0
LWPOLYLINE
  5
1C7
330
1F
100
AcDbEntity
  8
0
  6
Continuous
 62
     7
370
    25
100
AcDbPolyline
 90
       22
 70
   128
 43
0.0
 10
7342.4419049985
 20
5625.8606091701
 10
7341.6453266089
 20
5625.815211484
 10
7340.0728007916
 20
5625.4537946141
 10
7338.5616335288
 20
5624.7403213813
 10
7337.1509632589
 20
5623.6932703677
 10
7335.8773256008
 20
5622.3397596445
 10
7334.773707101
 20
5620.7148444285
 10
7333.8686908987
 20
5618.8606091701
 10
7333.1857164383
 20
5616.8250775887
 10
7332.7424723996
 20
5614.660968883
 10
7332.5504385703
 20
5612.4243323317
 10
7332.6145885258
 20
5610.1730956465
 10
7332.9332608158
 20
5607.9655646753
 10
7333.4982019955
 20
5605.8589133105
 10
7334.2947803851
 20
5603.9077027159
 10
7335.3023650227
 20
5602.162468221
 10
7336.4948599954
 20
5600.6684104825
 10
7337.8413803099
 20
5599.464224811
 10
7339.3070517972
 20
5598.5810989829
 10
7340.8539143358
 20
5598.0419054932
 10
7342.4419049985
 20
5597.8606091701
 10
7342.4419049985
 20
5597.8606091701
  0
LINE
  5
1C8
330
1F
100
AcDbEntity
  8
0
  6
Continuous
 62
     7
370
    25
100
AcDbLine
 10
7343.4161383846
 20
5610.6717383263
 30
0.0
 11
7343.7696917752
 21
5610.6717383263
 31
0.0
  0
LWPOLYLINE
  5
1C9
330
1F
100
AcDbEntity
  8
0
  6
Continuous
 62
     7
370
    25
100
AcDbPolyline
 90
        7
 70
   128
 43
0.0
 10
7340.3573112582
 20
5615.2407386745
 10
7340.6410089975
 20
5615.2009977329
 10
7341.5246529666
 20
5614.8340640723
 10
7342.2994044564
 20
5614.1299235341
 10
7342.9024977088
 20
5613.145621397
 10
7343.2850736952
 20
5611.9608999662
 10
7343.4161383846
 20
5610.6717383263
  0
LWPOLYLINE
  5
1CA
330
1F
100
AcDbEntity
  8
0
  6
Continuous
 62
     7
370
    25
100
AcDbPolyline
 90
        6
 70
   128
 43
0.0
 10
7337.3691948099
 20
5610.6717383263
 10
7337.5067915713
 20
5611.9003388486
 10
7337.9061129258
 20
5613.0086753915
 10
7338.5280705169
 20
5613.8882562521
 10
7339.3117828023
 20
5614.4529819273
 10
7340.1805345629
 20
5614.6475731334
  0
LINE
  5
1CB
330
1F
100
AcDbEntity
  8
0
  6
Continuous
 62
     7
370
    25
100
AcDbLine
 10
7337.3691948099
 20
5606.2183017934
 30
0.0
 11
7337.3691948099
 21
5610.6717383263
 31
0.0
  0
ARC
  5
1CC
330
1F
100
AcDbEntity
  8
0
  6
Continuous
 62
     7
370
    25
100
AcDbCircle
 10
7337.5813268443
 20
5606.1883017934
 30
0.0
 40
0.2142428528554594
100
AcDbArc
 50
171.950533024
 51
258.5782463414
  0
LINE
  5
1CD
330
1F
100
AcDbEntity
  8
0
  6
Continuous
 62
     7
370
    25
100
AcDbLine
 10
7343.4161383846
 20
5610.6717383263
 30
0.0
 11
7343.4161383846
 21
5606.2183017934
 31
0.0
  0
ARC
  5
1CE
330
1F
100
AcDbEntity
  8
0
  6
Continuous
 62
     7
370
    25
100
AcDbCircle
 10
7342.6736762644
 20
5606.1133017934
 30
0.0
 40
0.7498499849933391
100
AcDbArc
 50
281.4217536588
 51
8.0494669758
  0
LINE
  5
1CF
330
1F
100
AcDbEntity
  8
0
  6
Continuous
 62
     7
370
    25
100
AcDbLine
 10
7337.3691948099
 20
5610.6717383263
 30
0.0
 11
7337.7227482005
 21
5610.6717383263
 31
0.0
  0
LWPOLYLINE
  5
1D0
330
1F
100
AcDbEntity
  8
0
  6
Continuous
 62
     7
370
    25
100
AcDbPolyline
 90
       11
 70
   128
 43
0.0
 10
7337.7227482005
 20
5610.6717383263
 10
7337.8603449619
 20
5611.9003388486
 10
7338.2596663164
 20
5613.0086753915
 10
7338.8816239075
 20
5613.8882562521
 10
7339.6653361929
 20
5614.4529819273
 10
7340.5340879535
 20
5614.6475731334
 10
7341.4028397141
 20
5614.4529819273
 10
7342.1865519995
 20
5613.8882562521
 10
7342.8085095906
 20
5613.0086753915
 10
7343.2078309451
 20
5611.9003388486
 10
7343.3454277065
 20
5610.6717383263
  0
LINE
  5
1D1
330
1F
100
AcDbEntity
  8
0
  6
Continuous
 62
     7
370
    25
100
AcDbLine
 10
7343.3454277065
 20
5610.6717383263
 30
0.0
 11
7343.3454277065
 21
5606.2183017934
 31
0.0
  0
ARC
  5
1D2
330
1F
100
AcDbEntity
  8
0
  6
Continuous
 62
     7
370
    25
100
AcDbCircle
 10
7343.1332956721
 20
5606.1883017934
 30
0.0
 40
0.21424285285958
100
AcDbArc
 50
281.4217536594
 51
8.0494669751
  0
LINE
  5
1D3
330
1F
100
AcDbEntity
  8
0
  6
Continuous
 62
     7
370
    25
100
AcDbLine
 10
7343.175722079
 20
5605.9783017934
 30
0.0
 11
7337.892453828
 21
5605.9783017934
 31
0.0
  0
ARC
  5
1D4
330
1F
100
AcDbEntity
  8
0
  6
Continuous
 62
     7
370
    25
100
AcDbCircle
 10
7337.9348802349
 20
5606.1883017934
 30
0.0
 40
0.2142428528563599
100
AcDbArc
 50
171.9505330241
 51
258.5782463409
  0
LINE
  5
1D5
330
1F
100
AcDbEntity
  8
0
  6
Continuous
 62
     7
370
    25
100
AcDbLine
 10
7337.7227482005
 20
5606.2183017934
 30
0.0
 11
7337.7227482005
 21
5610.6717383263
 31
0.0
  0
LINE
  5
1D6
330
1F
100
AcDbEntity
  8
0
  6
Continuous
 62
     7
370
    25
100
AcDbLine
 10
7337.3691948099
 20
5606.2183017934
 30
0.0
 11
7337.7227482005
 21
5606.2183017934
 31
0.0
  0
LINE
  5
1D7
330
1F
100
AcDbEntity
  8
0
  6
Continuous
 62
     7
370
    25
100
AcDbLine
 10
7337.5389004374
 20
5605.9783017934
 30
0.0
 11
7337.892453828
 21
5605.9783017934
 31
0.0
  0
LINE
  5
1D8
330
1F
100
AcDbEntity
  8
0
  6
Continuous
 62
     7
370
    25
100
AcDbLine
 10
7343.6288808616
 20
5615.6580552676
 30
0.0
 11
7342.4848776914
 21
5615.1471982965
 31
0.0
  0
LINE
  5
1D9
330
1F
100
AcDbEntity
  8
0
  6
Continuous
 62
     7
370
    25
100
AcDbLine
 10
7343.6288808616
 20
5615.6580552676
 30
0.0
 11
7343.9824342522
 21
5615.6580552676
 31
0.0
  0
LINE
  5
1DA
330
1F
100
AcDbEntity
  8
0
  6
Continuous
 62
     7
370
    25
100
AcDbLine
 10
7342.6397500946
 20
5615.8331357683
 30
0.0
 11
7342.9076867825
 21
5617.0331601887
 31
0.0
  0
ARC
  5
1DB
330
1F
100
AcDbEntity
  8
0
  6
Continuous
 62
     7
370
    25
100
AcDbCircle
 10
7343.3980649275
 20
5617.0016011371
 30
0.0
 40
0.4913926116996558
100
AcDbArc
 50
95.7352295715
 51
176.3177187151
  0
LWPOLYLINE
  5
1DC
330
1F
100
AcDbEntity
  8
0
  6
Continuous
 62
     7
370
    25
100
AcDbPolyline
 90
        8
 70
   128
 43
0.0
 10
7343.5385729806
 20
5618.083524021
 10
7343.6869566455
 20
5618.0213637252
 10
7343.9890087612
 20
5617.7412756738
 10
7344.1870609217
 20
5617.3141094751
 10
7344.2482735125
 20
5616.8106948197
 10
7344.162496693
 20
5616.3145043802
 10
7343.9439533712
 20
5615.9078129605
 10
7343.6288808616
 20
5615.6580552676
  0
LINE
  5
1DD
330
1F
100
AcDbEntity
  8
0
  6
Continuous
 62
     7
370
    25
100
AcDbLine
 10
7342.6397500946
 20
5615.8331357683
 30
0.0
 11
7342.9933034852
 21
5615.8331357683
 31
0.0
  0
LINE
  5
1DE
330
1F
100
AcDbEntity
  8
0
  6
Continuous
 62
     7
370
    25
100
AcDbLine
 10
7342.9076867825
 20
5617.0331601887
 30
0.0
 11
7343.2612401731
 21
5617.0331601887
 31
0.0
  0
LINE
  5
1DF
330
1F
100
AcDbEntity
  8
0
  6
Continuous
 62
     7
370
    25
100
AcDbLine
 10
7342.9933034852
 20
5615.8331357683
 30
0.0
 11
7343.2612401731
 21
5617.0331601887
 31
0.0
  0
LWPOLYLINE
  5
1E0
330
1F
100
AcDbEntity
  8
0
  6
Continuous
 62
     7
370
    25
100
AcDbPolyline
 90
       11
 70
   128
 43
0.0
 10
7343.2612401731
 20
5617.0331601887
 10
7343.3533739854
 20
5617.2656161434
 10
7343.5033995182
 20
5617.4268542551
 10
7343.6864405941
 20
5617.4901391558
 10
7343.8721466313
 20
5617.4449773889
 10
7344.0297251624
 20
5617.2988573605
 10
7344.1330476253
 20
5617.0760076647
 10
7344.164981817
 20
5616.8133796683
 10
7344.1202326345
 20
5616.5545204962
 10
7344.0062200724
 20
5616.3423523531
 10
7343.8418488905
 20
5616.2120554661
  0
LINE
  5
1E1
330
1F
100
AcDbEntity
  8
0
  6
Continuous
 62
     7
370
    25
100
AcDbLine
 10
7343.8418488905
 20
5616.2120554661
 30
0.0
 11
7342.9933034852
 21
5615.8331357683
 31
0.0
  0
LINE
  5
1E2
330
1F
100
AcDbEntity
  8
0
  6
Continuous
 62
     7
370
    25
100
AcDbLine
 10
7343.4161383846
 20
5606.2183017934
 30
0.0
 11
7343.7696917752
 21
5606.2183017934
 31
0.0
  0
LINE
  5
1E3
330
1F
100
AcDbEntity
  8
0
  6
Continuous
 62
     7
370
    25
100
AcDbLine
 10
7346.1306892957
 20
5618.0004546061
 30
0.0
 11
7347.0190951538
 21
5618.0719305423
 31
0.0
  0
LINE
  5
1E4
330
1F
100
AcDbEntity
  8
0
  6
Continuous
 62
     7
370
    25
100
AcDbLine
 10
7346.6822447981
 20
5617.0129264788
 30
0.0
 11
7346.1306892957
 21
5618.0004546061
 31
0.0
  0
LINE
  5
1E5
330
1F
100
AcDbEntity
  8
0
  6
Continuous
 62
     7
370
    25
100
AcDbLine
 10
7347.0190951538
 20
5618.0719305423
 30
0.0
 11
7347.0453782573
 21
5618.0729869806
 31
0.0
  0
ARC
  5
1E6
330
1F
100
AcDbEntity
  8
0
  6
Continuous
 62
     7
370
    25
100
AcDbCircle
 10
7347.0631149721
 20
5617.1794354442
 30
0.0
 40
0.4156769478086348
100
AcDbArc
 50
203.6140048684
 51
267.554477017
  0
LWPOLYLINE
  5
1E7
330
1F
100
AcDbEntity
  8
0
  6
Continuous
 62
     7
370
    25
100
AcDbPolyline
 90
        9
 70
   128
 43
0.0
 10
7347.2000644879
 20
5618.6471510613
 10
7347.3687872584
 20
5618.5850022309
 10
7347.6751402232
 20
5618.3144176789
 10
7347.8798157368
 20
5617.8935422269
 10
7347.948875947
 20
5617.3921624781
 10
7347.8708697763
 20
5616.8934136911
 10
7347.6587316584
 20
5616.4799948772
 10
7347.3476368419
 20
5616.2204562324
 10
7347.2387112134
 20
5616.1787687874
  0
LINE
  5
1E8
330
1F
100
AcDbEntity
  8
0
  6
Continuous
 62
     7
370
    25
100
AcDbLine
 10
7346.6822447981
 20
5617.0129264788
 30
0.0
 11
7347.0357981887
 21
5617.0129264788
 31
0.0
  0
LINE
  5
1E9
330
1F
100
AcDbEntity
  8
0
  6
Continuous
 62
     7
370
    25
100
AcDbLine
 10
7346.1306892957
 20
5618.0004546061
 30
0.0
 11
7346.4842426862
 21
5618.0004546061
 31
0.0
  0
LINE
  5
1EA
330
1F
100
AcDbEntity
  8
0
  6
Continuous
 62
     7
370
    25
100
AcDbLine
 10
7347.0357981887
 20
5617.0129264788
 30
0.0
 11
7346.4842426862
 21
5618.0004546061
 31
0.0
  0
LWPOLYLINE
  5
1EB
330
1F
100
AcDbEntity
  8
0
  6
Continuous
 62
     7
370
    25
100
AcDbPolyline
 90
       11
 70
   128
 43
0.0
 10
7347.3726485444
 20
5618.0719305423
 10
7347.5590146321
 20
5618.0325806717
 10
7347.7188368869
 20
5617.8914185543
 10
7347.825614708
 20
5617.6718506981
 10
7347.8616429492
 20
5617.4102842987
 10
7347.8209476613
 20
5617.1500904541
 10
7347.7102766504
 20
5616.9344126753
 10
7347.5479806039
 20
5616.7990131323
 10
7347.3609703093
 20
5616.7663428239
 10
7347.1802544965
 20
5616.8418189104
 10
7347.0357981887
 20
5617.0129264788
  0
LINE
  5
1EC
330
1F
100
AcDbEntity
  8
0
  6
Continuous
 62
     7
370
    25
100
AcDbLine
 10
7346.4842426862
 20
5618.0004546061
 30
0.0
 11
7347.3726485444
 21
5618.0719305423
 31
0.0
  0
LINE
  5
1ED
330
1F
100
AcDbEntity
  8
0
  6
Continuous
 62
     7
370
    25
100
AcDbLine
 10
7347.0190951538
 20
5618.0719305423
 30
0.0
 11
7347.3726485444
 21
5618.0719305423
 31
0.0
  0
LWPOLYLINE
  5
1EE
330
1F
100
AcDbEntity
  8
0
  6
Continuous
 62
     7
370
    25
100
AcDbPolyline
 90
        7
 70
   128
 43
0.0
 10
7349.6274885199
 20
5614.5415410458
 10
7349.828919099
 20
5614.1175460912
 10
7349.8941240013
 20
5613.6151349854
 10
7349.8122914092
 20
5613.1176139994
 10
7349.5969902268
 20
5612.707478559
 10
7349.2839201797
 20
5612.4527344343
 10
7349.1841334795
 20
5612.4153660314
  0
LINE
  5
1EF
330
1F
100
AcDbEntity
  8
0
  6
Continuous
 62
     7
370
    25
100
AcDbLine
 10
7349.6274885199
 20
5614.5415410458
 30
0.0
 11
7349.9810419105
 21
5614.5415410458
 31
0.0
  0
LINE
  5
1F0
330
1F
100
AcDbEntity
  8
0
  6
Continuous
 62
     7
370
    25
100
AcDbLine
 10
7348.5450419801
 20
5613.774876634
 30
0.0
 11
7348.6889773613
 21
5615.0167316815
 31
0.0
  0
LWPOLYLINE
  5
1F1
330
1F
100
AcDbEntity
  8
0
  6
Continuous
 62
     7
370
    25
100
AcDbPolyline
 90
        6
 70
   128
 43
0.0
 10
7349.0016964354
 20
5613.0145959572
 10
7348.958727465
 20
5613.0174233701
 10
7348.7786020673
 20
5613.0956712571
 10
7348.6354686064
 20
5613.2689879453
 10
7348.5530604648
 20
5613.5086352821
 10
7348.5450419801
 20
5613.774876634
  0
LINE
  5
1F2
330
1F
100
AcDbEntity
  8
0
  6
Continuous
 62
     7
370
    25
100
AcDbLine
 10
7348.7140432142
 20
5615.8046638153
 30
0.0
 11
7349.6274885199
 21
5614.5415410458
 31
0.0
  0
LINE
  5
1F3
330
1F
100
AcDbEntity
  8
0
  6
Continuous
 62
     7
370
    25
100
AcDbLine
 10
7348.5450419801
 20
5613.774876634
 30
0.0
 11
7348.8985953707
 21
5613.774876634
 31
0.0
  0
LWPOLYLINE
  5
1F4
330
1F
100
AcDbEntity
  8
0
  6
Continuous
 62
     7
370
    25
100
AcDbPolyline
 90
       11
 70
   128
 43
0.0
 10
7349.678768328
 20
5614.1369349775
 10
7349.7838532889
 20
5613.9157396981
 10
7349.8178702423
 20
5613.6536352468
 10
7349.7751787364
 20
5613.3940819376
 10
7349.6628575762
 20
5613.1801170723
 10
7349.4995310654
 20
5613.0472187979
 10
7349.3122808556
 20
5613.0174233701
 10
7349.1321554579
 20
5613.0956712571
 10
7348.989021997
 20
5613.2689879453
 10
7348.9066138554
 20
5613.5086352821
 10
7348.8985953707
 20
5613.774876634
  0
LINE
  5
1F5
330
1F
100
AcDbEntity
  8
0
  6
Continuous
 62
     7
370
    25
100
AcDbLine
 10
7348.8985953707
 20
5613.774876634
 30
0.0
 11
7349.0425307519
 21
5615.0167316815
 31
0.0
  0
LINE
  5
1F6
330
1F
100
AcDbEntity
  8
0
  6
Continuous
 62
     7
370
    25
100
AcDbLine
 10
7349.0425307519
 20
5615.0167316815
 30
0.0
 11
7349.678768328
 21
5614.1369349775
 31
0.0
  0
LINE
  5
1F7
330
1F
100
AcDbEntity
  8
0
  6
Continuous
 62
     7
370
    25
100
AcDbLine
 10
7348.6889773613
 20
5615.0167316815
 30
0.0
 11
7349.0425307519
 21
5615.0167316815
 31
0.0
  0
LWPOLYLINE
  5
1F8
330
1F
100
AcDbEntity
  8
0
  6
Continuous
 62
     7
370
    25
100
AcDbPolyline
 90
        6
 70
   128
 43
0.0
 10
7350.2262552458
 20
5608.6524024423
 10
7350.3241663075
 20
5608.1607245744
 10
7350.2753540625
 20
5607.6546069919
 10
7350.0879122135
 20
5607.2179705478
 10
7349.7929210477
 20
5606.923215222
 10
7349.6160706179
 20
5606.8443794815
  0
LINE
  5
1F9
330
1F
100
AcDbEntity
  8
0
  6
Continuous
 62
     7
370
    25
100
AcDbLine
 10
7350.2262552458
 20
5608.6524024423
 30
0.0
 11
7350.5798086364
 21
5608.6524024423
 31
0.0
  0
LINE
  5
1FA
330
1F
100
AcDbEntity
  8
0
  6
Continuous
 62
     7
370
    25
100
AcDbLine
 10
7349.0287415614
 20
5608.4012505069
 30
0.0
 11
7349.4392939227
 21
5609.5177326
 31
0.0
  0
LWPOLYLINE
  5
1FB
330
1F
100
AcDbEntity
  8
0
  6
Continuous
 62
     7
370
    25
100
AcDbPolyline
 90
        6
 70
   128
 43
0.0
 10
7349.4392939227
 20
5607.4448892456
 10
7349.2548090605
 20
5607.4991453138
 10
7349.1009141789
 20
5607.6529171593
 10
7349.0031270432
 20
5607.8807074177
 10
7348.9776620275
 20
5608.1447455126
 10
7349.0287415614
 20
5608.4012505069
  0
LINE
  5
1FC
330
1F
100
AcDbEntity
  8
0
  6
Continuous
 62
     7
370
    25
100
AcDbLine
 10
7349.616070618
 20
5610.3117771646
 30
0.0
 11
7350.2262552458
 21
5608.6524024423
 31
0.0
  0
LWPOLYLINE
  5
1FD
330
1F
100
AcDbEntity
  8
0
  6
Continuous
 62
     7
370
    25
100
AcDbPolyline
 90
       11
 70
   128
 43
0.0
 10
7350.2033996745
 20
5608.4012505069
 10
7350.2544792084
 20
5608.1447455126
 10
7350.2290141927
 20
5607.8807074177
 10
7350.131227057
 20
5607.6529171593
 10
7349.9773321754
 20
5607.4991453138
 10
7349.7928473133
 20
5607.4448892456
 10
7349.6083624511
 20
5607.4991453138
 10
7349.4544675695
 20
5607.6529171593
 10
7349.3566804338
 20
5607.8807074177
 10
7349.3312154181
 20
5608.1447455126
 10
7349.382294952
 20
5608.4012505069
  0
LINE
  5
1FE
330
1F
100
AcDbEntity
  8
0
  6
Continuous
 62
     7
370
    25
100
AcDbLine
 10
7349.382294952
 20
5608.4012505069
 30
0.0
 11
7349.7928473133
 21
5609.5177326
 31
0.0
  0
LINE
  5
1FF
330
1F
100
AcDbEntity
  8
0
  6
Continuous
 62
     7
370
    25
100
AcDbLine
 10
7349.7928473133
 20
5609.5177326
 30
0.0
 11
7350.2033996745
 21
5608.4012505069
 31
0.0
  0
LINE
  5
200
330
1F
100
AcDbEntity
  8
0
  6
Continuous
 62
     7
370
    25
100
AcDbLine
 10
7349.0287415614
 20
5608.4012505069
 30
0.0
 11
7349.382294952
 21
5608.4012505069
 31
0.0
  0
LINE
  5
201
330
1F
100
AcDbEntity
  8
0
  6
Continuous
 62
     7
370
    25
100
AcDbLine
 10
7349.4392939227
 20
5609.5177326
 30
0.0
 11
7349.7928473133
 21
5609.5177326
 31
0.0
  0
LWPOLYLINE
  5
202
330
1F
100
AcDbEntity
  8
0
  6
Continuous
 62
     7
370
    25
100
AcDbPolyline
 90
       38
 70
   128
 43
0.0
 10
7343.8561185608
 20
5548.8606091701
 10
7345.3498888868
 20
5549.0404102908
 10
7346.8006861601
 20
5549.5746411019
 10
7348.1667735848
 20
5550.4479327556
 10
7349.4088513129
 20
5551.6351622411
 10
7350.4911870295
 20
5553.1021751277
 10
7351.3826439067
 20
5554.8067681257
 10
7352.0575763532
 20
5556.6999031979
 10
7352.4965677914
 20
5558.7271182952
 10
7352.6869892368
 20
5560.8300941302
 10
7352.6233626112
 20
5562.948331917
 10
7352.3075183368
 20
5565.0208938111
 10
7351.7485426783
 20
5566.9881559803
 10
7350.9625163475
 20
5568.7935238739
 10
7349.9720518911
 20
5570.3850603445
 10
7348.805643168
 20
5571.7169797857
 10
7347.4968456335
 20
5572.7509653
 10
7346.0833110098
 20
5573.4572710068
 10
7344.6057041143
 20
5573.8155777769
 10
7343.1065330073
 20
5573.8155777769
 10
7341.6289261119
 20
5573.4572710068
 10
7340.2153914882
 20
5572.7509653
 10
7338.9065939537
 20
5571.7169797857
 10
7337.7401852306
 20
5570.3850603445
 10
7336.7497207741
 20
5568.7935238739
 10
7335.9636944434
 20
5566.9881559803
 10
7335.4047187848
 20
5565.0208938111
 10
7335.0888745104
 20
5562.948331917
 10
7335.0252478848
 20
5560.8300941302
 10
7335.2156693303
 20
5558.7271182952
 10
7335.6546607685
 20
5556.6999031979
 10
7336.329593215
 20
5554.8067681257
 10
7337.2210500922
 20
5553.1021751277
 10
7338.3033858088
 20
5551.6351622411
 10
7339.5454635368
 20
5550.4479327556
 10
7340.9115509615
 20
5549.5746411019
 10
7342.3623482349
 20
5549.0404102908
 10
7343.8561185608
 20
5548.8606091701
  0
LWPOLYLINE
  5
203
330
1F
100
AcDbEntity
  8
0
  6
Continuous
 62
     7
370
    25
100
AcDbPolyline
 90
       40
 70
   128
 43
0.0
 10
7342.795458389
 20
5547.3606091701
 10
7341.2074677264
 20
5547.5419054932
 10
7339.6606051878
 20
5548.0810989829
 10
7338.1949337005
 20
5548.964224811
 10
7336.848413386
 20
5550.1684104825
 10
7335.6559184133
 20
5551.662468221
 10
7334.6483337757
 20
5553.4077027159
 10
7333.8517553861
 20
5555.3589133105
 10
7333.2868142064
 20
5557.4655646753
 10
7332.9681419164
 20
5559.6730956465
 10
7332.9039919609
 20
5561.9243323316
 10
7333.0960257902
 20
5564.160968883
 10
7333.5392698289
 20
5566.3250775887
 10
7334.2222442893
 20
5568.3606091701
 10
7335.1272604916
 20
5570.2148444285
 10
7336.2308789914
 20
5571.8397596445
 10
7337.5045166495
 20
5573.1932703677
 10
7338.9151869194
 20
5574.2403213813
 10
7340.4263541822
 20
5574.9537946141
 10
7341.9988799995
 20
5575.315211484
 10
7343.5920367786
 20
5575.315211484
 10
7345.1645625959
 20
5574.9537946141
 10
7346.6757298587
 20
5574.2403213813
 10
7348.0864001286
 20
5573.1932703677
 10
7349.3600377867
 20
5571.8397596445
 10
7350.4636562865
 20
5570.2148444285
 10
7351.3686724888
 20
5568.3606091701
 10
7352.0516469492
 20
5566.3250775887
 10
7352.4948909879
 20
5564.160968883
 10
7352.6869248172
 20
5561.9243323316
 10
7352.6227748617
 20
5559.6730956465
 10
7352.3041025717
 20
5557.4655646753
 10
7351.739161392
 20
5555.3589133105
 10
7350.9425830024
 20
5553.4077027159
 10
7349.9349983648
 20
5551.662468221
 10
7348.7425033921
 20
5550.1684104825
 10
7347.3959830776
 20
5548.964224811
 10
7345.9303115903
 20
5548.0810989829
 10
7344.3834490517
 20
5547.5419054932
 10
7342.795458389
 20
5547.3606091701
  0
LINE
  5
204
330
1F
100
AcDbEntity
  8
0
  6
Continuous
 62
     7
370
    25
100
AcDbLine
 10
7347.6269752476
 20
5553.6294324874
 30
0.0
 11
7348.307643476
 21
5558.5493495517
 31
0.0
  0
ARC
  5
205
330
1F
100
AcDbEntity
  8
0
  6
Continuous
 62
     7
370
    25
100
AcDbCircle
 10
7347.607713155
 20
5561.4700730939
 30
0.0
 40
3.003419461941638
100
AcDbArc
 50
283.4763794364
 51
7.6198307146
  0
LINE
  5
206
330
1F
100
AcDbEntity
  8
0
  6
Continuous
 62
     7
370
    25
100
AcDbLine
 10
7350.5846115384
 20
5561.8683248723
 30
0.0
 11
7350.5846115384
 21
5563.6112762647
 31
0.0
  0
LINE
  5
207
330
1F
100
AcDbEntity
  8
0
  6
Continuous
 62
     7
370
    25
100
AcDbLine
 10
7350.5846115384
 20
5563.6112762647
 30
0.0
 11
7343.0190442786
 21
5563.6112762647
 31
0.0
  0
ARC
  5
208
330
1F
100
AcDbEntity
  8
0
  6
Continuous
 62
     7
370
    25
100
AcDbCircle
 10
7343.0720772871
 20
5563.8737762647
 30
0.0
 40
0.2678035660699012
100
AcDbArc
 50
171.9505330246
 51
258.5782463413
  0
LINE
  5
209
330
1F
100
AcDbEntity
  8
0
  6
Continuous
 62
     7
370
    25
100
AcDbLine
 10
7342.8069122442
 20
5563.9112762647
 30
0.0
 11
7342.8069122442
 21
5568.3905796869
 31
0.0
  0
ARC
  5
20A
330
1F
100
AcDbEntity
  8
0
  6
Continuous
 62
     7
370
    25
100
AcDbCircle
 10
7341.6578637248
 20
5568.5530796869
 30
0.0
 40
1.160482119636685
100
AcDbArc
 50
351.9505330244
 51
78.5782463411
  0
LINE
  5
20B
330
1F
100
AcDbEntity
  8
0
  6
Continuous
 62
     7
370
    25
100
AcDbLine
 10
7341.8876734287
 20
5569.6905796869
 30
0.0
 11
7339.9535734735
 21
5569.6905796869
 31
0.0
  0
ARC
  5
20C
330
1F
100
AcDbEntity
  8
0
  6
Continuous
 62
     7
370
    25
100
AcDbCircle
 10
7340.1833831774
 20
5568.5530796869
 30
0.0
 40
1.160482119638231
100
AcDbArc
 50
101.4217536589
 51
188.0494669755
  0
LINE
  5
20D
330
1F
100
AcDbEntity
  8
0
  6
Continuous
 62
     7
370
    25
100
AcDbLine
 10
7339.0343346579
 20
5568.3905796869
 30
0.0
 11
7339.0343346579
 21
5553.6294324874
 31
0.0
  0
LINE
  5
20E
330
1F
100
AcDbEntity
  8
0
  6
Continuous
 62
     7
370
    25
100
AcDbLine
 10
7339.0343346579
 20
5553.6294324874
 30
0.0
 11
7347.6269752476
 21
5553.6294324874
 31
0.0
  0
LWPOLYLINE
  5
20F
330
1F
100
AcDbEntity
  8
0
  6
Continuous
 62
     7
370
    25
100
AcDbPolyline
 90
       22
 70
   128
 43
0.0
 10
7342.4419049985
 20
5575.3606091701
 10
7341.6453266089
 20
5575.315211484
 10
7340.0728007916
 20
5574.9537946141
 10
7338.5616335288
 20
5574.2403213813
 10
7337.1509632589
 20
5573.1932703677
 10
7335.8773256008
 20
5571.8397596445
 10
7334.773707101
 20
5570.2148444285
 10
7333.8686908987
 20
5568.3606091701
 10
7333.1857164383
 20
5566.3250775887
 10
7332.7424723996
 20
5564.160968883
 10
7332.5504385703
 20
5561.9243323316
 10
7332.6145885258
 20
5559.6730956465
 10
7332.9332608158
 20
5557.4655646753
 10
7333.4982019955
 20
5555.3589133105
 10
7334.2947803851
 20
5553.4077027159
 10
7335.3023650227
 20
5551.662468221
 10
7336.4948599954
 20
5550.1684104825
 10
7337.8413803099
 20
5548.964224811
 10
7339.3070517972
 20
5548.0810989829
 10
7340.8539143358
 20
5547.5419054932
 10
7342.4419049985
 20
5547.3606091701
 10
7342.4419049985
 20
5547.3606091701
  0
ARC
  5
210
330
1F
100
AcDbEntity
  8
0
  6
Continuous
 62
     7
370
    25
100
AcDbCircle
 10
7341.6225083857
 20
5568.5530796869
 30
0.0
 40
1.160482119638358
100
AcDbArc
 50
351.9505330244
 51
78.578246341
  0
LINE
  5
211
330
1F
100
AcDbEntity
  8
0
  6
Continuous
 62
     7
370
    25
100
AcDbLine
 10
7342.7715569051
 20
5563.9112762647
 30
0.0
 11
7342.7715569051
 21
5568.3905796869
 31
0.0
  0
ARC
  5
212
330
1F
100
AcDbEntity
  8
0
  6
Continuous
 62
     7
370
    25
100
AcDbCircle
 10
7343.0367219481
 20
5563.8737762647
 30
0.0
 40
0.2678035660690097
100
AcDbArc
 50
171.9505330243
 51
258.5782463413
  0
LINE
  5
213
330
1F
100
AcDbEntity
  8
0
  6
Continuous
 62
     7
370
    25
100
AcDbLine
 10
7350.5492561994
 20
5561.8683248723
 30
0.0
 11
7350.5492561994
 21
5563.6112762647
 31
0.0
  0
ARC
  5
214
330
1F
100
AcDbEntity
  8
0
  6
Continuous
 62
     7
370
    25
100
AcDbCircle
 10
7347.5723578159
 20
5561.4700730939
 30
0.0
 40
3.003419461941887
100
AcDbArc
 50
283.4763794364
 51
7.6198307146
  0
LINE
  5
215
330
1F
100
AcDbEntity
  8
0
  6
Continuous
 62
     7
370
    25
100
AcDbLine
 10
7347.5916199086
 20
5553.6294324874
 30
0.0
 11
7348.272288137
 21
5558.5493495517
 31
0.0
  0
LINE
  5
216
330
1F
100
AcDbEntity
  8
0
  6
Continuous
 62
     7
370
    25
100
AcDbLine
 10
7347.9833336035
 20
5559.0647291388
 30
0.0
 11
7348.2013132653
 21
5559.0478321312
 31
0.0
  0
ARC
  5
217
330
1F
100
AcDbEntity
  8
0
  6
Continuous
 62
     7
370
    25
100
AcDbCircle
 10
7340.0596394907
 20
5568.4905796869
 30
0.0
 40
0.7141428428541475
100
AcDbArc
 50
101.421753659
 51
188.0494669756
  0
LINE
  5
218
330
1F
100
AcDbEntity
  8
0
  6
Continuous
 62
     7
370
    25
100
AcDbLine
 10
7339.3525327095
 20
5568.3905796869
 30
0.0
 11
7339.3525327095
 21
5554.1294324874
 31
0.0
  0
LINE
  5
219
330
1F
100
AcDbEntity
  8
0
  6
Continuous
 62
     7
370
    25
100
AcDbLine
 10
7339.3525327095
 20
5554.1294324874
 30
0.0
 11
7339.3878880485
 21
5554.1294324874
 31
0.0
  0
LINE
  5
21A
330
1F
100
AcDbEntity
  8
0
  6
Continuous
 62
     7
370
    25
100
AcDbLine
 10
7339.3525327095
 20
5568.3905796869
 30
0.0
 11
7339.3878880485
 21
5568.3905796869
 31
0.0
  0
LINE
  5
21B
330
1F
100
AcDbEntity
  8
0
  6
Continuous
 62
     7
370
    25
100
AcDbLine
 10
7339.3878880485
 20
5568.3905796869
 30
0.0
 11
7339.3878880485
 21
5554.1294324874
 31
0.0
  0
ARC
  5
21C
330
1F
100
AcDbEntity
  8
0
  6
Continuous
 62
     7
370
    25
100
AcDbCircle
 10
7340.0949948297
 20
5568.4905796869
 30
0.0
 40
0.7141428428561278
100
AcDbArc
 50
101.421753659
 51
188.0494669755
  0
LINE
  5
21D
330
1F
100
AcDbEntity
  8
0
  6
Continuous
 62
     7
370
    25
100
AcDbLine
 10
7341.8876734287
 20
5569.1905796869
 30
0.0
 11
7339.9535734735
 21
5569.1905796869
 31
0.0
  0
ARC
  5
21E
330
1F
100
AcDbEntity
  8
0
  6
Continuous
 62
     7
370
    25
100
AcDbCircle
 10
7341.7462520724
 20
5568.4905796869
 30
0.0
 40
0.7141428428561278
100
AcDbArc
 50
351.9505330245
 51
78.5782463409
  0
LINE
  5
21F
330
1F
100
AcDbEntity
  8
0
  6
Continuous
 62
     7
370
    25
100
AcDbLine
 10
7342.4533588536
 20
5563.9112762647
 30
0.0
 11
7342.4533588536
 21
5568.3905796869
 31
0.0
  0
ARC
  5
220
330
1F
100
AcDbEntity
  8
0
  6
Continuous
 62
     7
370
    25
100
AcDbCircle
 10
7343.1604656348
 20
5563.8112762647
 30
0.0
 40
0.7141428428550389
100
AcDbArc
 50
171.9505330245
 51
258.578246341
  0
LINE
  5
221
330
1F
100
AcDbEntity
  8
0
  6
Continuous
 62
     7
370
    25
100
AcDbLine
 10
7350.2310581478
 20
5563.1112762647
 30
0.0
 11
7343.0190442786
 21
5563.1112762647
 31
0.0
  0
LINE
  5
222
330
1F
100
AcDbEntity
  8
0
  6
Continuous
 62
     7
370
    25
100
AcDbLine
 10
7350.2310581478
 20
5561.8683248723
 30
0.0
 11
7350.2310581478
 21
5563.1112762647
 31
0.0
  0
LWPOLYLINE
  5
223
330
1F
100
AcDbEntity
  8
0
  6
Continuous
 62
     7
370
    25
100
AcDbPolyline
 90
        9
 70
   128
 43
0.0
 10
7348.0186889426
 20
5559.0647291388
 10
7348.4368145992
 20
5559.0620707028
 10
7348.8461429571
 20
5559.1827595074
 10
7349.2286822306
 20
5559.4214907477
 10
7349.5676181325
 20
5559.7677711335
 10
7349.8480529358
 20
5560.2063801153
 10
7350.0576602948
 20
5560.7180388951
 10
7350.187227042
 20
5561.280257814
 10
7350.2310581478
 20
5561.8683248723
  0
LINE
  5
224
330
1F
100
AcDbEntity
  8
0
  6
Continuous
 62
     7
370
    25
100
AcDbLine
 10
7347.3358929555
 20
5554.1294324874
 30
0.0
 11
7348.0186889426
 21
5559.0647291388
 31
0.0
  0
LINE
  5
225
330
1F
100
AcDbEntity
  8
0
  6
Continuous
 62
     7
370
    25
100
AcDbLine
 10
7339.3878880485
 20
5554.1294324874
 30
0.0
 11
7347.3358929555
 21
5554.1294324874
 31
0.0
  0
LINE
  5
226
330
1F
100
AcDbEntity
  8
0
  6
Continuous
 62
     7
370
    25
100
AcDbLine
 10
7339.9182181344
 20
5569.1905796869
 30
0.0
 11
7339.9535734735
 21
5569.1905796869
 31
0.0
  0
LINE
  5
227
330
1F
100
AcDbEntity
  8
0
  6
Continuous
 62
     7
370
    25
100
AcDbLine
 10
7342.7715569051
 20
5568.3905796869
 30
0.0
 11
7342.8069122442
 21
5568.3905796869
 31
0.0
  0
LINE
  5
228
330
1F
100
AcDbEntity
  8
0
  6
Continuous
 62
     7
370
    25
100
AcDbLine
 10
7342.9836889395
 20
5563.6112762647
 30
0.0
 11
7343.0190442786
 21
5563.6112762647
 31
0.0
  0
LINE
  5
229
330
1F
100
AcDbEntity
  8
0
  6
Continuous
 62
     7
370
    25
100
AcDbLine
 10
7342.7715569051
 20
5563.9112762647
 30
0.0
 11
7342.8069122442
 21
5563.9112762647
 31
0.0
  0
LINE
  5
22A
330
1F
100
AcDbEntity
  8
0
  6
Continuous
 62
     7
370
    25
100
AcDbLine
 10
7348.272288137
 20
5558.5493495517
 30
0.0
 11
7348.307643476
 21
5558.5493495517
 31
0.0
  0
LINE
  5
22B
330
1F
100
AcDbEntity
  8
0
  6
Continuous
 62
     7
370
    25
100
AcDbLine
 10
7350.5492561994
 20
5561.8683248723
 30
0.0
 11
7350.5846115384
 21
5561.8683248723
 31
0.0
  0
LWPOLYLINE
  5
22C
330
1F
100
AcDbEntity
  8
0
  6
Continuous
 62
     8
370
    25
100
AcDbPolyline
 90
       22
 70
   128
 43
0.0
 10
7806.5102926352
 20
5211.7856019647
 10
7806.5194831586
 20
5211.7855494533
 10
7805.267131642
 20
5211.7926635142
 10
7802.7392498515
 20
5211.8070836685
 10
7799.074972225
 20
5211.828040038
 10
7794.2503053813
 20
5211.8557024329
 10
7788.1044689725
 20
5211.8911785936
 10
7780.80879497
 20
5211.9335078828
 10
7772.6584995148
 20
5211.9811694815
 10
7763.5263868079
 20
5212.0349687058
 10
7753.1684624067
 20
5212.0965072548
 10
7741.9130116838
 20
5212.1640240402
 10
7730.1910868192
 20
5212.2349766812
 10
7717.7795940473
 20
5212.3108955726
 10
7704.3760659447
 20
5212.3936531537
 10
7690.4304549474
 20
5212.4806775961
 10
7676.0261747497
 20
5212.5713789702
 10
7661.2854536181
 20
5212.6650399875
 10
7645.8495226181
 20
5212.7638028405
 10
7630.2903277347
 20
5212.8637892934
 10
7630.290267736
 20
5212.8637896803
 10
7630.290267736
 20
5212.8637896803
  0
LINE
  5
22D
330
1F
100
AcDbEntity
  8
0
  6
Continuous
 62
     8
370
    25
100
AcDbLine
 10
7342.5649042403
 20
5615.0706913611
 30
0.0
 11
7342.6671029382
 21
5615.0706913611
 31
0.0
  0
LINE
  5
22E
330
1F
100
AcDbEntity
  8
0
  6
Continuous
 62
     8
370
    25
100
AcDbLine
 10
7348.757518646
 20
5615.9053150378
 30
0.0
 11
7348.994809233
 21
5615.9053150378
 31
0.0
  0
LINE
  5
22F
330
1F
100
AcDbEntity
  8
0
  6
Continuous
 62
     8
370
    25
100
AcDbLine
 10
7349.6422837285
 20
5610.3830627576
 30
0.0
 11
7349.943410898
 21
5610.3830627576
 31
0.0
  0
CIRCLE
  5
230
330
1F
100
AcDbEntity
  8
0
  6
Continuous
 62
     7
100
AcDbCircle
 10
6349.6647003997
 20
3930.9402925429
 30
0.0
 40
44.99999999999979
  0
CIRCLE
  5
231
330
1F
100
AcDbEntity
  8
0
  6
Continuous
 62
     7
100
AcDbCircle
 10
6349.6647003997
 20
3930.9402925429
 30
0.0
 40
46.49999999999969
  0
LWPOLYLINE
  5
232
330
1F
100
AcDbEntity
  8
0
  6
Continuous
 62
     7
370
    25
100
AcDbPolyline
 90
        7
 70
   128
 43
0.0
 10
6526.7718807261
 20
3850.4542318965
 10
6526.874799973
 20
3855.7707894315
 10
6526.9357809371
 20
3868.8977097279
 10
6526.8402542718
 20
3884.426482992
 10
6526.7653270208
 20
3909.227702017
 10
6526.7653270208
 20
3937.9432766856
 10
6526.7653270208
 20
4120.4582606273
  0
LINE
  5
233
330
1F
100
AcDbEntity
  8
0
  6
Continuous
 62
     7
370
    25
100
AcDbLine
 10
6172.5640737786
 20
4120.4582606273
 30
0.0
 11
6172.5640737786
 21
3852.0198004661
 31
0.0
  0
LWPOLYLINE
  5
234
330
1F
100
AcDbEntity
  8
0
  6
Continuous
 62
     7
370
    25
100
AcDbPolyline
 90
       77
 70
   128
 43
0.0
 10
6172.6093645099
 20
3852.0195304591
 10
6172.6185103333
 20
3850.4933334777
 10
6172.8407006794
 20
3843.05153896
 10
6173.2671127781
 20
3836.378020948
 10
6173.9577362898
 20
3829.8658672106
 10
6174.9477201852
 20
3823.1060480279
 10
6176.3221962972
 20
3815.7999695941
 10
6178.0106106541
 20
3808.521576864
 10
6180.0099669546
 20
3801.2940969951
 10
6182.3152050393
 20
3794.1432252373
 10
6184.9188471481
 20
3787.0964862998
 10
6187.8112158597
 20
3780.1814849278
 10
6190.9819308564
 20
3773.4224144948
 10
6194.4218991102
 20
3766.8370341444
 10
6198.1306150006
 20
3760.4177022258
 10
6202.1251298046
 20
3754.1298205694
 10
6206.4018008714
 20
3747.9828731099
 10
6210.9469524749
 20
3742.0009375903
 10
6215.7450255895
 20
3736.2077083286
 10
6220.7757157172
 20
3730.6293453195
 10
6226.0194720657
 20
3725.2876424007
 10
6231.4568670485
 20
3720.2015995352
 10
6237.0731343987
 20
3715.3877071345
 10
6242.8214840985
 20
3710.8747484724
 10
6248.8023963921
 20
3706.5754791378
 10
6255.0027699451
 20
3702.5029032183
 10
6261.4085668578
 20
3698.6694916106
 10
6268.0042370714
 20
3695.0874875276
 10
6274.7727986886
 20
3691.7687054294
 10
6281.6959628246
 20
3688.7243313522
 10
6288.7543043142
 20
3685.9647305092
 10
6295.9274738077
 20
3683.499270641
 10
6303.1916582882
 20
3681.3369354677
 10
6310.5251552734
 20
3679.4843593043
 10
6317.9065007407
 20
3677.9467160391
 10
6325.3145129616
 20
3676.7277834298
 10
6332.7285576082
 20
3675.8299613691
 10
6340.128785913
 20
3675.2543291893
 10
6347.4963376344
 20
3675.0007377012
 10
6354.8042989573
 20
3675.0635628301
 10
6362.1717085966
 20
3675.436381914
 10
6369.5977338649
 20
3676.1251202997
 10
6377.0221190035
 20
3677.1291354877
 10
6384.4189221444
 20
3678.4471934241
 10
6391.76166325
 20
3680.076347035
 10
6399.0198879705
 20
3682.0107932199
 10
6406.1674196234
 20
3684.2436302021
 10
6413.179443698
 20
3686.7665248205
 10
6420.0462090497
 20
3689.5727031243
 10
6426.808108753
 20
3692.6750333915
 10
6433.461796337
 20
3696.073260982
 10
6439.9864923454
 20
3699.7590193997
 10
6446.3615397861
 20
3703.7225178387
 10
6452.5658929192
 20
3707.9520676562
 10
6458.5781222092
 20
3712.4337429075
 10
6464.3798758459
 20
3717.1538561882
 10
6469.9526072991
 20
3722.095923984
 10
6475.3022064989
 20
3727.2598643351
 10
6480.4501986339
 20
3732.6660394885
 10
6485.3752808289
 20
3738.294908736
 10
6490.0650531894
 20
3744.1339176613
 10
6494.5076561281
 20
3750.169721609
 10
6498.6912330273
 20
3756.3872592613
 10
6502.6054290144
 20
3762.771731197
 10
6506.2409699522
 20
3769.3082406181
 10
6509.5846536872
 20
3775.9674708679
 10
6512.6546934244
 20
3782.782158749
 10
6515.4344381718
 20
3789.7203196285
 10
6517.9179778656
 20
3796.7680933236
 10
6520.1014229519
 20
3803.914975196
 10
6521.9812507837
 20
3811.1503524586
 10
6523.5542316556
 20
3818.4631093515
 10
6524.8176127105
 20
3825.8422258835
 10
6525.6756631244
 20
3832.4331132839
 10
6526.2849910365
 20
3839.5723053487
 10
6526.6012383267
 20
3846.37953989
 10
6526.6760634875
 20
3850.4560872569
  0
ARC
  5
235
330
1F
100
AcDbEntity
  8
0
  6
Continuous
 62
     7
370
    25
100
AcDbCircle
 10
6599.6647003997
 20
4333.5475463416
 30
0.0
 40
2.660714285713766
100
AcDbArc
 50
20.0159596029
 51
90.0
  0
ARC
  5
236
330
1F
100
AcDbEntity
  8
0
  6
Continuous
 62
     7
370
    25
100
AcDbCircle
 10
6599.6647003997
 20
4329.2023082464
 30
0.0
 40
2.660714285713766
100
AcDbArc
 50
270.0
 51
339.9840403971
  0
ARC
  5
237
330
1F
100
AcDbEntity
  8
0
  6
Continuous
 62
     7
370
    25
100
AcDbCircle
 10
6599.6647003997
 20
4333.380879675
 30
0.0
 40
2.660714285714675
100
AcDbArc
 50
20.0159596029
 51
90.0
  0
ARC
  5
238
330
1F
100
AcDbEntity
  8
0
  6
Continuous
 62
     7
370
    25
100
AcDbCircle
 10
6599.6647003997
 20
4492.3689749131
 30
0.0
 40
2.660714285714675
100
AcDbArc
 50
270.0
 51
339.9840403971
  0
ARC
  5
239
330
1F
100
AcDbEntity
  8
0
  6
Continuous
 62
     7
370
    25
100
AcDbCircle
 10
6599.6647003997
 20
4496.5475463416
 30
0.0
 40
2.660714285713766
100
AcDbArc
 50
20.0159596029
 51
90.0
  0
LINE
  5
23A
330
1F
100
AcDbEntity
  8
0
  6
Continuous
 62
     7
370
    25
100
AcDbLine
 10
6340.2114653012
 20
4316.5063984435
 30
0.0
 11
6340.5309600361
 21
4316.7763338316
 31
0.0
  0
LINE
  5
23B
330
1F
100
AcDbEntity
  8
0
  6
Continuous
 62
     7
370
    25
100
AcDbLine
 10
6345.6962375719
 20
4319.726265347
 30
0.0
 11
6347.6156380327
 21
4320.1265615587
 31
0.0
  0
LINE
  5
23C
330
1F
100
AcDbEntity
  8
0
  6
Continuous
 62
     7
370
    25
100
AcDbLine
 10
6352.7895123341
 20
4319.9973063979
 30
0.0
 11
6353.6228988849
 21
4319.7468444501
 31
0.0
  0
LINE
  5
23D
330
1F
100
AcDbEntity
  8
0
  6
Continuous
 62
     7
370
    25
100
AcDbLine
 10
6135.0017494964
 20
4149.4141047497
 30
0.0
 11
6135.0017494964
 21
4147.2927844061
 31
0.0
  0
LINE
  5
23E
330
1F
100
AcDbEntity
  8
0
  6
Continuous
 62
     7
370
    25
100
AcDbLine
 10
6152.6794190261
 20
4129.6151148765
 30
0.0
 11
6154.8007393697
 21
4129.6151148765
 31
0.0
  0
LINE
  5
23F
330
1F
100
AcDbEntity
  8
0
  6
Continuous
 62
     7
370
    25
100
AcDbLine
 10
6135.355302887
 20
4149.7676581403
 30
0.0
 11
6135.0017494964
 21
4149.4141047497
 31
0.0
  0
LINE
  5
240
330
1F
100
AcDbEntity
  8
0
  6
Continuous
 62
     7
370
    25
100
AcDbLine
 10
6154.8007393697
 20
4129.6151148765
 30
0.0
 11
6155.1542927603
 21
4129.9686682671
 31
0.0
  0
LINE
  5
241
330
1F
100
AcDbEntity
  8
0
  6
Continuous
 62
     7
370
    25
100
AcDbLine
 10
6101.2147003997
 20
4520.4582606273
 30
0.0
 11
6101.2147003997
 21
4519.8647189532
 31
0.0
  0
LINE
  5
242
330
1F
100
AcDbEntity
  8
0
  6
Continuous
 62
     7
370
    25
100
AcDbLine
 10
6101.2147003997
 20
4520.4582606273
 30
0.0
 11
6103.1647003997
 21
4520.4582606273
 31
0.0
  0
LINE
  5
243
330
1F
100
AcDbEntity
  8
0
  6
Continuous
 62
     7
370
    25
100
AcDbLine
 10
6100.2924190764
 20
4518.9582606273
 30
0.0
 11
6099.6647003997
 21
4518.9582606273
 31
0.0
  0
LINE
  5
244
330
1F
100
AcDbEntity
  8
0
  6
Continuous
 62
     7
370
    25
100
AcDbLine
 10
6099.6647003997
 20
4516.9582606273
 30
0.0
 11
6099.6647003997
 21
4518.9582606273
 31
0.0
  0
LWPOLYLINE
  5
245
330
1F
100
AcDbEntity
  8
0
  6
Continuous
 62
     7
370
    25
100
AcDbPolyline
 90
        4
 70
   128
 43
0.0
 10
6516.7587838286
 20
3850.5441033823
 10
6516.7651873395
 20
3851.8042168309
 10
6516.7653270208
 20
3985.4582606031
 10
6516.7653270208
 20
4120.4582606273
  0
LINE
  5
246
330
1F
100
AcDbEntity
  8
0
  6
Continuous
 62
     7
370
    25
100
AcDbLine
 10
6182.5640737786
 20
4120.4582606273
 30
0.0
 11
6182.5640737786
 21
3852.0198004661
 31
0.0
  0
ARC
  5
247
330
1F
100
AcDbEntity
  8
0
  6
Continuous
 62
     7
370
    25
100
AcDbCircle
 10
6349.6649872181
 20
3852.0878106031
 30
0.0
 40
167.1009272795795
100
AcDbArc
 50
180.0233194033
 51
359.470684166
  0
LINE
  5
248
330
1F
100
AcDbEntity
  8
0
  6
Continuous
 62
     7
370
    25
100
AcDbLine
 10
6475.1647003997
 20
3930.9402925429
 30
0.0
 11
6475.1647003997
 21
3870.9402925429
 31
0.0
  0
ARC
  5
249
330
1F
100
AcDbEntity
  8
0
  6
Continuous
 62
     7
370
    25
100
AcDbCircle
 10
6349.6647003997
 20
3930.9402925429
 30
0.0
 40
125.5000000000002
100
AcDbArc
 50
0.0
 51
88.3627549222
  0
LWPOLYLINE
  5
24A
330
1F
100
AcDbEntity
  8
0
  6
Continuous
 62
     7
370
    25
100
AcDbPolyline
 90
        3
 70
   128
 43
0.0
 10
6346.078986114
 20
4056.3890575949
 10
6348.644365742
 20
4056.4008599675
 10
6353.2504146854
 20
4056.3890575949
  0
ARC
  5
24B
330
1F
100
AcDbEntity
  8
0
  6
Continuous
 62
     7
370
    25
100
AcDbCircle
 10
6349.6647003997
 20
3930.9402925429
 30
0.0
 40
125.5000000000009
100
AcDbArc
 50
91.6372450778
 51
180.0
  0
LINE
  5
24C
330
1F
100
AcDbEntity
  8
0
  6
Continuous
 62
     7
370
    25
100
AcDbLine
 10
6224.1647003997
 20
3870.9402925429
 30
0.0
 11
6224.1647003997
 21
3930.9402925429
 31
0.0
  0
ARC
  5
24D
330
1F
100
AcDbEntity
  8
0
  6
Continuous
 62
     7
370
    25
100
AcDbCircle
 10
6349.6647003997
 20
3870.9402925429
 30
0.0
 40
125.5000000000009
100
AcDbArc
 50
180.0
 51
0.0
  0
ARC
  5
24E
330
1F
100
AcDbEntity
  8
0
  6
Continuous
 62
     7
370
    25
100
AcDbCircle
 10
6349.6647003997
 20
3930.9402925429
 30
0.0
 40
122.5000000000009
100
AcDbArc
 50
91.6372450778
 51
180.0
  0
LINE
  5
24F
330
1F
100
AcDbEntity
  8
0
  6
Continuous
 62
     7
370
    25
100
AcDbLine
 10
6227.1647003997
 20
3930.9402925429
 30
0.0
 11
6224.1647003997
 21
3930.9402925429
 31
0.0
  0
LINE
  5
250
330
1F
100
AcDbEntity
  8
0
  6
Continuous
 62
     7
370
    25
100
AcDbLine
 10
6346.1647003997
 20
4053.3902823347
 30
0.0
 11
6346.078986114
 21
4056.3890575949
 31
0.0
  0
ARC
  5
251
330
1F
100
AcDbEntity
  8
0
  6
Continuous
 62
     7
370
    25
100
AcDbCircle
 10
6349.6647003997
 20
3930.940292543
 30
0.0
 40
122.4999999999045
100
AcDbArc
 50
88.3627549222
 51
91.6372450778
  0
LINE
  5
252
330
1F
100
AcDbEntity
  8
0
  6
Continuous
 62
     7
370
    25
100
AcDbLine
 10
6353.1647003997
 20
4053.3902823347
 30
0.0
 11
6353.2504146854
 21
4056.3890575949
 31
0.0
  0
ARC
  5
253
330
1F
100
AcDbEntity
  8
0
  6
Continuous
 62
     7
370
    25
100
AcDbCircle
 10
6349.6647003997
 20
3930.9402925429
 30
0.0
 40
122.5000000000004
100
AcDbArc
 50
0.0
 51
88.3627549222
  0
LINE
  5
254
330
1F
100
AcDbEntity
  8
0
  6
Continuous
 62
     7
370
    25
100
AcDbLine
 10
6475.1647003997
 20
3930.9402925429
 30
0.0
 11
6472.1647003997
 21
3930.9402925429
 31
0.0
  0
LINE
  5
255
330
1F
100
AcDbEntity
  8
0
  6
Continuous
 62
     7
370
    25
100
AcDbLine
 10
6227.1647003997
 20
3930.9402925429
 30
0.0
 11
6227.1647003997
 21
3870.9402925429
 31
0.0
  0
LINE
  5
256
330
1F
100
AcDbEntity
  8
0
  6
Continuous
 62
     7
370
    25
100
AcDbLine
 10
6224.1647003997
 20
3870.9402925429
 30
0.0
 11
6227.1647003997
 21
3870.9402925429
 31
0.0
  0
LINE
  5
257
330
1F
100
AcDbEntity
  8
0
  6
Continuous
 62
     7
370
    25
100
AcDbLine
 10
6475.1647003997
 20
3870.9402925429
 30
0.0
 11
6472.1647003997
 21
3870.9402925429
 31
0.0
  0
LINE
  5
258
330
1F
100
AcDbEntity
  8
0
  6
Continuous
 62
     7
370
    25
100
AcDbLine
 10
6472.1647003997
 20
3870.9402925429
 30
0.0
 11
6472.1647003997
 21
3930.9402925429
 31
0.0
  0
ARC
  5
259
330
1F
100
AcDbEntity
  8
0
  6
Continuous
 62
     7
370
    25
100
AcDbCircle
 10
6349.6647003997
 20
3870.9402925429
 30
0.0
 40
122.5000000000009
100
AcDbArc
 50
180.0
 51
0.0
  0
LINE
  5
25A
330
1F
100
AcDbEntity
  8
0
  6
Continuous
 62
     7
370
    25
100
AcDbLine
 10
6338.608028206
 20
4052.9402925429
 30
0.0
 11
6360.7213725935
 21
4052.9402925429
 31
0.0
  0
CIRCLE
  5
25B
330
1F
100
AcDbEntity
  8
0
  6
Continuous
 62
     7
370
    25
100
AcDbCircle
 10
6349.6616382617
 20
3930.9401587392
 30
0.0
 40
44.9998663004962
  0
LWPOLYLINE
  5
25C
330
1F
100
AcDbEntity
  8
0
  6
Continuous
 62
     7
370
    25
100
AcDbPolyline
 90
       10
 70
   128
 43
0.0
 10
6349.6647003945
 20
3944.0090358328
 10
6353.1092797628
 20
3944.3190581841
 10
6356.4534723511
 20
3945.2086954064
 10
6359.5940954488
 20
3946.6130229759
 10
6362.5031921468
 20
3948.4540568722
 10
6366.3110377713
 20
3951.8147553586
 10
6369.5328177975
 20
3955.7506075392
 10
6372.1492736179
 20
3960.012747864
 10
6374.2776287884
 20
3964.5596947818
 10
6375.2201589102
 20
3967.2114179075
  0
LWPOLYLINE
  5
25D
330
1F
100
AcDbEntity
  8
0
  6
Continuous
 62
     7
370
    25
100
AcDbPolyline
 90
       10
 70
   128
 43
0.0
 10
6324.1082338162
 20
3967.253318469
 10
6324.6116812285
 20
3965.6746740129
 10
6327.2947785596
 20
3959.7991882236
 10
6330.8034443303
 20
3954.3879994688
 10
6333.9656520902
 20
3950.8645459236
 10
6337.6362329933
 20
3947.8841480348
 10
6340.9131146413
 20
3946.0205731828
 10
6344.4458953509
 20
3944.7153089823
 10
6347.0322330142
 20
3944.1894440547
 10
6349.6647003945
 20
3944.0090358328
  0
CIRCLE
  5
25E
330
1F
100
AcDbEntity
  8
0
  6
Continuous
 62
     7
370
    25
100
AcDbCircle
 10
6349.6647003997
 20
3930.9402925429
 30
0.0
 40
44.49999999999955
  0
LINE
  5
25F
330
1F
100
AcDbEntity
  8
0
  6
Continuous
 62
     7
370
    25
100
AcDbLine
 10
6602.1647003997
 20
4334.2915939607
 30
0.0
 11
6602.1647003997
 21
4334.4582606273
 31
0.0
  0
LINE
  5
260
330
1F
100
AcDbEntity
  8
0
  6
Continuous
 62
     7
370
    25
100
AcDbLine
 10
6602.1647003997
 20
4328.2915939607
 30
0.0
 11
6602.1647003997
 21
4334.2915939607
 31
0.0
  0
LINE
  5
261
330
1F
100
AcDbEntity
  8
0
  6
Continuous
 62
     7
370
    25
100
AcDbLine
 10
6602.1647003997
 20
4491.4582606273
 30
0.0
 11
6602.1647003997
 21
4497.4582606273
 31
0.0
  0
LINE
  5
262
330
1F
100
AcDbEntity
  8
0
  6
Continuous
 62
     7
370
    25
100
AcDbLine
 10
6596.1647003997
 20
4520.4582606273
 30
0.0
 11
6596.1647003997
 21
4518.4582606273
 31
0.0
  0
ARC
  5
263
330
1F
100
AcDbEntity
  8
0
  6
Continuous
 62
     7
370
    25
100
AcDbCircle
 10
6596.1647003997
 20
4516.9582606273
 30
0.0
 40
3.5
100
AcDbArc
 50
0.0
 51
90.0
  0
ELLIPSE
  5
264
330
1F
100
AcDbEntity
  8
0
  6
Continuous
 62
     7
370
    25
100
AcDbEllipse
 10
6596.1647003997
 20
4516.9582606273
 30
0.0
 11
3.5
 21
0.0
 31
0.0
210
0.0
220
0.0
230
1.0
 40
0.4285714286
 41
0.0
 42
1.570796326794897
  0
LINE
  5
265
330
1F
100
AcDbEntity
  8
0
  6
Continuous
 62
     7
370
    25
100
AcDbLine
 10
6103.1647003997
 20
4520.4582606273
 30
0.0
 11
6103.1647003997
 21
4518.4582606273
 31
0.0
  0
ELLIPSE
  5
266
330
1F
100
AcDbEntity
  8
0
  6
Continuous
 62
     7
370
    25
100
AcDbEllipse
 10
6103.1647003997
 20
4516.9582606273
 30
0.0
 11
3.499999999999091
 21
0.0
 31
0.0
210
0.0
220
0.0
230
1.0
 40
0.4285714286
 41
1.570796326794897
 42
3.141592653589793
  0
ARC
  5
267
330
1F
100
AcDbEntity
  8
0
  6
Continuous
 62
     7
370
    25
100
AcDbCircle
 10
6103.1647003997
 20
4516.9582606273
 30
0.0
 40
3.5
100
AcDbArc
 50
90.0
 51
180.0
  0
LINE
  5
268
330
1F
100
AcDbEntity
  8
0
  6
Continuous
 62
     7
370
    25
100
AcDbLine
 10
6103.1647003997
 20
4520.4582606273
 30
0.0
 11
6596.1647003997
 21
4520.4582606273
 31
0.0
  0
LINE
  5
269
330
1F
100
AcDbEntity
  8
0
  6
Continuous
 62
     7
370
    25
100
AcDbLine
 10
6596.1647003997
 20
4518.4582606273
 30
0.0
 11
6103.1647003997
 21
4518.4582606273
 31
0.0
  0
LINE
  5
26A
330
1F
100
AcDbEntity
  8
0
  6
Continuous
 62
     7
370
    25
100
AcDbLine
 10
6599.6647003997
 20
4218.5953456172
 30
0.0
 11
6596.1647003997
 21
4218.5953456172
 31
0.0
  0
LINE
  5
26B
330
1F
100
AcDbEntity
  8
0
  6
Continuous
 62
     7
370
    25
100
AcDbLine
 10
6596.1647003997
 20
4218.5953456172
 30
0.0
 11
6596.1647003997
 21
4518.4582606273
 31
0.0
  0
LINE
  5
26C
330
1F
100
AcDbEntity
  8
0
  6
Continuous
 62
     7
370
    25
100
AcDbLine
 10
6599.6647003997
 20
4516.9582606273
 30
0.0
 11
6599.6647003997
 21
4218.5953456172
 31
0.0
  0
LINE
  5
26D
330
1F
100
AcDbEntity
  8
0
  6
Continuous
 62
     7
370
    25
100
AcDbLine
 10
6099.6647003997
 20
4218.5953456172
 30
0.0
 11
6103.1647003997
 21
4218.5953456172
 31
0.0
  0
LINE
  5
26E
330
1F
100
AcDbEntity
  8
0
  6
Continuous
 62
     7
370
    25
100
AcDbLine
 10
6099.6647003997
 20
4218.5953456172
 30
0.0
 11
6099.6647003997
 21
4516.9582606273
 31
0.0
  0
LINE
  5
26F
330
1F
100
AcDbEntity
  8
0
  6
Continuous
 62
     7
370
    25
100
AcDbLine
 10
6103.1647003997
 20
4518.4582606273
 30
0.0
 11
6103.1647003997
 21
4218.5953456172
 31
0.0
  0
ARC
  5
270
330
1F
100
AcDbEntity
  8
0
  6
Continuous
 62
     7
370
    25
100
AcDbCircle
 10
6519.6647003997
 20
4218.5953456172
 30
0.0
 40
76.50000000000006
100
AcDbArc
 50
315.0
 51
0.0
  0
LINE
  5
271
330
1F
100
AcDbEntity
  8
0
  6
Continuous
 62
     7
370
    25
100
AcDbLine
 10
6533.2149529314
 20
4123.9582606273
 30
0.0
 11
6573.7583691605
 21
4164.5016768564
 31
0.0
  0
LINE
  5
272
330
1F
100
AcDbEntity
  8
0
  6
Continuous
 62
     7
370
    25
100
AcDbLine
 10
6166.114447868
 20
4123.9582606273
 30
0.0
 11
6533.2149529314
 21
4123.9582606273
 31
0.0
  0
LINE
  5
273
330
1F
100
AcDbEntity
  8
0
  6
Continuous
 62
     7
370
    25
100
AcDbLine
 10
6125.5710316389
 20
4164.5016768564
 30
0.0
 11
6166.114447868
 21
4123.9582606273
 31
0.0
  0
ARC
  5
274
330
1F
100
AcDbEntity
  8
0
  6
Continuous
 62
     7
370
    25
100
AcDbCircle
 10
6179.6647003997
 20
4218.5953456172
 30
0.0
 40
76.50000000000006
100
AcDbArc
 50
180.0
 51
225.0
  0
LINE
  5
275
330
1F
100
AcDbEntity
  8
0
  6
Continuous
 62
     7
370
    25
100
AcDbLine
 10
6569.3944081298
 20
4168.8656378871
 30
0.0
 11
6531.4870308701
 21
4130.9582606273
 31
0.0
  0
ARC
  5
276
330
1F
100
AcDbEntity
  8
0
  6
Continuous
 62
     7
370
    25
100
AcDbCircle
 10
6519.6647003997
 20
4218.5953456172
 30
0.0
 40
70.32842712474576
100
AcDbArc
 50
315.0
 51
0.0
  0
LINE
  5
277
330
1F
100
AcDbEntity
  8
0
  6
Continuous
 62
     7
370
    25
100
AcDbLine
 10
6589.9931275245
 20
4385.9582606273
 30
0.0
 11
6589.9931275245
 21
4218.5953456172
 31
0.0
  0
ELLIPSE
  5
278
330
1F
100
AcDbEntity
  8
0
  6
Continuous
 62
     7
370
    25
100
AcDbEllipse
 10
6584.336273275
 20
4383.1298335026
 30
0.0
 11
4.898979485566088
 21
4.898979485566998
 31
0.0
210
0.0
220
0.0
230
1.0
 40
0.5773502692
 41
5.759586531581323
 42
6.806784082777694
  0
LINE
  5
279
330
1F
100
AcDbEntity
  8
0
  6
Continuous
 62
     7
370
    25
100
AcDbLine
 10
6514.9931275245
 20
4388.7866877521
 30
0.0
 11
6587.1647003997
 21
4388.7866877521
 31
0.0
  0
LINE
  5
27A
330
1F
100
AcDbEntity
  8
0
  6
Continuous
 62
     7
370
    25
100
AcDbLine
 10
6514.9931275245
 20
4403.1298335026
 30
0.0
 11
6514.9931275245
 21
4388.7866877521
 31
0.0
  0
LINE
  5
27B
330
1F
100
AcDbEntity
  8
0
  6
Continuous
 62
     7
370
    25
100
AcDbLine
 10
6587.1647003997
 20
4403.1298335026
 30
0.0
 11
6514.9931275245
 21
4403.1298335026
 31
0.0
  0
ELLIPSE
  5
27C
330
1F
100
AcDbEntity
  8
0
  6
Continuous
 62
     7
370
    25
100
AcDbEllipse
 10
6584.336273275
 20
4408.7866877521
 30
0.0
 11
-4.898979485566088
 21
4.898979485566088
 31
0.0
210
0.0
220
0.0
230
1.0
 40
0.5773502692
 41
2.617993877991708
 42
3.665191429188178
  0
LINE
  5
27D
330
1F
100
AcDbEntity
  8
0
  6
Continuous
 62
     7
370
    25
100
AcDbLine
 10
6589.9931275245
 20
4480.9582606273
 30
0.0
 11
6589.9931275245
 21
4405.9582606273
 31
0.0
  0
ELLIPSE
  5
27E
330
1F
100
AcDbEntity
  8
0
  6
Continuous
 62
     7
370
    25
100
AcDbEllipse
 10
6584.336273275
 20
4478.1298335026
 30
0.0
 11
-4.898979485566088
 21
-4.898979485566088
 31
0.0
210
0.0
220
0.0
230
1.0
 40
0.5773502692
 41
2.617993877991614
 42
3.665191429187992
  0
LINE
  5
27F
330
1F
100
AcDbEntity
  8
0
  6
Continuous
 62
     7
370
    25
100
AcDbLine
 10
6502.1647003997
 20
4483.7866877521
 30
0.0
 11
6587.1647003997
 21
4483.7866877521
 31
0.0
  0
ELLIPSE
  5
280
330
1F
100
AcDbEntity
  8
0
  6
Continuous
 62
     7
370
    25
100
AcDbEllipse
 10
6504.9931275245
 20
4478.1298335026
 30
0.0
 11
4.898979485566088
 21
-4.898979485566088
 31
0.0
210
0.0
220
0.0
230
1.0
 40
0.5773502692
 41
2.617993877991498
 42
3.665191429187922
  0
LINE
  5
281
330
1F
100
AcDbEntity
  8
0
  6
Continuous
 62
     7
370
    25
100
AcDbLine
 10
6499.336273275
 20
4417.7866877521
 30
0.0
 11
6499.336273275
 21
4480.9582606273
 31
0.0
  0
LINE
  5
282
330
1F
100
AcDbEntity
  8
0
  6
Continuous
 62
     7
370
    25
100
AcDbLine
 10
6484.9931275245
 20
4417.7866877521
 30
0.0
 11
6499.336273275
 21
4417.7866877521
 31
0.0
  0
LINE
  5
283
330
1F
100
AcDbEntity
  8
0
  6
Continuous
 62
     7
370
    25
100
AcDbLine
 10
6484.9931275245
 20
4480.9582606273
 30
0.0
 11
6484.9931275245
 21
4417.7866877521
 31
0.0
  0
ELLIPSE
  5
284
330
1F
100
AcDbEntity
  8
0
  6
Continuous
 62
     7
370
    25
100
AcDbEllipse
 10
6479.336273275
 20
4478.1298335026
 30
0.0
 11
-4.898979485566998
 21
-4.898979485566088
 31
0.0
210
0.0
220
0.0
230
1.0
 40
0.5773502692
 41
2.617993877991639
 42
3.665191429188422
  0
LINE
  5
285
330
1F
100
AcDbEntity
  8
0
  6
Continuous
 62
     7
370
    25
100
AcDbLine
 10
6112.1647003997
 20
4483.7866877521
 30
0.0
 11
6482.1647003997
 21
4483.7866877521
 31
0.0
  0
ELLIPSE
  5
286
330
1F
100
AcDbEntity
  8
0
  6
Continuous
 62
     7
370
    25
100
AcDbEllipse
 10
6114.9931275245
 20
4478.1298335026
 30
0.0
 11
-4.898979485566998
 21
4.898979485566088
 31
0.0
210
0.0
220
0.0
230
1.0
 40
0.5773502692
 41
5.759586531581253
 42
6.806784082777765
  0
LINE
  5
287
330
1F
100
AcDbEntity
  8
0
  6
Continuous
 62
     7
370
    25
100
AcDbLine
 10
6109.336273275
 20
4218.5953456172
 30
0.0
 11
6109.336273275
 21
4480.9582606273
 31
0.0
  0
ARC
  5
288
330
1F
100
AcDbEntity
  8
0
  6
Continuous
 62
     7
370
    25
100
AcDbCircle
 10
6179.6647003997
 20
4218.5953456172
 30
0.0
 40
70.32842712474667
100
AcDbArc
 50
180.0
 51
225.0
  0
LINE
  5
289
330
1F
100
AcDbEntity
  8
0
  6
Continuous
 62
     7
370
    25
100
AcDbLine
 10
6167.8423699294
 20
4130.9582606273
 30
0.0
 11
6129.9349926696
 21
4168.8656378871
 31
0.0
  0
ELLIPSE
  5
28A
330
1F
100
AcDbEntity
  8
0
  6
Continuous
 62
     7
370
    25
100
AcDbEllipse
 10
6171.0139428046
 20
4135.7866877521
 30
0.0
 11
-2.255728652690777
 21
-5.445810706358315
 31
0.0
210
0.0
220
0.0
230
1.0
 40
0.6785983445
 41
6.009171103369392
 42
6.5571995109898
  0
LINE
  5
28B
330
1F
100
AcDbEntity
  8
0
  6
Continuous
 62
     7
370
    25
100
AcDbLine
 10
6529.4870308701
 20
4130.1298335026
 30
0.0
 11
6169.8423699294
 21
4130.1298335026
 31
0.0
  0
ELLIPSE
  5
28C
330
1F
100
AcDbEntity
  8
0
  6
Continuous
 62
     7
370
    25
100
AcDbEllipse
 10
6528.3154579948
 20
4135.7866877521
 30
0.0
 11
2.255728652689868
 21
-5.445810706358316
 31
0.0
210
0.0
220
0.0
230
1.0
 40
0.6785983445
 41
6.009171103369469
 42
6.557199510989722
  0
ELLIPSE
  5
28D
330
1F
100
AcDbEntity
  8
0
  6
Continuous
 62
     7
370
    25
100
AcDbEllipse
 10
6479.336273275
 20
4478.1298335026
 30
0.0
 11
4.082482904638709
 21
4.082482904639618
 31
0.0
210
0.0
220
0.0
230
1.0
 40
0.3464101615
 41
5.759586531581169
 42
6.806784082778091
  0
LINE
  5
28E
330
1F
100
AcDbEntity
  8
0
  6
Continuous
 62
     7
370
    25
100
AcDbLine
 10
6482.1647003997
 20
4482.3724741897
 30
0.0
 11
6482.1647003997
 21
4483.7866877521
 31
0.0
  0
LINE
  5
28F
330
1F
100
AcDbEntity
  8
0
  6
Continuous
 62
     7
370
    25
100
AcDbLine
 10
6483.5789139621
 20
4480.9582606273
 30
0.0
 11
6484.9931275245
 21
4480.9582606273
 31
0.0
  0
ELLIPSE
  5
290
330
1F
100
AcDbEntity
  8
0
  6
Continuous
 62
     7
370
    25
100
AcDbEllipse
 10
6114.9931275245
 20
4478.1298335026
 30
0.0
 11
-4.082482904639618
 21
4.082482904638709
 31
0.0
210
0.0
220
0.0
230
1.0
 40
0.3464101615
 41
5.759586531580945
 42
6.806784082777757
  0
LINE
  5
291
330
1F
100
AcDbEntity
  8
0
  6
Continuous
 62
     7
370
    25
100
AcDbLine
 10
6110.7504868373
 20
4480.9582606273
 30
0.0
 11
6109.336273275
 21
4480.9582606273
 31
0.0
  0
LINE
  5
292
330
1F
100
AcDbEntity
  8
0
  6
Continuous
 62
     7
370
    25
100
AcDbLine
 10
6112.1647003997
 20
4482.3724741897
 30
0.0
 11
6112.1647003997
 21
4483.7866877521
 31
0.0
  0
LINE
  5
293
330
1F
100
AcDbEntity
  8
0
  6
Continuous
 62
     7
370
    25
100
AcDbLine
 10
6482.1647003997
 20
4482.3724741897
 30
0.0
 11
6112.1647003997
 21
4482.3724741897
 31
0.0
  0
LINE
  5
294
330
1F
100
AcDbEntity
  8
0
  6
Continuous
 62
     7
370
    25
100
AcDbLine
 10
6483.5789139621
 20
4417.7866877521
 30
0.0
 11
6483.5789139621
 21
4480.9582606273
 31
0.0
  0
LINE
  5
295
330
1F
100
AcDbEntity
  8
0
  6
Continuous
 62
     7
370
    25
100
AcDbLine
 10
6483.5789139621
 20
4417.7866877521
 30
0.0
 11
6484.9931275245
 21
4417.7866877521
 31
0.0
  0
ELLIPSE
  5
296
330
1F
100
AcDbEntity
  8
0
  6
Continuous
 62
     7
370
    25
100
AcDbEllipse
 10
6584.336273275
 20
4478.1298335026
 30
0.0
 11
4.082482904638709
 21
4.082482904638709
 31
0.0
210
0.0
220
0.0
230
1.0
 40
0.3464101615
 41
5.759586531581328
 42
6.806784082778098
  0
LINE
  5
297
330
1F
100
AcDbEntity
  8
0
  6
Continuous
 62
     7
370
    25
100
AcDbLine
 10
6587.1647003997
 20
4482.3724741897
 30
0.0
 11
6587.1647003997
 21
4483.7866877521
 31
0.0
  0
LINE
  5
298
330
1F
100
AcDbEntity
  8
0
  6
Continuous
 62
     7
370
    25
100
AcDbLine
 10
6588.5789139621
 20
4480.9582606273
 30
0.0
 11
6589.9931275245
 21
4480.9582606273
 31
0.0
  0
ELLIPSE
  5
299
330
1F
100
AcDbEntity
  8
0
  6
Continuous
 62
     7
370
    25
100
AcDbEllipse
 10
6504.9931275245
 20
4478.1298335026
 30
0.0
 11
4.082482904638709
 21
-4.082482904638709
 31
0.0
210
0.0
220
0.0
230
1.0
 40
0.3464101615
 41
2.617993877991085
 42
3.665191429187975
  0
LINE
  5
29A
330
1F
100
AcDbEntity
  8
0
  6
Continuous
 62
     7
370
    25
100
AcDbLine
 10
6500.7504868373
 20
4480.9582606273
 30
0.0
 11
6499.336273275
 21
4480.9582606273
 31
0.0
  0
LINE
  5
29B
330
1F
100
AcDbEntity
  8
0
  6
Continuous
 62
     7
370
    25
100
AcDbLine
 10
6502.1647003997
 20
4482.3724741897
 30
0.0
 11
6502.1647003997
 21
4483.7866877521
 31
0.0
  0
LINE
  5
29C
330
1F
100
AcDbEntity
  8
0
  6
Continuous
 62
     7
370
    25
100
AcDbLine
 10
6587.1647003997
 20
4482.3724741897
 30
0.0
 11
6502.1647003997
 21
4482.3724741897
 31
0.0
  0
LINE
  5
29D
330
1F
100
AcDbEntity
  8
0
  6
Continuous
 62
     7
370
    25
100
AcDbLine
 10
6500.7504868373
 20
4480.9582606273
 30
0.0
 11
6500.7504868373
 21
4417.7866877521
 31
0.0
  0
LINE
  5
29E
330
1F
100
AcDbEntity
  8
0
  6
Continuous
 62
     7
370
    25
100
AcDbLine
 10
6500.7504868373
 20
4417.7866877521
 30
0.0
 11
6499.336273275
 21
4417.7866877521
 31
0.0
  0
LINE
  5
29F
330
1F
100
AcDbEntity
  8
0
  6
Continuous
 62
     7
370
    25
100
AcDbLine
 10
6110.7504868373
 20
4480.9582606273
 30
0.0
 11
6110.7504868373
 21
4218.5953456172
 31
0.0
  0
LINE
  5
2A0
330
1F
100
AcDbEntity
  8
0
  6
Continuous
 62
     7
370
    25
100
AcDbLine
 10
6110.7504868373
 20
4218.5953456172
 30
0.0
 11
6109.336273275
 21
4218.5953456172
 31
0.0
  0
LINE
  5
2A1
330
1F
100
AcDbEntity
  8
0
  6
Continuous
 62
     7
370
    25
100
AcDbLine
 10
6589.9931275245
 20
4405.9582606273
 30
0.0
 11
6588.5789139621
 21
4405.9582606273
 31
0.0
  0
LINE
  5
2A2
330
1F
100
AcDbEntity
  8
0
  6
Continuous
 62
     7
370
    25
100
AcDbLine
 10
6588.5789139621
 20
4405.9582606273
 30
0.0
 11
6588.5789139621
 21
4480.9582606273
 31
0.0
  0
ARC
  5
2A3
330
1F
100
AcDbEntity
  8
0
  6
Continuous
 62
     7
370
    25
100
AcDbCircle
 10
6574.8312175438
 20
4467.6247777714
 30
0.0
 40
3.28440648558781
100
AcDbArc
 50
27.2737787002
 51
62.7262212998
  0
LINE
  5
2A4
330
1F
100
AcDbEntity
  8
0
  6
Continuous
 62
     7
370
    25
100
AcDbLine
 10
6576.336273275
 20
4469.1298335026
 30
0.0
 11
6577.7504868373
 21
4469.1298335026
 31
0.0
  0
LINE
  5
2A5
330
1F
100
AcDbEntity
  8
0
  6
Continuous
 62
     7
370
    25
100
AcDbLine
 10
6576.336273275
 20
4470.544047065
 30
0.0
 11
6576.336273275
 21
4469.1298335026
 31
0.0
  0
LINE
  5
2A6
330
1F
100
AcDbEntity
  8
0
  6
Continuous
 62
     7
370
    25
100
AcDbLine
 10
6570.9931275245
 20
4470.544047065
 30
0.0
 11
6576.336273275
 21
4470.544047065
 31
0.0
  0
LINE
  5
2A7
330
1F
100
AcDbEntity
  8
0
  6
Continuous
 62
     7
370
    25
100
AcDbLine
 10
6576.336273275
 20
4469.1298335026
 30
0.0
 11
6570.9931275245
 21
4469.1298335026
 31
0.0
  0
LINE
  5
2A8
330
1F
100
AcDbEntity
  8
0
  6
Continuous
 62
     7
370
    25
100
AcDbLine
 10
6570.9931275245
 20
4470.544047065
 30
0.0
 11
6570.9931275245
 21
4469.1298335026
 31
0.0
  0
LINE
  5
2A9
330
1F
100
AcDbEntity
  8
0
  6
Continuous
 62
     7
370
    25
100
AcDbLine
 10
6557.336273275
 20
4469.1298335026
 30
0.0
 11
6551.9931275245
 21
4469.1298335026
 31
0.0
  0
LINE
  5
2AA
330
1F
100
AcDbEntity
  8
0
  6
Continuous
 62
     7
370
    25
100
AcDbLine
 10
6551.9931275245
 20
4469.1298335026
 30
0.0
 11
6551.9931275245
 21
4470.544047065
 31
0.0
  0
LINE
  5
2AB
330
1F
100
AcDbEntity
  8
0
  6
Continuous
 62
     7
370
    25
100
AcDbLine
 10
6551.9931275245
 20
4470.544047065
 30
0.0
 11
6557.336273275
 21
4470.544047065
 31
0.0
  0
LINE
  5
2AC
330
1F
100
AcDbEntity
  8
0
  6
Continuous
 62
     7
370
    25
100
AcDbLine
 10
6557.336273275
 20
4470.544047065
 30
0.0
 11
6557.336273275
 21
4469.1298335026
 31
0.0
  0
LINE
  5
2AD
330
1F
100
AcDbEntity
  8
0
  6
Continuous
 62
     7
370
    25
100
AcDbLine
 10
6518.336273275
 20
4469.1298335026
 30
0.0
 11
6512.9931275245
 21
4469.1298335026
 31
0.0
  0
LINE
  5
2AE
330
1F
100
AcDbEntity
  8
0
  6
Continuous
 62
     7
370
    25
100
AcDbLine
 10
6512.9931275245
 20
4469.1298335026
 30
0.0
 11
6512.9931275245
 21
4470.544047065
 31
0.0
  0
LINE
  5
2AF
330
1F
100
AcDbEntity
  8
0
  6
Continuous
 62
     7
370
    25
100
AcDbLine
 10
6512.9931275245
 20
4470.544047065
 30
0.0
 11
6518.336273275
 21
4470.544047065
 31
0.0
  0
LINE
  5
2B0
330
1F
100
AcDbEntity
  8
0
  6
Continuous
 62
     7
370
    25
100
AcDbLine
 10
6518.336273275
 20
4470.544047065
 30
0.0
 11
6518.336273275
 21
4469.1298335026
 31
0.0
  0
LINE
  5
2B1
330
1F
100
AcDbEntity
  8
0
  6
Continuous
 62
     7
370
    25
100
AcDbLine
 10
6558.7504868373
 20
4469.1298335026
 30
0.0
 11
6557.336273275
 21
4469.1298335026
 31
0.0
  0
ARC
  5
2B2
330
1F
100
AcDbEntity
  8
0
  6
Continuous
 62
     7
370
    25
100
AcDbCircle
 10
6555.8312175437
 20
4467.6247777714
 30
0.0
 40
3.284406485597586
100
AcDbArc
 50
27.2737787003
 51
62.7262212998
  0
LINE
  5
2B3
330
1F
100
AcDbEntity
  8
0
  6
Continuous
 62
     7
370
    25
100
AcDbLine
 10
6519.7504868373
 20
4469.1298335026
 30
0.0
 11
6518.336273275
 21
4469.1298335026
 31
0.0
  0
ARC
  5
2B4
330
1F
100
AcDbEntity
  8
0
  6
Continuous
 62
     7
370
    25
100
AcDbCircle
 10
6516.8312175438
 20
4467.6247777714
 30
0.0
 40
3.28440648558781
100
AcDbArc
 50
27.2737787002
 51
62.7262212998
  0
LINE
  5
2B5
330
1F
100
AcDbEntity
  8
0
  6
Continuous
 62
     7
370
    25
100
AcDbLine
 10
6537.336273275
 20
4469.1298335026
 30
0.0
 11
6531.9931275245
 21
4469.1298335026
 31
0.0
  0
LINE
  5
2B6
330
1F
100
AcDbEntity
  8
0
  6
Continuous
 62
     7
370
    25
100
AcDbLine
 10
6531.9931275245
 20
4469.1298335026
 30
0.0
 11
6531.9931275245
 21
4470.544047065
 31
0.0
  0
LINE
  5
2B7
330
1F
100
AcDbEntity
  8
0
  6
Continuous
 62
     7
370
    25
100
AcDbLine
 10
6531.9931275245
 20
4470.544047065
 30
0.0
 11
6537.336273275
 21
4470.544047065
 31
0.0
  0
LINE
  5
2B8
330
1F
100
AcDbEntity
  8
0
  6
Continuous
 62
     7
370
    25
100
AcDbLine
 10
6537.336273275
 20
4470.544047065
 30
0.0
 11
6537.336273275
 21
4469.1298335026
 31
0.0
  0
LINE
  5
2B9
330
1F
100
AcDbEntity
  8
0
  6
Continuous
 62
     7
370
    25
100
AcDbLine
 10
6538.7504868373
 20
4469.1298335026
 30
0.0
 11
6537.336273275
 21
4469.1298335026
 31
0.0
  0
ARC
  5
2BA
330
1F
100
AcDbEntity
  8
0
  6
Continuous
 62
     7
370
    25
100
AcDbCircle
 10
6535.8312175437
 20
4467.6247777714
 30
0.0
 40
3.284406485600062
100
AcDbArc
 50
27.2737787003
 51
62.7262212998
  0
LINE
  5
2BB
330
1F
100
AcDbEntity
  8
0
  6
Continuous
 62
     7
370
    25
100
AcDbLine
 10
6512.9931275245
 20
4469.1298335026
 30
0.0
 11
6511.5789139621
 21
4469.1298335026
 31
0.0
  0
ARC
  5
2BC
330
1F
100
AcDbEntity
  8
0
  6
Continuous
 62
     7
370
    25
100
AcDbCircle
 10
6514.4981832557
 20
4467.6247777714
 30
0.0
 40
3.284406485591902
100
AcDbArc
 50
117.2737787002
 51
152.7262212998
  0
LINE
  5
2BD
330
1F
100
AcDbEntity
  8
0
  6
Continuous
 62
     7
370
    25
100
AcDbLine
 10
6551.9931275245
 20
4469.1298335026
 30
0.0
 11
6550.5789139621
 21
4469.1298335026
 31
0.0
  0
ARC
  5
2BE
330
1F
100
AcDbEntity
  8
0
  6
Continuous
 62
     7
370
    25
100
AcDbCircle
 10
6553.4981832557
 20
4467.6247777714
 30
0.0
 40
3.284406485584551
100
AcDbArc
 50
117.2737787002
 51
152.7262212998
  0
LINE
  5
2BF
330
1F
100
AcDbEntity
  8
0
  6
Continuous
 62
     7
370
    25
100
AcDbLine
 10
6569.5789139621
 20
4469.1298335026
 30
0.0
 11
6570.9931275245
 21
4469.1298335026
 31
0.0
  0
ARC
  5
2C0
330
1F
100
AcDbEntity
  8
0
  6
Continuous
 62
     7
370
    25
100
AcDbCircle
 10
6572.4981832557
 20
4467.6247777714
 30
0.0
 40
3.284406485595161
100
AcDbArc
 50
117.2737787002
 51
152.7262212998
  0
LINE
  5
2C1
330
1F
100
AcDbEntity
  8
0
  6
Continuous
 62
     7
370
    25
100
AcDbLine
 10
6531.9931275245
 20
4469.1298335026
 30
0.0
 11
6530.5789139621
 21
4469.1298335026
 31
0.0
  0
ARC
  5
2C2
330
1F
100
AcDbEntity
  8
0
  6
Continuous
 62
     7
370
    25
100
AcDbCircle
 10
6533.4981832557
 20
4467.6247777714
 30
0.0
 40
3.284406485591902
100
AcDbArc
 50
117.2737787002
 51
152.7262212998
  0
LINE
  5
2C3
330
1F
100
AcDbEntity
  8
0
  6
Continuous
 62
     7
370
    25
100
AcDbLine
 10
6576.336273275
 20
4417.7866877521
 30
0.0
 11
6576.336273275
 21
4469.1298335026
 31
0.0
  0
LINE
  5
2C4
330
1F
100
AcDbEntity
  8
0
  6
Continuous
 62
     7
370
    25
100
AcDbLine
 10
6577.7504868373
 20
4469.1298335026
 30
0.0
 11
6577.7504868373
 21
4417.7866877521
 31
0.0
  0
LINE
  5
2C5
330
1F
100
AcDbEntity
  8
0
  6
Continuous
 62
     7
370
    25
100
AcDbLine
 10
6576.336273275
 20
4417.7866877521
 30
0.0
 11
6577.7504868373
 21
4417.7866877521
 31
0.0
  0
LINE
  5
2C6
330
1F
100
AcDbEntity
  8
0
  6
Continuous
 62
     7
370
    25
100
AcDbLine
 10
6570.9931275245
 20
4417.7866877521
 30
0.0
 11
6576.336273275
 21
4417.7866877521
 31
0.0
  0
LINE
  5
2C7
330
1F
100
AcDbEntity
  8
0
  6
Continuous
 62
     7
370
    25
100
AcDbLine
 10
6570.9931275245
 20
4469.1298335026
 30
0.0
 11
6570.9931275245
 21
4417.7866877521
 31
0.0
  0
LINE
  5
2C8
330
1F
100
AcDbEntity
  8
0
  6
Continuous
 62
     7
370
    25
100
AcDbLine
 10
6557.336273275
 20
4417.7866877521
 30
0.0
 11
6557.336273275
 21
4469.1298335026
 31
0.0
  0
LINE
  5
2C9
330
1F
100
AcDbEntity
  8
0
  6
Continuous
 62
     7
370
    25
100
AcDbLine
 10
6551.9931275245
 20
4417.7866877521
 30
0.0
 11
6557.336273275
 21
4417.7866877521
 31
0.0
  0
LINE
  5
2CA
330
1F
100
AcDbEntity
  8
0
  6
Continuous
 62
     7
370
    25
100
AcDbLine
 10
6551.9931275245
 20
4469.1298335026
 30
0.0
 11
6551.9931275245
 21
4417.7866877521
 31
0.0
  0
LINE
  5
2CB
330
1F
100
AcDbEntity
  8
0
  6
Continuous
 62
     7
370
    25
100
AcDbLine
 10
6518.336273275
 20
4417.7866877521
 30
0.0
 11
6518.336273275
 21
4469.1298335026
 31
0.0
  0
LINE
  5
2CC
330
1F
100
AcDbEntity
  8
0
  6
Continuous
 62
     7
370
    25
100
AcDbLine
 10
6512.9931275245
 20
4417.7866877521
 30
0.0
 11
6518.336273275
 21
4417.7866877521
 31
0.0
  0
LINE
  5
2CD
330
1F
100
AcDbEntity
  8
0
  6
Continuous
 62
     7
370
    25
100
AcDbLine
 10
6512.9931275245
 20
4469.1298335026
 30
0.0
 11
6512.9931275245
 21
4417.7866877521
 31
0.0
  0
LINE
  5
2CE
330
1F
100
AcDbEntity
  8
0
  6
Continuous
 62
     7
370
    25
100
AcDbLine
 10
6512.9931275245
 20
4417.7866877521
 30
0.0
 11
6511.5789139621
 21
4417.7866877521
 31
0.0
  0
LINE
  5
2CF
330
1F
100
AcDbEntity
  8
0
  6
Continuous
 62
     7
370
    25
100
AcDbLine
 10
6511.5789139621
 20
4417.7866877521
 30
0.0
 11
6511.5789139621
 21
4469.1298335026
 31
0.0
  0
LINE
  5
2D0
330
1F
100
AcDbEntity
  8
0
  6
Continuous
 62
     7
370
    25
100
AcDbLine
 10
6551.9931275245
 20
4417.7866877521
 30
0.0
 11
6550.5789139621
 21
4417.7866877521
 31
0.0
  0
LINE
  5
2D1
330
1F
100
AcDbEntity
  8
0
  6
Continuous
 62
     7
370
    25
100
AcDbLine
 10
6550.5789139621
 20
4417.7866877521
 30
0.0
 11
6550.5789139621
 21
4469.1298335026
 31
0.0
  0
LINE
  5
2D2
330
1F
100
AcDbEntity
  8
0
  6
Continuous
 62
     7
370
    25
100
AcDbLine
 10
6558.7504868373
 20
4469.1298335026
 30
0.0
 11
6558.7504868373
 21
4417.7866877521
 31
0.0
  0
LINE
  5
2D3
330
1F
100
AcDbEntity
  8
0
  6
Continuous
 62
     7
370
    25
100
AcDbLine
 10
6558.7504868373
 20
4417.7866877521
 30
0.0
 11
6557.336273275
 21
4417.7866877521
 31
0.0
  0
LINE
  5
2D4
330
1F
100
AcDbEntity
  8
0
  6
Continuous
 62
     7
370
    25
100
AcDbLine
 10
6569.5789139621
 20
4417.7866877521
 30
0.0
 11
6569.5789139621
 21
4469.1298335026
 31
0.0
  0
LINE
  5
2D5
330
1F
100
AcDbEntity
  8
0
  6
Continuous
 62
     7
370
    25
100
AcDbLine
 10
6569.5789139621
 20
4417.7866877521
 30
0.0
 11
6570.9931275245
 21
4417.7866877521
 31
0.0
  0
LINE
  5
2D6
330
1F
100
AcDbEntity
  8
0
  6
Continuous
 62
     7
370
    25
100
AcDbLine
 10
6538.7504868373
 20
4469.1298335026
 30
0.0
 11
6538.7504868373
 21
4417.7866877521
 31
0.0
  0
LINE
  5
2D7
330
1F
100
AcDbEntity
  8
0
  6
Continuous
 62
     7
370
    25
100
AcDbLine
 10
6538.7504868373
 20
4417.7866877521
 30
0.0
 11
6537.336273275
 21
4417.7866877521
 31
0.0
  0
LINE
  5
2D8
330
1F
100
AcDbEntity
  8
0
  6
Continuous
 62
     7
370
    25
100
AcDbLine
 10
6537.336273275
 20
4417.7866877521
 30
0.0
 11
6537.336273275
 21
4469.1298335026
 31
0.0
  0
LINE
  5
2D9
330
1F
100
AcDbEntity
  8
0
  6
Continuous
 62
     7
370
    25
100
AcDbLine
 10
6519.7504868373
 20
4469.1298335026
 30
0.0
 11
6519.7504868373
 21
4417.7866877521
 31
0.0
  0
LINE
  5
2DA
330
1F
100
AcDbEntity
  8
0
  6
Continuous
 62
     7
370
    25
100
AcDbLine
 10
6519.7504868373
 20
4417.7866877521
 30
0.0
 11
6518.336273275
 21
4417.7866877521
 31
0.0
  0
LINE
  5
2DB
330
1F
100
AcDbEntity
  8
0
  6
Continuous
 62
     7
370
    25
100
AcDbLine
 10
6531.9931275245
 20
4417.7866877521
 30
0.0
 11
6537.336273275
 21
4417.7866877521
 31
0.0
  0
LINE
  5
2DC
330
1F
100
AcDbEntity
  8
0
  6
Continuous
 62
     7
370
    25
100
AcDbLine
 10
6531.9931275245
 20
4469.1298335026
 30
0.0
 11
6531.9931275245
 21
4417.7866877521
 31
0.0
  0
LINE
  5
2DD
330
1F
100
AcDbEntity
  8
0
  6
Continuous
 62
     7
370
    25
100
AcDbLine
 10
6531.9931275245
 20
4417.7866877521
 30
0.0
 11
6530.5789139621
 21
4417.7866877521
 31
0.0
  0
LINE
  5
2DE
330
1F
100
AcDbEntity
  8
0
  6
Continuous
 62
     7
370
    25
100
AcDbLine
 10
6530.5789139621
 20
4417.7866877521
 30
0.0
 11
6530.5789139621
 21
4469.1298335026
 31
0.0
  0
LINE
  5
2DF
330
1F
100
AcDbEntity
  8
0
  6
Continuous
 62
     7
370
    25
100
AcDbLine
 10
6484.9931275245
 20
4416.3724741897
 30
0.0
 11
6484.9931275245
 21
4417.7866877521
 31
0.0
  0
ARC
  5
2E0
330
1F
100
AcDbEntity
  8
0
  6
Continuous
 62
     7
370
    25
100
AcDbCircle
 10
6486.4981832557
 20
4419.2917434833
 30
0.0
 40
3.284406485604154
100
AcDbArc
 50
207.2737787002
 51
242.7262212997
  0
LINE
  5
2E1
330
1F
100
AcDbEntity
  8
0
  6
Continuous
 62
     7
370
    25
100
AcDbLine
 10
6499.336273275
 20
4416.3724741897
 30
0.0
 11
6484.9931275245
 21
4416.3724741897
 31
0.0
  0
LINE
  5
2E2
330
1F
100
AcDbEntity
  8
0
  6
Continuous
 62
     7
370
    25
100
AcDbLine
 10
6499.336273275
 20
4416.3724741897
 30
0.0
 11
6499.336273275
 21
4417.7866877521
 31
0.0
  0
ARC
  5
2E3
330
1F
100
AcDbEntity
  8
0
  6
Continuous
 62
     7
370
    25
100
AcDbCircle
 10
6497.8312175437
 20
4419.2917434833
 30
0.0
 40
3.284406485599253
100
AcDbArc
 50
297.2737787003
 51
332.7262212998
  0
ARC
  5
2E4
330
1F
100
AcDbEntity
  8
0
  6
Continuous
 62
     7
370
    25
100
AcDbCircle
 10
6574.8312175437
 20
4419.2917434833
 30
0.0
 40
3.284406485606996
100
AcDbArc
 50
297.2737787003
 51
332.7262212997
  0
LINE
  5
2E5
330
1F
100
AcDbEntity
  8
0
  6
Continuous
 62
     7
370
    25
100
AcDbLine
 10
6576.336273275
 20
4417.7866877521
 30
0.0
 11
6576.336273275
 21
4416.3724741897
 31
0.0
  0
LINE
  5
2E6
330
1F
100
AcDbEntity
  8
0
  6
Continuous
 62
     7
370
    25
100
AcDbLine
 10
6570.9931275245
 20
4417.7866877521
 30
0.0
 11
6570.9931275245
 21
4416.3724741897
 31
0.0
  0
ARC
  5
2E7
330
1F
100
AcDbEntity
  8
0
  6
Continuous
 62
     7
370
    25
100
AcDbCircle
 10
6572.4981832557
 20
4419.2917434833
 30
0.0
 40
3.284406485600479
100
AcDbArc
 50
207.2737787002
 51
242.7262212997
  0
LINE
  5
2E8
330
1F
100
AcDbEntity
  8
0
  6
Continuous
 62
     7
370
    25
100
AcDbLine
 10
6512.9931275245
 20
4417.7866877521
 30
0.0
 11
6512.9931275245
 21
4416.3724741897
 31
0.0
  0
ARC
  5
2E9
330
1F
100
AcDbEntity
  8
0
  6
Continuous
 62
     7
370
    25
100
AcDbCircle
 10
6514.4981832557
 20
4419.2917434833
 30
0.0
 40
3.284406485604962
100
AcDbArc
 50
207.2737787002
 51
242.7262212997
  0
LINE
  5
2EA
330
1F
100
AcDbEntity
  8
0
  6
Continuous
 62
     7
370
    25
100
AcDbLine
 10
6537.336273275
 20
4416.3724741897
 30
0.0
 11
6537.336273275
 21
4417.7866877521
 31
0.0
  0
LINE
  5
2EB
330
1F
100
AcDbEntity
  8
0
  6
Continuous
 62
     7
370
    25
100
AcDbLine
 10
6537.336273275
 20
4416.3724741897
 30
0.0
 11
6531.9931275245
 21
4416.3724741897
 31
0.0
  0
LINE
  5
2EC
330
1F
100
AcDbEntity
  8
0
  6
Continuous
 62
     7
370
    25
100
AcDbLine
 10
6531.9931275245
 20
4417.7866877521
 30
0.0
 11
6531.9931275245
 21
4416.3724741897
 31
0.0
  0
LINE
  5
2ED
330
1F
100
AcDbEntity
  8
0
  6
Continuous
 62
     7
370
    25
100
AcDbLine
 10
6557.336273275
 20
4416.3724741897
 30
0.0
 11
6557.336273275
 21
4417.7866877521
 31
0.0
  0
LINE
  5
2EE
330
1F
100
AcDbEntity
  8
0
  6
Continuous
 62
     7
370
    25
100
AcDbLine
 10
6557.336273275
 20
4416.3724741897
 30
0.0
 11
6551.9931275245
 21
4416.3724741897
 31
0.0
  0
LINE
  5
2EF
330
1F
100
AcDbEntity
  8
0
  6
Continuous
 62
     7
370
    25
100
AcDbLine
 10
6551.9931275245
 20
4417.7866877521
 30
0.0
 11
6551.9931275245
 21
4416.3724741897
 31
0.0
  0
LINE
  5
2F0
330
1F
100
AcDbEntity
  8
0
  6
Continuous
 62
     7
370
    25
100
AcDbLine
 10
6576.336273275
 20
4416.3724741897
 30
0.0
 11
6570.9931275245
 21
4416.3724741897
 31
0.0
  0
ARC
  5
2F1
330
1F
100
AcDbEntity
  8
0
  6
Continuous
 62
     7
370
    25
100
AcDbCircle
 10
6553.4981832557
 20
4419.2917434833
 30
0.0
 40
3.28440648559722
100
AcDbArc
 50
207.2737787002
 51
242.7262212997
  0
LINE
  5
2F2
330
1F
100
AcDbEntity
  8
0
  6
Continuous
 62
     7
370
    25
100
AcDbLine
 10
6518.336273275
 20
4416.3724741897
 30
0.0
 11
6518.336273275
 21
4417.7866877521
 31
0.0
  0
LINE
  5
2F3
330
1F
100
AcDbEntity
  8
0
  6
Continuous
 62
     7
370
    25
100
AcDbLine
 10
6518.336273275
 20
4416.3724741897
 30
0.0
 11
6512.9931275245
 21
4416.3724741897
 31
0.0
  0
ARC
  5
2F4
330
1F
100
AcDbEntity
  8
0
  6
Continuous
 62
     7
370
    25
100
AcDbCircle
 10
6533.4981832557
 20
4419.2917434833
 30
0.0
 40
3.284406485604962
100
AcDbArc
 50
207.2737787002
 51
242.7262212997
  0
ARC
  5
2F5
330
1F
100
AcDbEntity
  8
0
  6
Continuous
 62
     7
370
    25
100
AcDbCircle
 10
6535.8312175437
 20
4419.2917434833
 30
0.0
 40
3.28440648561268
100
AcDbArc
 50
297.2737787003
 51
332.7262212997
  0
ARC
  5
2F6
330
1F
100
AcDbEntity
  8
0
  6
Continuous
 62
     7
370
    25
100
AcDbCircle
 10
6516.8312175437
 20
4419.2917434833
 30
0.0
 40
3.284406485600479
100
AcDbArc
 50
297.2737787003
 51
332.7262212998
  0
ARC
  5
2F7
330
1F
100
AcDbEntity
  8
0
  6
Continuous
 62
     7
370
    25
100
AcDbCircle
 10
6555.8312175437
 20
4419.2917434833
 30
0.0
 40
3.284406485610671
100
AcDbArc
 50
297.2737787003
 51
332.7262212997
  0
LINE
  5
2F8
330
1F
100
AcDbEntity
  8
0
  6
Continuous
 62
     7
370
    25
100
AcDbLine
 10
6514.9931275245
 20
4403.1298335026
 30
0.0
 11
6513.5789139621
 21
4403.1298335026
 31
0.0
  0
ARC
  5
2F9
330
1F
100
AcDbEntity
  8
0
  6
Continuous
 62
     7
370
    25
100
AcDbCircle
 10
6516.4981832557
 20
4401.6247777714
 30
0.0
 40
3.284406485584551
100
AcDbArc
 50
117.2737787002
 51
152.7262212998
  0
LINE
  5
2FA
330
1F
100
AcDbEntity
  8
0
  6
Continuous
 62
     7
370
    25
100
AcDbLine
 10
6514.9931275245
 20
4403.1298335026
 30
0.0
 11
6514.9931275245
 21
4404.544047065
 31
0.0
  0
LINE
  5
2FB
330
1F
100
AcDbEntity
  8
0
  6
Continuous
 62
     7
370
    25
100
AcDbLine
 10
6587.1647003997
 20
4403.1298335026
 30
0.0
 11
6587.1647003997
 21
4404.544047065
 31
0.0
  0
ELLIPSE
  5
2FC
330
1F
100
AcDbEntity
  8
0
  6
Continuous
 62
     7
370
    25
100
AcDbEllipse
 10
6584.336273275
 20
4408.7866877521
 30
0.0
 11
4.082482904638709
 21
-4.082482904638709
 31
0.0
210
0.0
220
0.0
230
1.0
 40
0.3464101615
 41
5.759586531581328
 42
6.80678408277821
  0
LINE
  5
2FD
330
1F
100
AcDbEntity
  8
0
  6
Continuous
 62
     7
370
    25
100
AcDbLine
 10
6514.9931275245
 20
4388.7866877521
 30
0.0
 11
6513.5789139621
 21
4388.7866877521
 31
0.0
  0
LINE
  5
2FE
330
1F
100
AcDbEntity
  8
0
  6
Continuous
 62
     7
370
    25
100
AcDbLine
 10
6513.5789139621
 20
4388.7866877521
 30
0.0
 11
6513.5789139621
 21
4403.1298335026
 31
0.0
  0
LINE
  5
2FF
330
1F
100
AcDbEntity
  8
0
  6
Continuous
 62
     7
370
    25
100
AcDbLine
 10
6514.9931275245
 20
4404.544047065
 30
0.0
 11
6587.1647003997
 21
4404.544047065
 31
0.0
  0
LINE
  5
300
330
1F
100
AcDbEntity
  8
0
  6
Continuous
 62
     7
370
    25
100
AcDbLine
 10
6589.9931275245
 20
4385.9582606273
 30
0.0
 11
6588.5789139621
 21
4385.9582606273
 31
0.0
  0
ELLIPSE
  5
301
330
1F
100
AcDbEntity
  8
0
  6
Continuous
 62
     7
370
    25
100
AcDbEllipse
 10
6584.336273275
 20
4383.1298335026
 30
0.0
 11
4.082482904638709
 21
4.082482904638709
 31
0.0
210
0.0
220
0.0
230
1.0
 40
0.3464101615
 41
5.759586531581328
 42
6.806784082777876
  0
LINE
  5
302
330
1F
100
AcDbEntity
  8
0
  6
Continuous
 62
     7
370
    25
100
AcDbLine
 10
6587.1647003997
 20
4388.7866877521
 30
0.0
 11
6587.1647003997
 21
4387.3724741897
 31
0.0
  0
LINE
  5
303
330
1F
100
AcDbEntity
  8
0
  6
Continuous
 62
     7
370
    25
100
AcDbLine
 10
6514.9931275245
 20
4388.7866877521
 30
0.0
 11
6514.9931275245
 21
4387.3724741897
 31
0.0
  0
ARC
  5
304
330
1F
100
AcDbEntity
  8
0
  6
Continuous
 62
     7
370
    25
100
AcDbCircle
 10
6516.4981832557
 20
4390.2917434833
 30
0.0
 40
3.284406485595186
100
AcDbArc
 50
207.2737787002
 51
242.7262212997
  0
LINE
  5
305
330
1F
100
AcDbEntity
  8
0
  6
Continuous
 62
     7
370
    25
100
AcDbLine
 10
6587.1647003997
 20
4387.3724741897
 30
0.0
 11
6514.9931275245
 21
4387.3724741897
 31
0.0
  0
LINE
  5
306
330
1F
100
AcDbEntity
  8
0
  6
Continuous
 62
     7
370
    25
100
AcDbLine
 10
6589.9931275245
 20
4218.5953456172
 30
0.0
 11
6588.5789139621
 21
4218.5953456172
 31
0.0
  0
LINE
  5
307
330
1F
100
AcDbEntity
  8
0
  6
Continuous
 62
     7
370
    25
100
AcDbLine
 10
6588.5789139621
 20
4218.5953456172
 30
0.0
 11
6588.5789139621
 21
4385.9582606273
 31
0.0
  0
ARC
  5
308
330
1F
100
AcDbEntity
  8
0
  6
Continuous
 62
     7
370
    25
100
AcDbCircle
 10
6179.6647003997
 20
4218.5953456172
 30
0.0
 40
80.0
100
AcDbArc
 50
180.0
 51
225.0
  0
LINE
  5
309
330
1F
100
AcDbEntity
  8
0
  6
Continuous
 62
     7
370
    25
100
AcDbLine
 10
6123.0961579048
 20
4162.0268031223
 30
0.0
 11
6125.5710316389
 21
4164.5016768564
 31
0.0
  0
LINE
  5
30A
330
1F
100
AcDbEntity
  8
0
  6
Continuous
 62
     7
370
    25
100
AcDbLine
 10
6569.3944081298
 20
4168.8656378871
 30
0.0
 11
6568.3944081298
 21
4169.8656378871
 31
0.0
  0
ARC
  5
30B
330
1F
100
AcDbEntity
  8
0
  6
Continuous
 62
     7
370
    25
100
AcDbCircle
 10
6519.6647003997
 20
4218.5953456172
 30
0.0
 40
68.91421356237356
100
AcDbArc
 50
315.0
 51
0.0
  0
ARC
  5
30C
330
1F
100
AcDbEntity
  8
0
  6
Continuous
 62
     7
370
    25
100
AcDbCircle
 10
6179.6647003997
 20
4218.5953456172
 30
0.0
 40
68.91421356237333
100
AcDbArc
 50
180.0
 51
225.0
  0
LINE
  5
30D
330
1F
100
AcDbEntity
  8
0
  6
Continuous
 62
     7
370
    25
100
AcDbLine
 10
6130.9349926696
 20
4169.8656378871
 30
0.0
 11
6129.9349926696
 21
4168.8656378871
 31
0.0
  0
ARC
  5
30E
330
1F
100
AcDbEntity
  8
0
  6
Continuous
 62
     7
370
    25
100
AcDbCircle
 10
6519.6647003997
 20
4218.5953456172
 30
0.0
 40
80.0
100
AcDbArc
 50
315.0
 51
0.0
  0
LINE
  5
30F
330
1F
100
AcDbEntity
  8
0
  6
Continuous
 62
     7
370
    25
100
AcDbLine
 10
6576.2332428946
 20
4162.0268031223
 30
0.0
 11
6573.7583691605
 21
4164.5016768564
 31
0.0
  0
LINE
  5
310
330
1F
100
AcDbEntity
  8
0
  6
Continuous
 62
     7
370
    25
100
AcDbLine
 10
6130.9349926696
 20
4169.8656378871
 30
0.0
 11
6168.8423699294
 21
4131.9582606273
 31
0.0
  0
LINE
  5
311
330
1F
100
AcDbEntity
  8
0
  6
Continuous
 62
     7
370
    25
100
AcDbLine
 10
6167.8423699294
 20
4130.9582606273
 30
0.0
 11
6168.8423699294
 21
4131.9582606273
 31
0.0
  0
LINE
  5
312
330
1F
100
AcDbEntity
  8
0
  6
Continuous
 62
     7
370
    25
100
AcDbLine
 10
6531.4870308701
 20
4130.9582606273
 30
0.0
 11
6530.4870308701
 21
4131.9582606273
 31
0.0
  0
LINE
  5
313
330
1F
100
AcDbEntity
  8
0
  6
Continuous
 62
     7
370
    25
100
AcDbLine
 10
6530.4870308701
 20
4131.9582606273
 30
0.0
 11
6568.3944081298
 21
4169.8656378871
 31
0.0
  0
LINE
  5
314
330
1F
100
AcDbEntity
  8
0
  6
Continuous
 62
     7
370
    25
100
AcDbLine
 10
6576.2332428946
 20
4162.0268031223
 30
0.0
 11
6535.6898266656
 21
4121.4833868932
 31
0.0
  0
LINE
  5
315
330
1F
100
AcDbEntity
  8
0
  6
Continuous
 62
     7
370
    25
100
AcDbLine
 10
6535.6898266656
 20
4121.4833868932
 30
0.0
 11
6533.2149529314
 21
4123.9582606273
 31
0.0
  0
LINE
  5
316
330
1F
100
AcDbEntity
  8
0
  6
Continuous
 62
     7
370
    25
100
AcDbLine
 10
6163.6395741339
 20
4121.4833868932
 30
0.0
 11
6123.0961579048
 21
4162.0268031223
 31
0.0
  0
LINE
  5
317
330
1F
100
AcDbEntity
  8
0
  6
Continuous
 62
     7
370
    25
100
AcDbLine
 10
6163.6395741339
 20
4121.4833868932
 30
0.0
 11
6166.114447868
 21
4123.9582606273
 31
0.0
  0
ELLIPSE
  5
318
330
1F
100
AcDbEntity
  8
0
  6
Continuous
 62
     7
370
    25
100
AcDbEllipse
 10
6171.0139428046
 20
4135.7866877521
 30
0.0
 11
1.736351965313588
 21
4.191924463715623
 31
0.0
210
0.0
220
0.0
230
1.0
 40
0.4407901624
 41
2.867578449778579
 42
3.415606857399333
  0
LINE
  5
319
330
1F
100
AcDbEntity
  8
0
  6
Continuous
 62
     7
370
    25
100
AcDbLine
 10
6169.8423699294
 20
4130.1298335026
 30
0.0
 11
6169.8423699294
 21
4131.544047065
 31
0.0
  0
LINE
  5
31A
330
1F
100
AcDbEntity
  8
0
  6
Continuous
 62
     7
370
    25
100
AcDbLine
 10
6529.4870308701
 20
4130.1298335026
 30
0.0
 11
6529.4870308701
 21
4131.544047065
 31
0.0
  0
ELLIPSE
  5
31B
330
1F
100
AcDbEntity
  8
0
  6
Continuous
 62
     7
370
    25
100
AcDbEllipse
 10
6528.3154579948
 20
4135.7866877521
 30
0.0
 11
-1.736351965314498
 21
4.191924463715623
 31
0.0
210
0.0
220
0.0
230
1.0
 40
0.4407901624
 41
2.867578449779489
 42
3.415606857400233
  0
LINE
  5
31C
330
1F
100
AcDbEntity
  8
0
  6
Continuous
 62
     7
370
    25
100
AcDbLine
 10
6169.8423699294
 20
4131.544047065
 30
0.0
 11
6529.4870308701
 21
4131.544047065
 31
0.0
  0
LINE
  5
31D
330
1F
100
AcDbEntity
  8
0
  6
Continuous
 62
     7
370
    25
100
AcDbLine
 10
6533.2149529314
 20
4120.4582606273
 30
0.0
 11
6166.114447868
 21
4120.4582606273
 31
0.0
  0
LINE
  5
31E
330
1F
100
AcDbEntity
  8
0
  6
Continuous
 62
     7
370
    25
100
AcDbLine
 10
6166.114447868
 20
4120.4582606273
 30
0.0
 11
6166.114447868
 21
4123.9582606273
 31
0.0
  0
LINE
  5
31F
330
1F
100
AcDbEntity
  8
0
  6
Continuous
 62
     7
370
    25
100
AcDbLine
 10
6533.2149529314
 20
4120.4582606273
 30
0.0
 11
6533.2149529314
 21
4123.9582606273
 31
0.0
  0
ARC
  5
320
330
1F
100
AcDbEntity
  8
0
  6
Continuous
 62
     7
370
    25
100
AcDbCircle
 10
6166.114447868
 20
4123.9582606273
 30
0.0
 40
3.5
100
AcDbArc
 50
225.0
 51
270.0
  0
ARC
  5
321
330
1F
100
AcDbEntity
  8
0
  6
Continuous
 62
     7
370
    25
100
AcDbCircle
 10
6533.2149529314
 20
4123.9582606273
 30
0.0
 40
3.500000000000591
100
AcDbArc
 50
270.0
 51
315.0
  0
LINE
  5
322
330
1F
100
AcDbEntity
  8
0
  6
Continuous
 62
     7
370
    25
100
AcDbLine
 10
6479.336273275
 20
4479.544047065
 30
0.0
 11
6482.1647003997
 21
4482.3724741897
 31
0.0
  0
LINE
  5
323
330
1F
100
AcDbEntity
  8
0
  6
Continuous
 62
     7
370
    25
100
AcDbLine
 10
6483.5789139621
 20
4480.9582606273
 30
0.0
 11
6480.7504868373
 21
4478.1298335026
 31
0.0
  0
ARC
  5
324
330
1F
100
AcDbEntity
  8
0
  6
Continuous
 62
     7
370
    25
100
AcDbCircle
 10
6477.8312175437
 20
4476.6247777714
 30
0.0
 40
3.284406485598003
100
AcDbArc
 50
27.2737787002
 51
62.7262212998
  0
LINE
  5
325
330
1F
100
AcDbEntity
  8
0
  6
Continuous
 62
     7
370
    25
100
AcDbLine
 10
6584.336273275
 20
4479.544047065
 30
0.0
 11
6587.1647003997
 21
4482.3724741897
 31
0.0
  0
LINE
  5
326
330
1F
100
AcDbEntity
  8
0
  6
Continuous
 62
     7
370
    25
100
AcDbLine
 10
6588.5789139621
 20
4480.9582606273
 30
0.0
 11
6585.7504868373
 21
4478.1298335026
 31
0.0
  0
ARC
  5
327
330
1F
100
AcDbEntity
  8
0
  6
Continuous
 62
     7
370
    25
100
AcDbCircle
 10
6582.8312175438
 20
4476.6247777714
 30
0.0
 40
3.28440648558291
100
AcDbArc
 50
27.2737787002
 51
62.7262212998
  0
LINE
  5
328
330
1F
100
AcDbEntity
  8
0
  6
Continuous
 62
     7
370
    25
100
AcDbLine
 10
6503.5789139621
 20
4478.1298335026
 30
0.0
 11
6500.7504868373
 21
4480.9582606273
 31
0.0
  0
LINE
  5
329
330
1F
100
AcDbEntity
  8
0
  6
Continuous
 62
     7
370
    25
100
AcDbLine
 10
6502.1647003997
 20
4482.3724741897
 30
0.0
 11
6504.9931275245
 21
4479.544047065
 31
0.0
  0
ARC
  5
32A
330
1F
100
AcDbEntity
  8
0
  6
Continuous
 62
     7
370
    25
100
AcDbCircle
 10
6506.4981832557
 20
4476.6247777714
 30
0.0
 40
3.284406485594327
100
AcDbArc
 50
117.2737787002
 51
152.7262212998
  0
LINE
  5
32B
330
1F
100
AcDbEntity
  8
0
  6
Continuous
 62
     7
370
    25
100
AcDbLine
 10
6113.5789139621
 20
4478.1298335026
 30
0.0
 11
6110.7504868373
 21
4480.9582606273
 31
0.0
  0
LINE
  5
32C
330
1F
100
AcDbEntity
  8
0
  6
Continuous
 62
     7
370
    25
100
AcDbLine
 10
6112.1647003997
 20
4482.3724741897
 30
0.0
 11
6114.9931275245
 21
4479.544047065
 31
0.0
  0
ARC
  5
32D
330
1F
100
AcDbEntity
  8
0
  6
Continuous
 62
     7
370
    25
100
AcDbCircle
 10
6116.4981832557
 20
4476.6247777714
 30
0.0
 40
3.284406485592711
100
AcDbArc
 50
117.2737787002
 51
152.7262212998
  0
LINE
  5
32E
330
1F
100
AcDbEntity
  8
0
  6
Continuous
 62
     7
370
    25
100
AcDbLine
 10
6576.336273275
 20
4470.544047065
 30
0.0
 11
6579.1647003997
 21
4473.3724741897
 31
0.0
  0
ELLIPSE
  5
32F
330
1F
100
AcDbEntity
  8
0
  6
Continuous
 62
     7
370
    25
100
AcDbEllipse
 10
6576.336273275
 20
4469.1298335026
 30
0.0
 11
4.082482904638709
 21
4.0824829046378
 31
0.0
210
0.0
220
0.0
230
1.0
 40
0.3464101615
 41
5.759586531581292
 42
6.806784082778077
  0
LINE
  5
330
330
1F
100
AcDbEntity
  8
0
  6
Continuous
 62
     7
370
    25
100
AcDbLine
 10
6580.5789139621
 20
4471.9582606273
 30
0.0
 11
6577.7504868373
 21
4469.1298335026
 31
0.0
  0
LINE
  5
331
330
1F
100
AcDbEntity
  8
0
  6
Continuous
 62
     7
370
    25
100
AcDbLine
 10
6561.5789139621
 20
4471.9582606273
 30
0.0
 11
6558.7504868373
 21
4469.1298335026
 31
0.0
  0
LINE
  5
332
330
1F
100
AcDbEntity
  8
0
  6
Continuous
 62
     7
370
    25
100
AcDbLine
 10
6557.336273275
 20
4470.544047065
 30
0.0
 11
6560.1647003997
 21
4473.3724741897
 31
0.0
  0
ELLIPSE
  5
333
330
1F
100
AcDbEntity
  8
0
  6
Continuous
 62
     7
370
    25
100
AcDbEllipse
 10
6557.336273275
 20
4469.1298335026
 30
0.0
 11
4.082482904638709
 21
4.0824829046378
 31
0.0
210
0.0
220
0.0
230
1.0
 40
0.3464101615
 41
5.759586531581292
 42
6.806784082778411
  0
LINE
  5
334
330
1F
100
AcDbEntity
  8
0
  6
Continuous
 62
     7
370
    25
100
AcDbLine
 10
6522.5789139621
 20
4471.9582606273
 30
0.0
 11
6519.7504868373
 21
4469.1298335026
 31
0.0
  0
LINE
  5
335
330
1F
100
AcDbEntity
  8
0
  6
Continuous
 62
     7
370
    25
100
AcDbLine
 10
6518.336273275
 20
4470.544047065
 30
0.0
 11
6521.1647003997
 21
4473.3724741897
 31
0.0
  0
ELLIPSE
  5
336
330
1F
100
AcDbEntity
  8
0
  6
Continuous
 62
     7
370
    25
100
AcDbEllipse
 10
6518.336273275
 20
4469.1298335026
 30
0.0
 11
4.082482904638709
 21
4.0824829046378
 31
0.0
210
0.0
220
0.0
230
1.0
 40
0.3464101615
 41
5.759586531581431
 42
6.806784082777938
  0
LINE
  5
337
330
1F
100
AcDbEntity
  8
0
  6
Continuous
 62
     7
370
    25
100
AcDbLine
 10
6510.1647003997
 20
4473.3724741897
 30
0.0
 11
6512.9931275245
 21
4470.544047065
 31
0.0
  0
LINE
  5
338
330
1F
100
AcDbEntity
  8
0
  6
Continuous
 62
     7
370
    25
100
AcDbLine
 10
6511.5789139621
 20
4469.1298335026
 30
0.0
 11
6508.7504868373
 21
4471.9582606273
 31
0.0
  0
ELLIPSE
  5
339
330
1F
100
AcDbEntity
  8
0
  6
Continuous
 62
     7
370
    25
100
AcDbEllipse
 10
6512.9931275245
 20
4469.1298335026
 30
0.0
 11
-4.082482904638709
 21
4.0824829046378
 31
0.0
210
0.0
220
0.0
230
1.0
 40
0.3464101615
 41
5.75958653158121
 42
6.806784082777716
  0
LINE
  5
33A
330
1F
100
AcDbEntity
  8
0
  6
Continuous
 62
     7
370
    25
100
AcDbLine
 10
6549.1647003997
 20
4473.3724741897
 30
0.0
 11
6551.9931275245
 21
4470.544047065
 31
0.0
  0
LINE
  5
33B
330
1F
100
AcDbEntity
  8
0
  6
Continuous
 62
     7
370
    25
100
AcDbLine
 10
6550.5789139621
 20
4469.1298335026
 30
0.0
 11
6547.7504868373
 21
4471.9582606273
 31
0.0
  0
ELLIPSE
  5
33C
330
1F
100
AcDbEntity
  8
0
  6
Continuous
 62
     7
370
    25
100
AcDbEllipse
 10
6551.9931275245
 20
4469.1298335026
 30
0.0
 11
-4.082482904638709
 21
4.0824829046378
 31
0.0
210
0.0
220
0.0
230
1.0
 40
0.3464101615
 41
5.759586531581404
 42
6.806784082777633
  0
LINE
  5
33D
330
1F
100
AcDbEntity
  8
0
  6
Continuous
 62
     7
370
    25
100
AcDbLine
 10
6568.1647003997
 20
4473.3724741897
 30
0.0
 11
6570.9931275245
 21
4470.544047065
 31
0.0
  0
LINE
  5
33E
330
1F
100
AcDbEntity
  8
0
  6
Continuous
 62
     7
370
    25
100
AcDbLine
 10
6569.5789139621
 20
4469.1298335026
 30
0.0
 11
6566.7504868373
 21
4471.9582606273
 31
0.0
  0
ELLIPSE
  5
33F
330
1F
100
AcDbEntity
  8
0
  6
Continuous
 62
     7
370
    25
100
AcDbEllipse
 10
6570.9931275245
 20
4469.1298335026
 30
0.0
 11
-4.082482904638709
 21
4.0824829046378
 31
0.0
210
0.0
220
0.0
230
1.0
 40
0.3464101615
 41
5.759586531581126
 42
6.806784082777911
  0
LINE
  5
340
330
1F
100
AcDbEntity
  8
0
  6
Continuous
 62
     7
370
    25
100
AcDbLine
 10
6541.5789139621
 20
4471.9582606273
 30
0.0
 11
6538.7504868373
 21
4469.1298335026
 31
0.0
  0
LINE
  5
341
330
1F
100
AcDbEntity
  8
0
  6
Continuous
 62
     7
370
    25
100
AcDbLine
 10
6537.336273275
 20
4470.544047065
 30
0.0
 11
6540.1647003997
 21
4473.3724741897
 31
0.0
  0
ELLIPSE
  5
342
330
1F
100
AcDbEntity
  8
0
  6
Continuous
 62
     7
370
    25
100
AcDbEllipse
 10
6537.336273275
 20
4469.1298335026
 30
0.0
 11
4.082482904638709
 21
4.0824829046378
 31
0.0
210
0.0
220
0.0
230
1.0
 40
0.3464101615
 41
5.759586531581431
 42
6.806784082777938
  0
LINE
  5
343
330
1F
100
AcDbEntity
  8
0
  6
Continuous
 62
     7
370
    25
100
AcDbLine
 10
6529.1647003997
 20
4473.3724741897
 30
0.0
 11
6531.9931275245
 21
4470.544047065
 31
0.0
  0
LINE
  5
344
330
1F
100
AcDbEntity
  8
0
  6
Continuous
 62
     7
370
    25
100
AcDbLine
 10
6530.5789139621
 20
4469.1298335026
 30
0.0
 11
6527.7504868373
 21
4471.9582606273
 31
0.0
  0
ELLIPSE
  5
345
330
1F
100
AcDbEntity
  8
0
  6
Continuous
 62
     7
370
    25
100
AcDbEllipse
 10
6531.9931275245
 20
4469.1298335026
 30
0.0
 11
-4.082482904638709
 21
4.0824829046378
 31
0.0
210
0.0
220
0.0
230
1.0
 40
0.3464101615
 41
5.75958653158121
 42
6.806784082777716
  0
LINE
  5
346
330
1F
100
AcDbEntity
  8
0
  6
Continuous
 62
     7
370
    25
100
AcDbLine
 10
6502.1647003997
 20
4413.544047065
 30
0.0
 11
6499.336273275
 21
4416.3724741897
 31
0.0
  0
LINE
  5
347
330
1F
100
AcDbEntity
  8
0
  6
Continuous
 62
     7
370
    25
100
AcDbLine
 10
6500.7504868373
 20
4417.7866877521
 30
0.0
 11
6503.5789139621
 21
4414.9582606273
 31
0.0
  0
ELLIPSE
  5
348
330
1F
100
AcDbEntity
  8
0
  6
Continuous
 62
     7
370
    25
100
AcDbEllipse
 10
6499.336273275
 20
4417.7866877521
 30
0.0
 11
4.082482904638709
 21
-4.082482904638709
 31
0.0
210
0.0
220
0.0
230
1.0
 40
0.3464101615
 41
5.759586531581467
 42
6.806784082777736
  0
LINE
  5
349
330
1F
100
AcDbEntity
  8
0
  6
Continuous
 62
     7
370
    25
100
AcDbLine
 10
6577.7504868373
 20
4417.7866877521
 30
0.0
 11
6580.5789139621
 21
4414.9582606273
 31
0.0
  0
ELLIPSE
  5
34A
330
1F
100
AcDbEntity
  8
0
  6
Continuous
 62
     7
370
    25
100
AcDbEllipse
 10
6576.336273275
 20
4417.7866877521
 30
0.0
 11
-4.082482904638709
 21
4.0824829046378
 31
0.0
210
0.0
220
0.0
230
1.0
 40
0.3464101615
 41
2.617993877991217
 42
3.665191429187676
  0
LINE
  5
34B
330
1F
100
AcDbEntity
  8
0
  6
Continuous
 62
     7
370
    25
100
AcDbLine
 10
6579.1647003997
 20
4413.544047065
 30
0.0
 11
6576.336273275
 21
4416.3724741897
 31
0.0
  0
LINE
  5
34C
330
1F
100
AcDbEntity
  8
0
  6
Continuous
 62
     7
370
    25
100
AcDbLine
 10
6560.1647003997
 20
4413.544047065
 30
0.0
 11
6557.336273275
 21
4416.3724741897
 31
0.0
  0
LINE
  5
34D
330
1F
100
AcDbEntity
  8
0
  6
Continuous
 62
     7
370
    25
100
AcDbLine
 10
6558.7504868373
 20
4417.7866877521
 30
0.0
 11
6561.5789139621
 21
4414.9582606273
 31
0.0
  0
ELLIPSE
  5
34E
330
1F
100
AcDbEntity
  8
0
  6
Continuous
 62
     7
370
    25
100
AcDbEllipse
 10
6557.336273275
 20
4417.7866877521
 30
0.0
 11
-4.082482904638709
 21
4.0824829046378
 31
0.0
210
0.0
220
0.0
230
1.0
 40
0.3464101615
 41
2.617993877991023
 42
3.665191429187537
  0
LINE
  5
34F
330
1F
100
AcDbEntity
  8
0
  6
Continuous
 62
     7
370
    25
100
AcDbLine
 10
6521.1647003997
 20
4413.544047065
 30
0.0
 11
6518.336273275
 21
4416.3724741897
 31
0.0
  0
LINE
  5
350
330
1F
100
AcDbEntity
  8
0
  6
Continuous
 62
     7
370
    25
100
AcDbLine
 10
6519.7504868373
 20
4417.7866877521
 30
0.0
 11
6522.5789139621
 21
4414.9582606273
 31
0.0
  0
ELLIPSE
  5
351
330
1F
100
AcDbEntity
  8
0
  6
Continuous
 62
     7
370
    25
100
AcDbEllipse
 10
6518.336273275
 20
4417.7866877521
 30
0.0
 11
-4.082482904638709
 21
4.0824829046378
 31
0.0
210
0.0
220
0.0
230
1.0
 40
0.3464101615
 41
2.617993877991496
 42
3.665191429187398
  0
LINE
  5
352
330
1F
100
AcDbEntity
  8
0
  6
Continuous
 62
     7
370
    25
100
AcDbLine
 10
6540.1647003997
 20
4413.544047065
 30
0.0
 11
6537.336273275
 21
4416.3724741897
 31
0.0
  0
LINE
  5
353
330
1F
100
AcDbEntity
  8
0
  6
Continuous
 62
     7
370
    25
100
AcDbLine
 10
6538.7504868373
 20
4417.7866877521
 30
0.0
 11
6541.5789139621
 21
4414.9582606273
 31
0.0
  0
ELLIPSE
  5
354
330
1F
100
AcDbEntity
  8
0
  6
Continuous
 62
     7
370
    25
100
AcDbEllipse
 10
6537.336273275
 20
4417.7866877521
 30
0.0
 11
-4.082482904638709
 21
4.0824829046378
 31
0.0
210
0.0
220
0.0
230
1.0
 40
0.3464101615
 41
2.617993877991496
 42
3.665191429187398
  0
LINE
  5
355
330
1F
100
AcDbEntity
  8
0
  6
Continuous
 62
     7
370
    25
100
AcDbLine
 10
6480.7504868373
 20
4414.9582606273
 30
0.0
 11
6483.5789139621
 21
4417.7866877521
 31
0.0
  0
LINE
  5
356
330
1F
100
AcDbEntity
  8
0
  6
Continuous
 62
     7
370
    25
100
AcDbLine
 10
6484.9931275245
 20
4416.3724741897
 30
0.0
 11
6482.1647003997
 21
4413.544047065
 31
0.0
  0
ELLIPSE
  5
357
330
1F
100
AcDbEntity
  8
0
  6
Continuous
 62
     7
370
    25
100
AcDbEllipse
 10
6484.9931275245
 20
4417.7866877521
 30
0.0
 11
4.0824829046378
 21
4.0824829046378
 31
0.0
210
0.0
220
0.0
230
1.0
 40
0.3464101615
 41
2.617993877991739
 42
3.665191429187879
  0
LINE
  5
358
330
1F
100
AcDbEntity
  8
0
  6
Continuous
 62
     7
370
    25
100
AcDbLine
 10
6527.7504868373
 20
4414.9582606273
 30
0.0
 11
6530.5789139621
 21
4417.7866877521
 31
0.0
  0
LINE
  5
359
330
1F
100
AcDbEntity
  8
0
  6
Continuous
 62
     7
370
    25
100
AcDbLine
 10
6531.9931275245
 20
4416.3724741897
 30
0.0
 11
6529.1647003997
 21
4413.544047065
 31
0.0
  0
ELLIPSE
  5
35A
330
1F
100
AcDbEntity
  8
0
  6
Continuous
 62
     7
370
    25
100
AcDbEllipse
 10
6531.9931275245
 20
4417.7866877521
 30
0.0
 11
4.082482904638709
 21
4.0824829046378
 31
0.0
210
0.0
220
0.0
230
1.0
 40
0.3464101615
 41
2.617993877991719
 42
3.665191429188734
  0
LINE
  5
35B
330
1F
100
AcDbEntity
  8
0
  6
Continuous
 62
     7
370
    25
100
AcDbLine
 10
6547.7504868373
 20
4414.9582606273
 30
0.0
 11
6550.5789139621
 21
4417.7866877521
 31
0.0
  0
LINE
  5
35C
330
1F
100
AcDbEntity
  8
0
  6
Continuous
 62
     7
370
    25
100
AcDbLine
 10
6551.9931275245
 20
4416.3724741897
 30
0.0
 11
6549.1647003997
 21
4413.544047065
 31
0.0
  0
ELLIPSE
  5
35D
330
1F
100
AcDbEntity
  8
0
  6
Continuous
 62
     7
370
    25
100
AcDbEllipse
 10
6551.9931275245
 20
4417.7866877521
 30
0.0
 11
4.082482904638709
 21
4.0824829046378
 31
0.0
210
0.0
220
0.0
230
1.0
 40
0.3464101615
 41
2.617993877991802
 42
3.665191429188539
  0
LINE
  5
35E
330
1F
100
AcDbEntity
  8
0
  6
Continuous
 62
     7
370
    25
100
AcDbLine
 10
6508.7504868373
 20
4414.9582606273
 30
0.0
 11
6511.5789139621
 21
4417.7866877521
 31
0.0
  0
LINE
  5
35F
330
1F
100
AcDbEntity
  8
0
  6
Continuous
 62
     7
370
    25
100
AcDbLine
 10
6512.9931275245
 20
4416.3724741897
 30
0.0
 11
6510.1647003997
 21
4413.544047065
 31
0.0
  0
ELLIPSE
  5
360
330
1F
100
AcDbEntity
  8
0
  6
Continuous
 62
     7
370
    25
100
AcDbEllipse
 10
6512.9931275245
 20
4417.7866877521
 30
0.0
 11
4.082482904638709
 21
4.0824829046378
 31
0.0
210
0.0
220
0.0
230
1.0
 40
0.3464101615
 41
2.617993877991719
 42
3.665191429188734
  0
LINE
  5
361
330
1F
100
AcDbEntity
  8
0
  6
Continuous
 62
     7
370
    25
100
AcDbLine
 10
6570.9931275245
 20
4416.3724741897
 30
0.0
 11
6568.1647003997
 21
4413.544047065
 31
0.0
  0
ELLIPSE
  5
362
330
1F
100
AcDbEntity
  8
0
  6
Continuous
 62
     7
370
    25
100
AcDbEllipse
 10
6570.9931275245
 20
4417.7866877521
 30
0.0
 11
4.082482904638709
 21
4.0824829046378
 31
0.0
210
0.0
220
0.0
230
1.0
 40
0.3464101615
 41
2.617993877992081
 42
3.665191429188261
  0
LINE
  5
363
330
1F
100
AcDbEntity
  8
0
  6
Continuous
 62
     7
370
    25
100
AcDbLine
 10
6566.7504868373
 20
4414.9582606273
 30
0.0
 11
6569.5789139621
 21
4417.7866877521
 31
0.0
  0
LINE
  5
364
330
1F
100
AcDbEntity
  8
0
  6
Continuous
 62
     7
370
    25
100
AcDbLine
 10
6512.1647003997
 20
4407.3724741897
 30
0.0
 11
6514.9931275245
 21
4404.544047065
 31
0.0
  0
LINE
  5
365
330
1F
100
AcDbEntity
  8
0
  6
Continuous
 62
     7
370
    25
100
AcDbLine
 10
6513.5789139621
 20
4403.1298335026
 30
0.0
 11
6510.7504868373
 21
4405.9582606273
 31
0.0
  0
ELLIPSE
  5
366
330
1F
100
AcDbEntity
  8
0
  6
Continuous
 62
     7
370
    25
100
AcDbEllipse
 10
6514.9931275245
 20
4403.1298335026
 30
0.0
 11
4.082482904638709
 21
-4.082482904639618
 31
0.0
210
0.0
220
0.0
230
1.0
 40
0.3464101615
 41
2.617993877991706
 42
3.665191429188748
  0
LINE
  5
367
330
1F
100
AcDbEntity
  8
0
  6
Continuous
 62
     7
370
    25
100
AcDbLine
 10
6585.7504868373
 20
4408.7866877521
 30
0.0
 11
6588.5789139621
 21
4405.9582606273
 31
0.0
  0
LINE
  5
368
330
1F
100
AcDbEntity
  8
0
  6
Continuous
 62
     7
370
    25
100
AcDbLine
 10
6587.1647003997
 20
4404.544047065
 30
0.0
 11
6584.336273275
 21
4407.3724741897
 31
0.0
  0
ARC
  5
369
330
1F
100
AcDbEntity
  8
0
  6
Continuous
 62
     7
370
    25
100
AcDbCircle
 10
6582.8312175438
 20
4410.2917434833
 30
0.0
 40
3.284406485592294
100
AcDbArc
 50
297.2737787002
 51
332.7262212998
  0
LINE
  5
36A
330
1F
100
AcDbEntity
  8
0
  6
Continuous
 62
     7
370
    25
100
AcDbLine
 10
6510.7504868373
 20
4385.9582606273
 30
0.0
 11
6513.5789139621
 21
4388.7866877521
 31
0.0
  0
LINE
  5
36B
330
1F
100
AcDbEntity
  8
0
  6
Continuous
 62
     7
370
    25
100
AcDbLine
 10
6514.9931275245
 20
4387.3724741897
 30
0.0
 11
6512.1647003997
 21
4384.544047065
 31
0.0
  0
ELLIPSE
  5
36C
330
1F
100
AcDbEntity
  8
0
  6
Continuous
 62
     7
370
    25
100
AcDbEllipse
 10
6514.9931275245
 20
4388.7866877521
 30
0.0
 11
4.082482904638709
 21
4.0824829046378
 31
0.0
210
0.0
220
0.0
230
1.0
 40
0.3464101615
 41
2.617993877991942
 42
3.6651914291884
  0
LINE
  5
36D
330
1F
100
AcDbEntity
  8
0
  6
Continuous
 62
     7
370
    25
100
AcDbLine
 10
6584.336273275
 20
4384.544047065
 30
0.0
 11
6587.1647003997
 21
4387.3724741897
 31
0.0
  0
LINE
  5
36E
330
1F
100
AcDbEntity
  8
0
  6
Continuous
 62
     7
370
    25
100
AcDbLine
 10
6588.5789139621
 20
4385.9582606273
 30
0.0
 11
6585.7504868373
 21
4383.1298335026
 31
0.0
  0
ARC
  5
36F
330
1F
100
AcDbEntity
  8
0
  6
Continuous
 62
     7
370
    25
100
AcDbCircle
 10
6582.8312175438
 20
4381.6247777714
 30
0.0
 40
3.28440648558411
100
AcDbArc
 50
27.2737787001
 51
62.7262212998
  0
LINE
  5
370
330
1F
100
AcDbEntity
  8
0
  6
Continuous
 62
     7
370
    25
100
AcDbLine
 10
6529.3154579948
 20
4134.7866877521
 30
0.0
 11
6530.4870308701
 21
4131.9582606273
 31
0.0
  0
LINE
  5
371
330
1F
100
AcDbEntity
  8
0
  6
Continuous
 62
     7
370
    25
100
AcDbLine
 10
6529.4870308701
 20
4131.544047065
 30
0.0
 11
6528.3154579948
 21
4134.3724741897
 31
0.0
  0
ARC
  5
372
330
1F
100
AcDbEntity
  8
0
  6
Continuous
 62
     7
370
    25
100
AcDbCircle
 10
6527.7202216287
 20
4137.2237154599
 30
0.0
 40
2.912710612580446
100
AcDbArc
 50
281.7919326446
 51
303.2080673554
  0
LINE
  5
373
330
1F
100
AcDbEntity
  8
0
  6
Continuous
 62
     7
370
    25
100
AcDbLine
 10
6171.0139428046
 20
4134.3724741897
 30
0.0
 11
6169.8423699294
 21
4131.544047065
 31
0.0
  0
LINE
  5
374
330
1F
100
AcDbEntity
  8
0
  6
Continuous
 62
     7
370
    25
100
AcDbLine
 10
6168.8423699294
 20
4131.9582606273
 30
0.0
 11
6170.0139428046
 21
4134.7866877521
 31
0.0
  0
ARC
  5
375
330
1F
100
AcDbEntity
  8
0
  6
Continuous
 62
     7
370
    25
100
AcDbCircle
 10
6171.6091791707
 20
4137.22371546
 30
0.0
 40
2.912710612598391
100
AcDbArc
 50
236.7919326447
 51
258.2080673554
  0
LINE
  5
376
330
1F
100
AcDbEntity
  8
0
  6
Continuous
 62
     7
370
    25
100
AcDbLine
 10
6503.5789139621
 20
4414.9582606273
 30
0.0
 11
6503.5789139621
 21
4478.1298335026
 31
0.0
  0
LINE
  5
377
330
1F
100
AcDbEntity
  8
0
  6
Continuous
 62
     7
370
    25
100
AcDbLine
 10
6114.9931275245
 20
4479.544047065
 30
0.0
 11
6479.336273275
 21
4479.544047065
 31
0.0
  0
LINE
  5
378
330
1F
100
AcDbEntity
  8
0
  6
Continuous
 62
     7
370
    25
100
AcDbLine
 10
6504.9931275245
 20
4479.544047065
 30
0.0
 11
6584.336273275
 21
4479.544047065
 31
0.0
  0
LINE
  5
379
330
1F
100
AcDbEntity
  8
0
  6
Continuous
 62
     7
370
    25
100
AcDbLine
 10
6480.7504868373
 20
4478.1298335026
 30
0.0
 11
6480.7504868373
 21
4414.9582606273
 31
0.0
  0
LINE
  5
37A
330
1F
100
AcDbEntity
  8
0
  6
Continuous
 62
     7
370
    25
100
AcDbLine
 10
6113.5789139621
 20
4218.5953456172
 30
0.0
 11
6113.5789139621
 21
4478.1298335026
 31
0.0
  0
LINE
  5
37B
330
1F
100
AcDbEntity
  8
0
  6
Continuous
 62
     7
370
    25
100
AcDbLine
 10
6110.7504868373
 20
4218.5953456172
 30
0.0
 11
6113.5789139621
 21
4218.5953456172
 31
0.0
  0
LINE
  5
37C
330
1F
100
AcDbEntity
  8
0
  6
Continuous
 62
     7
370
    25
100
AcDbLine
 10
6579.1647003997
 20
4473.3724741897
 30
0.0
 11
6568.1647003997
 21
4473.3724741897
 31
0.0
  0
LINE
  5
37D
330
1F
100
AcDbEntity
  8
0
  6
Continuous
 62
     7
370
    25
100
AcDbLine
 10
6560.1647003997
 20
4473.3724741897
 30
0.0
 11
6549.1647003997
 21
4473.3724741897
 31
0.0
  0
LINE
  5
37E
330
1F
100
AcDbEntity
  8
0
  6
Continuous
 62
     7
370
    25
100
AcDbLine
 10
6521.1647003997
 20
4473.3724741897
 30
0.0
 11
6510.1647003997
 21
4473.3724741897
 31
0.0
  0
LINE
  5
37F
330
1F
100
AcDbEntity
  8
0
  6
Continuous
 62
     7
370
    25
100
AcDbLine
 10
6540.1647003997
 20
4473.3724741897
 30
0.0
 11
6529.1647003997
 21
4473.3724741897
 31
0.0
  0
LINE
  5
380
330
1F
100
AcDbEntity
  8
0
  6
Continuous
 62
     7
370
    25
100
AcDbLine
 10
6580.5789139621
 20
4414.9582606273
 30
0.0
 11
6580.5789139621
 21
4471.9582606273
 31
0.0
  0
LINE
  5
381
330
1F
100
AcDbEntity
  8
0
  6
Continuous
 62
     7
370
    25
100
AcDbLine
 10
6585.7504868373
 20
4478.1298335026
 30
0.0
 11
6585.7504868373
 21
4408.7866877521
 31
0.0
  0
LINE
  5
382
330
1F
100
AcDbEntity
  8
0
  6
Continuous
 62
     7
370
    25
100
AcDbLine
 10
6508.7504868373
 20
4471.9582606273
 30
0.0
 11
6508.7504868373
 21
4414.9582606273
 31
0.0
  0
LINE
  5
383
330
1F
100
AcDbEntity
  8
0
  6
Continuous
 62
     7
370
    25
100
AcDbLine
 10
6547.7504868373
 20
4471.9582606273
 30
0.0
 11
6547.7504868373
 21
4414.9582606273
 31
0.0
  0
LINE
  5
384
330
1F
100
AcDbEntity
  8
0
  6
Continuous
 62
     7
370
    25
100
AcDbLine
 10
6527.7504868373
 20
4471.9582606273
 30
0.0
 11
6527.7504868373
 21
4414.9582606273
 31
0.0
  0
LINE
  5
385
330
1F
100
AcDbEntity
  8
0
  6
Continuous
 62
     7
370
    25
100
AcDbLine
 10
6522.5789139621
 20
4414.9582606273
 30
0.0
 11
6522.5789139621
 21
4471.9582606273
 31
0.0
  0
LINE
  5
386
330
1F
100
AcDbEntity
  8
0
  6
Continuous
 62
     7
370
    25
100
AcDbLine
 10
6561.5789139621
 20
4414.9582606273
 30
0.0
 11
6561.5789139621
 21
4471.9582606273
 31
0.0
  0
LINE
  5
387
330
1F
100
AcDbEntity
  8
0
  6
Continuous
 62
     7
370
    25
100
AcDbLine
 10
6566.7504868373
 20
4471.9582606273
 30
0.0
 11
6566.7504868373
 21
4414.9582606273
 31
0.0
  0
LINE
  5
388
330
1F
100
AcDbEntity
  8
0
  6
Continuous
 62
     7
370
    25
100
AcDbLine
 10
6541.5789139621
 20
4414.9582606273
 30
0.0
 11
6541.5789139621
 21
4471.9582606273
 31
0.0
  0
LINE
  5
389
330
1F
100
AcDbEntity
  8
0
  6
Continuous
 62
     7
370
    25
100
AcDbLine
 10
6529.1647003997
 20
4413.544047065
 30
0.0
 11
6540.1647003997
 21
4413.544047065
 31
0.0
  0
LINE
  5
38A
330
1F
100
AcDbEntity
  8
0
  6
Continuous
 62
     7
370
    25
100
AcDbLine
 10
6510.1647003997
 20
4413.544047065
 30
0.0
 11
6521.1647003997
 21
4413.544047065
 31
0.0
  0
LINE
  5
38B
330
1F
100
AcDbEntity
  8
0
  6
Continuous
 62
     7
370
    25
100
AcDbLine
 10
6549.1647003997
 20
4413.544047065
 30
0.0
 11
6560.1647003997
 21
4413.544047065
 31
0.0
  0
LINE
  5
38C
330
1F
100
AcDbEntity
  8
0
  6
Continuous
 62
     7
370
    25
100
AcDbLine
 10
6568.1647003997
 20
4413.544047065
 30
0.0
 11
6579.1647003997
 21
4413.544047065
 31
0.0
  0
LINE
  5
38D
330
1F
100
AcDbEntity
  8
0
  6
Continuous
 62
     7
370
    25
100
AcDbLine
 10
6482.1647003997
 20
4413.544047065
 30
0.0
 11
6502.1647003997
 21
4413.544047065
 31
0.0
  0
LINE
  5
38E
330
1F
100
AcDbEntity
  8
0
  6
Continuous
 62
     7
370
    25
100
AcDbLine
 10
6510.7504868373
 20
4405.9582606273
 30
0.0
 11
6510.7504868373
 21
4385.9582606273
 31
0.0
  0
LINE
  5
38F
330
1F
100
AcDbEntity
  8
0
  6
Continuous
 62
     7
370
    25
100
AcDbLine
 10
6584.336273275
 20
4407.3724741897
 30
0.0
 11
6512.1647003997
 21
4407.3724741897
 31
0.0
  0
LINE
  5
390
330
1F
100
AcDbEntity
  8
0
  6
Continuous
 62
     7
370
    25
100
AcDbLine
 10
6512.1647003997
 20
4384.544047065
 30
0.0
 11
6584.336273275
 21
4384.544047065
 31
0.0
  0
LINE
  5
391
330
1F
100
AcDbEntity
  8
0
  6
Continuous
 62
     7
370
    25
100
AcDbLine
 10
6585.7504868373
 20
4383.1298335026
 30
0.0
 11
6585.7504868373
 21
4218.5953456172
 31
0.0
  0
LINE
  5
392
330
1F
100
AcDbEntity
  8
0
  6
Continuous
 62
     7
370
    25
100
AcDbLine
 10
6588.5789139621
 20
4218.5953456172
 30
0.0
 11
6585.7504868373
 21
4218.5953456172
 31
0.0
  0
ARC
  5
393
330
1F
100
AcDbEntity
  8
0
  6
Continuous
 62
     7
370
    25
100
AcDbCircle
 10
6519.6647003997
 20
4218.5953456172
 30
0.0
 40
66.08578643762672
100
AcDbArc
 50
315.0
 51
0.0
  0
LINE
  5
394
330
1F
100
AcDbEntity
  8
0
  6
Continuous
 62
     7
370
    25
100
AcDbLine
 10
6568.3944081298
 20
4169.8656378871
 30
0.0
 11
6566.3944081298
 21
4171.8656378871
 31
0.0
  0
ARC
  5
395
330
1F
100
AcDbEntity
  8
0
  6
Continuous
 62
     7
370
    25
100
AcDbCircle
 10
6179.6647003997
 20
4218.5953456172
 30
0.0
 40
66.08578643762758
100
AcDbArc
 50
180.0
 51
225.0
  0
LINE
  5
396
330
1F
100
AcDbEntity
  8
0
  6
Continuous
 62
     7
370
    25
100
AcDbLine
 10
6130.9349926696
 20
4169.8656378871
 30
0.0
 11
6132.9349926696
 21
4171.8656378871
 31
0.0
  0
LINE
  5
397
330
1F
100
AcDbEntity
  8
0
  6
Continuous
 62
     7
370
    25
100
AcDbLine
 10
6170.0139428046
 20
4134.7866877521
 30
0.0
 11
6132.9349926696
 21
4171.8656378871
 31
0.0
  0
LINE
  5
398
330
1F
100
AcDbEntity
  8
0
  6
Continuous
 62
     7
370
    25
100
AcDbLine
 10
6566.3944081298
 20
4171.8656378871
 30
0.0
 11
6529.3154579948
 21
4134.7866877521
 31
0.0
  0
LINE
  5
399
330
1F
100
AcDbEntity
  8
0
  6
Continuous
 62
     7
370
    25
100
AcDbLine
 10
6528.3154579948
 20
4134.3724741897
 30
0.0
 11
6171.0139428046
 21
4134.3724741897
 31
0.0
  0
LINE
  5
39A
330
1F
100
AcDbEntity
  8
0
  6
Continuous
 62
     7
370
    25
100
AcDbLine
 10
6479.336273275
 20
4478.1298335026
 30
0.0
 11
6480.7504868373
 21
4478.1298335026
 31
0.0
  0
LINE
  5
39B
330
1F
100
AcDbEntity
  8
0
  6
Continuous
 62
     7
370
    25
100
AcDbLine
 10
6479.336273275
 20
4478.1298335026
 30
0.0
 11
6479.336273275
 21
4479.544047065
 31
0.0
  0
LINE
  5
39C
330
1F
100
AcDbEntity
  8
0
  6
Continuous
 62
     7
370
    25
100
AcDbLine
 10
6479.336273275
 20
4414.9582606273
 30
0.0
 11
6479.336273275
 21
4478.1298335026
 31
0.0
  0
LINE
  5
39D
330
1F
100
AcDbEntity
  8
0
  6
Continuous
 62
     7
370
    25
100
AcDbLine
 10
6479.336273275
 20
4414.9582606273
 30
0.0
 11
6480.7504868373
 21
4414.9582606273
 31
0.0
  0
LINE
  5
39E
330
1F
100
AcDbEntity
  8
0
  6
Continuous
 62
     7
370
    25
100
AcDbLine
 10
6547.7504868373
 20
4471.9582606273
 30
0.0
 11
6546.336273275
 21
4471.9582606273
 31
0.0
  0
ELLIPSE
  5
39F
330
1F
100
AcDbEntity
  8
0
  6
Continuous
 62
     7
370
    25
100
AcDbEllipse
 10
6551.9931275245
 20
4469.1298335026
 30
0.0
 11
-4.898979485566088
 21
4.898979485566088
 31
0.0
210
0.0
220
0.0
230
1.0
 40
0.5773502692
 41
5.759586531581497
 42
6.80678408277788
  0
LINE
  5
3A0
330
1F
100
AcDbEntity
  8
0
  6
Continuous
 62
     7
370
    25
100
AcDbLine
 10
6549.1647003997
 20
4473.3724741897
 30
0.0
 11
6549.1647003997
 21
4474.7866877521
 31
0.0
  0
ELLIPSE
  5
3A1
330
1F
100
AcDbEntity
  8
0
  6
Continuous
 62
     7
370
    25
100
AcDbEllipse
 10
6570.9931275245
 20
4469.1298335026
 30
0.0
 11
-4.898979485566088
 21
4.898979485566088
 31
0.0
210
0.0
220
0.0
230
1.0
 40
0.5773502692
 41
5.759586531581497
 42
6.80678408277788
  0
LINE
  5
3A2
330
1F
100
AcDbEntity
  8
0
  6
Continuous
 62
     7
370
    25
100
AcDbLine
 10
6568.1647003997
 20
4474.7866877521
 30
0.0
 11
6568.1647003997
 21
4473.3724741897
 31
0.0
  0
LINE
  5
3A3
330
1F
100
AcDbEntity
  8
0
  6
Continuous
 62
     7
370
    25
100
AcDbLine
 10
6565.336273275
 20
4471.9582606273
 30
0.0
 11
6566.7504868373
 21
4471.9582606273
 31
0.0
  0
LINE
  5
3A4
330
1F
100
AcDbEntity
  8
0
  6
Continuous
 62
     7
370
    25
100
AcDbLine
 10
6504.9931275245
 20
4478.1298335026
 30
0.0
 11
6504.9931275245
 21
4479.544047065
 31
0.0
  0
LINE
  5
3A5
330
1F
100
AcDbEntity
  8
0
  6
Continuous
 62
     7
370
    25
100
AcDbLine
 10
6504.9931275245
 20
4478.1298335026
 30
0.0
 11
6503.5789139621
 21
4478.1298335026
 31
0.0
  0
LINE
  5
3A6
330
1F
100
AcDbEntity
  8
0
  6
Continuous
 62
     7
370
    25
100
AcDbLine
 10
6114.9931275245
 20
4478.1298335026
 30
0.0
 11
6114.9931275245
 21
4479.544047065
 31
0.0
  0
LINE
  5
3A7
330
1F
100
AcDbEntity
  8
0
  6
Continuous
 62
     7
370
    25
100
AcDbLine
 10
6113.5789139621
 20
4478.1298335026
 30
0.0
 11
6114.9931275245
 21
4478.1298335026
 31
0.0
  0
LINE
  5
3A8
330
1F
100
AcDbEntity
  8
0
  6
Continuous
 62
     7
370
    25
100
AcDbLine
 10
6114.9931275245
 20
4478.1298335026
 30
0.0
 11
6114.9931275245
 21
4218.5953456172
 31
0.0
  0
LINE
  5
3A9
330
1F
100
AcDbEntity
  8
0
  6
Continuous
 62
     7
370
    25
100
AcDbLine
 10
6114.9931275245
 20
4218.5953456172
 30
0.0
 11
6113.5789139621
 21
4218.5953456172
 31
0.0
  0
LINE
  5
3AA
330
1F
100
AcDbEntity
  8
0
  6
Continuous
 62
     7
370
    25
100
AcDbLine
 10
6504.9931275245
 20
4478.1298335026
 30
0.0
 11
6504.9931275245
 21
4414.9582606273
 31
0.0
  0
LINE
  5
3AB
330
1F
100
AcDbEntity
  8
0
  6
Continuous
 62
     7
370
    25
100
AcDbLine
 10
6504.9931275245
 20
4414.9582606273
 30
0.0
 11
6503.5789139621
 21
4414.9582606273
 31
0.0
  0
LINE
  5
3AC
330
1F
100
AcDbEntity
  8
0
  6
Continuous
 62
     7
370
    25
100
AcDbLine
 10
6547.7504868373
 20
4414.9582606273
 30
0.0
 11
6546.336273275
 21
4414.9582606273
 31
0.0
  0
LINE
  5
3AD
330
1F
100
AcDbEntity
  8
0
  6
Continuous
 62
     7
370
    25
100
AcDbLine
 10
6546.336273275
 20
4414.9582606273
 30
0.0
 11
6546.336273275
 21
4471.9582606273
 31
0.0
  0
LINE
  5
3AE
330
1F
100
AcDbEntity
  8
0
  6
Continuous
 62
     7
370
    25
100
AcDbLine
 10
6565.336273275
 20
4414.9582606273
 30
0.0
 11
6565.336273275
 21
4471.9582606273
 31
0.0
  0
LINE
  5
3AF
330
1F
100
AcDbEntity
  8
0
  6
Continuous
 62
     7
370
    25
100
AcDbLine
 10
6565.336273275
 20
4414.9582606273
 30
0.0
 11
6566.7504868373
 21
4414.9582606273
 31
0.0
  0
LINE
  5
3B0
330
1F
100
AcDbEntity
  8
0
  6
Continuous
 62
     7
370
    25
100
AcDbLine
 10
6584.336273275
 20
4478.1298335026
 30
0.0
 11
6585.7504868373
 21
4478.1298335026
 31
0.0
  0
LINE
  5
3B1
330
1F
100
AcDbEntity
  8
0
  6
Continuous
 62
     7
370
    25
100
AcDbLine
 10
6584.336273275
 20
4478.1298335026
 30
0.0
 11
6584.336273275
 21
4479.544047065
 31
0.0
  0
LINE
  5
3B2
330
1F
100
AcDbEntity
  8
0
  6
Continuous
 62
     7
370
    25
100
AcDbLine
 10
6584.336273275
 20
4408.7866877521
 30
0.0
 11
6584.336273275
 21
4478.1298335026
 31
0.0
  0
LINE
  5
3B3
330
1F
100
AcDbEntity
  8
0
  6
Continuous
 62
     7
370
    25
100
AcDbLine
 10
6585.7504868373
 20
4408.7866877521
 30
0.0
 11
6584.336273275
 21
4408.7866877521
 31
0.0
  0
LINE
  5
3B4
330
1F
100
AcDbEntity
  8
0
  6
Continuous
 62
     7
370
    25
100
AcDbLine
 10
6479.336273275
 20
4478.1298335026
 30
0.0
 11
6114.9931275245
 21
4478.1298335026
 31
0.0
  0
LINE
  5
3B5
330
1F
100
AcDbEntity
  8
0
  6
Continuous
 62
     7
370
    25
100
AcDbLine
 10
6527.7504868373
 20
4471.9582606273
 30
0.0
 11
6526.336273275
 21
4471.9582606273
 31
0.0
  0
ELLIPSE
  5
3B6
330
1F
100
AcDbEntity
  8
0
  6
Continuous
 62
     7
370
    25
100
AcDbEllipse
 10
6531.9931275245
 20
4469.1298335026
 30
0.0
 11
-4.898979485566088
 21
4.898979485566088
 31
0.0
210
0.0
220
0.0
230
1.0
 40
0.5773502692
 41
5.759586531581243
 42
6.806784082777949
  0
LINE
  5
3B7
330
1F
100
AcDbEntity
  8
0
  6
Continuous
 62
     7
370
    25
100
AcDbLine
 10
6529.1647003997
 20
4473.3724741897
 30
0.0
 11
6529.1647003997
 21
4474.7866877521
 31
0.0
  0
LINE
  5
3B8
330
1F
100
AcDbEntity
  8
0
  6
Continuous
 62
     7
370
    25
100
AcDbLine
 10
6542.9931275245
 20
4471.9582606273
 30
0.0
 11
6541.5789139621
 21
4471.9582606273
 31
0.0
  0
LINE
  5
3B9
330
1F
100
AcDbEntity
  8
0
  6
Continuous
 62
     7
370
    25
100
AcDbLine
 10
6540.1647003997
 20
4474.7866877521
 30
0.0
 11
6540.1647003997
 21
4473.3724741897
 31
0.0
  0
ELLIPSE
  5
3BA
330
1F
100
AcDbEntity
  8
0
  6
Continuous
 62
     7
370
    25
100
AcDbEllipse
 10
6537.336273275
 20
4469.1298335026
 30
0.0
 11
4.898979485566998
 21
4.898979485566088
 31
0.0
210
0.0
220
0.0
230
1.0
 40
0.5773502692
 41
5.759586531581266
 42
6.806784082778008
  0
LINE
  5
3BB
330
1F
100
AcDbEntity
  8
0
  6
Continuous
 62
     7
370
    25
100
AcDbLine
 10
6508.7504868373
 20
4471.9582606273
 30
0.0
 11
6507.336273275
 21
4471.9582606273
 31
0.0
  0
ELLIPSE
  5
3BC
330
1F
100
AcDbEntity
  8
0
  6
Continuous
 62
     7
370
    25
100
AcDbEllipse
 10
6512.9931275245
 20
4469.1298335026
 30
0.0
 11
-4.898979485566088
 21
4.898979485566088
 31
0.0
210
0.0
220
0.0
230
1.0
 40
0.5773502692
 41
5.759586531581243
 42
6.806784082777949
  0
LINE
  5
3BD
330
1F
100
AcDbEntity
  8
0
  6
Continuous
 62
     7
370
    25
100
AcDbLine
 10
6510.1647003997
 20
4473.3724741897
 30
0.0
 11
6510.1647003997
 21
4474.7866877521
 31
0.0
  0
LINE
  5
3BE
330
1F
100
AcDbEntity
  8
0
  6
Continuous
 62
     7
370
    25
100
AcDbLine
 10
6523.9931275245
 20
4471.9582606273
 30
0.0
 11
6522.5789139621
 21
4471.9582606273
 31
0.0
  0
LINE
  5
3BF
330
1F
100
AcDbEntity
  8
0
  6
Continuous
 62
     7
370
    25
100
AcDbLine
 10
6521.1647003997
 20
4474.7866877521
 30
0.0
 11
6521.1647003997
 21
4473.3724741897
 31
0.0
  0
ELLIPSE
  5
3C0
330
1F
100
AcDbEntity
  8
0
  6
Continuous
 62
     7
370
    25
100
AcDbEllipse
 10
6518.336273275
 20
4469.1298335026
 30
0.0
 11
4.898979485566088
 21
4.898979485566088
 31
0.0
210
0.0
220
0.0
230
1.0
 40
0.5773502692
 41
5.759586531581173
 42
6.806784082777835
  0
LINE
  5
3C1
330
1F
100
AcDbEntity
  8
0
  6
Continuous
 62
     7
370
    25
100
AcDbLine
 10
6584.336273275
 20
4478.1298335026
 30
0.0
 11
6504.9931275245
 21
4478.1298335026
 31
0.0
  0
LINE
  5
3C2
330
1F
100
AcDbEntity
  8
0
  6
Continuous
 62
     7
370
    25
100
AcDbLine
 10
6562.9931275245
 20
4471.9582606273
 30
0.0
 11
6561.5789139621
 21
4471.9582606273
 31
0.0
  0
LINE
  5
3C3
330
1F
100
AcDbEntity
  8
0
  6
Continuous
 62
     7
370
    25
100
AcDbLine
 10
6560.1647003997
 20
4474.7866877521
 30
0.0
 11
6560.1647003997
 21
4473.3724741897
 31
0.0
  0
ELLIPSE
  5
3C4
330
1F
100
AcDbEntity
  8
0
  6
Continuous
 62
     7
370
    25
100
AcDbEllipse
 10
6557.336273275
 20
4469.1298335026
 30
0.0
 11
4.898979485566088
 21
4.898979485566088
 31
0.0
210
0.0
220
0.0
230
1.0
 40
0.5773502692
 41
5.759586531581243
 42
6.806784082777949
  0
LINE
  5
3C5
330
1F
100
AcDbEntity
  8
0
  6
Continuous
 62
     7
370
    25
100
AcDbLine
 10
6580.5789139621
 20
4471.9582606273
 30
0.0
 11
6581.9931275245
 21
4471.9582606273
 31
0.0
  0
LINE
  5
3C6
330
1F
100
AcDbEntity
  8
0
  6
Continuous
 62
     7
370
    25
100
AcDbLine
 10
6579.1647003997
 20
4474.7866877521
 30
0.0
 11
6579.1647003997
 21
4473.3724741897
 31
0.0
  0
ELLIPSE
  5
3C7
330
1F
100
AcDbEntity
  8
0
  6
Continuous
 62
     7
370
    25
100
AcDbEllipse
 10
6576.336273275
 20
4469.1298335026
 30
0.0
 11
4.898979485566088
 21
4.898979485566088
 31
0.0
210
0.0
220
0.0
230
1.0
 40
0.5773502692
 41
5.759586531581243
 42
6.806784082777765
  0
LINE
  5
3C8
330
1F
100
AcDbEntity
  8
0
  6
Continuous
 62
     7
370
    25
100
AcDbLine
 10
6510.1647003997
 20
4474.7866877521
 30
0.0
 11
6521.1647003997
 21
4474.7866877521
 31
0.0
  0
LINE
  5
3C9
330
1F
100
AcDbEntity
  8
0
  6
Continuous
 62
     7
370
    25
100
AcDbLine
 10
6568.1647003997
 20
4474.7866877521
 30
0.0
 11
6579.1647003997
 21
4474.7866877521
 31
0.0
  0
LINE
  5
3CA
330
1F
100
AcDbEntity
  8
0
  6
Continuous
 62
     7
370
    25
100
AcDbLine
 10
6549.1647003997
 20
4474.7866877521
 30
0.0
 11
6560.1647003997
 21
4474.7866877521
 31
0.0
  0
LINE
  5
3CB
330
1F
100
AcDbEntity
  8
0
  6
Continuous
 62
     7
370
    25
100
AcDbLine
 10
6562.9931275245
 20
4471.9582606273
 30
0.0
 11
6562.9931275245
 21
4414.9582606273
 31
0.0
  0
LINE
  5
3CC
330
1F
100
AcDbEntity
  8
0
  6
Continuous
 62
     7
370
    25
100
AcDbLine
 10
6562.9931275245
 20
4414.9582606273
 30
0.0
 11
6561.5789139621
 21
4414.9582606273
 31
0.0
  0
LINE
  5
3CD
330
1F
100
AcDbEntity
  8
0
  6
Continuous
 62
     7
370
    25
100
AcDbLine
 10
6542.9931275245
 20
4471.9582606273
 30
0.0
 11
6542.9931275245
 21
4414.9582606273
 31
0.0
  0
LINE
  5
3CE
330
1F
100
AcDbEntity
  8
0
  6
Continuous
 62
     7
370
    25
100
AcDbLine
 10
6542.9931275245
 20
4414.9582606273
 30
0.0
 11
6541.5789139621
 21
4414.9582606273
 31
0.0
  0
LINE
  5
3CF
330
1F
100
AcDbEntity
  8
0
  6
Continuous
 62
     7
370
    25
100
AcDbLine
 10
6527.7504868373
 20
4414.9582606273
 30
0.0
 11
6526.336273275
 21
4414.9582606273
 31
0.0
  0
LINE
  5
3D0
330
1F
100
AcDbEntity
  8
0
  6
Continuous
 62
     7
370
    25
100
AcDbLine
 10
6526.336273275
 20
4414.9582606273
 30
0.0
 11
6526.336273275
 21
4471.9582606273
 31
0.0
  0
LINE
  5
3D1
330
1F
100
AcDbEntity
  8
0
  6
Continuous
 62
     7
370
    25
100
AcDbLine
 10
6508.7504868373
 20
4414.9582606273
 30
0.0
 11
6507.336273275
 21
4414.9582606273
 31
0.0
  0
LINE
  5
3D2
330
1F
100
AcDbEntity
  8
0
  6
Continuous
 62
     7
370
    25
100
AcDbLine
 10
6507.336273275
 20
4414.9582606273
 30
0.0
 11
6507.336273275
 21
4471.9582606273
 31
0.0
  0
LINE
  5
3D3
330
1F
100
AcDbEntity
  8
0
  6
Continuous
 62
     7
370
    25
100
AcDbLine
 10
6523.9931275245
 20
4471.9582606273
 30
0.0
 11
6523.9931275245
 21
4414.9582606273
 31
0.0
  0
LINE
  5
3D4
330
1F
100
AcDbEntity
  8
0
  6
Continuous
 62
     7
370
    25
100
AcDbLine
 10
6523.9931275245
 20
4414.9582606273
 30
0.0
 11
6522.5789139621
 21
4414.9582606273
 31
0.0
  0
LINE
  5
3D5
330
1F
100
AcDbEntity
  8
0
  6
Continuous
 62
     7
370
    25
100
AcDbLine
 10
6529.1647003997
 20
4474.7866877521
 30
0.0
 11
6540.1647003997
 21
4474.7866877521
 31
0.0
  0
LINE
  5
3D6
330
1F
100
AcDbEntity
  8
0
  6
Continuous
 62
     7
370
    25
100
AcDbLine
 10
6581.9931275245
 20
4471.9582606273
 30
0.0
 11
6581.9931275245
 21
4414.9582606273
 31
0.0
  0
LINE
  5
3D7
330
1F
100
AcDbEntity
  8
0
  6
Continuous
 62
     7
370
    25
100
AcDbLine
 10
6580.5789139621
 20
4414.9582606273
 30
0.0
 11
6581.9931275245
 21
4414.9582606273
 31
0.0
  0
LINE
  5
3D8
330
1F
100
AcDbEntity
  8
0
  6
Continuous
 62
     7
370
    25
100
AcDbLine
 10
6549.1647003997
 20
4412.1298335026
 30
0.0
 11
6549.1647003997
 21
4413.544047065
 31
0.0
  0
ELLIPSE
  5
3D9
330
1F
100
AcDbEntity
  8
0
  6
Continuous
 62
     7
370
    25
100
AcDbEllipse
 10
6551.9931275245
 20
4417.7866877521
 30
0.0
 11
4.898979485566088
 21
4.898979485566088
 31
0.0
210
0.0
220
0.0
230
1.0
 40
0.5773502692
 41
2.617993877991614
 42
3.665191429188085
  0
ELLIPSE
  5
3DA
330
1F
100
AcDbEntity
  8
0
  6
Continuous
 62
     7
370
    25
100
AcDbEllipse
 10
6570.9931275245
 20
4417.7866877521
 30
0.0
 11
4.898979485566088
 21
4.898979485566088
 31
0.0
210
0.0
220
0.0
230
1.0
 40
0.5773502692
 41
2.617993877991614
 42
3.665191429188085
  0
LINE
  5
3DB
330
1F
100
AcDbEntity
  8
0
  6
Continuous
 62
     7
370
    25
100
AcDbLine
 10
6568.1647003997
 20
4413.544047065
 30
0.0
 11
6568.1647003997
 21
4412.1298335026
 31
0.0
  0
LINE
  5
3DC
330
1F
100
AcDbEntity
  8
0
  6
Continuous
 62
     7
370
    25
100
AcDbLine
 10
6482.1647003997
 20
4412.1298335026
 30
0.0
 11
6482.1647003997
 21
4413.544047065
 31
0.0
  0
ELLIPSE
  5
3DD
330
1F
100
AcDbEntity
  8
0
  6
Continuous
 62
     7
370
    25
100
AcDbEllipse
 10
6484.9931275245
 20
4417.7866877521
 30
0.0
 11
4.898979485566088
 21
4.898979485566088
 31
0.0
210
0.0
220
0.0
230
1.0
 40
0.5773502692
 41
2.617993877991614
 42
3.665191429188085
  0
LINE
  5
3DE
330
1F
100
AcDbEntity
  8
0
  6
Continuous
 62
     7
370
    25
100
AcDbLine
 10
6502.1647003997
 20
4412.1298335026
 30
0.0
 11
6502.1647003997
 21
4413.544047065
 31
0.0
  0
ELLIPSE
  5
3DF
330
1F
100
AcDbEntity
  8
0
  6
Continuous
 62
     7
370
    25
100
AcDbEllipse
 10
6499.336273275
 20
4417.7866877521
 30
0.0
 11
-4.898979485566088
 21
4.898979485566088
 31
0.0
210
0.0
220
0.0
230
1.0
 40
0.5773502692
 41
2.617993877991591
 42
3.665191429187922
  0
LINE
  5
3E0
330
1F
100
AcDbEntity
  8
0
  6
Continuous
 62
     7
370
    25
100
AcDbLine
 10
6502.1647003997
 20
4412.1298335026
 30
0.0
 11
6482.1647003997
 21
4412.1298335026
 31
0.0
  0
LINE
  5
3E1
330
1F
100
AcDbEntity
  8
0
  6
Continuous
 62
     7
370
    25
100
AcDbLine
 10
6521.1647003997
 20
4413.544047065
 30
0.0
 11
6521.1647003997
 21
4412.1298335026
 31
0.0
  0
ELLIPSE
  5
3E2
330
1F
100
AcDbEntity
  8
0
  6
Continuous
 62
     7
370
    25
100
AcDbEllipse
 10
6518.336273275
 20
4417.7866877521
 30
0.0
 11
-4.898979485566088
 21
4.898979485566088
 31
0.0
210
0.0
220
0.0
230
1.0
 40
0.5773502692
 41
2.617993877991522
 42
3.665191429187992
  0
LINE
  5
3E3
330
1F
100
AcDbEntity
  8
0
  6
Continuous
 62
     7
370
    25
100
AcDbLine
 10
6540.1647003997
 20
4413.544047065
 30
0.0
 11
6540.1647003997
 21
4412.1298335026
 31
0.0
  0
ELLIPSE
  5
3E4
330
1F
100
AcDbEntity
  8
0
  6
Continuous
 62
     7
370
    25
100
AcDbEllipse
 10
6537.336273275
 20
4417.7866877521
 30
0.0
 11
-4.898979485566088
 21
4.898979485566088
 31
0.0
210
0.0
220
0.0
230
1.0
 40
0.5773502692
 41
2.617993877991522
 42
3.665191429187992
  0
LINE
  5
3E5
330
1F
100
AcDbEntity
  8
0
  6
Continuous
 62
     7
370
    25
100
AcDbLine
 10
6560.1647003997
 20
4413.544047065
 30
0.0
 11
6560.1647003997
 21
4412.1298335026
 31
0.0
  0
ELLIPSE
  5
3E6
330
1F
100
AcDbEntity
  8
0
  6
Continuous
 62
     7
370
    25
100
AcDbEllipse
 10
6557.336273275
 20
4417.7866877521
 30
0.0
 11
-4.898979485566088
 21
4.898979485566088
 31
0.0
210
0.0
220
0.0
230
1.0
 40
0.5773502692
 41
2.617993877991406
 42
3.665191429187922
  0
LINE
  5
3E7
330
1F
100
AcDbEntity
  8
0
  6
Continuous
 62
     7
370
    25
100
AcDbLine
 10
6510.1647003997
 20
4412.1298335026
 30
0.0
 11
6510.1647003997
 21
4413.544047065
 31
0.0
  0
ELLIPSE
  5
3E8
330
1F
100
AcDbEntity
  8
0
  6
Continuous
 62
     7
370
    25
100
AcDbEllipse
 10
6512.9931275245
 20
4417.7866877521
 30
0.0
 11
4.898979485566088
 21
4.898979485566088
 31
0.0
210
0.0
220
0.0
230
1.0
 40
0.5773502692
 41
2.617993877991545
 42
3.66519142918834
  0
LINE
  5
3E9
330
1F
100
AcDbEntity
  8
0
  6
Continuous
 62
     7
370
    25
100
AcDbLine
 10
6529.1647003997
 20
4412.1298335026
 30
0.0
 11
6529.1647003997
 21
4413.544047065
 31
0.0
  0
ELLIPSE
  5
3EA
330
1F
100
AcDbEntity
  8
0
  6
Continuous
 62
     7
370
    25
100
AcDbEllipse
 10
6531.9931275245
 20
4417.7866877521
 30
0.0
 11
4.898979485566998
 21
4.898979485566088
 31
0.0
210
0.0
220
0.0
230
1.0
 40
0.5773502692
 41
2.617993877991639
 42
3.665191429188515
  0
LINE
  5
3EB
330
1F
100
AcDbEntity
  8
0
  6
Continuous
 62
     7
370
    25
100
AcDbLine
 10
6512.1647003997
 20
4407.3724741897
 30
0.0
 11
6512.1647003997
 21
4408.7866877521
 31
0.0
  0
LINE
  5
3EC
330
1F
100
AcDbEntity
  8
0
  6
Continuous
 62
     7
370
    25
100
AcDbLine
 10
6512.1647003997
 20
4408.7866877521
 30
0.0
 11
6584.336273275
 21
4408.7866877521
 31
0.0
  0
LINE
  5
3ED
330
1F
100
AcDbEntity
  8
0
  6
Continuous
 62
     7
370
    25
100
AcDbLine
 10
6584.336273275
 20
4407.3724741897
 30
0.0
 11
6584.336273275
 21
4408.7866877521
 31
0.0
  0
LINE
  5
3EE
330
1F
100
AcDbEntity
  8
0
  6
Continuous
 62
     7
370
    25
100
AcDbLine
 10
6521.1647003997
 20
4412.1298335026
 30
0.0
 11
6510.1647003997
 21
4412.1298335026
 31
0.0
  0
LINE
  5
3EF
330
1F
100
AcDbEntity
  8
0
  6
Continuous
 62
     7
370
    25
100
AcDbLine
 10
6540.1647003997
 20
4412.1298335026
 30
0.0
 11
6529.1647003997
 21
4412.1298335026
 31
0.0
  0
LINE
  5
3F0
330
1F
100
AcDbEntity
  8
0
  6
Continuous
 62
     7
370
    25
100
AcDbLine
 10
6560.1647003997
 20
4412.1298335026
 30
0.0
 11
6549.1647003997
 21
4412.1298335026
 31
0.0
  0
ELLIPSE
  5
3F1
330
1F
100
AcDbEntity
  8
0
  6
Continuous
 62
     7
370
    25
100
AcDbEllipse
 10
6576.336273275
 20
4417.7866877521
 30
0.0
 11
-4.898979485566088
 21
4.898979485566088
 31
0.0
210
0.0
220
0.0
230
1.0
 40
0.5773502692
 41
2.617993877991591
 42
3.665191429187922
  0
LINE
  5
3F2
330
1F
100
AcDbEntity
  8
0
  6
Continuous
 62
     7
370
    25
100
AcDbLine
 10
6579.1647003997
 20
4413.544047065
 30
0.0
 11
6579.1647003997
 21
4412.1298335026
 31
0.0
  0
LINE
  5
3F3
330
1F
100
AcDbEntity
  8
0
  6
Continuous
 62
     7
370
    25
100
AcDbLine
 10
6510.7504868373
 20
4405.9582606273
 30
0.0
 11
6509.336273275
 21
4405.9582606273
 31
0.0
  0
ELLIPSE
  5
3F4
330
1F
100
AcDbEntity
  8
0
  6
Continuous
 62
     7
370
    25
100
AcDbEllipse
 10
6514.9931275245
 20
4403.1298335026
 30
0.0
 11
4.898979485566088
 21
-4.898979485566088
 31
0.0
210
0.0
220
0.0
230
1.0
 40
0.5773502692
 41
2.617993877991708
 42
3.665191429188178
  0
LINE
  5
3F5
330
1F
100
AcDbEntity
  8
0
  6
Continuous
 62
     7
370
    25
100
AcDbLine
 10
6579.1647003997
 20
4412.1298335026
 30
0.0
 11
6568.1647003997
 21
4412.1298335026
 31
0.0
  0
LINE
  5
3F6
330
1F
100
AcDbEntity
  8
0
  6
Continuous
 62
     7
370
    25
100
AcDbLine
 10
6510.7504868373
 20
4385.9582606273
 30
0.0
 11
6509.336273275
 21
4385.9582606273
 31
0.0
  0
LINE
  5
3F7
330
1F
100
AcDbEntity
  8
0
  6
Continuous
 62
     7
370
    25
100
AcDbLine
 10
6509.336273275
 20
4385.9582606273
 30
0.0
 11
6509.336273275
 21
4405.9582606273
 31
0.0
  0
LINE
  5
3F8
330
1F
100
AcDbEntity
  8
0
  6
Continuous
 62
     7
370
    25
100
AcDbLine
 10
6512.1647003997
 20
4384.544047065
 30
0.0
 11
6512.1647003997
 21
4383.1298335026
 31
0.0
  0
ELLIPSE
  5
3F9
330
1F
100
AcDbEntity
  8
0
  6
Continuous
 62
     7
370
    25
100
AcDbEllipse
 10
6514.9931275245
 20
4388.7866877521
 30
0.0
 11
4.898979485566088
 21
4.898979485566088
 31
0.0
210
0.0
220
0.0
230
1.0
 40
0.5773502692
 41
2.617993877991614
 42
3.665191429188085
  0
LINE
  5
3FA
330
1F
100
AcDbEntity
  8
0
  6
Continuous
 62
     7
370
    25
100
AcDbLine
 10
6584.336273275
 20
4384.544047065
 30
0.0
 11
6584.336273275
 21
4383.1298335026
 31
0.0
  0
LINE
  5
3FB
330
1F
100
AcDbEntity
  8
0
  6
Continuous
 62
     7
370
    25
100
AcDbLine
 10
6584.336273275
 20
4383.1298335026
 30
0.0
 11
6512.1647003997
 21
4383.1298335026
 31
0.0
  0
LINE
  5
3FC
330
1F
100
AcDbEntity
  8
0
  6
Continuous
 62
     7
370
    25
100
AcDbLine
 10
6585.7504868373
 20
4383.1298335026
 30
0.0
 11
6584.336273275
 21
4383.1298335026
 31
0.0
  0
LINE
  5
3FD
330
1F
100
AcDbEntity
  8
0
  6
Continuous
 62
     7
370
    25
100
AcDbLine
 10
6585.7504868373
 20
4218.5953456172
 30
0.0
 11
6584.336273275
 21
4218.5953456172
 31
0.0
  0
LINE
  5
3FE
330
1F
100
AcDbEntity
  8
0
  6
Continuous
 62
     7
370
    25
100
AcDbLine
 10
6584.336273275
 20
4218.5953456172
 30
0.0
 11
6584.336273275
 21
4383.1298335026
 31
0.0
  0
LINE
  5
3FF
330
1F
100
AcDbEntity
  8
0
  6
Continuous
 62
     7
370
    25
100
AcDbLine
 10
6566.3944081298
 20
4171.8656378871
 30
0.0
 11
6565.3944081298
 21
4172.8656378871
 31
0.0
  0
ARC
  5
400
330
1F
100
AcDbEntity
  8
0
  6
Continuous
 62
     7
370
    25
100
AcDbCircle
 10
6519.6647003997
 20
4218.5953456172
 30
0.0
 40
64.67157287525427
100
AcDbArc
 50
315.0
 51
0.0
  0
ARC
  5
401
330
1F
100
AcDbEntity
  8
0
  6
Continuous
 62
     7
370
    25
100
AcDbCircle
 10
6179.6647003997
 20
4218.5953456172
 30
0.0
 40
64.67157287525427
100
AcDbArc
 50
180.0
 51
225.0
  0
LINE
  5
402
330
1F
100
AcDbEntity
  8
0
  6
Continuous
 62
     7
370
    25
100
AcDbLine
 10
6133.9349926696
 20
4172.8656378871
 30
0.0
 11
6132.9349926696
 21
4171.8656378871
 31
0.0
  0
LINE
  5
403
330
1F
100
AcDbEntity
  8
0
  6
Continuous
 62
     7
370
    25
100
AcDbLine
 10
6529.3154579948
 20
4134.7866877521
 30
0.0
 11
6528.3154579948
 21
4135.7866877521
 31
0.0
  0
LINE
  5
404
330
1F
100
AcDbEntity
  8
0
  6
Continuous
 62
     7
370
    25
100
AcDbLine
 10
6528.3154579948
 20
4135.7866877521
 30
0.0
 11
6565.3944081298
 21
4172.8656378871
 31
0.0
  0
LINE
  5
405
330
1F
100
AcDbEntity
  8
0
  6
Continuous
 62
     7
370
    25
100
AcDbLine
 10
6133.9349926696
 20
4172.8656378871
 30
0.0
 11
6171.0139428046
 21
4135.7866877521
 31
0.0
  0
LINE
  5
406
330
1F
100
AcDbEntity
  8
0
  6
Continuous
 62
     7
370
    25
100
AcDbLine
 10
6171.0139428046
 20
4135.7866877521
 30
0.0
 11
6170.0139428046
 21
4134.7866877521
 31
0.0
  0
LINE
  5
407
330
1F
100
AcDbEntity
  8
0
  6
Continuous
 62
     7
370
    25
100
AcDbLine
 10
6528.3154579948
 20
4134.3724741897
 30
0.0
 11
6528.3154579948
 21
4135.7866877521
 31
0.0
  0
LINE
  5
408
330
1F
100
AcDbEntity
  8
0
  6
Continuous
 62
     7
370
    25
100
AcDbLine
 10
6171.0139428046
 20
4134.3724741897
 30
0.0
 11
6171.0139428046
 21
4135.7866877521
 31
0.0
  0
LINE
  5
409
330
1F
100
AcDbEntity
  8
0
  6
Continuous
 62
     7
370
    25
100
AcDbLine
 10
6171.0139428046
 20
4135.7866877521
 30
0.0
 11
6528.3154579948
 21
4135.7866877521
 31
0.0
  0
CIRCLE
  5
40A
330
1F
100
AcDbEntity
  8
0
  6
Continuous
 62
     7
370
    25
100
AcDbCircle
 10
6349.6647003997
 20
4306.9582606273
 30
0.0
 40
160.7492887282642
  0
CIRCLE
  5
40B
330
1F
100
AcDbEntity
  8
0
  6
Continuous
 62
     7
370
    25
100
AcDbCircle
 10
6349.6647003997
 20
4306.9582606273
 30
0.0
 40
158.7492984029923
  0
CIRCLE
  5
40C
330
1F
100
AcDbEntity
  8
0
  6
Continuous
 62
     7
370
    25
100
AcDbCircle
 10
6349.6647003997
 20
4306.9582606273
 30
0.0
 40
4.0
  0
CIRCLE
  5
40D
330
1F
100
AcDbEntity
  8
0
  6
Continuous
 62
     7
370
    25
100
AcDbCircle
 10
6349.6647003997
 20
4319.4582606273
 30
0.0
 40
4.000000000002586
  0
CIRCLE
  5
40E
330
1F
100
AcDbEntity
  8
0
  6
Continuous
 62
     7
370
    25
100
AcDbCircle
 10
6338.8393828524
 20
4313.2082606273
 30
0.0
 40
4.000000000001089
  0
CIRCLE
  5
40F
330
1F
100
AcDbEntity
  8
0
  6
Continuous
 62
     7
370
    25
100
AcDbCircle
 10
6338.8393828524
 20
4300.7082606273
 30
0.0
 40
4.000000000000346
  0
CIRCLE
  5
410
330
1F
100
AcDbEntity
  8
0
  6
Continuous
 62
     7
370
    25
100
AcDbCircle
 10
6349.6647003997
 20
4294.4582606273
 30
0.0
 40
3.999999999998375
  0
CIRCLE
  5
411
330
1F
100
AcDbEntity
  8
0
  6
Continuous
 62
     7
370
    25
100
AcDbCircle
 10
6360.490017947
 20
4300.7082606273
 30
0.0
 40
4.000000000001129
  0
CIRCLE
  5
412
330
1F
100
AcDbEntity
  8
0
  6
Continuous
 62
     7
370
    25
100
AcDbCircle
 10
6360.490017947
 20
4313.2082606273
 30
0.0
 40
3.999999999998976
  0
ARC
  5
413
330
1F
100
AcDbEntity
  8
0
  6
Continuous
 62
     7
370
    25
100
AcDbCircle
 10
6349.6647003997
 20
4306.9582606273
 30
0.0
 40
13.4999999999999
100
AcDbArc
 50
72.8537900011
 51
107.1462099989
  0
ARC
  5
414
330
1F
100
AcDbEntity
  8
0
  6
Continuous
 62
     7
370
    25
100
AcDbCircle
 10
6349.6647003997
 20
4306.9582606273
 30
0.0
 40
13.50000000000042
100
AcDbArc
 50
132.8537900011
 51
167.1462099989
  0
ARC
  5
415
330
1F
100
AcDbEntity
  8
0
  6
Continuous
 62
     7
370
    25
100
AcDbCircle
 10
6349.6647003997
 20
4306.9582606273
 30
0.0
 40
13.49999999999969
100
AcDbArc
 50
12.8537900011
 51
47.1462099989
  0
ARC
  5
416
330
1F
100
AcDbEntity
  8
0
  6
Continuous
 62
     7
370
    25
100
AcDbCircle
 10
6349.6647003997
 20
4306.9582606273
 30
0.0
 40
13.50000000000026
100
AcDbArc
 50
192.8537900011
 51
227.1462099989
  0
ARC
  5
417
330
1F
100
AcDbEntity
  8
0
  6
Continuous
 62
     7
370
    25
100
AcDbCircle
 10
6349.6647003997
 20
4306.9582606273
 30
0.0
 40
13.49999999999954
100
AcDbArc
 50
312.8537900011
 51
347.1462099989
  0
ARC
  5
418
330
1F
100
AcDbEntity
  8
0
  6
Continuous
 62
     7
370
    25
100
AcDbCircle
 10
6349.6647003997
 20
4306.9582606273
 30
0.0
 40
13.50000000000017
100
AcDbArc
 50
252.8537900011
 51
287.1462099989
  0
LINE
  5
419
330
1F
100
AcDbEntity
  8
0
  6
Continuous
 62
     7
370
    25
100
AcDbLine
 10
6569.3281619382
 20
4505.1072036383
 30
0.0
 11
6569.3281619382
 21
4504.7482292794
 31
0.0
  0
LINE
  5
41A
330
1F
100
AcDbEntity
  8
0
  6
Continuous
 62
     7
370
    25
100
AcDbLine
 10
6567.982008092
 20
4505.1072036383
 30
0.0
 11
6569.3281619382
 21
4505.1072036383
 31
0.0
  0
LINE
  5
41B
330
1F
100
AcDbEntity
  8
0
  6
Continuous
 62
     7
370
    25
100
AcDbLine
 10
6567.982008092
 20
4508.2482292794
 30
0.0
 11
6567.982008092
 21
4505.1072036383
 31
0.0
  0
LINE
  5
41C
330
1F
100
AcDbEntity
  8
0
  6
Continuous
 62
     7
370
    25
100
AcDbLine
 10
6567.6679055279
 20
4508.2482292794
 30
0.0
 11
6567.982008092
 21
4508.2482292794
 31
0.0
  0
LINE
  5
41D
330
1F
100
AcDbEntity
  8
0
  6
Continuous
 62
     7
370
    25
100
AcDbLine
 10
6567.6679055279
 20
4504.7482292794
 30
0.0
 11
6567.6679055279
 21
4508.2482292794
 31
0.0
  0
LINE
  5
41E
330
1F
100
AcDbEntity
  8
0
  6
Continuous
 62
     7
370
    25
100
AcDbLine
 10
6569.3281619382
 20
4504.7482292794
 30
0.0
 11
6567.6679055279
 21
4504.7482292794
 31
0.0
  0
ARC
  5
41F
330
1F
100
AcDbEntity
  8
0
  6
Continuous
 62
     7
370
    25
100
AcDbCircle
 10
6571.0334171739
 20
4506.0046419377
 30
0.0
 40
1.301500459076311
100
AcDbArc
 50
179.3210512624
 51
271.0438887747
  0
ARC
  5
420
330
1F
100
AcDbEntity
  8
0
  6
Continuous
 62
     7
370
    25
100
AcDbCircle
 10
6571.0809678554
 20
4506.0017440122
 30
0.0
 40
1.298605367520055
100
AcDbArc
 50
268.9481149745
 51
0.8083326632
  0
LWPOLYLINE
  5
421
330
1F
100
AcDbEntity
  8
0
  6
Continuous
 62
     7
370
    25
100
AcDbPolyline
 90
        3
 70
   128
 43
0.0
 10
6572.028883092
 20
4506.9294191832
 10
6572.3124757042
 20
4506.4523584032
 10
6572.3794439895
 20
4506.0200642153
  0
LWPOLYLINE
  5
422
330
1F
100
AcDbEntity
  8
0
  6
Continuous
 62
     7
370
    25
100
AcDbPolyline
 90
        3
 70
   128
 43
0.0
 10
6571.0571282843
 20
4507.3507933819
 10
6571.6490645482
 20
4507.2195760257
 10
6572.028883092
 20
4506.9294191832
  0
LWPOLYLINE
  5
423
330
1F
100
AcDbEntity
  8
0
  6
Continuous
 62
     7
370
    25
100
AcDbPolyline
 90
        3
 70
   128
 43
0.0
 10
6570.0825689895
 20
4506.9273158178
 10
6570.5840536519
 20
4507.2708450825
 10
6571.0571282843
 20
4507.3507933819
  0
LWPOLYLINE
  5
424
330
1F
100
AcDbEntity
  8
0
  6
Continuous
 62
     7
370
    25
100
AcDbPolyline
 90
        3
 70
   128
 43
0.0
 10
6569.732008092
 20
4506.0200642153
 10
6569.8421169679
 20
4506.5629821475
 10
6570.0825689895
 20
4506.9273158178
  0
ARC
  5
425
330
1F
100
AcDbEntity
  8
0
  6
Continuous
 62
     7
370
    25
100
AcDbCircle
 10
6577.4949556354
 20
4506.0046419377
 30
0.0
 40
1.301500459076814
100
AcDbArc
 50
179.3210512623
 51
271.0438887746
  0
ARC
  5
426
330
1F
100
AcDbEntity
  8
0
  6
Continuous
 62
     7
370
    25
100
AcDbCircle
 10
6577.5425063169
 20
4506.0017440122
 30
0.0
 40
1.298605367519162
100
AcDbArc
 50
268.9481149744
 51
0.8083326632
  0
LWPOLYLINE
  5
427
330
1F
100
AcDbEntity
  8
0
  6
Continuous
 62
     7
370
    25
100
AcDbPolyline
 90
        3
 70
   128
 43
0.0
 10
6578.4904215536
 20
4506.9294191832
 10
6578.7740141658
 20
4506.4523584032
 10
6578.840982451
 20
4506.0200642153
  0
LWPOLYLINE
  5
428
330
1F
100
AcDbEntity
  8
0
  6
Continuous
 62
     7
370
    25
100
AcDbPolyline
 90
        3
 70
   128
 43
0.0
 10
6577.5186667459
 20
4507.3507933819
 10
6578.1106030097
 20
4507.2195760257
 10
6578.4904215536
 20
4506.9294191832
  0
LWPOLYLINE
  5
429
330
1F
100
AcDbEntity
  8
0
  6
Continuous
 62
     7
370
    25
100
AcDbPolyline
 90
        3
 70
   128
 43
0.0
 10
6576.544107451
 20
4506.9273158178
 10
6577.0455921135
 20
4507.2708450825
 10
6577.5186667459
 20
4507.3507933819
  0
LWPOLYLINE
  5
42A
330
1F
100
AcDbEntity
  8
0
  6
Continuous
 62
     7
370
    25
100
AcDbPolyline
 90
        3
 70
   128
 43
0.0
 10
6576.1935465536
 20
4506.0200642153
 10
6576.3036554294
 20
4506.5629821475
 10
6576.544107451
 20
4506.9273158178
  0
LINE
  5
42B
330
1F
100
AcDbEntity
  8
0
  6
Continuous
 62
     7
370
    25
100
AcDbLine
 10
6584.6647003997
 20
4510.4582606273
 30
0.0
 11
6561.6647003997
 21
4510.4582606273
 31
0.0
  0
LINE
  5
42C
330
1F
100
AcDbEntity
  8
0
  6
Continuous
 62
     7
370
    25
100
AcDbLine
 10
6584.6647003997
 20
4503.2482292794
 30
0.0
 11
6584.6647003997
 21
4510.4582606273
 31
0.0
  0
LINE
  5
42D
330
1F
100
AcDbEntity
  8
0
  6
Continuous
 62
     7
370
    25
100
AcDbLine
 10
6561.6647003997
 20
4503.2482292794
 30
0.0
 11
6584.6647003997
 21
4503.2482292794
 31
0.0
  0
LINE
  5
42E
330
1F
100
AcDbEntity
  8
0
  6
Continuous
 62
     7
370
    25
100
AcDbLine
 10
6561.6647003997
 20
4510.4582606273
 30
0.0
 11
6561.6647003997
 21
4503.2482292794
 31
0.0
  0
ARC
  5
42F
330
1F
100
AcDbEntity
  8
0
  6
Continuous
 62
     7
370
    25
100
AcDbCircle
 10
6574.238994484
 20
4506.0296917181
 30
0.0
 40
1.321101675525186
100
AcDbArc
 50
90.0076111441
 51
179.748577396
  0
ARC
  5
430
330
1F
100
AcDbEntity
  8
0
  6
Continuous
 62
     7
370
    25
100
AcDbCircle
 10
6574.2036720712
 20
4506.0337474496
 30
0.0
 40
1.285767722593774
100
AcDbArc
 50
179.9223985142
 51
271.1288706987
  0
LWPOLYLINE
  5
431
330
1F
100
AcDbEntity
  8
0
  6
Continuous
 62
     7
370
    25
100
AcDbPolyline
 90
        3
 70
   128
 43
0.0
 10
6575.2512388613
 20
4505.238313414
 10
6574.7329744555
 20
4504.8458779745
 10
6574.2290032843
 20
4504.7482292794
  0
LINE
  5
432
330
1F
100
AcDbEntity
  8
0
  6
Continuous
 62
     7
370
    25
100
AcDbLine
 10
6575.2512388613
 20
4505.1058013948
 30
0.0
 11
6575.2512388613
 21
4505.238313414
 31
0.0
  0
ARC
  5
433
330
1F
100
AcDbEntity
  8
0
  6
Continuous
 62
     7
370
    25
100
AcDbCircle
 10
6574.3552534408
 20
4504.973358372
 30
0.0
 40
0.9057212750200028
100
AcDbArc
 50
262.6139356342
 51
8.4084739319
  0
ARC
  5
434
330
1F
100
AcDbEntity
  8
0
  6
Continuous
 62
     7
370
    25
100
AcDbCircle
 10
6574.145740826
 20
4505.0778946487
 30
0.0
 40
1.007052952679476
100
AcDbArc
 50
210.3703045687
 51
275.3032049583
  0
LINE
  5
435
330
1F
100
AcDbEntity
  8
0
  6
Continuous
 62
     7
370
    25
100
AcDbLine
 10
6572.9627773228
 20
4504.5687420999
 30
0.0
 11
6573.2768798869
 21
4504.5687420999
 31
0.0
  0
ARC
  5
436
330
1F
100
AcDbEntity
  8
0
  6
Continuous
 62
     7
370
    25
100
AcDbCircle
 10
6574.1616317668
 20
4505.0474913746
 30
0.0
 40
1.290911633634404
100
AcDbArc
 50
201.7687508535
 51
274.7694799016
  0
ARC
  5
437
330
1F
100
AcDbEntity
  8
0
  6
Continuous
 62
     7
370
    25
100
AcDbCircle
 10
6574.3852414536
 20
4504.9255229963
 30
0.0
 40
1.170263875821726
100
AcDbArc
 50
264.2978394084
 51
338.2365940578
  0
LWPOLYLINE
  5
438
330
1F
100
AcDbEntity
  8
0
  6
Continuous
 62
     7
370
    25
100
AcDbPolyline
 90
        3
 70
   128
 43
0.0
 10
6575.5653414254
 20
4505.2761739909
 10
6575.5444773119
 20
4504.8324318887
 10
6575.4720922266
 20
4504.4916187025
  0
LINE
  5
439
330
1F
100
AcDbEntity
  8
0
  6
Continuous
 62
     7
370
    25
100
AcDbLine
 10
6575.5653414254
 20
4507.3059215871
 30
0.0
 11
6575.5653414254
 21
4505.2761739909
 31
0.0
  0
LINE
  5
43A
330
1F
100
AcDbEntity
  8
0
  6
Continuous
 62
     7
370
    25
100
AcDbLine
 10
6575.2512388613
 20
4507.3059215871
 30
0.0
 11
6575.5653414254
 21
4507.3059215871
 31
0.0
  0
LINE
  5
43B
330
1F
100
AcDbEntity
  8
0
  6
Continuous
 62
     7
370
    25
100
AcDbLine
 10
6575.2512388613
 20
4506.8586058819
 30
0.0
 11
6575.2512388613
 21
4507.3059215871
 31
0.0
  0
LWPOLYLINE
  5
43C
330
1F
100
AcDbEntity
  8
0
  6
Continuous
 62
     7
370
    25
100
AcDbPolyline
 90
        3
 70
   128
 43
0.0
 10
6574.2388189895
 20
4507.3507933819
 10
6574.8664504926
 20
4507.1948893758
 10
6575.2512388613
 20
4506.8586058819
  0
ARC
  5
43D
330
1F
100
AcDbEntity
  8
0
  6
Continuous
 62
     7
370
    25
100
AcDbCircle
 10
6571.038039717
 20
4506.0092695037
 30
0.0
 40
0.9919671371859038
100
AcDbArc
 50
179.497983544
 51
271.0216118722
  0
ARC
  5
43E
330
1F
100
AcDbEntity
  8
0
  6
Continuous
 62
     7
370
    25
100
AcDbCircle
 10
6571.0552249379
 20
4506.0275312785
 30
0.0
 40
1.009159663703877
100
AcDbArc
 50
89.9715495195
 51
180.5433762463
  0
ARC
  5
43F
330
1F
100
AcDbEntity
  8
0
  6
Continuous
 62
     7
370
    25
100
AcDbCircle
 10
6571.0558331965
 20
4506.0271408562
 30
0.0
 40
1.009549967366909
100
AcDbArc
 50
359.4789927385
 51
90.0060814956
  0
ARC
  5
440
330
1F
100
AcDbEntity
  8
0
  6
Continuous
 62
     7
370
    25
100
AcDbCircle
 10
6571.0731025996
 20
4506.0095820906
 30
0.0
 40
0.992274201524286
100
AcDbArc
 50
268.9965935073
 51
0.4838110766
  0
ARC
  5
441
330
1F
100
AcDbEntity
  8
0
  6
Continuous
 62
     7
370
    25
100
AcDbCircle
 10
6577.4995781785
 20
4506.0092695037
 30
0.0
 40
0.9919671371858876
100
AcDbArc
 50
179.497983544
 51
271.0216118722
  0
ARC
  5
442
330
1F
100
AcDbEntity
  8
0
  6
Continuous
 62
     7
370
    25
100
AcDbCircle
 10
6577.5167633995
 20
4506.0275312785
 30
0.0
 40
1.009159663704786
100
AcDbArc
 50
89.9715495195
 51
180.5433762463
  0
ARC
  5
443
330
1F
100
AcDbEntity
  8
0
  6
Continuous
 62
     7
370
    25
100
AcDbCircle
 10
6577.5173716581
 20
4506.0271408562
 30
0.0
 40
1.009549967366
100
AcDbArc
 50
359.4789927385
 51
90.0060814957
  0
ARC
  5
444
330
1F
100
AcDbEntity
  8
0
  6
Continuous
 62
     7
370
    25
100
AcDbCircle
 10
6577.5346410611
 20
4506.0095820906
 30
0.0
 40
0.9922742015231261
100
AcDbArc
 50
268.9965935072
 51
0.4838110767
  0
ARC
  5
445
330
1F
100
AcDbEntity
  8
0
  6
Continuous
 62
     7
370
    25
100
AcDbCircle
 10
6574.1865917655
 20
4506.0151502659
 30
0.0
 40
0.9546148772736218
100
AcDbArc
 50
179.5367360501
 51
273.5156029291
  0
ARC
  5
446
330
1F
100
AcDbEntity
  8
0
  6
Continuous
 62
     7
370
    25
100
AcDbCircle
 10
6574.2449158599
 20
4506.0239633765
 30
0.0
 40
1.012908359399639
100
AcDbArc
 50
88.9170709621
 51
180.0619209184
  0
ARC
  5
447
330
1F
100
AcDbEntity
  8
0
  6
Continuous
 62
     7
370
    25
100
AcDbCircle
 10
6574.3087603226
 20
4506.0034146693
 30
0.0
 40
0.9432315831415276
100
AcDbArc
 50
266.1318382579
 51
2.289642448
  0
ARC
  5
448
330
1F
100
AcDbEntity
  8
0
  6
Continuous
 62
     7
370
    25
100
AcDbCircle
 10
6574.2813722853
 20
4506.0666423857
 30
0.0
 40
0.9702029156577848
100
AcDbArc
 50
358.4912824748
 51
91.0224762044
  0
LINE
  5
449
330
1F
100
AcDbEntity
  8
0
  6
Continuous
 62
     7
370
    25
100
AcDbLine
 10
6152.6794190261
 20
4129.6151148765
 30
0.0
 11
6135.0017494964
 21
4147.2927844061
 31
0.0
  0
LINE
  5
44A
330
1F
100
AcDbEntity
  8
0
  6
Continuous
 62
     7
370
    25
100
AcDbLine
 10
6135.0017494964
 20
4149.4141047497
 30
0.0
 11
6154.8007393697
 21
4129.6151148765
 31
0.0
  0
CIRCLE
  5
44B
330
1F
100
AcDbEntity
  8
0
  6
Continuous
 62
     7
370
    25
100
AcDbCircle
 10
6199.6647003997
 20
4447.4582606273
 30
0.0
 40
22.49999999999994
  0
LWPOLYLINE
  5
44C
330
1F
100
AcDbEntity
  8
0
  6
Continuous
 62
     7
370
    25
100
AcDbPolyline
 90
       21
 70
   128
 43
0.0
 10
6208.9142519602
 20
4438.2087090668
 10
6209.8121501932
 20
4438.9257433933
 10
6210.8030197976
 20
4439.3917254974
 10
6211.7898675528
 20
4439.5610418042
 10
6212.6760939248
 20
4439.4171184539
 10
6213.3749489016
 20
4438.9740436667
 10
6213.8180236887
 20
4438.27518869
 10
6213.9619470391
 20
4437.388962318
 10
6213.7926307323
 20
4436.4021145628
 10
6213.3266486281
 20
4435.4112449583
 10
6212.6096143017
 20
4434.5133467253
 10
6211.7117160687
 20
4433.7963123989
 10
6210.7208464643
 20
4433.3303302948
 10
6209.7339987091
 20
4433.161013988
 10
6208.8477723371
 20
4433.3049373383
 10
6208.1489173603
 20
4433.7480121255
 10
6207.7058425732
 20
4434.4468671022
 10
6207.5619192229
 20
4435.3330934742
 10
6207.7312355297
 20
4436.3199412294
 10
6208.1972176338
 20
4437.3108108339
 10
6208.9142519602
 20
4438.2087090668
  0
LWPOLYLINE
  5
44D
330
1F
100
AcDbEntity
  8
0
  6
Continuous
 62
     7
370
    25
100
AcDbPolyline
 90
       19
 70
   128
 43
0.0
 10
6211.9142519602
 20
4435.2087090668
 10
6212.5493251793
 20
4436.0247044236
 10
6212.9268770579
 20
4436.9232008352
 10
6213.0013692673
 20
4437.7958263739
 10
6212.7638169477
 20
4438.5373295213
 10
6212.2428724147
 20
4439.0582740543
 10
6211.5013692673
 20
4439.2958263739
 10
6210.6287437285
 20
4439.2213341645
 10
6209.730247317
 20
4438.843782286
 10
6208.9142519602
 20
4438.2087090668
 10
6208.2791787411
 20
4437.3927137101
 10
6207.9016268625
 20
4436.4942172985
 10
6207.8271346531
 20
4435.6215917598
 10
6208.0646869727
 20
4434.8800886124
 10
6208.5856315057
 20
4434.3591440794
 10
6209.3271346531
 20
4434.1215917598
 10
6210.1997601919
 20
4434.1960839692
 10
6211.0982566034
 20
4434.5736358477
 10
6211.9142519602
 20
4435.2087090668
  0
LINE
  5
44E
330
1F
100
AcDbEntity
  8
0
  6
Continuous
 62
     8
370
    25
100
AcDbLine
 10
6516.7587838286
 20
3850.5441033823
 30
0.0
 11
6526.7583899679
 21
3850.4554397332
 31
0.0
  0
LINE
  5
44F
330
1F
100
AcDbEntity
  8
0
  6
Continuous
 62
     8
370
    25
100
AcDbLine
 10
6182.5640737786
 20
3852.0198004661
 30
0.0
 11
6172.5640737786
 21
3852.0198004661
 31
0.0
  0
ENDSEC
  0
SECTION
  2
OBJECTS
  0
DICTIONARY
  5
C
330
0
100
AcDbDictionary
281
     1
  3
ACAD_GROUP
350
D
  3
ACAD_LAYOUT
350
1A
  3
ACAD_MLINESTYLE
350
17
  3
ACAD_PLOTSETTINGS
350
19
  3
ACAD_PLOTSTYLENAME
350
E
  3
ACAD_SCALELIST
350
47
  3
DWGPROPS
350
450
  0
DICTIONARY
  5
D
102
{ACAD_REACTORS
330
C
102
}
330
C
100
AcDbDictionary
281
     1
  0
DICTIONARY
  5
1A
102
{ACAD_REACTORS
330
C
102
}
330
C
100
AcDbDictionary
281
     1
  3
Layout1
350
1E
  3
Layout2
350
26
  3
Model
350
22
  0
DICTIONARY
  5
17
102
{ACAD_REACTORS
330
C
102
}
330
C
100
AcDbDictionary
281
     1
  3
Standard
350
18
  0
DICTIONARY
  5
19
102
{ACAD_REACTORS
330
C
102
}
330
C
100
AcDbDictionary
281
     1
  0
ACDBDICTIONARYWDFLT
  5
E
102
{ACAD_REACTORS
330
C
102
}
330
C
100
AcDbDictionary
281
     1
  3
Normal
350
F
100
AcDbDictionaryWithDefault
340
F
  0
DICTIONARY
  5
47
102
{ACAD_REACTORS
330
C
102
}
330
C
100
AcDbDictionary
281
     1
  3
A0
350
48
  3
A1
350
49
  3
A2
350
4A
  3
A3
350
4B
  3
A4
350
4C
  3
A5
350
4D
  3
A6
350
4E
  3
A7
350
4F
  3
A8
350
50
  3
A9
350
51
  3
B0
350
52
  3
B1
350
53
  3
B2
350
54
  3
B3
350
55
  3
B4
350
56
  3
B5
350
57
  3
B6
350
58
  3
B7
350
59
  3
B8
350
5A
  3
B9
350
5B
  3
C0
350
5C
  3
C1
350
5D
  3
C2
350
5E
  3
C3
350
5F
  3
C4
350
60
  3
C5
350
61
  3
C6
350
62
  3
C7
350
63
  3
C8
350
64
  3
C9
350
65
  3
D0
350
66
  3
D1
350
67
  3
D2
350
68
  0
XRECORD
  5
450
102
{ACAD_REACTORS
330
C
102
}
330
C
100
AcDbXrecord
280
     1
  1
DWGPROPS COOKIE
  2

  3

  4

  6

  7

  8
radek.stransky
  9

300
=
301
=
302
=
303
=
304
=
305
=
306
=
307
=
308
=
309
=
 40
0.0
 41
2459129.367331771
 42
2459129.367331956
  1

 90
        0
  0
LAYOUT
  5
1E
102
{ACAD_REACTORS
330
1A
102
}
330
1A
100
AcDbPlotSettings
  1

  2
none_device
  4

  6

 40
0.0
 41
0.0
 42
0.0
 43
0.0
 44
0.0
 45
0.0
 46
0.0
 47
0.0
 48
0.0
 49
0.0
140
0.0
141
0.0
142
1.0
143
1.0
 70
   688
 72
     1
 73
     0
 74
     5
  7

 75
    16
147
1.0
148
0.0
149
0.0
100
AcDbLayout
  1
Layout1
 70
     1
 71
     1
 10
0.0
 20
0.0
 11
420.0
 21
297.0
 12
0.0
 22
0.0
 32
0.0
 14
1.0000000000E+20
 24
1.0000000000E+20
 34
1.0000000000E+20
 15
-1.0000000000E+20
 25
-1.0000000000E+20
 35
-1.0000000000E+20
146
0.0
 13
0.0
 23
0.0
 33
0.0
 16
1.0
 26
0.0
 36
0.0
 17
0.0
 27
1.0
 37
0.0
 76
     0
330
1B
  0
LAYOUT
  5
26
102
{ACAD_REACTORS
330
1A
102
}
330
1A
100
AcDbPlotSettings
  1

  2
none_device
  4

  6

 40
0.0
 41
0.0
 42
0.0
 43
0.0
 44
0.0
 45
0.0
 46
0.0
 47
0.0
 48
0.0
 49
0.0
140
0.0
141
0.0
142
1.0
143
1.0
 70
   688
 72
     1
 73
     0
 74
     5
  7

 75
    16
147
1.0
148
0.0
149
0.0
100
AcDbLayout
  1
Layout2
 70
     1
 71
     2
 10
0.0
 20
0.0
 11
0.0
 21
0.0
 12
0.0
 22
0.0
 32
0.0
 14
0.0
 24
0.0
 34
0.0
 15
0.0
 25
0.0
 35
0.0
146
0.0
 13
0.0
 23
0.0
 33
0.0
 16
1.0
 26
0.0
 36
0.0
 17
0.0
 27
1.0
 37
0.0
 76
     0
330
23
  0
LAYOUT
  5
22
102
{ACAD_REACTORS
330
1A
102
}
330
1A
100
AcDbPlotSettings
  1

  2
none_device
  4
Letter_(8.50_x_11.00_Inches)
  6

 40
6.35
 41
6.35
 42
6.35000508
 43
6.35000508
 44
215.9
 45
279.4
 46
0.0
 47
0.0
 48
0.0
 49
0.0
140
0.0
141
0.0
142
1.0
143
1.0
 70
  1712
 72
     1
 73
     0
 74
     0
  7

 75
     0
147
1.0
148
0.0
149
0.0
100
AcDbLayout
  1
Model
 70
     1
 71
     0
 10
0.0
 20
0.0
 11
20000.0
 21
10000.0
 12
0.0
 22
0.0
 32
0.0
 14
0.0
 24
0.0
 34
0.0
 15
20000.0
 25
10000.0
 35
0.0
146
0.0
 13
0.0
 23
0.0
 33
0.0
 16
1.0
 26
0.0
 36
0.0
 17
0.0
 27
1.0
 37
0.0
 76
     0
330
1F
331
29
  0
MLINESTYLE
  5
18
102
{ACAD_REACTORS
330
17
102
}
330
17
100
AcDbMlineStyle
  2
Standard
 70
     0
  3

 62
   256
 51
90.0
 52
90.0
 71
     2
 49
0.5
 62
   256
  6
BYLAYER
 49
-0.5
 62
   256
  6
BYLAYER
  0
ACDBPLACEHOLDER
  5
F
102
{ACAD_REACTORS
330
E
102
}
330
E
  0
SCALE
  5
48
102
{ACAD_REACTORS
330
47
102
}
330
47
100
AcDbScale
 70
     0
300
1:1
140
1.0
141
1.0
290
     1
  0
SCALE
  5
49
102
{ACAD_REACTORS
330
47
102
}
330
47
100
AcDbScale
 70
     0
300
1:2
140
1.0
141
2.0
290
     0
  0
SCALE
  5
4A
102
{ACAD_REACTORS
330
47
102
}
330
47
100
AcDbScale
 70
     0
300
1:4
140
1.0
141
4.0
290
     0
  0
SCALE
  5
4B
102
{ACAD_REACTORS
330
47
102
}
330
47
100
AcDbScale
 70
     0
300
1:5
140
1.0
141
5.0
290
     0
  0
SCALE
  5
4C
102
{ACAD_REACTORS
330
47
102
}
330
47
100
AcDbScale
 70
     0
300
1:8
140
1.0
141
8.0
290
     0
  0
SCALE
  5
4D
102
{ACAD_REACTORS
330
47
102
}
330
47
100
AcDbScale
 70
     0
300
1:10
140
1.0
141
10.0
290
     0
  0
SCALE
  5
4E
102
{ACAD_REACTORS
330
47
102
}
330
47
100
AcDbScale
 70
     0
300
1:16
140
1.0
141
16.0
290
     0
  0
SCALE
  5
4F
102
{ACAD_REACTORS
330
47
102
}
330
47
100
AcDbScale
 70
     0
300
1:20
140
1.0
141
20.0
290
     0
  0
SCALE
  5
50
102
{ACAD_REACTORS
330
47
102
}
330
47
100
AcDbScale
 70
     0
300
1:30
140
1.0
141
30.0
290
     0
  0
SCALE
  5
51
102
{ACAD_REACTORS
330
47
102
}
330
47
100
AcDbScale
 70
     0
300
1:40
140
1.0
141
40.0
290
     0
  0
SCALE
  5
52
102
{ACAD_REACTORS
330
47
102
}
330
47
100
AcDbScale
 70
     0
300
1:50
140
1.0
141
50.0
290
     0
  0
SCALE
  5
53
102
{ACAD_REACTORS
330
47
102
}
330
47
100
AcDbScale
 70
     0
300
1:100
140
1.0
141
100.0
290
     0
  0
SCALE
  5
54
102
{ACAD_REACTORS
330
47
102
}
330
47
100
AcDbScale
 70
     0
300
2:1
140
2.0
141
1.0
290
     0
  0
SCALE
  5
55
102
{ACAD_REACTORS
330
47
102
}
330
47
100
AcDbScale
 70
     0
300
4:1
140
4.0
141
1.0
290
     0
  0
SCALE
  5
56
102
{ACAD_REACTORS
330
47
102
}
330
47
100
AcDbScale
 70
     0
300
8:1
140
8.0
141
1.0
290
     0
  0
SCALE
  5
57
102
{ACAD_REACTORS
330
47
102
}
330
47
100
AcDbScale
 70
     0
300
10:1
140
10.0
141
1.0
290
     0
  0
SCALE
  5
58
102
{ACAD_REACTORS
330
47
102
}
330
47
100
AcDbScale
 70
     0
300
100:1
140
100.0
141
1.0
290
     0
  0
SCALE
  5
59
102
{ACAD_REACTORS
330
47
102
}
330
47
100
AcDbScale
 70
     0
300
1/128" = 1'-0"
140
0.0078125
141
12.0
290
     0
  0
SCALE
  5
5A
102
{ACAD_REACTORS
330
47
102
}
330
47
100
AcDbScale
 70
     0
300
1/64" = 1'-0"
140
0.015625
141
12.0
290
     0
  0
SCALE
  5
5B
102
{ACAD_REACTORS
330
47
102
}
330
47
100
AcDbScale
 70
     0
300
1/32" = 1'-0"
140
0.03125
141
12.0
290
     0
  0
SCALE
  5
5C
102
{ACAD_REACTORS
330
47
102
}
330
47
100
AcDbScale
 70
     0
300
1/16" = 1'-0"
140
0.0625
141
12.0
290
     0
  0
SCALE
  5
5D
102
{ACAD_REACTORS
330
47
102
}
330
47
100
AcDbScale
 70
     0
300
3/32" = 1'-0"
140
0.09375
141
12.0
290
     0
  0
SCALE
  5
5E
102
{ACAD_REACTORS
330
47
102
}
330
47
100
AcDbScale
 70
     0
300
1/8" = 1'-0"
140
0.125
141
12.0
290
     0
  0
SCALE
  5
5F
102
{ACAD_REACTORS
330
47
102
}
330
47
100
AcDbScale
 70
     0
300
3/16" = 1'-0"
140
0.1875
141
12.0
290
     0
  0
SCALE
  5
60
102
{ACAD_REACTORS
330
47
102
}
330
47
100
AcDbScale
 70
     0
300
1/4" = 1'-0"
140
0.25
141
12.0
290
     0
  0
SCALE
  5
61
102
{ACAD_REACTORS
330
47
102
}
330
47
100
AcDbScale
 70
     0
300
3/8" = 1'-0"
140
0.375
141
12.0
290
     0
  0
SCALE
  5
62
102
{ACAD_REACTORS
330
47
102
}
330
47
100
AcDbScale
 70
     0
300
1/2" = 1'-0"
140
0.5
141
12.0
290
     0
  0
SCALE
  5
63
102
{ACAD_REACTORS
330
47
102
}
330
47
100
AcDbScale
 70
     0
300
3/4" = 1'-0"
140
0.75
141
12.0
290
     0
  0
SCALE
  5
64
102
{ACAD_REACTORS
330
47
102
}
330
47
100
AcDbScale
 70
     0
300
1" = 1'-0"
140
1.0
141
12.0
290
     0
  0
SCALE
  5
65
102
{ACAD_REACTORS
330
47
102
}
330
47
100
AcDbScale
 70
     0
300
1-1/2" = 1'-0"
140
1.5
141
12.0
290
     0
  0
SCALE
  5
66
102
{ACAD_REACTORS
330
47
102
}
330
47
100
AcDbScale
 70
     0
300
3" = 1'-0"
140
3.0
141
12.0
290
     0
  0
SCALE
  5
67
102
{ACAD_REACTORS
330
47
102
}
330
47
100
AcDbScale
 70
     0
300
6" = 1'-0"
140
6.0
141
12.0
290
     0
  0
SCALE
  5
68
102
{ACAD_REACTORS
330
47
102
}
330
47
100
AcDbScale
 70
     0
300
1'-0" = 1'-0"
140
12.0
141
12.0
290
     0
  0
ENDSEC
  0
EOF
