  0
SECTION
  2
HEADER
  9
$ACADVER
  1
AC1015
  9
$ACADMAINTVER
 70
     6
  9
$DWGCODEPAGE
  3
ANSI_1250
  9
$INSBASE
 10
0.0
 20
0.0
 30
0.0
  9
$EXTMIN
 10
0.0
 20
0.0
 30
0.0
  9
$EXTMAX
 10
20000.0
 20
10000.0
 30
0.0
  9
$LIMMIN
 10
0.0
 20
0.0
  9
$LIMMAX
 10
20000.0
 20
10000.0
  9
$ORTHOMODE
 70
     0
  9
$REGENMODE
 70
     1
  9
$FILLMODE
 70
     1
  9
$QTEXTMODE
 70
     0
  9
$MIRRTEXT
 70
     1
  9
$LTSCALE
 40
1.0
  9
$ATTMODE
 70
     1
  9
$TEXTSIZE
 40
2.0
  9
$TRACEWID
 40
1.0
  9
$TEXTSTYLE
  7
Standard
  9
$CLAYER
  8
0
  9
$CELTYPE
  6
ByLayer
  9
$CECOLOR
 62
   256
  9
$CELTSCALE
 40
1.0
  9
$DISPSILH
 70
     0
  9
$DIMSCALE
 40
1.0
  9
$DIMASZ
 40
2.0
  9
$DIMEXO
 40
1.0
  9
$DIMDLI
 40
3.75
  9
$DIMRND
 40
0.0
  9
$DIMDLE
 40
0.0
  9
$DIMEXE
 40
1.0
  9
$DIMTP
 40
0.0
  9
$DIMTM
 40
0.0
  9
$DIMTXT
 40
2.0
  9
$DIMCEN
 40
2.5
  9
$DIMTSZ
 40
0.0
  9
$DIMTOL
 70
     0
  9
$DIMLIM
 70
     0
  9
$DIMTIH
 70
     1
  9
$DIMTOH
 70
     1
  9
$DIMSE1
 70
     0
  9
$DIMSE2
 70
     0
  9
$DIMTAD
 70
     1
  9
$DIMZIN
 70
     0
  9
$DIMBLK
  1

  9
$DIMASO
 70
     1
  9
$DIMSHO
 70
     1
  9
$DIMPOST
  1

  9
$DIMAPOST
  1

  9
$DIMALT
 70
     0
  9
$DIMALTD
 70
     3
  9
$DIMALTF
 40
0.0393700787
  9
$DIMLFAC
 40
1.0
  9
$DIMTOFL
 70
     1
  9
$DIMTVP
 40
0.0
  9
$DIMTIX
 70
     0
  9
$DIMSOXD
 70
     0
  9
$DIMSAH
 70
     0
  9
$DIMBLK1
  1

  9
$DIMBLK2
  1

  9
$DIMSTYLE
  2
ISO-25
  9
$DIMCLRD
 70
     0
  9
$DIMCLRE
 70
     0
  9
$DIMCLRT
 70
     0
  9
$DIMTFAC
 40
1.0
  9
$DIMGAP
 40
1.524
  9
$DIMJUST
 70
     0
  9
$DIMSD1
 70
     0
  9
$DIMSD2
 70
     0
  9
$DIMTOLJ
 70
     0
  9
$DIMTZIN
 70
     0
  9
$DIMALTZ
 70
     0
  9
$DIMALTTZ
 70
     0
  9
$DIMUPT
 70
     0
  9
$DIMDEC
 70
     2
  9
$DIMTDEC
 70
     0
  9
$DIMALTU
 70
     2
  9
$DIMALTTD
 70
     3
  9
$DIMTXSTY
  7
Standard
  9
$DIMAUNIT
 70
     0
  9
$DIMADEC
 70
     2
  9
$DIMALTRND
 40
0.0
  9
$DIMAZIN
 70
     0
  9
$DIMDSEP
 70
    44
  9
$DIMATFIT
 70
     3
  9
$DIMFRAC
 70
     0
  9
$DIMLDRBLK
  1

  9
$DIMLUNIT
 70
     2
  9
$DIMLWD
 70
    -2
  9
$DIMLWE
 70
    -2
  9
$DIMTMOVE
 70
     0
  9
$LUNITS
 70
     2
  9
$LUPREC
 70
     3
  9
$SKETCHINC
 40
1.0
  9
$FILLETRAD
 40
10.0
  9
$AUNITS
 70
     0
  9
$AUPREC
 70
     2
  9
$MENU
  1
.
  9
$ELEVATION
 40
0.0
  9
$PELEVATION
 40
0.0
  9
$THICKNESS
 40
0.0
  9
$LIMCHECK
 70
     0
  9
$CHAMFERA
 40
0.0
  9
$CHAMFERB
 40
0.0
  9
$CHAMFERC
 40
0.0
  9
$CHAMFERD
 40
0.0
  9
$SKPOLY
 70
     0
  9
$TDCREATE
 40
2459157.463820185
  9
$TDUCREATE
 40
2459157.422153519
  9
$TDUPDATE
 40
2459157.463820532
  9
$TDUUPDATE
 40
2459157.422153866
  9
$TDINDWG
 40
0.0000000116
  9
$TDUSRTIMER
 40
0.0000000116
  9
$USRTIMER
 70
     1
  9
$ANGBASE
 50
0.0
  9
$ANGDIR
 70
     0
  9
$PDMODE
 70
     0
  9
$PDSIZE
 40
-1.0
  9
$PLINEWID
 40
0.0
  9
$SPLFRAME
 70
     0
  9
$SPLINETYPE
 70
     6
  9
$SPLINESEGS
 70
     8
  9
$HANDSEED
  5
472
  9
$SURFTAB1
 70
     6
  9
$SURFTAB2
 70
     6
  9
$SURFTYPE
 70
     6
  9
$SURFU
 70
     6
  9
$SURFV
 70
     6
  9
$UCSBASE
  2

  9
$UCSNAME
  2

  9
$UCSORG
 10
0.0
 20
0.0
 30
0.0
  9
$UCSXDIR
 10
1.0
 20
0.0
 30
0.0
  9
$UCSYDIR
 10
0.0
 20
1.0
 30
0.0
  9
$UCSORTHOREF
  2

  9
$UCSORTHOVIEW
 70
     0
  9
$UCSORGTOP
 10
0.0
 20
0.0
 30
0.0
  9
$UCSORGBOTTOM
 10
0.0
 20
0.0
 30
0.0
  9
$UCSORGLEFT
 10
0.0
 20
0.0
 30
0.0
  9
$UCSORGRIGHT
 10
0.0
 20
0.0
 30
0.0
  9
$UCSORGFRONT
 10
0.0
 20
0.0
 30
0.0
  9
$UCSORGBACK
 10
0.0
 20
0.0
 30
0.0
  9
$PUCSBASE
  2

  9
$PUCSNAME
  2

  9
$PUCSORG
 10
0.0
 20
0.0
 30
0.0
  9
$PUCSXDIR
 10
1.0
 20
0.0
 30
0.0
  9
$PUCSYDIR
 10
0.0
 20
1.0
 30
0.0
  9
$PUCSORTHOREF
  2

  9
$PUCSORTHOVIEW
 70
     0
  9
$PUCSORGTOP
 10
0.0
 20
0.0
 30
0.0
  9
$PUCSORGBOTTOM
 10
0.0
 20
0.0
 30
0.0
  9
$PUCSORGLEFT
 10
0.0
 20
0.0
 30
0.0
  9
$PUCSORGRIGHT
 10
0.0
 20
0.0
 30
0.0
  9
$PUCSORGFRONT
 10
0.0
 20
0.0
 30
0.0
  9
$PUCSORGBACK
 10
0.0
 20
0.0
 30
0.0
  9
$USERI1
 70
     0
  9
$USERI2
 70
     0
  9
$USERI3
 70
     0
  9
$USERI4
 70
     0
  9
$USERI5
 70
     0
  9
$USERR1
 40
0.0
  9
$USERR2
 40
0.0
  9
$USERR3
 40
0.0
  9
$USERR4
 40
0.0
  9
$USERR5
 40
0.0
  9
$WORLDVIEW
 70
     1
  9
$SHADEDGE
 70
     3
  9
$SHADEDIF
 70
    70
  9
$TILEMODE
 70
     1
  9
$MAXACTVP
 70
    64
  9
$PINSBASE
 10
0.0
 20
0.0
 30
0.0
  9
$PLIMCHECK
 70
     0
  9
$PEXTMIN
 10
1.0000000000E+20
 20
1.0000000000E+20
 30
1.0000000000E+20
  9
$PEXTMAX
 10
-1.0000000000E+20
 20
-1.0000000000E+20
 30
-1.0000000000E+20
  9
$PLIMMIN
 10
0.0
 20
0.0
  9
$PLIMMAX
 10
420.0
 20
297.0
  9
$UNITMODE
 70
     0
  9
$VISRETAIN
 70
     1
  9
$PLINEGEN
 70
     0
  9
$PSLTSCALE
 70
     1
  9
$TREEDEPTH
 70
  3020
  9
$CMLSTYLE
  2
Standard
  9
$CMLJUST
 70
     0
  9
$CMLSCALE
 40
20.0
  9
$PROXYGRAPHICS
 70
     1
  9
$MEASUREMENT
 70
     1
  9
$CELWEIGHT
370
    -1
  9
$ENDCAPS
280
     0
  9
$JOINSTYLE
280
     0
  9
$LWDISPLAY
290
     1
  9
$INSUNITS
 70
     4
  9
$HYPERLINKBASE
  1

  9
$STYLESHEET
  1

  9
$XEDIT
290
     1
  9
$CEPSNTYPE
380
     0
  9
$PSTYLEMODE
290
     1
  9
$FINGERPRINTGUID
  2
{fdd66349-299b-4b6d-b079-20b3016cb3b6}
  9
$VERSIONGUID
  2
{FAEB1C32-E019-11D5-929B-00C0DF256EC4}
  9
$EXTNAMES
290
     1
  9
$PSVPSCALE
 40
0.0
  9
$OLESTARTUP
290
     0
  0
ENDSEC
  0
SECTION
  2
CLASSES
  0
CLASS
  1
ACDBDICTIONARYWDFLT
  2
AcDbDictionaryWithDefault
  3
ObjectDBX Classes
 90
        0
280
     0
281
     0
  0
CLASS
  1
VISUALSTYLE
  2
AcDbVisualStyle
  3
ObjectDBX Classes
 90
     4095
280
     0
281
     0
  0
CLASS
  1
MATERIAL
  2
AcDbMaterial
  3
ObjectDBX Classes
 90
     1153
280
     0
281
     0
  0
CLASS
  1
SCALE
  2
AcDbScale
  3
ObjectDBX Classes
 90
     1153
280
     0
281
     0
  0
CLASS
  1
TABLESTYLE
  2
AcDbTableStyle
  3
ObjectDBX Classes
 90
     4095
280
     0
281
     0
  0
CLASS
  1
MLEADERSTYLE
  2
AcDbMLeaderStyle
  3
ACDB_MLEADERSTYLE_CLASS
 90
     4095
280
     0
281
     0
  0
CLASS
  1
SUN
  2
AcDbSun
  3
SCENEOE
 90
     1153
280
     0
281
     0
  0
CLASS
  1
ACDBPLACEHOLDER
  2
AcDbPlaceHolder
  3
ObjectDBX Classes
 90
        0
280
     0
281
     0
  0
CLASS
  1
LAYOUT
  2
AcDbLayout
  3
ObjectDBX Classes
 90
        0
280
     0
281
     0
  0
ENDSEC
  0
SECTION
  2
TABLES
  0
TABLE
  2
VPORT
  5
8
330
0
100
AcDbSymbolTable
 70
     1
  0
VPORT
  5
29
330
8
100
AcDbSymbolTableRecord
100
AcDbViewportTableRecord
  2
*Active
 70
     0
 10
0.0
 20
0.0
 11
1.0
 21
1.0
 12
10000.0
 22
5000.0
 13
0.0
 23
0.0
 14
10.0
 24
10.0
 15
10.0
 25
10.0
 16
0.0
 26
0.0
 36
1.0
 17
0.0
 27
0.0
 37
0.0
 40
10000.0
 41
2.0
 42
50.0
 43
0.0
 44
0.0
 50
0.0
 51
0.0
 71
     0
 72
  2000
 73
     1
 74
     3
 75
     0
 76
     0
 77
     0
 78
     0
281
     0
 65
     1
110
0.0
120
0.0
130
0.0
111
1.0
121
0.0
131
0.0
112
0.0
122
1.0
132
0.0
 79
     0
146
0.0
  0
ENDTAB
  0
TABLE
  2
LTYPE
  5
5
330
0
100
AcDbSymbolTable
 70
     6
  0
LTYPE
  5
14
330
5
100
AcDbSymbolTableRecord
100
AcDbLinetypeTableRecord
  2
ByBlock
 70
     0
  3

 72
    65
 73
     0
 40
0.0
  0
LTYPE
  5
15
330
5
100
AcDbSymbolTableRecord
100
AcDbLinetypeTableRecord
  2
ByLayer
 70
     0
  3

 72
    65
 73
     0
 40
0.0
  0
LTYPE
  5
16
330
5
100
AcDbSymbolTableRecord
100
AcDbLinetypeTableRecord
  2
Continuous
 70
     0
  3
Solid line
 72
    65
 73
     0
 40
0.0
  0
LTYPE
  5
6E
330
5
100
AcDbSymbolTableRecord
100
AcDbLinetypeTableRecord
  2
HIDDEN
 70
     0
  3
Hidden __ __ __ __ __ __ __ __ __ __ __ __ __ __
 72
    65
 73
     2
 40
1.905
 49
1.27
 74
     0
 49
-0.635
 74
     0
  0
LTYPE
  5
6F
330
5
100
AcDbSymbolTableRecord
100
AcDbLinetypeTableRecord
  2
PHANTOM
 70
     0
  3
Phantom ______  __  __  ______  __  __  ______
 72
    65
 73
     6
 40
12.7
 49
6.35
 74
     0
 49
-1.27
 74
     0
 49
1.27
 74
     0
 49
-1.27
 74
     0
 49
1.27
 74
     0
 49
-1.27
 74
     0
  0
LTYPE
  5
70
330
5
100
AcDbSymbolTableRecord
100
AcDbLinetypeTableRecord
  2
CENTER
 70
     0
  3
Center ____ _ ____ _ ____ _ ____ _ ____ _ ____
 72
    65
 73
     4
 40
10.16
 49
6.35
 74
     0
 49
-1.27
 74
     0
 49
1.27
 74
     0
 49
-1.27
 74
     0
  0
LTYPE
  5
71
330
5
100
AcDbSymbolTableRecord
100
AcDbLinetypeTableRecord
  2
CENTERX2
 70
     0
  3
Center (2x) ________  __  ________  __  _____
 72
    65
 73
     4
 40
20.32
 49
12.7
 74
     0
 49
-2.54
 74
     0
 49
2.54
 74
     0
 49
-2.54
 74
     0
  0
LTYPE
  5
72
330
5
100
AcDbSymbolTableRecord
100
AcDbLinetypeTableRecord
  2
DOT2
 70
     0
  3
Dot (.5x) ........................................
 72
    65
 73
     2
 40
0.635
 49
0.0
 74
     0
 49
-0.635
 74
     0
  0
ENDTAB
  0
TABLE
  2
LAYER
  5
2
330
0
100
AcDbSymbolTable
 70
    13
  0
LAYER
  5
10
330
2
100
AcDbSymbolTableRecord
100
AcDbLayerTableRecord
  2
0
 70
     0
 62
     7
  6
Continuous
370
    -3
390
F
  0
LAYER
  5
73
330
2
100
AcDbSymbolTableRecord
100
AcDbLayerTableRecord
  2
FORMAT
 70
     0
 62
     7
  6
Continuous
370
    -3
390
F
  0
LAYER
  5
74
330
2
100
AcDbSymbolTableRecord
100
AcDbLayerTableRecord
  2
OSA
 70
     0
 62
     7
  6
CENTER
370
    -3
390
F
  0
LAYER
  5
75
330
2
100
AcDbSymbolTableRecord
100
AcDbLayerTableRecord
  2
0_35
 70
     0
 62
     7
  6
Continuous
370
    35
390
F
  0
LAYER
  5
76
330
2
100
AcDbSymbolTableRecord
100
AcDbLayerTableRecord
  2
0_5
 70
     0
 62
     7
  6
Continuous
370
    50
390
F
  0
LAYER
  5
77
330
2
100
AcDbSymbolTableRecord
100
AcDbLayerTableRecord
  2
0_25
 70
     0
 62
     7
  6
Continuous
370
    25
390
F
  0
LAYER
  5
78
330
2
100
AcDbSymbolTableRecord
100
AcDbLayerTableRecord
  2
0_18
 70
     0
 62
     7
  6
Continuous
370
    -3
390
F
  0
LAYER
  5
79
330
2
100
AcDbSymbolTableRecord
100
AcDbLayerTableRecord
  2
SLD-0
 70
     0
 62
   179
  6
Continuous
370
    -3
390
F
  0
LAYER
  5
7A
330
2
100
AcDbSymbolTableRecord
100
AcDbLayerTableRecord
  2
KOTY
 70
     0
 62
     7
  6
Continuous
370
    -3
390
F
  0
LAYER
  5
7B
330
2
100
AcDbSymbolTableRecord
100
AcDbLayerTableRecord
  2
SILNA
 70
     0
 62
   179
  6
Continuous
370
    -3
390
F
  0
LAYER
  5
7C
330
2
100
AcDbSymbolTableRecord
100
AcDbLayerTableRecord
  2
0_18_1
 70
     0
 62
   179
  6
Continuous
370
    -3
390
F
  0
LAYER
  5
7D
330
2
100
AcDbSymbolTableRecord
100
AcDbLayerTableRecord
  2
0_35_1
 70
     0
 62
   179
  6
Continuous
370
    35
390
F
  0
LAYER
  5
7E
330
2
100
AcDbSymbolTableRecord
100
AcDbLayerTableRecord
  2
0_5_1
 70
     0
 62
   179
  6
Continuous
370
    50
390
F
  0
ENDTAB
  0
TABLE
  2
STYLE
  5
3
330
0
100
AcDbSymbolTable
 70
     1
  0
STYLE
  5
11
330
3
100
AcDbSymbolTableRecord
100
AcDbTextStyleTableRecord
  2
Standard
 70
     0
 40
0.0
 41
1.0
 50
0.0
 71
     0
 42
2.0
  3
txt
  4

  0
ENDTAB
  0
TABLE
  2
VIEW
  5
6
330
0
100
AcDbSymbolTable
 70
     0
  0
ENDTAB
  0
TABLE
  2
UCS
  5
7
330
0
100
AcDbSymbolTable
 70
     0
  0
ENDTAB
  0
TABLE
  2
APPID
  5
9
330
0
100
AcDbSymbolTable
 70
     1
  0
APPID
  5
12
330
9
100
AcDbSymbolTableRecord
100
AcDbRegAppTableRecord
  2
ACAD
 70
     0
  0
ENDTAB
  0
TABLE
  2
DIMSTYLE
  5
A
330
0
100
AcDbSymbolTable
 70
     1
100
AcDbDimStyleTable
  0
DIMSTYLE
105
27
330
A
100
AcDbSymbolTableRecord
100
AcDbDimStyleTableRecord
  2
ISO-25
 70
     0
 41
2.5
 42
0.625
 43
3.75
 44
1.25
 73
     0
 74
     0
 77
     1
 78
     8
140
2.5
141
2.5
143
0.0393700787
147
0.625
171
     3
172
     1
178
     0
271
     2
272
     2
274
     3
278
    44
283
     0
284
     8
340
11
  0
ENDTAB
  0
TABLE
  2
BLOCK_RECORD
  5
1
330
0
100
AcDbSymbolTable
 70
     1
  0
BLOCK_RECORD
  5
1F
330
1
100
AcDbSymbolTableRecord
100
AcDbBlockTableRecord
  2
*Model_Space
340
22
  0
BLOCK_RECORD
  5
1B
330
1
100
AcDbSymbolTableRecord
100
AcDbBlockTableRecord
  2
*Paper_Space
340
1E
  0
BLOCK_RECORD
  5
23
330
1
100
AcDbSymbolTableRecord
100
AcDbBlockTableRecord
  2
*Paper_Space0
340
26
  0
ENDTAB
  0
ENDSEC
  0
SECTION
  2
BLOCKS
  0
BLOCK
  5
20
330
1F
100
AcDbEntity
  8
0
100
AcDbBlockBegin
  2
*Model_Space
 70
     0
 10
0.0
 20
0.0
 30
0.0
  3
*Model_Space
  1

  0
ENDBLK
  5
21
330
1F
100
AcDbEntity
  8
0
100
AcDbBlockEnd
  0
BLOCK
  5
1C
330
1B
100
AcDbEntity
 67
     1
  8
0
100
AcDbBlockBegin
  2
*Paper_Space
 70
     0
 10
0.0
 20
0.0
 30
0.0
  3
*Paper_Space
  1

  0
ENDBLK
  5
1D
330
1B
100
AcDbEntity
 67
     1
  8
0
100
AcDbBlockEnd
  0
BLOCK
  5
24
330
23
100
AcDbEntity
  8
0
100
AcDbBlockBegin
  2
*Paper_Space0
 70
     0
 10
0.0
 20
0.0
 30
0.0
  3
*Paper_Space0
  1

  0
ENDBLK
  5
25
330
23
100
AcDbEntity
  8
0
100
AcDbBlockEnd
  0
ENDSEC
  0
SECTION
  2
ENTITIES
  0
LINE
  5
7F
330
1F
100
AcDbEntity
  8
0
  6
Continuous
 62
     7
370
    25
100
AcDbLine
 10
6983.5062272161
 20
4960.040086775
 30
0.0
 11
6042.3062272161
 21
4960.040086775
 31
0.0
  0
LINE
  5
80
330
1F
100
AcDbEntity
  8
0
  6
Continuous
 62
     7
370
    25
100
AcDbLine
 10
6042.3062272161
 20
4960.040086775
 30
0.0
 11
6039.6062272161
 21
4960.040086775
 31
0.0
  0
LINE
  5
81
330
1F
100
AcDbEntity
  8
0
  6
Continuous
 62
     7
370
    25
100
AcDbLine
 10
6986.2062272161
 20
4960.040086775
 30
0.0
 11
6983.5062272161
 21
4960.040086775
 31
0.0
  0
LINE
  5
82
330
1F
100
AcDbEntity
  8
0
  6
Continuous
 62
     7
370
    25
100
AcDbLine
 10
6477.1207704474
 20
4942.840086775
 30
0.0
 11
6479.6562272161
 21
4941.2899432218
 31
0.0
  0
LINE
  5
83
330
1F
100
AcDbEntity
  8
0
  6
Continuous
 62
     7
370
    25
100
AcDbLine
 10
6481.3662633531
 20
4940.2444505413
 30
0.0
 11
6483.0211670501
 21
4939.2326650796
 31
0.0
  0
LINE
  5
84
330
1F
100
AcDbEntity
  8
0
  6
Continuous
 62
     7
370
    25
100
AcDbLine
 10
6542.7912873822
 20
4939.2326650796
 30
0.0
 11
6544.4461910792
 21
4940.2444505413
 31
0.0
  0
LINE
  5
85
330
1F
100
AcDbEntity
  8
0
  6
Continuous
 62
     7
370
    25
100
AcDbLine
 10
6546.1562272161
 20
4941.2899432218
 30
0.0
 11
6548.6916839848
 21
4942.840086775
 31
0.0
  0
LINE
  5
86
330
1F
100
AcDbEntity
  8
0
  6
Continuous
 62
     7
370
    25
100
AcDbLine
 10
6479.6562272161
 20
4941.2899432218
 30
0.0
 11
6479.6562272161
 21
4940.2444505413
 31
0.0
  0
LINE
  5
87
330
1F
100
AcDbEntity
  8
0
  6
Continuous
 62
     7
370
    25
100
AcDbLine
 10
6546.1562272161
 20
4940.2444505413
 30
0.0
 11
6546.1562272161
 21
4941.2899432218
 31
0.0
  0
LINE
  5
88
330
1F
100
AcDbEntity
  8
0
  6
Continuous
 62
     7
370
    25
100
AcDbLine
 10
6472.9062272161
 20
4938.7363759273
 30
0.0
 11
6472.9062272161
 21
4938.240086775
 31
0.0
  0
LINE
  5
89
330
1F
100
AcDbEntity
  8
0
  6
Continuous
 62
     7
370
    25
100
AcDbLine
 10
6552.9062272161
 20
4938.240086775
 30
0.0
 11
6552.9062272161
 21
4938.7363759273
 31
0.0
  0
ARC
  5
8A
330
1F
100
AcDbEntity
  8
0
  6
Continuous
 62
     7
370
    25
100
AcDbCircle
 10
6473.5565692636
 20
4938.7911454753
 30
0.0
 40
0.0547695479950149
100
AcDbArc
 50
270.0
 51
330.0000000003
  0
ARC
  5
8B
330
1F
100
AcDbEntity
  8
0
  6
Continuous
 62
     7
370
    25
100
AcDbCircle
 10
6552.2558851687
 20
4938.7911454753
 30
0.0
 40
0.05476954799542
100
AcDbArc
 50
210.000000001
 51
270.0
  0
LINE
  5
8C
330
1F
100
AcDbEntity
  8
0
  6
Continuous
 62
     7
370
    25
100
AcDbLine
 10
6552.2084533487
 20
4938.7637607013
 30
0.0
 11
6551.9693419635
 21
4939.1779137692
 31
0.0
  0
LINE
  5
8D
330
1F
100
AcDbEntity
  8
0
  6
Continuous
 62
     7
370
    25
100
AcDbLine
 10
6473.8431124687
 20
4939.1779137692
 30
0.0
 11
6473.6040010835
 21
4938.7637607013
 31
0.0
  0
ARC
  5
8E
330
1F
100
AcDbEntity
  8
0
  6
Continuous
 62
     7
370
    25
100
AcDbCircle
 10
6473.9379445202
 20
4939.1231624587
 30
0.0
 40
0.109502620936837
100
AcDbArc
 50
90.0
 51
149.9999999999
  0
ARC
  5
8F
330
1F
100
AcDbEntity
  8
0
  6
Continuous
 62
     7
370
    25
100
AcDbCircle
 10
6551.874509912
 20
4939.1231624587
 30
0.0
 40
0.1095026209371498
100
AcDbArc
 50
29.9999999999
 51
90.0
  0
LINE
  5
90
330
1F
100
AcDbEntity
  8
0
  6
Continuous
 62
     7
370
    25
100
AcDbLine
 10
6551.874509912
 20
4939.2326650796
 30
0.0
 11
6473.9379445202
 21
4939.2326650796
 31
0.0
  0
ARC
  5
91
330
1F
100
AcDbEntity
  8
0
  6
Continuous
 62
     7
370
    25
100
AcDbCircle
 10
6552.9447854352
 20
4921.3020160545
 30
0.0
 40
6.853085275243387
100
AcDbArc
 50
305.7382565021
 51
359.768651806
  0
LINE
  5
92
330
1F
100
AcDbEntity
  8
0
  6
Continuous
 62
     7
370
    25
100
AcDbLine
 10
6559.8279754391
 20
4921.2733212706
 30
0.0
 11
6559.9062272161
 21
4930.240086775
 31
0.0
  0
LINE
  5
93
330
1F
100
AcDbEntity
  8
0
  6
Continuous
 62
     7
370
    25
100
AcDbLine
 10
6561.9062272161
 20
4930.240086775
 30
0.0
 11
6561.9062272161
 21
4933.240086775
 31
0.0
  0
ARC
  5
94
330
1F
100
AcDbEntity
  8
0
  6
Continuous
 62
     7
370
    25
100
AcDbCircle
 10
6559.9062272161
 20
4933.240086775
 30
0.0
 40
2.000000000000909
100
AcDbArc
 50
0.0
 51
90.0
  0
LINE
  5
95
330
1F
100
AcDbEntity
  8
0
  6
Continuous
 62
     7
370
    25
100
AcDbLine
 10
6554.6562272161
 20
4935.240086775
 30
0.0
 11
6554.6562272161
 21
4938.240086775
 31
0.0
  0
LINE
  5
96
330
1F
100
AcDbEntity
  8
0
  6
Continuous
 62
     7
370
    25
100
AcDbLine
 10
6471.1562272161
 20
4938.240086775
 30
0.0
 11
6471.1562272161
 21
4935.240086775
 31
0.0
  0
LINE
  5
97
330
1F
100
AcDbEntity
  8
0
  6
Continuous
 62
     7
370
    25
100
AcDbLine
 10
6545.1469721984
 20
4863.0568481369
 30
0.0
 11
6546.3488355372
 21
4908.9541573306
 31
0.0
  0
ARC
  5
98
330
1F
100
AcDbEntity
  8
0
  6
Continuous
 62
     7
370
    25
100
AcDbCircle
 10
6538.1493709236
 20
4863.240086775
 30
0.0
 40
7.000000000000909
100
AcDbArc
 50
270.0
 51
358.5
  0
ARC
  5
99
330
1F
100
AcDbEntity
  8
0
  6
Continuous
 62
     7
370
    25
100
AcDbCircle
 10
6381.3404076127
 20
4903.0909392235
 30
0.0
 40
27.0
100
AcDbArc
 50
73.1772087534
 51
90.0
  0
ARC
  5
9A
330
1F
100
AcDbEntity
  8
0
  6
Continuous
 62
     7
370
    25
100
AcDbCircle
 10
6381.3404076127
 20
4903.0909392235
 30
0.0
 40
27.00000000000061
100
AcDbArc
 50
228.2942528904
 51
287.8227912466
  0
ARC
  5
9B
330
1F
100
AcDbEntity
  8
0
  6
Continuous
 62
     7
370
    25
100
AcDbCircle
 10
6381.3404076127
 20
4903.0909392235
 30
0.0
 40
27.0000000000006
100
AcDbArc
 50
90.0
 51
132.7057471096
  0
ARC
  5
9C
330
1F
100
AcDbEntity
  8
0
  6
Continuous
 62
     7
370
    25
100
AcDbCircle
 10
6445.9062272161
 20
4928.1684656778
 30
0.0
 40
2.000000000000349
100
AcDbArc
 50
0.5
 51
92.0154937467
  0
ARC
  5
9D
330
1F
100
AcDbEntity
  8
0
  6
Continuous
 62
     7
370
    25
100
AcDbCircle
 10
6446.3340567132
 20
4879.1440611237
 30
0.0
 40
1.99999999999944
100
AcDbArc
 50
268.9845062533
 51
0.5
  0
LINE
  5
9E
330
1F
100
AcDbEntity
  8
0
  6
Continuous
 62
     7
370
    25
100
AcDbLine
 10
6448.3339805593
 20
4879.1615141947
 30
0.0
 11
6447.9061510623
 21
4928.1859187488
 31
0.0
  0
LINE
  5
9F
330
1F
100
AcDbEntity
  8
0
  6
Continuous
 62
     7
370
    25
100
AcDbLine
 10
6445.835887721
 20
4930.1672283839
 30
0.0
 11
6420.835887721
 21
4929.2874404161
 31
0.0
  0
LINE
  5
A0
330
1F
100
AcDbEntity
  8
0
  6
Continuous
 62
     7
370
    25
100
AcDbLine
 10
6421.2870643541
 20
4877.5877190562
 30
0.0
 11
6446.2986111502
 21
4877.1443752453
 31
0.0
  0
ARC
  5
A1
330
1F
100
AcDbEntity
  8
0
  6
Continuous
 62
     7
370
    25
100
AcDbCircle
 10
6420.9062272161
 20
4927.28867771
 30
0.0
 40
2.0
100
AcDbArc
 50
92.0154937467
 51
180.0
  0
ARC
  5
A2
330
1F
100
AcDbEntity
  8
0
  6
Continuous
 62
     7
370
    25
100
AcDbCircle
 10
6421.3225099171
 20
4879.5874049346
 30
0.0
 40
2.000000000000254
100
AcDbArc
 50
181.0
 51
268.9845062533
  0
LINE
  5
A3
330
1F
100
AcDbEntity
  8
0
  6
Continuous
 62
     7
370
    25
100
AcDbLine
 10
6418.9062272161
 20
4927.28867771
 30
0.0
 11
6418.9062272161
 21
4923.4195327324
 31
0.0
  0
LINE
  5
A4
330
1F
100
AcDbEntity
  8
0
  6
Continuous
 62
     7
370
    25
100
AcDbLine
 10
6419.2552886361
 20
4883.4210558098
 30
0.0
 11
6419.3228145268
 21
4879.5525001217
 31
0.0
  0
ARC
  5
A5
330
1F
100
AcDbEntity
  8
0
  6
Continuous
 62
     7
370
    25
100
AcDbCircle
 10
6397.3262711262
 20
4926.1955091298
 30
0.0
 40
0.250000000000034
100
AcDbArc
 50
90.0
 51
168.5000000001
  0
ARC
  5
A6
330
1F
100
AcDbEntity
  8
0
  6
Continuous
 62
     7
370
    25
100
AcDbCircle
 10
6397.7270667463
 20
4880.2688800425
 30
0.0
 40
0.2499999999998671
100
AcDbArc
 50
192.4999999998
 51
271.0000000003
  0
LINE
  5
A7
330
1F
100
AcDbEntity
  8
0
  6
Continuous
 62
     7
370
    25
100
AcDbLine
 10
6397.7314298479
 20
4880.0189181187
 30
0.0
 11
6398.5691208714
 21
4880.0335400699
 31
0.0
  0
LINE
  5
A8
330
1F
100
AcDbEntity
  8
0
  6
Continuous
 62
     7
370
    25
100
AcDbLine
 10
6398.1640897535
 20
4926.4455091298
 30
0.0
 11
6397.3262711262
 21
4926.4455091298
 31
0.0
  0
ARC
  5
A9
330
1F
100
AcDbEntity
  8
0
  6
Continuous
 62
     7
370
    25
100
AcDbCircle
 10
6398.1640897535
 20
4926.1955091298
 30
0.0
 40
0.2500000000003411
100
AcDbArc
 50
10.5
 51
90.0
  0
ARC
  5
AA
330
1F
100
AcDbEntity
  8
0
  6
Continuous
 62
     7
370
    25
100
AcDbCircle
 10
6398.5647577698
 20
4880.2835019937
 30
0.0
 40
0.250000000000231
100
AcDbArc
 50
271.0000000003
 51
350.5000000002
  0
LINE
  5
AB
330
1F
100
AcDbEntity
  8
0
  6
Continuous
 62
     7
370
    25
100
AcDbLine
 10
6397.08128995
 20
4926.2453511134
 30
0.0
 11
6396.6650975025
 21
4924.1996998786
 31
0.0
  0
LINE
  5
AC
330
1F
100
AcDbEntity
  8
0
  6
Continuous
 62
     7
370
    25
100
AcDbLine
 10
6397.0311621483
 20
4882.2528462514
 30
0.0
 11
6397.4829927445
 21
4880.214770139
 31
0.0
  0
LINE
  5
AD
330
1F
100
AcDbEntity
  8
0
  6
Continuous
 62
     7
370
    25
100
AcDbLine
 10
6398.8113291702
 20
4880.2422400922
 30
0.0
 11
6399.3141589224
 21
4883.2470322072
 31
0.0
  0
LINE
  5
AE
330
1F
100
AcDbEntity
  8
0
  6
Continuous
 62
     7
370
    25
100
AcDbLine
 10
6398.9650975025
 20
4923.2455091298
 30
0.0
 11
6398.4099034804
 21
4926.2410680111
 31
0.0
  0
ARC
  5
AF
330
1F
100
AcDbEntity
  8
0
  6
Continuous
 62
     7
370
    25
100
AcDbCircle
 10
6381.3404076127
 20
4903.0909392235
 30
0.0
 40
23.99999999999995
100
AcDbArc
 50
57.0896848103
 51
70.9987276534
  0
ARC
  5
B0
330
1F
100
AcDbEntity
  8
0
  6
Continuous
 62
     7
370
    25
100
AcDbCircle
 10
6381.3404076127
 20
4903.0909392235
 30
0.0
 40
23.99999999999999
100
AcDbArc
 50
290.0012723466
 51
303.9103151897
  0
LINE
  5
B1
330
1F
100
AcDbEntity
  8
0
  6
Continuous
 62
     7
370
    25
100
AcDbLine
 10
6486.8462596465
 20
4885.6009492776
 30
0.0
 11
6487.4430230369
 21
4862.8114748339
 31
0.0
  0
LWPOLYLINE
  5
B2
330
1F
100
AcDbEntity
  8
0
  6
Continuous
 62
     7
370
    25
100
AcDbPolyline
 90
        7
 70
   128
 43
0.0
 10
6487.4421011097
 20
4862.8508999446
 10
6487.6173246727
 20
4861.6920275723
 10
6488.569824839
 20
4859.7926151916
 10
6490.3220669968
 20
4858.0539464269
 10
6492.259977847
 20
4856.9349107511
 10
6493.4411439814
 20
4856.5177547566
 10
6495.4733989159
 20
4856.240086775
  0
LINE
  5
B3
330
1F
100
AcDbEntity
  8
0
  6
Continuous
 62
     7
370
    25
100
AcDbLine
 10
6453.963003271
 20
4923.7254685822
 30
0.0
 11
6447.9455351008
 21
4923.672954933
 31
0.0
  0
LINE
  5
B4
330
1F
100
AcDbEntity
  8
0
  6
Continuous
 62
     7
370
    25
100
AcDbLine
 10
6448.2945965208
 20
4883.6744780105
 30
0.0
 11
6455.5373392057
 21
4883.7376844683
 31
0.0
  0
ARC
  5
B5
330
1F
100
AcDbEntity
  8
0
  6
Continuous
 62
     7
370
    25
100
AcDbCircle
 10
6395.1952104456
 20
4924.4987517802
 30
0.0
 40
1.500000000000395
100
AcDbArc
 50
237.0896848103
 51
348.5
  0
ARC
  5
B6
330
1F
100
AcDbEntity
  8
0
  6
Continuous
 62
     7
370
    25
100
AcDbCircle
 10
6395.5667181377
 20
4881.9281868305
 30
0.0
 40
1.500000000000899
100
AcDbArc
 50
12.5
 51
123.9103151897
  0
LINE
  5
B7
330
1F
100
AcDbEntity
  8
0
  6
Continuous
 62
     7
370
    25
100
AcDbLine
 10
6418.9062272161
 20
4923.4195327324
 30
0.0
 11
6398.9650975025
 21
4923.2455091298
 31
0.0
  0
LINE
  5
B8
330
1F
100
AcDbEntity
  8
0
  6
Continuous
 62
     7
370
    25
100
AcDbLine
 10
6399.3141589224
 20
4883.2470322072
 30
0.0
 11
6419.2552886361
 21
4883.4210558098
 31
0.0
  0
LINE
  5
B9
330
1F
100
AcDbEntity
  8
0
  6
Continuous
 62
     7
370
    25
100
AcDbLine
 10
6294.4767571539
 20
4922.3335579983
 30
0.0
 11
6290.991026981
 21
4922.0178284268
 31
0.0
  0
LINE
  5
BA
330
1F
100
AcDbEntity
  8
0
  6
Continuous
 62
     7
370
    25
100
AcDbLine
 10
6291.3351073923
 20
4882.590118565
 30
0.0
 11
6294.8258169123
 21
4882.3352714604
 31
0.0
  0
LINE
  5
BB
330
1F
100
AcDbEntity
  8
0
  6
Continuous
 62
     7
370
    25
100
AcDbLine
 10
6363.0281062774
 20
4922.931796559
 30
0.0
 11
6294.4767571539
 21
4922.3335579983
 31
0.0
  0
LINE
  5
BC
330
1F
100
AcDbEntity
  8
0
  6
Continuous
 62
     7
370
    25
100
AcDbLine
 10
6294.8258169123
 20
4882.3352714604
 30
0.0
 11
6363.3771660359
 21
4882.9335100211
 31
0.0
  0
LINE
  5
BD
330
1F
100
AcDbEntity
  8
0
  6
Continuous
 62
     7
370
    25
100
AcDbLine
 10
6290.991026981
 20
4922.0178284268
 30
0.0
 11
6290.991026981
 21
4919.8030432959
 31
0.0
  0
LINE
  5
BE
330
1F
100
AcDbEntity
  8
0
  6
Continuous
 62
     7
370
    25
100
AcDbLine
 10
6291.296454062
 20
4884.8045663734
 30
0.0
 11
6291.3351073923
 21
4882.590118565
 31
0.0
  0
ARC
  5
BF
330
1F
100
AcDbEntity
  8
0
  6
Continuous
 62
     7
370
    25
100
AcDbCircle
 10
6453.9455502
 20
4925.7253924283
 30
0.0
 40
2.000000000000349
100
AcDbArc
 50
270.5
 51
0.5
  0
ARC
  5
C0
330
1F
100
AcDbEntity
  8
0
  6
Continuous
 62
     7
370
    25
100
AcDbCircle
 10
6461.8525233022
 20
4890.5795774418
 30
0.0
 40
8.836610070962433
100
AcDbArc
 50
235.0092265577
 51
282.7578591461
  0
LWPOLYLINE
  5
C1
330
1F
100
AcDbEntity
  8
0
  6
Continuous
 62
     7
370
    25
100
AcDbPolyline
 90
        3
 70
   128
 43
0.0
 10
6463.8508436756
 20
4881.9654747171
 10
6463.8563095007
 20
4881.9659813854
 10
6463.8459553096
 20
4881.9651190664
  0
ARC
  5
C2
330
1F
100
AcDbEntity
  8
0
  6
Continuous
 62
     7
370
    25
100
AcDbCircle
 10
6455.7181107777
 20
4882.1073827114
 30
0.0
 40
1.612651671732511
100
AcDbArc
 50
48.4360533117
 51
96.2068831892
  0
LINE
  5
C3
330
1F
100
AcDbEntity
  8
0
  6
Continuous
 62
     7
370
    25
100
AcDbLine
 10
6970.2062272161
 20
4925.040086775
 30
0.0
 11
6969.2062272161
 21
4926.040086775
 31
0.0
  0
LINE
  5
C4
330
1F
100
AcDbEntity
  8
0
  6
Continuous
 62
     7
370
    25
100
AcDbLine
 10
6961.2062272161
 20
4926.040086775
 30
0.0
 11
6960.2062272161
 21
4925.040086775
 31
0.0
  0
LINE
  5
C5
330
1F
100
AcDbEntity
  8
0
  6
Continuous
 62
     7
370
    25
100
AcDbLine
 10
6970.2062272161
 20
4846.040086775
 30
0.0
 11
6970.2062272161
 21
4916.040086775
 31
0.0
  0
LINE
  5
C6
330
1F
100
AcDbEntity
  8
0
  6
Continuous
 62
     7
370
    25
100
AcDbLine
 10
6960.2062272161
 20
4916.040086775
 30
0.0
 11
6960.2062272161
 21
4846.040086775
 31
0.0
  0
LINE
  5
C7
330
1F
100
AcDbEntity
  8
0
  6
Continuous
 62
     7
370
    25
100
AcDbLine
 10
6065.6062272161
 20
4841.040086775
 30
0.0
 11
6065.6062272161
 21
4916.040086775
 31
0.0
  0
LINE
  5
C8
330
1F
100
AcDbEntity
  8
0
  6
Continuous
 62
     7
370
    25
100
AcDbLine
 10
6055.6062272161
 20
4916.040086775
 30
0.0
 11
6055.6062272161
 21
4841.040086775
 31
0.0
  0
LINE
  5
C9
330
1F
100
AcDbEntity
  8
0
  6
Continuous
 62
     7
370
    25
100
AcDbLine
 10
6065.6062272161
 20
4925.040086775
 30
0.0
 11
6064.6062272161
 21
4926.040086775
 31
0.0
  0
LINE
  5
CA
330
1F
100
AcDbEntity
  8
0
  6
Continuous
 62
     7
370
    25
100
AcDbLine
 10
6056.6062272161
 20
4926.040086775
 30
0.0
 11
6055.6062272161
 21
4925.040086775
 31
0.0
  0
LINE
  5
CB
330
1F
100
AcDbEntity
  8
0
  6
Continuous
 62
     7
370
    25
100
AcDbLine
 10
6965.2062272161
 20
4925.040086775
 30
0.0
 11
6965.2062272161
 21
4918.040086775
 31
0.0
  0
LINE
  5
CC
330
1F
100
AcDbEntity
  8
0
  6
Continuous
 62
     7
370
    25
100
AcDbLine
 10
6973.7062272161
 20
4925.040086775
 30
0.0
 11
6973.7062272161
 21
4918.040086775
 31
0.0
  0
LINE
  5
CD
330
1F
100
AcDbEntity
  8
0
  6
Continuous
 62
     7
370
    25
100
AcDbLine
 10
6965.2062272161
 20
4918.040086775
 30
0.0
 11
6967.2382043816
 21
4918.040086775
 31
0.0
  0
LINE
  5
CE
330
1F
100
AcDbEntity
  8
0
  6
Continuous
 62
     7
370
    25
100
AcDbLine
 10
6965.2062272161
 20
4925.040086775
 30
0.0
 11
6973.7062272161
 21
4925.040086775
 31
0.0
  0
LINE
  5
CF
330
1F
100
AcDbEntity
  8
0
  6
Continuous
 62
     7
370
    25
100
AcDbLine
 10
6062.6382043816
 20
4918.040086775
 30
0.0
 11
6060.6062272161
 21
4918.040086775
 31
0.0
  0
LINE
  5
D0
330
1F
100
AcDbEntity
  8
0
  6
Continuous
 62
     7
370
    25
100
AcDbLine
 10
6060.6062272161
 20
4925.040086775
 30
0.0
 11
6060.6062272161
 21
4918.040086775
 31
0.0
  0
LINE
  5
D1
330
1F
100
AcDbEntity
  8
0
  6
Continuous
 62
     7
370
    25
100
AcDbLine
 10
6069.1062272161
 20
4925.040086775
 30
0.0
 11
6069.1062272161
 21
4918.040086775
 31
0.0
  0
LINE
  5
D2
330
1F
100
AcDbEntity
  8
0
  6
Continuous
 62
     7
370
    25
100
AcDbLine
 10
6069.1062272161
 20
4925.040086775
 30
0.0
 11
6060.6062272161
 21
4925.040086775
 31
0.0
  0
LINE
  5
D3
330
1F
100
AcDbEntity
  8
0
  6
Continuous
 62
     7
370
    25
100
AcDbLine
 10
6052.1062272161
 20
4925.040086775
 30
0.0
 11
6052.1062272161
 21
4918.040086775
 31
0.0
  0
LINE
  5
D4
330
1F
100
AcDbEntity
  8
0
  6
Continuous
 62
     7
370
    25
100
AcDbLine
 10
6060.6062272161
 20
4918.040086775
 30
0.0
 11
6058.5742500506
 21
4918.040086775
 31
0.0
  0
LINE
  5
D5
330
1F
100
AcDbEntity
  8
0
  6
Continuous
 62
     7
370
    25
100
AcDbLine
 10
6060.6062272161
 20
4925.040086775
 30
0.0
 11
6052.1062272161
 21
4925.040086775
 31
0.0
  0
LINE
  5
D6
330
1F
100
AcDbEntity
  8
0
  6
Continuous
 62
     7
370
    25
100
AcDbLine
 10
6956.7062272161
 20
4925.040086775
 30
0.0
 11
6956.7062272161
 21
4918.040086775
 31
0.0
  0
LINE
  5
D7
330
1F
100
AcDbEntity
  8
0
  6
Continuous
 62
     7
370
    25
100
AcDbLine
 10
6963.1742500506
 20
4918.040086775
 30
0.0
 11
6965.2062272161
 21
4918.040086775
 31
0.0
  0
LINE
  5
D8
330
1F
100
AcDbEntity
  8
0
  6
Continuous
 62
     7
370
    25
100
AcDbLine
 10
6956.7062272161
 20
4925.040086775
 30
0.0
 11
6965.2062272161
 21
4925.040086775
 31
0.0
  0
LINE
  5
D9
330
1F
100
AcDbEntity
  8
0
  6
Continuous
 62
     7
370
    25
100
AcDbLine
 10
6070.6062272161
 20
4918.040086775
 30
0.0
 11
6070.6062272161
 21
4916.040086775
 31
0.0
  0
LINE
  5
DA
330
1F
100
AcDbEntity
  8
0
  6
Continuous
 62
     7
370
    25
100
AcDbLine
 10
6070.6062272161
 20
4918.040086775
 30
0.0
 11
6062.6382043816
 21
4918.040086775
 31
0.0
  0
LINE
  5
DB
330
1F
100
AcDbEntity
  8
0
  6
Continuous
 62
     7
370
    25
100
AcDbLine
 10
6058.5742500506
 20
4918.040086775
 30
0.0
 11
6050.6062272161
 21
4918.040086775
 31
0.0
  0
LINE
  5
DC
330
1F
100
AcDbEntity
  8
0
  6
Continuous
 62
     7
370
    25
100
AcDbLine
 10
6050.6062272161
 20
4918.040086775
 30
0.0
 11
6050.6062272161
 21
4916.040086775
 31
0.0
  0
LINE
  5
DD
330
1F
100
AcDbEntity
  8
0
  6
Continuous
 62
     7
370
    25
100
AcDbLine
 10
6070.6062272161
 20
4916.040086775
 30
0.0
 11
6050.6062272161
 21
4916.040086775
 31
0.0
  0
LINE
  5
DE
330
1F
100
AcDbEntity
  8
0
  6
Continuous
 62
     7
370
    25
100
AcDbLine
 10
6955.2062272161
 20
4916.040086775
 30
0.0
 11
6975.2062272161
 21
4916.040086775
 31
0.0
  0
LINE
  5
DF
330
1F
100
AcDbEntity
  8
0
  6
Continuous
 62
     7
370
    25
100
AcDbLine
 10
6975.2062272161
 20
4918.040086775
 30
0.0
 11
6975.2062272161
 21
4916.040086775
 31
0.0
  0
LINE
  5
E0
330
1F
100
AcDbEntity
  8
0
  6
Continuous
 62
     7
370
    25
100
AcDbLine
 10
6967.2382043816
 20
4918.040086775
 30
0.0
 11
6975.2062272161
 21
4918.040086775
 31
0.0
  0
LINE
  5
E1
330
1F
100
AcDbEntity
  8
0
  6
Continuous
 62
     7
370
    25
100
AcDbLine
 10
6955.2062272161
 20
4918.040086775
 30
0.0
 11
6963.1742500506
 21
4918.040086775
 31
0.0
  0
LINE
  5
E2
330
1F
100
AcDbEntity
  8
0
  6
Continuous
 62
     7
370
    25
100
AcDbLine
 10
6955.2062272161
 20
4918.040086775
 30
0.0
 11
6955.2062272161
 21
4916.040086775
 31
0.0
  0
LINE
  5
E3
330
1F
100
AcDbEntity
  8
0
  6
Continuous
 62
     7
370
    25
100
AcDbLine
 10
6070.6062272161
 20
4918.2899727926
 30
0.0
 11
6070.6062272161
 21
4918.040086775
 31
0.0
  0
LINE
  5
E4
330
1F
100
AcDbEntity
  8
0
  6
Continuous
 62
     7
370
    25
100
AcDbLine
 10
6050.6062272161
 20
4918.2899727926
 30
0.0
 11
6050.6062272161
 21
4918.040086775
 31
0.0
  0
LINE
  5
E5
330
1F
100
AcDbEntity
  8
0
  6
Continuous
 62
     7
370
    25
100
AcDbLine
 10
6975.2062272161
 20
4918.2899727926
 30
0.0
 11
6975.2062272161
 21
4918.040086775
 31
0.0
  0
LINE
  5
E6
330
1F
100
AcDbEntity
  8
0
  6
Continuous
 62
     7
370
    25
100
AcDbLine
 10
6955.2062272161
 20
4918.2899727926
 30
0.0
 11
6955.2062272161
 21
4918.040086775
 31
0.0
  0
LINE
  5
E7
330
1F
100
AcDbEntity
  8
0
  6
Continuous
 62
     7
370
    25
100
AcDbLine
 10
6070.6062272161
 20
4942.0904287222
 30
0.0
 11
6050.6062272161
 21
4942.0904287222
 31
0.0
  0
LINE
  5
E8
330
1F
100
AcDbEntity
  8
0
  6
Continuous
 62
     7
370
    25
100
AcDbLine
 10
6070.6062272161
 20
4942.0904287222
 30
0.0
 11
6070.6062272161
 21
4918.2899727926
 31
0.0
  0
LINE
  5
E9
330
1F
100
AcDbEntity
  8
0
  6
Continuous
 62
     7
370
    25
100
AcDbLine
 10
6050.6062272161
 20
4942.0904287222
 30
0.0
 11
6050.6062272161
 21
4918.2899727926
 31
0.0
  0
LINE
  5
EA
330
1F
100
AcDbEntity
  8
0
  6
Continuous
 62
     7
370
    25
100
AcDbLine
 10
6955.2062272161
 20
4942.0904287222
 30
0.0
 11
6975.2062272161
 21
4942.0904287222
 31
0.0
  0
LINE
  5
EB
330
1F
100
AcDbEntity
  8
0
  6
Continuous
 62
     7
370
    25
100
AcDbLine
 10
6975.2062272161
 20
4942.0904287222
 30
0.0
 11
6975.2062272161
 21
4918.2899727926
 31
0.0
  0
LINE
  5
EC
330
1F
100
AcDbEntity
  8
0
  6
Continuous
 62
     7
370
    25
100
AcDbLine
 10
6955.2062272161
 20
4942.0904287222
 30
0.0
 11
6955.2062272161
 21
4918.2899727926
 31
0.0
  0
LINE
  5
ED
330
1F
100
AcDbEntity
  8
0
  6
Continuous
 62
     7
370
    25
100
AcDbLine
 10
6010.6062272161
 20
4942.840086775
 30
0.0
 11
7015.2062272161
 21
4942.840086775
 31
0.0
  0
LINE
  5
EE
330
1F
100
AcDbEntity
  8
0
  6
Continuous
 62
     7
370
    25
100
AcDbLine
 10
7015.2062272161
 20
4944.040086775
 30
0.0
 11
7015.2062272161
 21
4942.840086775
 31
0.0
  0
LINE
  5
EF
330
1F
100
AcDbEntity
  8
0
  6
Continuous
 62
     7
370
    25
100
AcDbLine
 10
6010.6062272161
 20
4944.040086775
 30
0.0
 11
7015.2062272161
 21
4944.040086775
 31
0.0
  0
LINE
  5
F0
330
1F
100
AcDbEntity
  8
0
  6
Continuous
 62
     7
370
    25
100
AcDbLine
 10
6010.6062272161
 20
4944.040086775
 30
0.0
 11
6010.6062272161
 21
4942.840086775
 31
0.0
  0
LINE
  5
F1
330
1F
100
AcDbEntity
  8
0
  6
Continuous
 62
     7
370
    25
100
AcDbLine
 10
6983.5062272161
 20
4957.9885454436
 30
0.0
 11
6042.3062272161
 21
4957.9885454436
 31
0.0
  0
LINE
  5
F2
330
1F
100
AcDbEntity
  8
0
  6
Continuous
 62
     7
370
    25
100
AcDbLine
 10
6042.3062272161
 20
4957.9885454436
 30
0.0
 11
6037.942971766
 21
4957.9885454436
 31
0.0
  0
ARC
  5
F3
330
1F
100
AcDbEntity
  8
0
  6
Continuous
 62
     7
370
    25
100
AcDbCircle
 10
6039.6062272161
 20
4958.340086775
 30
0.0
 40
1.700000000000831
100
AcDbArc
 50
90.0
 51
191.9342465732
  0
LINE
  5
F4
330
1F
100
AcDbEntity
  8
0
  6
Continuous
 62
     7
370
    25
100
AcDbLine
 10
6987.8694826662
 20
4957.9885454436
 30
0.0
 11
6983.5062272161
 21
4957.9885454436
 31
0.0
  0
ARC
  5
F5
330
1F
100
AcDbEntity
  8
0
  6
Continuous
 62
     7
370
    25
100
AcDbCircle
 10
6986.2062272161
 20
4958.340086775
 30
0.0
 40
1.700000000000728
100
AcDbArc
 50
348.0657534268
 51
90.0
  0
LINE
  5
F6
330
1F
100
AcDbEntity
  8
0
  6
Continuous
 62
     7
370
    25
100
AcDbLine
 10
6986.9802898868
 20
4953.7814875404
 30
0.0
 11
6983.5062272161
 21
4953.7814875404
 31
0.0
  0
LINE
  5
F7
330
1F
100
AcDbEntity
  8
0
  6
Continuous
 62
     7
370
    25
100
AcDbLine
 10
6983.5062272161
 20
4957.9885454436
 30
0.0
 11
6983.5062272161
 21
4953.7814875404
 31
0.0
  0
LINE
  5
F8
330
1F
100
AcDbEntity
  8
0
  6
Continuous
 62
     7
370
    25
100
AcDbLine
 10
6987.8694826662
 20
4957.9885454436
 30
0.0
 11
6986.9802898868
 21
4953.7814875404
 31
0.0
  0
LINE
  5
F9
330
1F
100
AcDbEntity
  8
0
  6
Continuous
 62
     7
370
    25
100
AcDbLine
 10
6983.5062272161
 20
4953.7814875404
 30
0.0
 11
6042.3062272161
 21
4953.7814875404
 31
0.0
  0
LINE
  5
FA
330
1F
100
AcDbEntity
  8
0
  6
Continuous
 62
     7
370
    25
100
AcDbLine
 10
6042.3062272161
 20
4957.9885454436
 30
0.0
 11
6042.3062272161
 21
4953.7814875404
 31
0.0
  0
LINE
  5
FB
330
1F
100
AcDbEntity
  8
0
  6
Continuous
 62
     7
370
    25
100
AcDbLine
 10
6042.3062272161
 20
4953.7814875404
 30
0.0
 11
6038.8321645455
 21
4953.7814875404
 31
0.0
  0
LINE
  5
FC
330
1F
100
AcDbEntity
  8
0
  6
Continuous
 62
     7
370
    25
100
AcDbLine
 10
6037.942971766
 20
4957.9885454436
 30
0.0
 11
6038.8321645455
 21
4953.7814875404
 31
0.0
  0
LINE
  5
FD
330
1F
100
AcDbEntity
  8
0
  6
Continuous
 62
     7
370
    25
100
AcDbLine
 10
6985.7062272161
 20
4953.7814875404
 30
0.0
 11
6985.7062272161
 21
4944.040086775
 31
0.0
  0
LINE
  5
FE
330
1F
100
AcDbEntity
  8
0
  6
Continuous
 62
     7
370
    25
100
AcDbLine
 10
6040.1062272161
 20
4953.7814875404
 30
0.0
 11
6040.1062272161
 21
4944.040086775
 31
0.0
  0
LINE
  5
FF
330
1F
100
AcDbEntity
  8
0
  6
Continuous
 62
     7
370
    25
100
AcDbLine
 10
6975.2062272161
 20
4942.840086775
 30
0.0
 11
6975.2062272161
 21
4942.0904287222
 31
0.0
  0
LINE
  5
100
330
1F
100
AcDbEntity
  8
0
  6
Continuous
 62
     7
370
    25
100
AcDbLine
 10
6955.2062272161
 20
4942.840086775
 30
0.0
 11
6955.2062272161
 21
4942.0904287222
 31
0.0
  0
LINE
  5
101
330
1F
100
AcDbEntity
  8
0
  6
Continuous
 62
     7
370
    25
100
AcDbLine
 10
6070.6062272161
 20
4942.840086775
 30
0.0
 11
6070.6062272161
 21
4942.0904287222
 31
0.0
  0
LINE
  5
102
330
1F
100
AcDbEntity
  8
0
  6
Continuous
 62
     7
370
    25
100
AcDbLine
 10
6050.6062272161
 20
4942.840086775
 30
0.0
 11
6050.6062272161
 21
4942.0904287222
 31
0.0
  0
LINE
  5
103
330
1F
100
AcDbEntity
  8
0
  6
Continuous
 62
     7
370
    25
100
AcDbLine
 10
6983.0062272161
 20
4974.040086775
 30
0.0
 11
7003.0062272161
 21
4974.040086775
 31
0.0
  0
ARC
  5
104
330
1F
100
AcDbEntity
  8
0
  6
Continuous
 62
     7
370
    25
100
AcDbCircle
 10
7003.0062272161
 20
4979.040086775
 30
0.0
 40
5.0
100
AcDbArc
 50
270.0
 51
90.0
  0
LINE
  5
105
330
1F
100
AcDbEntity
  8
0
  6
Continuous
 62
     7
370
    25
100
AcDbLine
 10
7003.0062272161
 20
4984.040086775
 30
0.0
 11
6983.0062272161
 21
4984.040086775
 31
0.0
  0
ARC
  5
106
330
1F
100
AcDbEntity
  8
0
  6
Continuous
 62
     7
370
    25
100
AcDbCircle
 10
6983.0062272161
 20
4979.040086775
 30
0.0
 40
5.0
100
AcDbArc
 50
90.0
 51
270.0
  0
LINE
  5
107
330
1F
100
AcDbEntity
  8
0
  6
Continuous
 62
     7
370
    25
100
AcDbLine
 10
6942.9062272161
 20
4974.040086775
 30
0.0
 11
6962.9062272161
 21
4974.040086775
 31
0.0
  0
ARC
  5
108
330
1F
100
AcDbEntity
  8
0
  6
Continuous
 62
     7
370
    25
100
AcDbCircle
 10
6962.9062272161
 20
4979.040086775
 30
0.0
 40
5.0
100
AcDbArc
 50
270.0
 51
90.0
  0
LINE
  5
109
330
1F
100
AcDbEntity
  8
0
  6
Continuous
 62
     7
370
    25
100
AcDbLine
 10
6962.9062272161
 20
4984.040086775
 30
0.0
 11
6942.9062272161
 21
4984.040086775
 31
0.0
  0
ARC
  5
10A
330
1F
100
AcDbEntity
  8
0
  6
Continuous
 62
     7
370
    25
100
AcDbCircle
 10
6942.9062272161
 20
4979.040086775
 30
0.0
 40
5.0
100
AcDbArc
 50
90.0
 51
270.0
  0
LINE
  5
10B
330
1F
100
AcDbEntity
  8
0
  6
Continuous
 62
     7
370
    25
100
AcDbLine
 10
6902.8062272161
 20
4974.040086775
 30
0.0
 11
6922.8062272161
 21
4974.040086775
 31
0.0
  0
ARC
  5
10C
330
1F
100
AcDbEntity
  8
0
  6
Continuous
 62
     7
370
    25
100
AcDbCircle
 10
6922.8062272161
 20
4979.040086775
 30
0.0
 40
5.0
100
AcDbArc
 50
270.0
 51
90.0
  0
LINE
  5
10D
330
1F
100
AcDbEntity
  8
0
  6
Continuous
 62
     7
370
    25
100
AcDbLine
 10
6922.8062272161
 20
4984.040086775
 30
0.0
 11
6902.8062272161
 21
4984.040086775
 31
0.0
  0
ARC
  5
10E
330
1F
100
AcDbEntity
  8
0
  6
Continuous
 62
     7
370
    25
100
AcDbCircle
 10
6902.8062272161
 20
4979.040086775
 30
0.0
 40
5.0
100
AcDbArc
 50
90.0
 51
270.0
  0
LINE
  5
10F
330
1F
100
AcDbEntity
  8
0
  6
Continuous
 62
     7
370
    25
100
AcDbLine
 10
6862.7062272161
 20
4974.040086775
 30
0.0
 11
6882.7062272161
 21
4974.040086775
 31
0.0
  0
ARC
  5
110
330
1F
100
AcDbEntity
  8
0
  6
Continuous
 62
     7
370
    25
100
AcDbCircle
 10
6882.7062272161
 20
4979.040086775
 30
0.0
 40
5.0
100
AcDbArc
 50
270.0
 51
90.0
  0
LINE
  5
111
330
1F
100
AcDbEntity
  8
0
  6
Continuous
 62
     7
370
    25
100
AcDbLine
 10
6882.7062272161
 20
4984.040086775
 30
0.0
 11
6862.7062272161
 21
4984.040086775
 31
0.0
  0
ARC
  5
112
330
1F
100
AcDbEntity
  8
0
  6
Continuous
 62
     7
370
    25
100
AcDbCircle
 10
6862.7062272161
 20
4979.040086775
 30
0.0
 40
5.0
100
AcDbArc
 50
90.0
 51
270.0
  0
LINE
  5
113
330
1F
100
AcDbEntity
  8
0
  6
Continuous
 62
     7
370
    25
100
AcDbLine
 10
6822.6062272161
 20
4974.040086775
 30
0.0
 11
6842.6062272161
 21
4974.040086775
 31
0.0
  0
ARC
  5
114
330
1F
100
AcDbEntity
  8
0
  6
Continuous
 62
     7
370
    25
100
AcDbCircle
 10
6842.6062272161
 20
4979.040086775
 30
0.0
 40
5.0
100
AcDbArc
 50
270.0
 51
90.0
  0
LINE
  5
115
330
1F
100
AcDbEntity
  8
0
  6
Continuous
 62
     7
370
    25
100
AcDbLine
 10
6842.6062272161
 20
4984.040086775
 30
0.0
 11
6822.6062272161
 21
4984.040086775
 31
0.0
  0
ARC
  5
116
330
1F
100
AcDbEntity
  8
0
  6
Continuous
 62
     7
370
    25
100
AcDbCircle
 10
6822.6062272161
 20
4979.040086775
 30
0.0
 40
5.0
100
AcDbArc
 50
90.0
 51
270.0
  0
LINE
  5
117
330
1F
100
AcDbEntity
  8
0
  6
Continuous
 62
     7
370
    25
100
AcDbLine
 10
6782.5062272161
 20
4974.040086775
 30
0.0
 11
6802.5062272161
 21
4974.040086775
 31
0.0
  0
ARC
  5
118
330
1F
100
AcDbEntity
  8
0
  6
Continuous
 62
     7
370
    25
100
AcDbCircle
 10
6802.5062272161
 20
4979.040086775
 30
0.0
 40
5.0
100
AcDbArc
 50
270.0
 51
90.0
  0
LINE
  5
119
330
1F
100
AcDbEntity
  8
0
  6
Continuous
 62
     7
370
    25
100
AcDbLine
 10
6802.5062272161
 20
4984.040086775
 30
0.0
 11
6782.5062272161
 21
4984.040086775
 31
0.0
  0
ARC
  5
11A
330
1F
100
AcDbEntity
  8
0
  6
Continuous
 62
     7
370
    25
100
AcDbCircle
 10
6782.5062272161
 20
4979.040086775
 30
0.0
 40
5.0
100
AcDbArc
 50
90.0
 51
270.0
  0
LINE
  5
11B
330
1F
100
AcDbEntity
  8
0
  6
Continuous
 62
     7
370
    25
100
AcDbLine
 10
6742.4062272161
 20
4974.040086775
 30
0.0
 11
6762.4062272161
 21
4974.040086775
 31
0.0
  0
ARC
  5
11C
330
1F
100
AcDbEntity
  8
0
  6
Continuous
 62
     7
370
    25
100
AcDbCircle
 10
6762.4062272161
 20
4979.040086775
 30
0.0
 40
5.0
100
AcDbArc
 50
270.0
 51
90.0
  0
LINE
  5
11D
330
1F
100
AcDbEntity
  8
0
  6
Continuous
 62
     7
370
    25
100
AcDbLine
 10
6762.4062272161
 20
4984.040086775
 30
0.0
 11
6742.4062272161
 21
4984.040086775
 31
0.0
  0
ARC
  5
11E
330
1F
100
AcDbEntity
  8
0
  6
Continuous
 62
     7
370
    25
100
AcDbCircle
 10
6742.4062272161
 20
4979.040086775
 30
0.0
 40
5.0
100
AcDbArc
 50
90.0
 51
270.0
  0
LINE
  5
11F
330
1F
100
AcDbEntity
  8
0
  6
Continuous
 62
     7
370
    25
100
AcDbLine
 10
6702.3062272161
 20
4974.040086775
 30
0.0
 11
6722.3062272161
 21
4974.040086775
 31
0.0
  0
ARC
  5
120
330
1F
100
AcDbEntity
  8
0
  6
Continuous
 62
     7
370
    25
100
AcDbCircle
 10
6722.3062272161
 20
4979.040086775
 30
0.0
 40
5.0
100
AcDbArc
 50
270.0
 51
90.0
  0
LINE
  5
121
330
1F
100
AcDbEntity
  8
0
  6
Continuous
 62
     7
370
    25
100
AcDbLine
 10
6722.3062272161
 20
4984.040086775
 30
0.0
 11
6702.3062272161
 21
4984.040086775
 31
0.0
  0
ARC
  5
122
330
1F
100
AcDbEntity
  8
0
  6
Continuous
 62
     7
370
    25
100
AcDbCircle
 10
6702.3062272161
 20
4979.040086775
 30
0.0
 40
5.0
100
AcDbArc
 50
90.0
 51
270.0
  0
LINE
  5
123
330
1F
100
AcDbEntity
  8
0
  6
Continuous
 62
     7
370
    25
100
AcDbLine
 10
6662.2062272161
 20
4974.040086775
 30
0.0
 11
6682.2062272161
 21
4974.040086775
 31
0.0
  0
ARC
  5
124
330
1F
100
AcDbEntity
  8
0
  6
Continuous
 62
     7
370
    25
100
AcDbCircle
 10
6682.2062272161
 20
4979.040086775
 30
0.0
 40
5.0
100
AcDbArc
 50
270.0
 51
90.0
  0
LINE
  5
125
330
1F
100
AcDbEntity
  8
0
  6
Continuous
 62
     7
370
    25
100
AcDbLine
 10
6682.2062272161
 20
4984.040086775
 30
0.0
 11
6662.2062272161
 21
4984.040086775
 31
0.0
  0
ARC
  5
126
330
1F
100
AcDbEntity
  8
0
  6
Continuous
 62
     7
370
    25
100
AcDbCircle
 10
6662.2062272161
 20
4979.040086775
 30
0.0
 40
5.0
100
AcDbArc
 50
90.0
 51
270.0
  0
LINE
  5
127
330
1F
100
AcDbEntity
  8
0
  6
Continuous
 62
     7
370
    25
100
AcDbLine
 10
6622.1062272161
 20
4974.040086775
 30
0.0
 11
6642.1062272161
 21
4974.040086775
 31
0.0
  0
ARC
  5
128
330
1F
100
AcDbEntity
  8
0
  6
Continuous
 62
     7
370
    25
100
AcDbCircle
 10
6642.1062272161
 20
4979.040086775
 30
0.0
 40
5.000000000000909
100
AcDbArc
 50
270.0
 51
90.0
  0
LINE
  5
129
330
1F
100
AcDbEntity
  8
0
  6
Continuous
 62
     7
370
    25
100
AcDbLine
 10
6642.1062272161
 20
4984.040086775
 30
0.0
 11
6622.1062272161
 21
4984.040086775
 31
0.0
  0
ARC
  5
12A
330
1F
100
AcDbEntity
  8
0
  6
Continuous
 62
     7
370
    25
100
AcDbCircle
 10
6622.1062272161
 20
4979.040086775
 30
0.0
 40
5.000000000000909
100
AcDbArc
 50
90.0
 51
270.0
  0
LINE
  5
12B
330
1F
100
AcDbEntity
  8
0
  6
Continuous
 62
     7
370
    25
100
AcDbLine
 10
6582.0062272161
 20
4974.040086775
 30
0.0
 11
6602.0062272161
 21
4974.040086775
 31
0.0
  0
ARC
  5
12C
330
1F
100
AcDbEntity
  8
0
  6
Continuous
 62
     7
370
    25
100
AcDbCircle
 10
6602.0062272161
 20
4979.040086775
 30
0.0
 40
5.000000000000909
100
AcDbArc
 50
270.0
 51
90.0
  0
LINE
  5
12D
330
1F
100
AcDbEntity
  8
0
  6
Continuous
 62
     7
370
    25
100
AcDbLine
 10
6602.0062272161
 20
4984.040086775
 30
0.0
 11
6582.0062272161
 21
4984.040086775
 31
0.0
  0
ARC
  5
12E
330
1F
100
AcDbEntity
  8
0
  6
Continuous
 62
     7
370
    25
100
AcDbCircle
 10
6582.0062272161
 20
4979.040086775
 30
0.0
 40
5.000000000000909
100
AcDbArc
 50
90.0
 51
270.0
  0
LINE
  5
12F
330
1F
100
AcDbEntity
  8
0
  6
Continuous
 62
     7
370
    25
100
AcDbLine
 10
6541.9062272161
 20
4974.040086775
 30
0.0
 11
6561.9062272161
 21
4974.040086775
 31
0.0
  0
ARC
  5
130
330
1F
100
AcDbEntity
  8
0
  6
Continuous
 62
     7
370
    25
100
AcDbCircle
 10
6561.9062272161
 20
4979.040086775
 30
0.0
 40
5.000000000000909
100
AcDbArc
 50
270.0
 51
90.0
  0
LINE
  5
131
330
1F
100
AcDbEntity
  8
0
  6
Continuous
 62
     7
370
    25
100
AcDbLine
 10
6561.9062272161
 20
4984.040086775
 30
0.0
 11
6541.9062272161
 21
4984.040086775
 31
0.0
  0
ARC
  5
132
330
1F
100
AcDbEntity
  8
0
  6
Continuous
 62
     7
370
    25
100
AcDbCircle
 10
6541.9062272161
 20
4979.040086775
 30
0.0
 40
5.000000000000909
100
AcDbArc
 50
90.0
 51
270.0
  0
LINE
  5
133
330
1F
100
AcDbEntity
  8
0
  6
Continuous
 62
     7
370
    25
100
AcDbLine
 10
6501.8062272161
 20
4974.040086775
 30
0.0
 11
6521.8062272161
 21
4974.040086775
 31
0.0
  0
ARC
  5
134
330
1F
100
AcDbEntity
  8
0
  6
Continuous
 62
     7
370
    25
100
AcDbCircle
 10
6521.8062272161
 20
4979.040086775
 30
0.0
 40
5.000000000000909
100
AcDbArc
 50
270.0
 51
90.0
  0
LINE
  5
135
330
1F
100
AcDbEntity
  8
0
  6
Continuous
 62
     7
370
    25
100
AcDbLine
 10
6521.8062272161
 20
4984.040086775
 30
0.0
 11
6501.8062272161
 21
4984.040086775
 31
0.0
  0
ARC
  5
136
330
1F
100
AcDbEntity
  8
0
  6
Continuous
 62
     7
370
    25
100
AcDbCircle
 10
6501.8062272161
 20
4979.040086775
 30
0.0
 40
5.000000000000909
100
AcDbArc
 50
90.0
 51
270.0
  0
LINE
  5
137
330
1F
100
AcDbEntity
  8
0
  6
Continuous
 62
     7
370
    25
100
AcDbLine
 10
6461.7062272161
 20
4974.040086775
 30
0.0
 11
6481.7062272161
 21
4974.040086775
 31
0.0
  0
ARC
  5
138
330
1F
100
AcDbEntity
  8
0
  6
Continuous
 62
     7
370
    25
100
AcDbCircle
 10
6481.7062272161
 20
4979.040086775
 30
0.0
 40
5.000000000000909
100
AcDbArc
 50
270.0
 51
90.0
  0
LINE
  5
139
330
1F
100
AcDbEntity
  8
0
  6
Continuous
 62
     7
370
    25
100
AcDbLine
 10
6481.7062272161
 20
4984.040086775
 30
0.0
 11
6461.7062272161
 21
4984.040086775
 31
0.0
  0
ARC
  5
13A
330
1F
100
AcDbEntity
  8
0
  6
Continuous
 62
     7
370
    25
100
AcDbCircle
 10
6461.7062272161
 20
4979.040086775
 30
0.0
 40
5.000000000000909
100
AcDbArc
 50
90.0
 51
270.0
  0
LINE
  5
13B
330
1F
100
AcDbEntity
  8
0
  6
Continuous
 62
     7
370
    25
100
AcDbLine
 10
6421.6062272161
 20
4974.040086775
 30
0.0
 11
6441.6062272161
 21
4974.040086775
 31
0.0
  0
ARC
  5
13C
330
1F
100
AcDbEntity
  8
0
  6
Continuous
 62
     7
370
    25
100
AcDbCircle
 10
6441.6062272161
 20
4979.040086775
 30
0.0
 40
5.000000000000909
100
AcDbArc
 50
270.0
 51
90.0
  0
LINE
  5
13D
330
1F
100
AcDbEntity
  8
0
  6
Continuous
 62
     7
370
    25
100
AcDbLine
 10
6441.6062272161
 20
4984.040086775
 30
0.0
 11
6421.6062272161
 21
4984.040086775
 31
0.0
  0
ARC
  5
13E
330
1F
100
AcDbEntity
  8
0
  6
Continuous
 62
     7
370
    25
100
AcDbCircle
 10
6421.6062272161
 20
4979.040086775
 30
0.0
 40
5.000000000000909
100
AcDbArc
 50
90.0
 51
270.0
  0
LINE
  5
13F
330
1F
100
AcDbEntity
  8
0
  6
Continuous
 62
     7
370
    25
100
AcDbLine
 10
6381.5062272161
 20
4974.040086775
 30
0.0
 11
6401.5062272161
 21
4974.040086775
 31
0.0
  0
ARC
  5
140
330
1F
100
AcDbEntity
  8
0
  6
Continuous
 62
     7
370
    25
100
AcDbCircle
 10
6401.5062272161
 20
4979.040086775
 30
0.0
 40
5.000000000000909
100
AcDbArc
 50
270.0
 51
90.0
  0
LINE
  5
141
330
1F
100
AcDbEntity
  8
0
  6
Continuous
 62
     7
370
    25
100
AcDbLine
 10
6401.5062272161
 20
4984.040086775
 30
0.0
 11
6381.5062272161
 21
4984.040086775
 31
0.0
  0
ARC
  5
142
330
1F
100
AcDbEntity
  8
0
  6
Continuous
 62
     7
370
    25
100
AcDbCircle
 10
6381.5062272161
 20
4979.040086775
 30
0.0
 40
5.000000000000909
100
AcDbArc
 50
90.0
 51
270.0
  0
LINE
  5
143
330
1F
100
AcDbEntity
  8
0
  6
Continuous
 62
     7
370
    25
100
AcDbLine
 10
6341.4062272161
 20
4974.040086775
 30
0.0
 11
6361.4062272161
 21
4974.040086775
 31
0.0
  0
ARC
  5
144
330
1F
100
AcDbEntity
  8
0
  6
Continuous
 62
     7
370
    25
100
AcDbCircle
 10
6361.4062272161
 20
4979.040086775
 30
0.0
 40
5.000000000000909
100
AcDbArc
 50
270.0
 51
90.0
  0
LINE
  5
145
330
1F
100
AcDbEntity
  8
0
  6
Continuous
 62
     7
370
    25
100
AcDbLine
 10
6361.4062272161
 20
4984.040086775
 30
0.0
 11
6341.4062272161
 21
4984.040086775
 31
0.0
  0
ARC
  5
146
330
1F
100
AcDbEntity
  8
0
  6
Continuous
 62
     7
370
    25
100
AcDbCircle
 10
6341.4062272161
 20
4979.040086775
 30
0.0
 40
5.000000000000909
100
AcDbArc
 50
90.0
 51
270.0
  0
LINE
  5
147
330
1F
100
AcDbEntity
  8
0
  6
Continuous
 62
     7
370
    25
100
AcDbLine
 10
6301.3062272161
 20
4974.040086775
 30
0.0
 11
6321.3062272161
 21
4974.040086775
 31
0.0
  0
ARC
  5
148
330
1F
100
AcDbEntity
  8
0
  6
Continuous
 62
     7
370
    25
100
AcDbCircle
 10
6321.3062272161
 20
4979.040086775
 30
0.0
 40
5.000000000000909
100
AcDbArc
 50
270.0
 51
90.0
  0
LINE
  5
149
330
1F
100
AcDbEntity
  8
0
  6
Continuous
 62
     7
370
    25
100
AcDbLine
 10
6321.3062272161
 20
4984.040086775
 30
0.0
 11
6301.3062272161
 21
4984.040086775
 31
0.0
  0
ARC
  5
14A
330
1F
100
AcDbEntity
  8
0
  6
Continuous
 62
     7
370
    25
100
AcDbCircle
 10
6301.3062272161
 20
4979.040086775
 30
0.0
 40
5.000000000000909
100
AcDbArc
 50
90.0
 51
270.0
  0
LINE
  5
14B
330
1F
100
AcDbEntity
  8
0
  6
Continuous
 62
     7
370
    25
100
AcDbLine
 10
6261.2062272161
 20
4974.040086775
 30
0.0
 11
6281.2062272161
 21
4974.040086775
 31
0.0
  0
ARC
  5
14C
330
1F
100
AcDbEntity
  8
0
  6
Continuous
 62
     7
370
    25
100
AcDbCircle
 10
6281.2062272161
 20
4979.040086775
 30
0.0
 40
5.000000000000909
100
AcDbArc
 50
270.0
 51
90.0
  0
LINE
  5
14D
330
1F
100
AcDbEntity
  8
0
  6
Continuous
 62
     7
370
    25
100
AcDbLine
 10
6281.2062272161
 20
4984.040086775
 30
0.0
 11
6261.2062272161
 21
4984.040086775
 31
0.0
  0
ARC
  5
14E
330
1F
100
AcDbEntity
  8
0
  6
Continuous
 62
     7
370
    25
100
AcDbCircle
 10
6261.2062272161
 20
4979.040086775
 30
0.0
 40
5.000000000000909
100
AcDbArc
 50
90.0
 51
270.0
  0
LINE
  5
14F
330
1F
100
AcDbEntity
  8
0
  6
Continuous
 62
     7
370
    25
100
AcDbLine
 10
6221.1062272161
 20
4974.040086775
 30
0.0
 11
6241.1062272161
 21
4974.040086775
 31
0.0
  0
ARC
  5
150
330
1F
100
AcDbEntity
  8
0
  6
Continuous
 62
     7
370
    25
100
AcDbCircle
 10
6241.1062272161
 20
4979.040086775
 30
0.0
 40
5.000000000000909
100
AcDbArc
 50
270.0
 51
90.0
  0
LINE
  5
151
330
1F
100
AcDbEntity
  8
0
  6
Continuous
 62
     7
370
    25
100
AcDbLine
 10
6241.1062272161
 20
4984.040086775
 30
0.0
 11
6221.1062272161
 21
4984.040086775
 31
0.0
  0
ARC
  5
152
330
1F
100
AcDbEntity
  8
0
  6
Continuous
 62
     7
370
    25
100
AcDbCircle
 10
6221.1062272161
 20
4979.040086775
 30
0.0
 40
5.000000000000909
100
AcDbArc
 50
90.0
 51
270.0
  0
LINE
  5
153
330
1F
100
AcDbEntity
  8
0
  6
Continuous
 62
     7
370
    25
100
AcDbLine
 10
6181.0062272161
 20
4974.040086775
 30
0.0
 11
6201.0062272161
 21
4974.040086775
 31
0.0
  0
ARC
  5
154
330
1F
100
AcDbEntity
  8
0
  6
Continuous
 62
     7
370
    25
100
AcDbCircle
 10
6201.0062272161
 20
4979.040086775
 30
0.0
 40
5.000000000000909
100
AcDbArc
 50
270.0
 51
90.0
  0
LINE
  5
155
330
1F
100
AcDbEntity
  8
0
  6
Continuous
 62
     7
370
    25
100
AcDbLine
 10
6201.0062272161
 20
4984.040086775
 30
0.0
 11
6181.0062272161
 21
4984.040086775
 31
0.0
  0
ARC
  5
156
330
1F
100
AcDbEntity
  8
0
  6
Continuous
 62
     7
370
    25
100
AcDbCircle
 10
6181.0062272161
 20
4979.040086775
 30
0.0
 40
5.000000000000909
100
AcDbArc
 50
90.0
 51
270.0
  0
LINE
  5
157
330
1F
100
AcDbEntity
  8
0
  6
Continuous
 62
     7
370
    25
100
AcDbLine
 10
6140.9062272161
 20
4974.040086775
 30
0.0
 11
6160.9062272161
 21
4974.040086775
 31
0.0
  0
ARC
  5
158
330
1F
100
AcDbEntity
  8
0
  6
Continuous
 62
     7
370
    25
100
AcDbCircle
 10
6160.9062272161
 20
4979.040086775
 30
0.0
 40
5.000000000000909
100
AcDbArc
 50
270.0
 51
90.0
  0
LINE
  5
159
330
1F
100
AcDbEntity
  8
0
  6
Continuous
 62
     7
370
    25
100
AcDbLine
 10
6160.9062272161
 20
4984.040086775
 30
0.0
 11
6140.9062272161
 21
4984.040086775
 31
0.0
  0
ARC
  5
15A
330
1F
100
AcDbEntity
  8
0
  6
Continuous
 62
     7
370
    25
100
AcDbCircle
 10
6140.9062272161
 20
4979.040086775
 30
0.0
 40
5.000000000000909
100
AcDbArc
 50
90.0
 51
270.0
  0
LINE
  5
15B
330
1F
100
AcDbEntity
  8
0
  6
Continuous
 62
     7
370
    25
100
AcDbLine
 10
6100.8062272161
 20
4974.040086775
 30
0.0
 11
6120.8062272161
 21
4974.040086775
 31
0.0
  0
ARC
  5
15C
330
1F
100
AcDbEntity
  8
0
  6
Continuous
 62
     7
370
    25
100
AcDbCircle
 10
6120.8062272161
 20
4979.040086775
 30
0.0
 40
5.000000000000909
100
AcDbArc
 50
270.0
 51
90.0
  0
LINE
  5
15D
330
1F
100
AcDbEntity
  8
0
  6
Continuous
 62
     7
370
    25
100
AcDbLine
 10
6120.8062272161
 20
4984.040086775
 30
0.0
 11
6100.8062272161
 21
4984.040086775
 31
0.0
  0
ARC
  5
15E
330
1F
100
AcDbEntity
  8
0
  6
Continuous
 62
     7
370
    25
100
AcDbCircle
 10
6100.8062272161
 20
4979.040086775
 30
0.0
 40
5.000000000000909
100
AcDbArc
 50
90.0
 51
270.0
  0
LINE
  5
15F
330
1F
100
AcDbEntity
  8
0
  6
Continuous
 62
     7
370
    25
100
AcDbLine
 10
6983.0062272161
 20
4994.040086775
 30
0.0
 11
7003.0062272161
 21
4994.040086775
 31
0.0
  0
ARC
  5
160
330
1F
100
AcDbEntity
  8
0
  6
Continuous
 62
     7
370
    25
100
AcDbCircle
 10
7003.0062272161
 20
4999.040086775
 30
0.0
 40
5.0
100
AcDbArc
 50
270.0
 51
90.0
  0
LINE
  5
161
330
1F
100
AcDbEntity
  8
0
  6
Continuous
 62
     7
370
    25
100
AcDbLine
 10
7003.0062272161
 20
5004.040086775
 30
0.0
 11
6983.0062272161
 21
5004.040086775
 31
0.0
  0
ARC
  5
162
330
1F
100
AcDbEntity
  8
0
  6
Continuous
 62
     7
370
    25
100
AcDbCircle
 10
6983.0062272161
 20
4999.040086775
 30
0.0
 40
5.0
100
AcDbArc
 50
90.0
 51
270.0
  0
LINE
  5
163
330
1F
100
AcDbEntity
  8
0
  6
Continuous
 62
     7
370
    25
100
AcDbLine
 10
6942.9062272161
 20
4994.040086775
 30
0.0
 11
6962.9062272161
 21
4994.040086775
 31
0.0
  0
ARC
  5
164
330
1F
100
AcDbEntity
  8
0
  6
Continuous
 62
     7
370
    25
100
AcDbCircle
 10
6962.9062272161
 20
4999.040086775
 30
0.0
 40
5.0
100
AcDbArc
 50
270.0
 51
90.0
  0
LINE
  5
165
330
1F
100
AcDbEntity
  8
0
  6
Continuous
 62
     7
370
    25
100
AcDbLine
 10
6962.9062272161
 20
5004.040086775
 30
0.0
 11
6942.9062272161
 21
5004.040086775
 31
0.0
  0
ARC
  5
166
330
1F
100
AcDbEntity
  8
0
  6
Continuous
 62
     7
370
    25
100
AcDbCircle
 10
6942.9062272161
 20
4999.040086775
 30
0.0
 40
5.0
100
AcDbArc
 50
90.0
 51
270.0
  0
LINE
  5
167
330
1F
100
AcDbEntity
  8
0
  6
Continuous
 62
     7
370
    25
100
AcDbLine
 10
6902.8062272161
 20
4994.040086775
 30
0.0
 11
6922.8062272161
 21
4994.040086775
 31
0.0
  0
ARC
  5
168
330
1F
100
AcDbEntity
  8
0
  6
Continuous
 62
     7
370
    25
100
AcDbCircle
 10
6922.8062272161
 20
4999.040086775
 30
0.0
 40
5.0
100
AcDbArc
 50
270.0
 51
90.0
  0
LINE
  5
169
330
1F
100
AcDbEntity
  8
0
  6
Continuous
 62
     7
370
    25
100
AcDbLine
 10
6922.8062272161
 20
5004.040086775
 30
0.0
 11
6902.8062272161
 21
5004.040086775
 31
0.0
  0
ARC
  5
16A
330
1F
100
AcDbEntity
  8
0
  6
Continuous
 62
     7
370
    25
100
AcDbCircle
 10
6902.8062272161
 20
4999.040086775
 30
0.0
 40
5.0
100
AcDbArc
 50
90.0
 51
270.0
  0
LINE
  5
16B
330
1F
100
AcDbEntity
  8
0
  6
Continuous
 62
     7
370
    25
100
AcDbLine
 10
6862.7062272161
 20
4994.040086775
 30
0.0
 11
6882.7062272161
 21
4994.040086775
 31
0.0
  0
ARC
  5
16C
330
1F
100
AcDbEntity
  8
0
  6
Continuous
 62
     7
370
    25
100
AcDbCircle
 10
6882.7062272161
 20
4999.040086775
 30
0.0
 40
5.0
100
AcDbArc
 50
270.0
 51
90.0
  0
LINE
  5
16D
330
1F
100
AcDbEntity
  8
0
  6
Continuous
 62
     7
370
    25
100
AcDbLine
 10
6882.7062272161
 20
5004.040086775
 30
0.0
 11
6862.7062272161
 21
5004.040086775
 31
0.0
  0
ARC
  5
16E
330
1F
100
AcDbEntity
  8
0
  6
Continuous
 62
     7
370
    25
100
AcDbCircle
 10
6862.7062272161
 20
4999.040086775
 30
0.0
 40
5.0
100
AcDbArc
 50
90.0
 51
270.0
  0
LINE
  5
16F
330
1F
100
AcDbEntity
  8
0
  6
Continuous
 62
     7
370
    25
100
AcDbLine
 10
6822.6062272161
 20
4994.040086775
 30
0.0
 11
6842.6062272161
 21
4994.040086775
 31
0.0
  0
ARC
  5
170
330
1F
100
AcDbEntity
  8
0
  6
Continuous
 62
     7
370
    25
100
AcDbCircle
 10
6842.6062272161
 20
4999.040086775
 30
0.0
 40
5.0
100
AcDbArc
 50
270.0
 51
90.0
  0
LINE
  5
171
330
1F
100
AcDbEntity
  8
0
  6
Continuous
 62
     7
370
    25
100
AcDbLine
 10
6842.6062272161
 20
5004.040086775
 30
0.0
 11
6822.6062272161
 21
5004.040086775
 31
0.0
  0
ARC
  5
172
330
1F
100
AcDbEntity
  8
0
  6
Continuous
 62
     7
370
    25
100
AcDbCircle
 10
6822.6062272161
 20
4999.040086775
 30
0.0
 40
5.0
100
AcDbArc
 50
90.0
 51
270.0
  0
LINE
  5
173
330
1F
100
AcDbEntity
  8
0
  6
Continuous
 62
     7
370
    25
100
AcDbLine
 10
6782.5062272161
 20
4994.040086775
 30
0.0
 11
6802.5062272161
 21
4994.040086775
 31
0.0
  0
ARC
  5
174
330
1F
100
AcDbEntity
  8
0
  6
Continuous
 62
     7
370
    25
100
AcDbCircle
 10
6802.5062272161
 20
4999.040086775
 30
0.0
 40
5.0
100
AcDbArc
 50
270.0
 51
90.0
  0
LINE
  5
175
330
1F
100
AcDbEntity
  8
0
  6
Continuous
 62
     7
370
    25
100
AcDbLine
 10
6802.5062272161
 20
5004.040086775
 30
0.0
 11
6782.5062272161
 21
5004.040086775
 31
0.0
  0
ARC
  5
176
330
1F
100
AcDbEntity
  8
0
  6
Continuous
 62
     7
370
    25
100
AcDbCircle
 10
6782.5062272161
 20
4999.040086775
 30
0.0
 40
5.0
100
AcDbArc
 50
90.0
 51
270.0
  0
LINE
  5
177
330
1F
100
AcDbEntity
  8
0
  6
Continuous
 62
     7
370
    25
100
AcDbLine
 10
6742.4062272161
 20
4994.040086775
 30
0.0
 11
6762.4062272161
 21
4994.040086775
 31
0.0
  0
ARC
  5
178
330
1F
100
AcDbEntity
  8
0
  6
Continuous
 62
     7
370
    25
100
AcDbCircle
 10
6762.4062272161
 20
4999.040086775
 30
0.0
 40
5.0
100
AcDbArc
 50
270.0
 51
90.0
  0
LINE
  5
179
330
1F
100
AcDbEntity
  8
0
  6
Continuous
 62
     7
370
    25
100
AcDbLine
 10
6762.4062272161
 20
5004.040086775
 30
0.0
 11
6742.4062272161
 21
5004.040086775
 31
0.0
  0
ARC
  5
17A
330
1F
100
AcDbEntity
  8
0
  6
Continuous
 62
     7
370
    25
100
AcDbCircle
 10
6742.4062272161
 20
4999.040086775
 30
0.0
 40
5.0
100
AcDbArc
 50
90.0
 51
270.0
  0
LINE
  5
17B
330
1F
100
AcDbEntity
  8
0
  6
Continuous
 62
     7
370
    25
100
AcDbLine
 10
6702.3062272161
 20
4994.040086775
 30
0.0
 11
6722.3062272161
 21
4994.040086775
 31
0.0
  0
ARC
  5
17C
330
1F
100
AcDbEntity
  8
0
  6
Continuous
 62
     7
370
    25
100
AcDbCircle
 10
6722.3062272161
 20
4999.040086775
 30
0.0
 40
5.0
100
AcDbArc
 50
270.0
 51
90.0
  0
LINE
  5
17D
330
1F
100
AcDbEntity
  8
0
  6
Continuous
 62
     7
370
    25
100
AcDbLine
 10
6722.3062272161
 20
5004.040086775
 30
0.0
 11
6702.3062272161
 21
5004.040086775
 31
0.0
  0
ARC
  5
17E
330
1F
100
AcDbEntity
  8
0
  6
Continuous
 62
     7
370
    25
100
AcDbCircle
 10
6702.3062272161
 20
4999.040086775
 30
0.0
 40
5.0
100
AcDbArc
 50
90.0
 51
270.0
  0
LINE
  5
17F
330
1F
100
AcDbEntity
  8
0
  6
Continuous
 62
     7
370
    25
100
AcDbLine
 10
6662.2062272161
 20
4994.040086775
 30
0.0
 11
6682.2062272161
 21
4994.040086775
 31
0.0
  0
ARC
  5
180
330
1F
100
AcDbEntity
  8
0
  6
Continuous
 62
     7
370
    25
100
AcDbCircle
 10
6682.2062272161
 20
4999.040086775
 30
0.0
 40
5.0
100
AcDbArc
 50
270.0
 51
90.0
  0
LINE
  5
181
330
1F
100
AcDbEntity
  8
0
  6
Continuous
 62
     7
370
    25
100
AcDbLine
 10
6682.2062272161
 20
5004.040086775
 30
0.0
 11
6662.2062272161
 21
5004.040086775
 31
0.0
  0
ARC
  5
182
330
1F
100
AcDbEntity
  8
0
  6
Continuous
 62
     7
370
    25
100
AcDbCircle
 10
6662.2062272161
 20
4999.040086775
 30
0.0
 40
5.0
100
AcDbArc
 50
90.0
 51
270.0
  0
LINE
  5
183
330
1F
100
AcDbEntity
  8
0
  6
Continuous
 62
     7
370
    25
100
AcDbLine
 10
6622.1062272161
 20
4994.040086775
 30
0.0
 11
6642.1062272161
 21
4994.040086775
 31
0.0
  0
ARC
  5
184
330
1F
100
AcDbEntity
  8
0
  6
Continuous
 62
     7
370
    25
100
AcDbCircle
 10
6642.1062272161
 20
4999.040086775
 30
0.0
 40
5.0
100
AcDbArc
 50
270.0
 51
90.0
  0
LINE
  5
185
330
1F
100
AcDbEntity
  8
0
  6
Continuous
 62
     7
370
    25
100
AcDbLine
 10
6642.1062272161
 20
5004.040086775
 30
0.0
 11
6622.1062272161
 21
5004.040086775
 31
0.0
  0
ARC
  5
186
330
1F
100
AcDbEntity
  8
0
  6
Continuous
 62
     7
370
    25
100
AcDbCircle
 10
6622.1062272161
 20
4999.040086775
 30
0.0
 40
5.0
100
AcDbArc
 50
90.0
 51
270.0
  0
LINE
  5
187
330
1F
100
AcDbEntity
  8
0
  6
Continuous
 62
     7
370
    25
100
AcDbLine
 10
6582.0062272161
 20
4994.040086775
 30
0.0
 11
6602.0062272161
 21
4994.040086775
 31
0.0
  0
ARC
  5
188
330
1F
100
AcDbEntity
  8
0
  6
Continuous
 62
     7
370
    25
100
AcDbCircle
 10
6602.0062272161
 20
4999.040086775
 30
0.0
 40
5.0
100
AcDbArc
 50
270.0
 51
90.0
  0
LINE
  5
189
330
1F
100
AcDbEntity
  8
0
  6
Continuous
 62
     7
370
    25
100
AcDbLine
 10
6602.0062272161
 20
5004.040086775
 30
0.0
 11
6582.0062272161
 21
5004.040086775
 31
0.0
  0
ARC
  5
18A
330
1F
100
AcDbEntity
  8
0
  6
Continuous
 62
     7
370
    25
100
AcDbCircle
 10
6582.0062272161
 20
4999.040086775
 30
0.0
 40
5.0
100
AcDbArc
 50
90.0
 51
270.0
  0
LINE
  5
18B
330
1F
100
AcDbEntity
  8
0
  6
Continuous
 62
     7
370
    25
100
AcDbLine
 10
6541.9062272161
 20
4994.040086775
 30
0.0
 11
6561.9062272161
 21
4994.040086775
 31
0.0
  0
ARC
  5
18C
330
1F
100
AcDbEntity
  8
0
  6
Continuous
 62
     7
370
    25
100
AcDbCircle
 10
6561.9062272161
 20
4999.040086775
 30
0.0
 40
5.0
100
AcDbArc
 50
270.0
 51
90.0
  0
LINE
  5
18D
330
1F
100
AcDbEntity
  8
0
  6
Continuous
 62
     7
370
    25
100
AcDbLine
 10
6561.9062272161
 20
5004.040086775
 30
0.0
 11
6541.9062272161
 21
5004.040086775
 31
0.0
  0
ARC
  5
18E
330
1F
100
AcDbEntity
  8
0
  6
Continuous
 62
     7
370
    25
100
AcDbCircle
 10
6541.9062272161
 20
4999.040086775
 30
0.0
 40
5.0
100
AcDbArc
 50
90.0
 51
270.0
  0
LINE
  5
18F
330
1F
100
AcDbEntity
  8
0
  6
Continuous
 62
     7
370
    25
100
AcDbLine
 10
6501.8062272161
 20
4994.040086775
 30
0.0
 11
6521.8062272161
 21
4994.040086775
 31
0.0
  0
ARC
  5
190
330
1F
100
AcDbEntity
  8
0
  6
Continuous
 62
     7
370
    25
100
AcDbCircle
 10
6521.8062272161
 20
4999.040086775
 30
0.0
 40
5.0
100
AcDbArc
 50
270.0
 51
90.0
  0
LINE
  5
191
330
1F
100
AcDbEntity
  8
0
  6
Continuous
 62
     7
370
    25
100
AcDbLine
 10
6521.8062272161
 20
5004.040086775
 30
0.0
 11
6501.8062272161
 21
5004.040086775
 31
0.0
  0
ARC
  5
192
330
1F
100
AcDbEntity
  8
0
  6
Continuous
 62
     7
370
    25
100
AcDbCircle
 10
6501.8062272161
 20
4999.040086775
 30
0.0
 40
5.0
100
AcDbArc
 50
90.0
 51
270.0
  0
LINE
  5
193
330
1F
100
AcDbEntity
  8
0
  6
Continuous
 62
     7
370
    25
100
AcDbLine
 10
6461.7062272161
 20
4994.040086775
 30
0.0
 11
6481.7062272161
 21
4994.040086775
 31
0.0
  0
ARC
  5
194
330
1F
100
AcDbEntity
  8
0
  6
Continuous
 62
     7
370
    25
100
AcDbCircle
 10
6481.7062272161
 20
4999.040086775
 30
0.0
 40
5.0
100
AcDbArc
 50
270.0
 51
90.0
  0
LINE
  5
195
330
1F
100
AcDbEntity
  8
0
  6
Continuous
 62
     7
370
    25
100
AcDbLine
 10
6481.7062272161
 20
5004.040086775
 30
0.0
 11
6461.7062272161
 21
5004.040086775
 31
0.0
  0
ARC
  5
196
330
1F
100
AcDbEntity
  8
0
  6
Continuous
 62
     7
370
    25
100
AcDbCircle
 10
6461.7062272161
 20
4999.040086775
 30
0.0
 40
5.0
100
AcDbArc
 50
90.0
 51
270.0
  0
LINE
  5
197
330
1F
100
AcDbEntity
  8
0
  6
Continuous
 62
     7
370
    25
100
AcDbLine
 10
6421.6062272161
 20
4994.040086775
 30
0.0
 11
6441.6062272161
 21
4994.040086775
 31
0.0
  0
ARC
  5
198
330
1F
100
AcDbEntity
  8
0
  6
Continuous
 62
     7
370
    25
100
AcDbCircle
 10
6441.6062272161
 20
4999.040086775
 30
0.0
 40
5.0
100
AcDbArc
 50
270.0
 51
90.0
  0
LINE
  5
199
330
1F
100
AcDbEntity
  8
0
  6
Continuous
 62
     7
370
    25
100
AcDbLine
 10
6441.6062272161
 20
5004.040086775
 30
0.0
 11
6421.6062272161
 21
5004.040086775
 31
0.0
  0
ARC
  5
19A
330
1F
100
AcDbEntity
  8
0
  6
Continuous
 62
     7
370
    25
100
AcDbCircle
 10
6421.6062272161
 20
4999.040086775
 30
0.0
 40
5.0
100
AcDbArc
 50
90.0
 51
270.0
  0
LINE
  5
19B
330
1F
100
AcDbEntity
  8
0
  6
Continuous
 62
     7
370
    25
100
AcDbLine
 10
6381.5062272161
 20
4994.040086775
 30
0.0
 11
6401.5062272161
 21
4994.040086775
 31
0.0
  0
ARC
  5
19C
330
1F
100
AcDbEntity
  8
0
  6
Continuous
 62
     7
370
    25
100
AcDbCircle
 10
6401.5062272161
 20
4999.040086775
 30
0.0
 40
5.0
100
AcDbArc
 50
270.0
 51
90.0
  0
LINE
  5
19D
330
1F
100
AcDbEntity
  8
0
  6
Continuous
 62
     7
370
    25
100
AcDbLine
 10
6401.5062272161
 20
5004.040086775
 30
0.0
 11
6381.5062272161
 21
5004.040086775
 31
0.0
  0
ARC
  5
19E
330
1F
100
AcDbEntity
  8
0
  6
Continuous
 62
     7
370
    25
100
AcDbCircle
 10
6381.5062272161
 20
4999.040086775
 30
0.0
 40
5.0
100
AcDbArc
 50
90.0
 51
270.0
  0
LINE
  5
19F
330
1F
100
AcDbEntity
  8
0
  6
Continuous
 62
     7
370
    25
100
AcDbLine
 10
6341.4062272161
 20
4994.040086775
 30
0.0
 11
6361.4062272161
 21
4994.040086775
 31
0.0
  0
ARC
  5
1A0
330
1F
100
AcDbEntity
  8
0
  6
Continuous
 62
     7
370
    25
100
AcDbCircle
 10
6361.4062272161
 20
4999.040086775
 30
0.0
 40
5.0
100
AcDbArc
 50
270.0
 51
90.0
  0
LINE
  5
1A1
330
1F
100
AcDbEntity
  8
0
  6
Continuous
 62
     7
370
    25
100
AcDbLine
 10
6361.4062272161
 20
5004.040086775
 30
0.0
 11
6341.4062272161
 21
5004.040086775
 31
0.0
  0
ARC
  5
1A2
330
1F
100
AcDbEntity
  8
0
  6
Continuous
 62
     7
370
    25
100
AcDbCircle
 10
6341.4062272161
 20
4999.040086775
 30
0.0
 40
5.0
100
AcDbArc
 50
90.0
 51
270.0
  0
LINE
  5
1A3
330
1F
100
AcDbEntity
  8
0
  6
Continuous
 62
     7
370
    25
100
AcDbLine
 10
6301.3062272161
 20
4994.040086775
 30
0.0
 11
6321.3062272161
 21
4994.040086775
 31
0.0
  0
ARC
  5
1A4
330
1F
100
AcDbEntity
  8
0
  6
Continuous
 62
     7
370
    25
100
AcDbCircle
 10
6321.3062272161
 20
4999.040086775
 30
0.0
 40
5.0
100
AcDbArc
 50
270.0
 51
90.0
  0
LINE
  5
1A5
330
1F
100
AcDbEntity
  8
0
  6
Continuous
 62
     7
370
    25
100
AcDbLine
 10
6321.3062272161
 20
5004.040086775
 30
0.0
 11
6301.3062272161
 21
5004.040086775
 31
0.0
  0
ARC
  5
1A6
330
1F
100
AcDbEntity
  8
0
  6
Continuous
 62
     7
370
    25
100
AcDbCircle
 10
6301.3062272161
 20
4999.040086775
 30
0.0
 40
5.0
100
AcDbArc
 50
90.0
 51
270.0
  0
LINE
  5
1A7
330
1F
100
AcDbEntity
  8
0
  6
Continuous
 62
     7
370
    25
100
AcDbLine
 10
6261.2062272161
 20
4994.040086775
 30
0.0
 11
6281.2062272161
 21
4994.040086775
 31
0.0
  0
ARC
  5
1A8
330
1F
100
AcDbEntity
  8
0
  6
Continuous
 62
     7
370
    25
100
AcDbCircle
 10
6281.2062272161
 20
4999.040086775
 30
0.0
 40
5.0
100
AcDbArc
 50
270.0
 51
90.0
  0
LINE
  5
1A9
330
1F
100
AcDbEntity
  8
0
  6
Continuous
 62
     7
370
    25
100
AcDbLine
 10
6281.2062272161
 20
5004.040086775
 30
0.0
 11
6261.2062272161
 21
5004.040086775
 31
0.0
  0
ARC
  5
1AA
330
1F
100
AcDbEntity
  8
0
  6
Continuous
 62
     7
370
    25
100
AcDbCircle
 10
6261.2062272161
 20
4999.040086775
 30
0.0
 40
5.0
100
AcDbArc
 50
90.0
 51
270.0
  0
LINE
  5
1AB
330
1F
100
AcDbEntity
  8
0
  6
Continuous
 62
     7
370
    25
100
AcDbLine
 10
6221.1062272161
 20
4994.040086775
 30
0.0
 11
6241.1062272161
 21
4994.040086775
 31
0.0
  0
ARC
  5
1AC
330
1F
100
AcDbEntity
  8
0
  6
Continuous
 62
     7
370
    25
100
AcDbCircle
 10
6241.1062272161
 20
4999.040086775
 30
0.0
 40
5.0
100
AcDbArc
 50
270.0
 51
90.0
  0
LINE
  5
1AD
330
1F
100
AcDbEntity
  8
0
  6
Continuous
 62
     7
370
    25
100
AcDbLine
 10
6241.1062272161
 20
5004.040086775
 30
0.0
 11
6221.1062272161
 21
5004.040086775
 31
0.0
  0
ARC
  5
1AE
330
1F
100
AcDbEntity
  8
0
  6
Continuous
 62
     7
370
    25
100
AcDbCircle
 10
6221.1062272161
 20
4999.040086775
 30
0.0
 40
5.0
100
AcDbArc
 50
90.0
 51
270.0
  0
LINE
  5
1AF
330
1F
100
AcDbEntity
  8
0
  6
Continuous
 62
     7
370
    25
100
AcDbLine
 10
6181.0062272161
 20
4994.040086775
 30
0.0
 11
6201.0062272161
 21
4994.040086775
 31
0.0
  0
ARC
  5
1B0
330
1F
100
AcDbEntity
  8
0
  6
Continuous
 62
     7
370
    25
100
AcDbCircle
 10
6201.0062272161
 20
4999.040086775
 30
0.0
 40
5.0
100
AcDbArc
 50
270.0
 51
90.0
  0
LINE
  5
1B1
330
1F
100
AcDbEntity
  8
0
  6
Continuous
 62
     7
370
    25
100
AcDbLine
 10
6201.0062272161
 20
5004.040086775
 30
0.0
 11
6181.0062272161
 21
5004.040086775
 31
0.0
  0
ARC
  5
1B2
330
1F
100
AcDbEntity
  8
0
  6
Continuous
 62
     7
370
    25
100
AcDbCircle
 10
6181.0062272161
 20
4999.040086775
 30
0.0
 40
5.0
100
AcDbArc
 50
90.0
 51
270.0
  0
LINE
  5
1B3
330
1F
100
AcDbEntity
  8
0
  6
Continuous
 62
     7
370
    25
100
AcDbLine
 10
6140.9062272161
 20
4994.040086775
 30
0.0
 11
6160.9062272161
 21
4994.040086775
 31
0.0
  0
ARC
  5
1B4
330
1F
100
AcDbEntity
  8
0
  6
Continuous
 62
     7
370
    25
100
AcDbCircle
 10
6160.9062272161
 20
4999.040086775
 30
0.0
 40
5.0
100
AcDbArc
 50
270.0
 51
90.0
  0
LINE
  5
1B5
330
1F
100
AcDbEntity
  8
0
  6
Continuous
 62
     7
370
    25
100
AcDbLine
 10
6160.9062272161
 20
5004.040086775
 30
0.0
 11
6140.9062272161
 21
5004.040086775
 31
0.0
  0
ARC
  5
1B6
330
1F
100
AcDbEntity
  8
0
  6
Continuous
 62
     7
370
    25
100
AcDbCircle
 10
6140.9062272161
 20
4999.040086775
 30
0.0
 40
5.0
100
AcDbArc
 50
90.0
 51
270.0
  0
LINE
  5
1B7
330
1F
100
AcDbEntity
  8
0
  6
Continuous
 62
     7
370
    25
100
AcDbLine
 10
6100.8062272161
 20
4994.040086775
 30
0.0
 11
6120.8062272161
 21
4994.040086775
 31
0.0
  0
ARC
  5
1B8
330
1F
100
AcDbEntity
  8
0
  6
Continuous
 62
     7
370
    25
100
AcDbCircle
 10
6120.8062272161
 20
4999.040086775
 30
0.0
 40
5.0
100
AcDbArc
 50
270.0
 51
90.0
  0
LINE
  5
1B9
330
1F
100
AcDbEntity
  8
0
  6
Continuous
 62
     7
370
    25
100
AcDbLine
 10
6120.8062272161
 20
5004.040086775
 30
0.0
 11
6100.8062272161
 21
5004.040086775
 31
0.0
  0
ARC
  5
1BA
330
1F
100
AcDbEntity
  8
0
  6
Continuous
 62
     7
370
    25
100
AcDbCircle
 10
6100.8062272161
 20
4999.040086775
 30
0.0
 40
5.0
100
AcDbArc
 50
90.0
 51
270.0
  0
LINE
  5
1BB
330
1F
100
AcDbEntity
  8
0
  6
Continuous
 62
     7
370
    25
100
AcDbLine
 10
6987.0349467462
 20
4954.040086775
 30
0.0
 11
7003.0062272161
 21
4954.040086775
 31
0.0
  0
ARC
  5
1BC
330
1F
100
AcDbEntity
  8
0
  6
Continuous
 62
     7
370
    25
100
AcDbCircle
 10
7003.0062272161
 20
4959.040086775
 30
0.0
 40
5.0
100
AcDbArc
 50
270.0
 51
90.0
  0
LINE
  5
1BD
330
1F
100
AcDbEntity
  8
0
  6
Continuous
 62
     7
370
    25
100
AcDbLine
 10
7003.0062272161
 20
4964.040086775
 30
0.0
 11
6983.0062272161
 21
4964.040086775
 31
0.0
  0
ARC
  5
1BE
330
1F
100
AcDbEntity
  8
0
  6
Continuous
 62
     7
370
    25
100
AcDbCircle
 10
6983.0062272161
 20
4959.040086775
 30
0.0
 40
5.00000000000081
100
AcDbArc
 50
90.0
 51
168.4630409672
  0
ARC
  5
1BF
330
1F
100
AcDbEntity
  8
0
  6
Continuous
 62
     7
370
    25
100
AcDbCircle
 10
6962.9062272161
 20
4959.040086775
 30
0.0
 40
5.0
100
AcDbArc
 50
11.5369590328
 51
90.0
  0
LINE
  5
1C0
330
1F
100
AcDbEntity
  8
0
  6
Continuous
 62
     7
370
    25
100
AcDbLine
 10
6962.9062272161
 20
4964.040086775
 30
0.0
 11
6942.9062272161
 21
4964.040086775
 31
0.0
  0
ARC
  5
1C1
330
1F
100
AcDbEntity
  8
0
  6
Continuous
 62
     7
370
    25
100
AcDbCircle
 10
6942.9062272161
 20
4959.040086775
 30
0.0
 40
5.0
100
AcDbArc
 50
90.0
 51
168.4630409672
  0
ARC
  5
1C2
330
1F
100
AcDbEntity
  8
0
  6
Continuous
 62
     7
370
    25
100
AcDbCircle
 10
6922.8062272161
 20
4959.040086775
 30
0.0
 40
5.00000000000081
100
AcDbArc
 50
11.5369590328
 51
90.0
  0
LINE
  5
1C3
330
1F
100
AcDbEntity
  8
0
  6
Continuous
 62
     7
370
    25
100
AcDbLine
 10
6922.8062272161
 20
4964.040086775
 30
0.0
 11
6902.8062272161
 21
4964.040086775
 31
0.0
  0
ARC
  5
1C4
330
1F
100
AcDbEntity
  8
0
  6
Continuous
 62
     7
370
    25
100
AcDbCircle
 10
6902.8062272161
 20
4959.040086775
 30
0.0
 40
5.0
100
AcDbArc
 50
90.0
 51
168.4630409672
  0
ARC
  5
1C5
330
1F
100
AcDbEntity
  8
0
  6
Continuous
 62
     7
370
    25
100
AcDbCircle
 10
6882.7062272161
 20
4959.040086775
 30
0.0
 40
5.00000000000081
100
AcDbArc
 50
11.5369590328
 51
90.0
  0
LINE
  5
1C6
330
1F
100
AcDbEntity
  8
0
  6
Continuous
 62
     7
370
    25
100
AcDbLine
 10
6882.7062272161
 20
4964.040086775
 30
0.0
 11
6862.7062272161
 21
4964.040086775
 31
0.0
  0
ARC
  5
1C7
330
1F
100
AcDbEntity
  8
0
  6
Continuous
 62
     7
370
    25
100
AcDbCircle
 10
6862.7062272161
 20
4959.040086775
 30
0.0
 40
5.0
100
AcDbArc
 50
90.0
 51
168.4630409672
  0
ARC
  5
1C8
330
1F
100
AcDbEntity
  8
0
  6
Continuous
 62
     7
370
    25
100
AcDbCircle
 10
6842.6062272161
 20
4959.040086775
 30
0.0
 40
5.0
100
AcDbArc
 50
11.5369590328
 51
90.0
  0
LINE
  5
1C9
330
1F
100
AcDbEntity
  8
0
  6
Continuous
 62
     7
370
    25
100
AcDbLine
 10
6842.6062272161
 20
4964.040086775
 30
0.0
 11
6822.6062272161
 21
4964.040086775
 31
0.0
  0
ARC
  5
1CA
330
1F
100
AcDbEntity
  8
0
  6
Continuous
 62
     7
370
    25
100
AcDbCircle
 10
6822.6062272161
 20
4959.040086775
 30
0.0
 40
5.0
100
AcDbArc
 50
90.0
 51
168.4630409672
  0
ARC
  5
1CB
330
1F
100
AcDbEntity
  8
0
  6
Continuous
 62
     7
370
    25
100
AcDbCircle
 10
6802.5062272161
 20
4959.040086775
 30
0.0
 40
5.0
100
AcDbArc
 50
11.5369590328
 51
90.0
  0
LINE
  5
1CC
330
1F
100
AcDbEntity
  8
0
  6
Continuous
 62
     7
370
    25
100
AcDbLine
 10
6802.5062272161
 20
4964.040086775
 30
0.0
 11
6782.5062272161
 21
4964.040086775
 31
0.0
  0
ARC
  5
1CD
330
1F
100
AcDbEntity
  8
0
  6
Continuous
 62
     7
370
    25
100
AcDbCircle
 10
6782.5062272161
 20
4959.040086775
 30
0.0
 40
5.00000000000081
100
AcDbArc
 50
90.0
 51
168.4630409672
  0
ARC
  5
1CE
330
1F
100
AcDbEntity
  8
0
  6
Continuous
 62
     7
370
    25
100
AcDbCircle
 10
6762.4062272161
 20
4959.040086775
 30
0.0
 40
5.0
100
AcDbArc
 50
11.5369590328
 51
90.0
  0
LINE
  5
1CF
330
1F
100
AcDbEntity
  8
0
  6
Continuous
 62
     7
370
    25
100
AcDbLine
 10
6762.4062272161
 20
4964.040086775
 30
0.0
 11
6742.4062272161
 21
4964.040086775
 31
0.0
  0
ARC
  5
1D0
330
1F
100
AcDbEntity
  8
0
  6
Continuous
 62
     7
370
    25
100
AcDbCircle
 10
6742.4062272161
 20
4959.040086775
 30
0.0
 40
5.0
100
AcDbArc
 50
90.0
 51
168.4630409672
  0
ARC
  5
1D1
330
1F
100
AcDbEntity
  8
0
  6
Continuous
 62
     7
370
    25
100
AcDbCircle
 10
6722.3062272161
 20
4959.040086775
 30
0.0
 40
5.00000000000081
100
AcDbArc
 50
11.5369590328
 51
90.0
  0
LINE
  5
1D2
330
1F
100
AcDbEntity
  8
0
  6
Continuous
 62
     7
370
    25
100
AcDbLine
 10
6722.3062272161
 20
4964.040086775
 30
0.0
 11
6702.3062272161
 21
4964.040086775
 31
0.0
  0
ARC
  5
1D3
330
1F
100
AcDbEntity
  8
0
  6
Continuous
 62
     7
370
    25
100
AcDbCircle
 10
6702.3062272161
 20
4959.040086775
 30
0.0
 40
5.0
100
AcDbArc
 50
90.0
 51
168.4630409672
  0
ARC
  5
1D4
330
1F
100
AcDbEntity
  8
0
  6
Continuous
 62
     7
370
    25
100
AcDbCircle
 10
6682.2062272161
 20
4959.040086775
 30
0.0
 40
5.0
100
AcDbArc
 50
11.5369590328
 51
90.0
  0
LINE
  5
1D5
330
1F
100
AcDbEntity
  8
0
  6
Continuous
 62
     7
370
    25
100
AcDbLine
 10
6682.2062272161
 20
4964.040086775
 30
0.0
 11
6662.2062272161
 21
4964.040086775
 31
0.0
  0
ARC
  5
1D6
330
1F
100
AcDbEntity
  8
0
  6
Continuous
 62
     7
370
    25
100
AcDbCircle
 10
6662.2062272161
 20
4959.040086775
 30
0.0
 40
5.00000000000081
100
AcDbArc
 50
90.0
 51
168.4630409672
  0
ARC
  5
1D7
330
1F
100
AcDbEntity
  8
0
  6
Continuous
 62
     7
370
    25
100
AcDbCircle
 10
6642.1062272161
 20
4959.040086775
 30
0.0
 40
5.0
100
AcDbArc
 50
11.5369590328
 51
90.0
  0
LINE
  5
1D8
330
1F
100
AcDbEntity
  8
0
  6
Continuous
 62
     7
370
    25
100
AcDbLine
 10
6642.1062272161
 20
4964.040086775
 30
0.0
 11
6622.1062272161
 21
4964.040086775
 31
0.0
  0
ARC
  5
1D9
330
1F
100
AcDbEntity
  8
0
  6
Continuous
 62
     7
370
    25
100
AcDbCircle
 10
6622.1062272161
 20
4959.040086775
 30
0.0
 40
5.0
100
AcDbArc
 50
90.0
 51
168.4630409672
  0
ARC
  5
1DA
330
1F
100
AcDbEntity
  8
0
  6
Continuous
 62
     7
370
    25
100
AcDbCircle
 10
6602.0062272161
 20
4959.040086775
 30
0.0
 40
5.00000000000081
100
AcDbArc
 50
11.5369590328
 51
90.0
  0
LINE
  5
1DB
330
1F
100
AcDbEntity
  8
0
  6
Continuous
 62
     7
370
    25
100
AcDbLine
 10
6602.0062272161
 20
4964.040086775
 30
0.0
 11
6582.0062272161
 21
4964.040086775
 31
0.0
  0
ARC
  5
1DC
330
1F
100
AcDbEntity
  8
0
  6
Continuous
 62
     7
370
    25
100
AcDbCircle
 10
6582.0062272161
 20
4959.040086775
 30
0.0
 40
5.0
100
AcDbArc
 50
90.0
 51
168.4630409672
  0
ARC
  5
1DD
330
1F
100
AcDbEntity
  8
0
  6
Continuous
 62
     7
370
    25
100
AcDbCircle
 10
6561.9062272161
 20
4959.040086775
 30
0.0
 40
5.0
100
AcDbArc
 50
11.5369590328
 51
90.0
  0
LINE
  5
1DE
330
1F
100
AcDbEntity
  8
0
  6
Continuous
 62
     7
370
    25
100
AcDbLine
 10
6561.9062272161
 20
4964.040086775
 30
0.0
 11
6541.9062272161
 21
4964.040086775
 31
0.0
  0
ARC
  5
1DF
330
1F
100
AcDbEntity
  8
0
  6
Continuous
 62
     7
370
    25
100
AcDbCircle
 10
6541.9062272161
 20
4959.040086775
 30
0.0
 40
5.0
100
AcDbArc
 50
90.0
 51
168.4630409672
  0
ARC
  5
1E0
330
1F
100
AcDbEntity
  8
0
  6
Continuous
 62
     7
370
    25
100
AcDbCircle
 10
6521.8062272161
 20
4959.040086775
 30
0.0
 40
5.0
100
AcDbArc
 50
11.5369590328
 51
90.0
  0
LINE
  5
1E1
330
1F
100
AcDbEntity
  8
0
  6
Continuous
 62
     7
370
    25
100
AcDbLine
 10
6521.8062272161
 20
4964.040086775
 30
0.0
 11
6501.8062272161
 21
4964.040086775
 31
0.0
  0
ARC
  5
1E2
330
1F
100
AcDbEntity
  8
0
  6
Continuous
 62
     7
370
    25
100
AcDbCircle
 10
6501.8062272161
 20
4959.040086775
 30
0.0
 40
5.0
100
AcDbArc
 50
90.0
 51
168.4630409672
  0
ARC
  5
1E3
330
1F
100
AcDbEntity
  8
0
  6
Continuous
 62
     7
370
    25
100
AcDbCircle
 10
6481.7062272161
 20
4959.040086775
 30
0.0
 40
5.0
100
AcDbArc
 50
11.5369590328
 51
90.0
  0
LINE
  5
1E4
330
1F
100
AcDbEntity
  8
0
  6
Continuous
 62
     7
370
    25
100
AcDbLine
 10
6481.7062272161
 20
4964.040086775
 30
0.0
 11
6461.7062272161
 21
4964.040086775
 31
0.0
  0
ARC
  5
1E5
330
1F
100
AcDbEntity
  8
0
  6
Continuous
 62
     7
370
    25
100
AcDbCircle
 10
6461.7062272161
 20
4959.040086775
 30
0.0
 40
5.00000000000081
100
AcDbArc
 50
90.0
 51
168.4630409672
  0
ARC
  5
1E6
330
1F
100
AcDbEntity
  8
0
  6
Continuous
 62
     7
370
    25
100
AcDbCircle
 10
6441.6062272161
 20
4959.040086775
 30
0.0
 40
5.0
100
AcDbArc
 50
11.5369590328
 51
90.0
  0
LINE
  5
1E7
330
1F
100
AcDbEntity
  8
0
  6
Continuous
 62
     7
370
    25
100
AcDbLine
 10
6441.6062272161
 20
4964.040086775
 30
0.0
 11
6421.6062272161
 21
4964.040086775
 31
0.0
  0
ARC
  5
1E8
330
1F
100
AcDbEntity
  8
0
  6
Continuous
 62
     7
370
    25
100
AcDbCircle
 10
6421.6062272161
 20
4959.040086775
 30
0.0
 40
5.00000000000081
100
AcDbArc
 50
90.0
 51
168.4630409672
  0
ARC
  5
1E9
330
1F
100
AcDbEntity
  8
0
  6
Continuous
 62
     7
370
    25
100
AcDbCircle
 10
6401.5062272161
 20
4959.040086775
 30
0.0
 40
5.00000000000081
100
AcDbArc
 50
11.5369590328
 51
90.0
  0
LINE
  5
1EA
330
1F
100
AcDbEntity
  8
0
  6
Continuous
 62
     7
370
    25
100
AcDbLine
 10
6401.5062272161
 20
4964.040086775
 30
0.0
 11
6381.5062272161
 21
4964.040086775
 31
0.0
  0
ARC
  5
1EB
330
1F
100
AcDbEntity
  8
0
  6
Continuous
 62
     7
370
    25
100
AcDbCircle
 10
6381.5062272161
 20
4959.040086775
 30
0.0
 40
5.0
100
AcDbArc
 50
90.0
 51
168.4630409672
  0
ARC
  5
1EC
330
1F
100
AcDbEntity
  8
0
  6
Continuous
 62
     7
370
    25
100
AcDbCircle
 10
6361.4062272161
 20
4959.040086775
 30
0.0
 40
5.0
100
AcDbArc
 50
11.5369590328
 51
90.0
  0
LINE
  5
1ED
330
1F
100
AcDbEntity
  8
0
  6
Continuous
 62
     7
370
    25
100
AcDbLine
 10
6361.4062272161
 20
4964.040086775
 30
0.0
 11
6341.4062272161
 21
4964.040086775
 31
0.0
  0
ARC
  5
1EE
330
1F
100
AcDbEntity
  8
0
  6
Continuous
 62
     7
370
    25
100
AcDbCircle
 10
6341.4062272161
 20
4959.040086775
 30
0.0
 40
5.00000000000081
100
AcDbArc
 50
90.0
 51
168.4630409672
  0
ARC
  5
1EF
330
1F
100
AcDbEntity
  8
0
  6
Continuous
 62
     7
370
    25
100
AcDbCircle
 10
6321.3062272161
 20
4959.040086775
 30
0.0
 40
5.0
100
AcDbArc
 50
11.5369590328
 51
90.0
  0
LINE
  5
1F0
330
1F
100
AcDbEntity
  8
0
  6
Continuous
 62
     7
370
    25
100
AcDbLine
 10
6321.3062272161
 20
4964.040086775
 30
0.0
 11
6301.3062272161
 21
4964.040086775
 31
0.0
  0
ARC
  5
1F1
330
1F
100
AcDbEntity
  8
0
  6
Continuous
 62
     7
370
    25
100
AcDbCircle
 10
6301.3062272161
 20
4959.040086775
 30
0.0
 40
5.0
100
AcDbArc
 50
90.0
 51
168.4630409672
  0
ARC
  5
1F2
330
1F
100
AcDbEntity
  8
0
  6
Continuous
 62
     7
370
    25
100
AcDbCircle
 10
6281.2062272161
 20
4959.040086775
 30
0.0
 40
5.00000000000081
100
AcDbArc
 50
11.5369590328
 51
90.0
  0
LINE
  5
1F3
330
1F
100
AcDbEntity
  8
0
  6
Continuous
 62
     7
370
    25
100
AcDbLine
 10
6281.2062272161
 20
4964.040086775
 30
0.0
 11
6261.2062272161
 21
4964.040086775
 31
0.0
  0
ARC
  5
1F4
330
1F
100
AcDbEntity
  8
0
  6
Continuous
 62
     7
370
    25
100
AcDbCircle
 10
6261.2062272161
 20
4959.040086775
 30
0.0
 40
5.0
100
AcDbArc
 50
90.0
 51
168.4630409672
  0
ARC
  5
1F5
330
1F
100
AcDbEntity
  8
0
  6
Continuous
 62
     7
370
    25
100
AcDbCircle
 10
6241.1062272161
 20
4959.040086775
 30
0.0
 40
5.0
100
AcDbArc
 50
11.5369590328
 51
90.0
  0
LINE
  5
1F6
330
1F
100
AcDbEntity
  8
0
  6
Continuous
 62
     7
370
    25
100
AcDbLine
 10
6241.1062272161
 20
4964.040086775
 30
0.0
 11
6221.1062272161
 21
4964.040086775
 31
0.0
  0
ARC
  5
1F7
330
1F
100
AcDbEntity
  8
0
  6
Continuous
 62
     7
370
    25
100
AcDbCircle
 10
6221.1062272161
 20
4959.040086775
 30
0.0
 40
5.0
100
AcDbArc
 50
90.0
 51
168.4630409672
  0
ARC
  5
1F8
330
1F
100
AcDbEntity
  8
0
  6
Continuous
 62
     7
370
    25
100
AcDbCircle
 10
6201.0062272161
 20
4959.040086775
 30
0.0
 40
5.0
100
AcDbArc
 50
11.5369590328
 51
90.0
  0
LINE
  5
1F9
330
1F
100
AcDbEntity
  8
0
  6
Continuous
 62
     7
370
    25
100
AcDbLine
 10
6201.0062272161
 20
4964.040086775
 30
0.0
 11
6181.0062272161
 21
4964.040086775
 31
0.0
  0
ARC
  5
1FA
330
1F
100
AcDbEntity
  8
0
  6
Continuous
 62
     7
370
    25
100
AcDbCircle
 10
6181.0062272161
 20
4959.040086775
 30
0.0
 40
5.0
100
AcDbArc
 50
90.0
 51
168.4630409672
  0
ARC
  5
1FB
330
1F
100
AcDbEntity
  8
0
  6
Continuous
 62
     7
370
    25
100
AcDbCircle
 10
6160.9062272161
 20
4959.040086775
 30
0.0
 40
5.00000000000081
100
AcDbArc
 50
11.5369590328
 51
90.0
  0
LINE
  5
1FC
330
1F
100
AcDbEntity
  8
0
  6
Continuous
 62
     7
370
    25
100
AcDbLine
 10
6160.9062272161
 20
4964.040086775
 30
0.0
 11
6140.9062272161
 21
4964.040086775
 31
0.0
  0
ARC
  5
1FD
330
1F
100
AcDbEntity
  8
0
  6
Continuous
 62
     7
370
    25
100
AcDbCircle
 10
6140.9062272161
 20
4959.040086775
 30
0.0
 40
5.00000000000081
100
AcDbArc
 50
90.0
 51
168.4630409672
  0
ARC
  5
1FE
330
1F
100
AcDbEntity
  8
0
  6
Continuous
 62
     7
370
    25
100
AcDbCircle
 10
6120.8062272161
 20
4959.040086775
 30
0.0
 40
5.0
100
AcDbArc
 50
11.5369590328
 51
90.0
  0
LINE
  5
1FF
330
1F
100
AcDbEntity
  8
0
  6
Continuous
 62
     7
370
    25
100
AcDbLine
 10
6120.8062272161
 20
4964.040086775
 30
0.0
 11
6100.8062272161
 21
4964.040086775
 31
0.0
  0
ARC
  5
200
330
1F
100
AcDbEntity
  8
0
  6
Continuous
 62
     7
370
    25
100
AcDbCircle
 10
6100.8062272161
 20
4959.040086775
 30
0.0
 40
5.0
100
AcDbArc
 50
90.0
 51
168.4630409672
  0
LINE
  5
201
330
1F
100
AcDbEntity
  8
0
  6
Continuous
 62
     7
370
    25
100
AcDbLine
 10
6010.6062272161
 20
5012.840086775
 30
0.0
 11
7015.2062272161
 21
5012.840086775
 31
0.0
  0
ARC
  5
202
330
1F
100
AcDbEntity
  8
0
  6
Continuous
 62
     7
370
    25
100
AcDbCircle
 10
6040.6062272161
 20
4999.040086775
 30
0.0
 40
5.0
100
AcDbArc
 50
270.0
 51
90.0
  0
LINE
  5
203
330
1F
100
AcDbEntity
  8
0
  6
Continuous
 62
     7
370
    25
100
AcDbLine
 10
6040.6062272161
 20
5004.040086775
 30
0.0
 11
6020.6062272161
 21
5004.040086775
 31
0.0
  0
ARC
  5
204
330
1F
100
AcDbEntity
  8
0
  6
Continuous
 62
     7
370
    25
100
AcDbCircle
 10
6020.6062272161
 20
4999.040086775
 30
0.0
 40
5.0
100
AcDbArc
 50
90.0
 51
270.0
  0
LINE
  5
205
330
1F
100
AcDbEntity
  8
0
  6
Continuous
 62
     7
370
    25
100
AcDbLine
 10
6020.6062272161
 20
4994.040086775
 30
0.0
 11
6040.6062272161
 21
4994.040086775
 31
0.0
  0
ARC
  5
206
330
1F
100
AcDbEntity
  8
0
  6
Continuous
 62
     7
370
    25
100
AcDbCircle
 10
6040.6062272161
 20
4979.040086775
 30
0.0
 40
5.000000000000909
100
AcDbArc
 50
270.0
 51
90.0
  0
LINE
  5
207
330
1F
100
AcDbEntity
  8
0
  6
Continuous
 62
     7
370
    25
100
AcDbLine
 10
6040.6062272161
 20
4984.040086775
 30
0.0
 11
6020.6062272161
 21
4984.040086775
 31
0.0
  0
ARC
  5
208
330
1F
100
AcDbEntity
  8
0
  6
Continuous
 62
     7
370
    25
100
AcDbCircle
 10
6020.6062272161
 20
4979.040086775
 30
0.0
 40
5.000000000000909
100
AcDbArc
 50
90.0
 51
270.0
  0
LINE
  5
209
330
1F
100
AcDbEntity
  8
0
  6
Continuous
 62
     7
370
    25
100
AcDbLine
 10
6020.6062272161
 20
4974.040086775
 30
0.0
 11
6040.6062272161
 21
4974.040086775
 31
0.0
  0
ARC
  5
20A
330
1F
100
AcDbEntity
  8
0
  6
Continuous
 62
     7
370
    25
100
AcDbCircle
 10
6040.6062272161
 20
4959.040086775
 30
0.0
 40
5.0
100
AcDbArc
 50
11.5369590328
 51
90.0
  0
LINE
  5
20B
330
1F
100
AcDbEntity
  8
0
  6
Continuous
 62
     7
370
    25
100
AcDbLine
 10
6040.6062272161
 20
4964.040086775
 30
0.0
 11
6020.6062272161
 21
4964.040086775
 31
0.0
  0
ARC
  5
20C
330
1F
100
AcDbEntity
  8
0
  6
Continuous
 62
     7
370
    25
100
AcDbCircle
 10
6020.6062272161
 20
4959.040086775
 30
0.0
 40
5.0
100
AcDbArc
 50
90.0
 51
270.0
  0
LINE
  5
20D
330
1F
100
AcDbEntity
  8
0
  6
Continuous
 62
     7
370
    25
100
AcDbLine
 10
6020.6062272161
 20
4954.040086775
 30
0.0
 11
6038.7775076861
 21
4954.040086775
 31
0.0
  0
ARC
  5
20E
330
1F
100
AcDbEntity
  8
0
  6
Continuous
 62
     7
370
    25
100
AcDbCircle
 10
6080.7062272161
 20
4959.040086775
 30
0.0
 40
5.00000000000081
100
AcDbArc
 50
11.5369590328
 51
90.0
  0
LINE
  5
20F
330
1F
100
AcDbEntity
  8
0
  6
Continuous
 62
     7
370
    25
100
AcDbLine
 10
6080.7062272161
 20
4964.040086775
 30
0.0
 11
6060.7062272161
 21
4964.040086775
 31
0.0
  0
ARC
  5
210
330
1F
100
AcDbEntity
  8
0
  6
Continuous
 62
     7
370
    25
100
AcDbCircle
 10
6060.7062272161
 20
4959.040086775
 30
0.0
 40
5.00000000000081
100
AcDbArc
 50
90.0
 51
168.4630409672
  0
ARC
  5
211
330
1F
100
AcDbEntity
  8
0
  6
Continuous
 62
     7
370
    25
100
AcDbCircle
 10
6080.7062272161
 20
4999.040086775
 30
0.0
 40
5.0
100
AcDbArc
 50
270.0
 51
90.0
  0
LINE
  5
212
330
1F
100
AcDbEntity
  8
0
  6
Continuous
 62
     7
370
    25
100
AcDbLine
 10
6080.7062272161
 20
5004.040086775
 30
0.0
 11
6060.7062272161
 21
5004.040086775
 31
0.0
  0
ARC
  5
213
330
1F
100
AcDbEntity
  8
0
  6
Continuous
 62
     7
370
    25
100
AcDbCircle
 10
6060.7062272161
 20
4999.040086775
 30
0.0
 40
5.0
100
AcDbArc
 50
90.0
 51
270.0
  0
LINE
  5
214
330
1F
100
AcDbEntity
  8
0
  6
Continuous
 62
     7
370
    25
100
AcDbLine
 10
6060.7062272161
 20
4994.040086775
 30
0.0
 11
6080.7062272161
 21
4994.040086775
 31
0.0
  0
ARC
  5
215
330
1F
100
AcDbEntity
  8
0
  6
Continuous
 62
     7
370
    25
100
AcDbCircle
 10
6080.7062272161
 20
4979.040086775
 30
0.0
 40
5.000000000000909
100
AcDbArc
 50
270.0
 51
90.0
  0
LINE
  5
216
330
1F
100
AcDbEntity
  8
0
  6
Continuous
 62
     7
370
    25
100
AcDbLine
 10
6080.7062272161
 20
4984.040086775
 30
0.0
 11
6060.7062272161
 21
4984.040086775
 31
0.0
  0
ARC
  5
217
330
1F
100
AcDbEntity
  8
0
  6
Continuous
 62
     7
370
    25
100
AcDbCircle
 10
6060.7062272161
 20
4979.040086775
 30
0.0
 40
5.000000000000909
100
AcDbArc
 50
90.0
 51
270.0
  0
LINE
  5
218
330
1F
100
AcDbEntity
  8
0
  6
Continuous
 62
     7
370
    25
100
AcDbLine
 10
6060.7062272161
 20
4974.040086775
 30
0.0
 11
6080.7062272161
 21
4974.040086775
 31
0.0
  0
LINE
  5
219
330
1F
100
AcDbEntity
  8
0
  6
Continuous
 62
     7
370
    25
100
AcDbLine
 10
7015.2062272161
 20
5012.840086775
 30
0.0
 11
7015.2062272161
 21
4944.040086775
 31
0.0
  0
LINE
  5
21A
330
1F
100
AcDbEntity
  8
0
  6
Continuous
 62
     7
370
    25
100
AcDbLine
 10
6010.6062272161
 20
4944.040086775
 30
0.0
 11
6010.6062272161
 21
5012.840086775
 31
0.0
  0
LINE
  5
21B
330
1F
100
AcDbEntity
  8
0
  6
Continuous
 62
     7
370
    25
100
AcDbLine
 10
6546.1562272161
 20
4940.2444505413
 30
0.0
 11
6479.6562272161
 21
4940.2444505413
 31
0.0
  0
LINE
  5
21C
330
1F
100
AcDbEntity
  8
0
  6
Continuous
 62
     7
370
    25
100
AcDbLine
 10
6472.9062272161
 20
4938.7363759273
 30
0.0
 11
6552.9062272161
 21
4938.7363759273
 31
0.0
  0
LWPOLYLINE
  5
21D
330
1F
100
AcDbEntity
  8
0
  6
Continuous
 62
     7
370
    25
100
AcDbPolyline
 90
       18
 70
   128
 43
0.0
 10
6556.6603420709
 20
4915.5395596574
 10
6556.7054192912
 20
4915.5704394944
 10
6555.9621150475
 20
4915.0674263329
 10
6554.4206602109
 20
4914.0412708685
 10
6552.3388277174
 20
4912.6875296986
 10
6549.7010054091
 20
4911.0238384288
 10
6546.602049858
 20
4909.1407758177
 10
6543.0174659376
 20
4907.0589715343
 10
6539.054064211
 20
4904.8692773523
 10
6534.7887995861
 20
4902.6397436351
 10
6528.3071206145
 20
4899.499459985
 10
6521.4311206313
 20
4896.4718748116
 10
6514.7652983966
 20
4893.8275358926
 10
6508.0296808636
 20
4891.427790344
 10
6501.5989970201
 20
4889.3883326772
 10
6495.4350619196
 20
4887.6515546538
 10
6489.7734164034
 20
4886.2439015493
 10
6484.7490216304
 20
4885.1384908364
  0
LWPOLYLINE
  5
21E
330
1F
100
AcDbEntity
  8
0
  6
Continuous
 62
     7
370
    25
100
AcDbPolyline
 90
        9
 70
   128
 43
0.0
 10
6478.1156430383
 20
4891.9329218898
 10
6478.3794148444
 20
4890.4604116686
 10
6478.8696017187
 20
4889.0579818675
 10
6479.5638036922
 20
4887.7897190329
 10
6480.4302979601
 20
4886.7135787111
 10
6481.4294885116
 20
4885.8787370654
 10
6482.5157155415
 20
4885.3233436829
 10
6483.6393419563
 20
4885.0727782611
 10
6484.7490216304
 20
4885.1384908364
  0
LINE
  5
21F
330
1F
100
AcDbEntity
  8
0
  6
Continuous
 62
     7
370
    25
100
AcDbLine
 10
6478.1156430383
 20
4891.9329218898
 30
0.0
 11
6477.866411867
 21
4930.240086775
 31
0.0
  0
LINE
  5
220
330
1F
100
AcDbEntity
  8
0
  6
Continuous
 62
     7
370
    25
100
AcDbLine
 10
6477.1880777691
 20
4930.240086775
 30
0.0
 11
6561.9062272161
 21
4930.240086775
 31
0.0
  0
LINE
  5
221
330
1F
100
AcDbEntity
  8
0
  6
Continuous
 62
     7
370
    25
100
AcDbLine
 10
6477.1880777691
 20
4933.240086775
 30
0.0
 11
6477.1880777691
 21
4930.240086775
 31
0.0
  0
ARC
  5
222
330
1F
100
AcDbEntity
  8
0
  6
Continuous
 62
     7
370
    25
100
AcDbCircle
 10
6478.9639190401
 20
4933.4774361914
 30
0.0
 40
1.791632486069087
100
AcDbArc
 50
100.3196220905
 51
187.6127302624
  0
LINE
  5
223
330
1F
100
AcDbEntity
  8
0
  6
Continuous
 62
     7
370
    25
100
AcDbLine
 10
6478.642967509
 20
4935.240086775
 30
0.0
 11
6559.9062272161
 21
4935.240086775
 31
0.0
  0
LINE
  5
224
330
1F
100
AcDbEntity
  8
0
  6
Continuous
 62
     7
370
    25
100
AcDbLine
 10
6471.1562272161
 20
4938.240086775
 30
0.0
 11
6554.6562272161
 21
4938.240086775
 31
0.0
  0
LINE
  5
225
330
1F
100
AcDbEntity
  8
0
  6
Continuous
 62
     7
370
    25
100
AcDbLine
 10
6489.0618594392
 20
4863.0568481369
 30
0.0
 11
6488.6179790189
 21
4885.9769942788
 31
0.0
  0
LINE
  5
226
330
1F
100
AcDbEntity
  8
0
  6
Continuous
 62
     7
370
    25
100
AcDbLine
 10
6477.1880777691
 20
4933.240086775
 30
0.0
 11
6459.6499795958
 21
4933.240086775
 31
0.0
  0
ARC
  5
227
330
1F
100
AcDbEntity
  8
0
  6
Continuous
 62
     7
370
    25
100
AcDbCircle
 10
6462.7052504437
 20
4933.7239831211
 30
0.0
 40
3.093353459927233
100
AcDbArc
 50
150.6517591702
 51
188.9997984492
  0
LINE
  5
228
330
1F
100
AcDbEntity
  8
0
  6
Continuous
 62
     7
370
    25
100
AcDbLine
 10
6460.0089074873
 20
4935.240086775
 30
0.0
 11
6478.642967509
 21
4935.240086775
 31
0.0
  0
LINE
  5
229
330
1F
100
AcDbEntity
  8
0
  6
Continuous
 62
     7
370
    25
100
AcDbLine
 10
6459.6499795958
 20
4933.240086775
 30
0.0
 11
6459.6499795958
 21
4930.240086775
 31
0.0
  0
LINE
  5
22A
330
1F
100
AcDbEntity
  8
0
  6
Continuous
 62
     7
370
    25
100
AcDbLine
 10
6459.6499795958
 20
4930.240086775
 30
0.0
 11
6477.1880777691
 21
4930.240086775
 31
0.0
  0
ARC
  5
22B
330
1F
100
AcDbEntity
  8
0
  6
Continuous
 62
     7
370
    25
100
AcDbCircle
 10
6446.2811017424
 20
5016.656763714
 30
0.0
 40
128.7224717712494
100
AcDbArc
 50
276.5444516408
 51
284.318474563
  0
LWPOLYLINE
  5
22C
330
1F
100
AcDbEntity
  8
0
  6
Continuous
 62
     7
370
    25
100
AcDbPolyline
 90
        6
 70
   128
 43
0.0
 10
6460.9521193119
 20
4888.7730822594
 10
6461.1252889869
 20
4887.4296177033
 10
6461.3917804379
 20
4886.0891824679
 10
6462.118228667
 20
4883.8630761158
 10
6463.0178630452
 20
4882.4210436722
 10
6463.9539480478
 20
4881.976083806
  0
ARC
  5
22D
330
1F
100
AcDbEntity
  8
0
  6
Continuous
 62
     7
370
    25
100
AcDbCircle
 10
6444.3238387463
 20
5081.0103994622
 30
0.0
 40
199.9999999998438
100
AcDbArc
 50
275.6326806459
 51
281.6613043232
  0
LINE
  5
22E
330
1F
100
AcDbEntity
  8
0
  6
Continuous
 62
     7
370
    25
100
AcDbLine
 10
6460.9521193119
 20
4888.7730822594
 30
0.0
 11
6460.8908808868
 21
4930.240086775
 31
0.0
  0
LINE
  5
22F
330
1F
100
AcDbEntity
  8
0
  6
Continuous
 62
     7
370
    25
100
AcDbLine
 10
6538.1493709236
 20
4856.240086775
 30
0.0
 11
6495.4733989159
 21
4856.240086775
 31
0.0
  0
ARC
  5
230
330
1F
100
AcDbEntity
  8
0
  6
Continuous
 62
     7
370
    25
100
AcDbCircle
 10
6495.7729491198
 20
4862.9454139083
 30
0.0
 40
6.712014771171131
100
AcDbArc
 50
179.0487201604
 51
267.4420996518
  0
LINE
  5
231
330
1F
100
AcDbEntity
  8
0
  6
Continuous
 62
     7
370
    25
100
AcDbLine
 10
6389.1545472407
 20
4928.9354593753
 30
0.0
 11
6389.6044061792
 21
4877.3867308581
 31
0.0
  0
LINE
  5
232
330
1F
100
AcDbEntity
  8
0
  6
Continuous
 62
     7
370
    25
100
AcDbLine
 10
6363.0281062774
 20
4922.931796559
 30
0.0
 11
6363.3771660359
 21
4882.9335100211
 31
0.0
  0
LINE
  5
233
330
1F
100
AcDbEntity
  8
0
  6
Continuous
 62
     7
370
    25
100
AcDbLine
 10
6459.6499795958
 20
4933.240086775
 30
0.0
 11
6453.9062272161
 21
4933.240086775
 31
0.0
  0
ARC
  5
234
330
1F
100
AcDbEntity
  8
0
  6
Continuous
 62
     7
370
    25
100
AcDbCircle
 10
6455.9062272161
 20
4933.240086775
 30
0.0
 40
2.000000000000909
100
AcDbArc
 50
90.0
 51
180.0
  0
LINE
  5
235
330
1F
100
AcDbEntity
  8
0
  6
Continuous
 62
     7
370
    25
100
AcDbLine
 10
6455.9062272161
 20
4935.240086775
 30
0.0
 11
6460.0089074873
 21
4935.240086775
 31
0.0
  0
LINE
  5
236
330
1F
100
AcDbEntity
  8
0
  6
Continuous
 62
     7
370
    25
100
AcDbLine
 10
6453.9062272161
 20
4933.240086775
 30
0.0
 11
6453.9062272161
 21
4930.240086775
 31
0.0
  0
LINE
  5
237
330
1F
100
AcDbEntity
  8
0
  6
Continuous
 62
     7
370
    25
100
AcDbLine
 10
6453.9062272161
 20
4930.240086775
 30
0.0
 11
6459.6499795958
 21
4930.240086775
 31
0.0
  0
LINE
  5
238
330
1F
100
AcDbEntity
  8
0
  6
Continuous
 62
     7
370
    25
100
AcDbLine
 10
6419.2552886361
 20
4883.4210558098
 30
0.0
 11
6418.9062272161
 21
4923.4195327324
 31
0.0
  0
LINE
  5
239
330
1F
100
AcDbEntity
  8
0
  6
Continuous
 62
     7
370
    25
100
AcDbLine
 10
6398.9650975025
 20
4923.2455091298
 30
0.0
 11
6399.3141589224
 21
4883.2470322072
 31
0.0
  0
ARC
  5
23A
330
1F
100
AcDbEntity
  8
0
  6
Continuous
 62
     7
370
    25
100
AcDbCircle
 10
6459.5817195688
 20
4932.5131801096
 30
0.0
 40
43.76156024867138
100
AcDbArc
 50
265.6588877915
 51
271.794519202
  0
LWPOLYLINE
  5
23B
330
1F
100
AcDbEntity
  8
0
  6
Continuous
 62
     7
370
    25
100
AcDbPolyline
 90
       11
 70
   128
 43
0.0
 10
6456.0057951608
 20
4918.8307303986
 10
6456.1630913696
 20
4916.7866131287
 10
6456.5271584651
 20
4914.5944090079
 10
6457.2385325142
 20
4911.1793427305
 10
6457.911343031
 20
4907.5637585946
 10
6458.1844290583
 20
4905.0296941089
 10
6458.2104140287
 20
4902.4302573252
 10
6457.5923390443
 20
4897.4289598223
 10
6456.9417279091
 20
4894.068790074
 10
6456.4042245575
 20
4890.7954969758
 10
6456.2692261065
 20
4888.8771643284
  0
LINE
  5
23C
330
1F
100
AcDbEntity
  8
0
  6
Continuous
 62
     7
370
    25
100
AcDbLine
 10
6456.0057951608
 20
4918.8307303986
 30
0.0
 11
6455.9062272161
 21
4930.240086775
 31
0.0
  0
ARC
  5
23D
330
1F
100
AcDbEntity
  8
0
  6
Continuous
 62
     7
370
    25
100
AcDbCircle
 10
6463.2668942222
 20
4888.942284854
 30
0.0
 40
7.000000000000417
100
AcDbArc
 50
181.914945567
 51
275.6326806459
  0
LWPOLYLINE
  5
23E
330
1F
100
AcDbEntity
  8
0
  6
Continuous
 62
     7
370
    25
100
AcDbPolyline
 90
        4
 70
   128
 43
0.0
 10
6456.2692347849
 20
4888.8771685104
 10
6456.2692341173
 20
4888.8771232562
 10
6456.2708066295
 20
4888.7084556206
 10
6456.2708081268
 20
4888.7084109153
  0
LWPOLYLINE
  5
23F
330
1F
100
AcDbEntity
  8
0
  6
Continuous
 62
     7
370
    25
100
AcDbPolyline
 90
       12
 70
   128
 43
0.0
 10
6454.2582278667
 20
4890.2112151539
 10
6454.4484009068
 20
4891.9553168612
 10
6455.1683774665
 20
4894.8620254097
 10
6456.0773478866
 20
4897.9870716176
 10
6456.6121989925
 20
4900.2198788334
 10
6456.9255330215
 20
4902.5344100499
 10
6456.8922345096
 20
4904.8868793491
 10
6456.5373632052
 20
4907.2009537603
 10
6455.6442336348
 20
4910.5002087444
 10
6454.701056662
 20
4913.5910416484
 10
6454.2199729885
 20
4915.5871043947
 10
6454.017840648
 20
4917.4417275816
  0
ARC
  5
240
330
1F
100
AcDbEntity
  8
0
  6
Continuous
 62
     7
370
    25
100
AcDbCircle
 10
6454.267329773
 20
4919.2017477366
 30
0.0
 40
1.777615191626142
100
AcDbArc
 50
261.931873147
 51
347.952862863
  0
ARC
  5
241
330
1F
100
AcDbEntity
  8
0
  6
Continuous
 62
     7
370
    25
100
AcDbCircle
 10
6454.5111113001
 20
4888.4096686331
 30
0.0
 40
1.819208590990059
100
AcDbArc
 50
14.8907936099
 51
97.9904121159
  0
LINE
  5
242
330
1F
100
AcDbEntity
  8
0
  6
Continuous
 62
     7
370
    25
100
AcDbLine
 10
6454.2599611177
 20
4890.0128155922
 30
0.0
 11
6454.2582449311
 21
4890.2112150505
 31
0.0
  0
LINE
  5
243
330
1F
100
AcDbEntity
  8
0
  6
Continuous
 62
     7
370
    25
100
AcDbLine
 10
6454.6593695369
 20
4887.8559254209
 30
0.0
 11
6454.2599552359
 21
4890.0128154562
 31
0.0
  0
LINE
  5
244
330
1F
100
AcDbEntity
  8
0
  6
Continuous
 62
     7
370
    25
100
AcDbLine
 10
6294.4767571539
 20
4922.3335579983
 30
0.0
 11
6294.8258169123
 21
4882.3352714604
 31
0.0
  0
LINE
  5
245
330
1F
100
AcDbEntity
  8
0
  6
Continuous
 62
     7
370
    25
100
AcDbLine
 10
6290.991026981
 20
4922.0178284268
 30
0.0
 11
6291.3351073923
 21
4882.590118565
 31
0.0
  0
LINE
  5
246
330
1F
100
AcDbEntity
  8
0
  6
Continuous
 62
     7
370
    25
100
AcDbLine
 10
6290.991026981
 20
4919.8030432959
 30
0.0
 11
6291.296454062
 21
4884.8045663734
 31
0.0
  0
ARC
  5
247
330
1F
100
AcDbEntity
  8
0
  6
Continuous
 62
     7
370
    25
100
AcDbCircle
 10
6454.5599376256
 20
4888.2731677079
 30
0.0
 40
1.765353851705066
100
AcDbArc
 50
14.2723990243
 51
99.7836484595
  0
ARC
  5
248
330
1F
100
AcDbEntity
  8
0
  6
Continuous
 62
     7
370
    25
100
AcDbCircle
 10
6455.0188839013
 20
4886.1929061079
 30
0.0
 40
1.70143580941609
100
AcDbArc
 50
23.1834570492
 51
102.1985801329
  0
LINE
  5
249
330
1F
100
AcDbEntity
  8
0
  6
Continuous
 62
     7
370
    25
100
AcDbLine
 10
6456.8209227987
 20
4883.377596155
 30
0.0
 11
6456.8204599792
 21
4883.3670489118
 31
0.0
  0
LINE
  5
24A
330
1F
100
AcDbEntity
  8
0
  6
Continuous
 62
     7
370
    25
100
AcDbLine
 10
6065.6062272161
 20
4846.040086775
 30
0.0
 11
6069.1062272161
 21
4846.040086775
 31
0.0
  0
LINE
  5
24B
330
1F
100
AcDbEntity
  8
0
  6
Continuous
 62
     7
370
    25
100
AcDbLine
 10
6069.1062272161
 20
4846.040086775
 30
0.0
 11
6069.1062272161
 21
4841.040086775
 31
0.0
  0
LINE
  5
24C
330
1F
100
AcDbEntity
  8
0
  6
Continuous
 62
     7
370
    25
100
AcDbLine
 10
6052.1062272161
 20
4846.040086775
 30
0.0
 11
6052.1062272161
 21
4841.040086775
 31
0.0
  0
LINE
  5
24D
330
1F
100
AcDbEntity
  8
0
  6
Continuous
 62
     7
370
    25
100
AcDbLine
 10
6052.1062272161
 20
4846.040086775
 30
0.0
 11
6055.6062272161
 21
4846.040086775
 31
0.0
  0
LINE
  5
24E
330
1F
100
AcDbEntity
  8
0
  6
Continuous
 62
     7
370
    25
100
AcDbLine
 10
6965.2062272161
 20
4846.040086775
 30
0.0
 11
6965.2062272161
 21
4839.040086775
 31
0.0
  0
LINE
  5
24F
330
1F
100
AcDbEntity
  8
0
  6
Continuous
 62
     7
370
    25
100
AcDbLine
 10
6965.2062272161
 20
4846.040086775
 30
0.0
 11
6973.7062272161
 21
4846.040086775
 31
0.0
  0
LINE
  5
250
330
1F
100
AcDbEntity
  8
0
  6
Continuous
 62
     7
370
    25
100
AcDbLine
 10
6973.7062272161
 20
4846.040086775
 30
0.0
 11
6973.7062272161
 21
4839.040086775
 31
0.0
  0
LINE
  5
251
330
1F
100
AcDbEntity
  8
0
  6
Continuous
 62
     7
370
    25
100
AcDbLine
 10
6965.2062272161
 20
4839.040086775
 30
0.0
 11
6973.7062272161
 21
4839.040086775
 31
0.0
  0
LINE
  5
252
330
1F
100
AcDbEntity
  8
0
  6
Continuous
 62
     7
370
    25
100
AcDbLine
 10
6956.7062272161
 20
4846.040086775
 30
0.0
 11
6956.7062272161
 21
4839.040086775
 31
0.0
  0
LINE
  5
253
330
1F
100
AcDbEntity
  8
0
  6
Continuous
 62
     7
370
    25
100
AcDbLine
 10
6956.7062272161
 20
4846.040086775
 30
0.0
 11
6965.2062272161
 21
4846.040086775
 31
0.0
  0
LINE
  5
254
330
1F
100
AcDbEntity
  8
0
  6
Continuous
 62
     7
370
    25
100
AcDbLine
 10
6956.7062272161
 20
4839.040086775
 30
0.0
 11
6965.2062272161
 21
4839.040086775
 31
0.0
  0
LINE
  5
255
330
1F
100
AcDbEntity
  8
0
  6
Continuous
 62
     7
370
    25
100
AcDbLine
 10
6965.2062272161
 20
4926.040086775
 30
0.0
 11
6969.2062272161
 21
4926.040086775
 31
0.0
  0
LINE
  5
256
330
1F
100
AcDbEntity
  8
0
  6
Continuous
 62
     7
370
    25
100
AcDbLine
 10
6961.2062272161
 20
4926.040086775
 30
0.0
 11
6965.2062272161
 21
4926.040086775
 31
0.0
  0
LINE
  5
257
330
1F
100
AcDbEntity
  8
0
  6
Continuous
 62
     7
370
    25
100
AcDbLine
 10
6929.2062272161
 20
4841.040086775
 30
0.0
 11
6956.7062272161
 21
4841.040086775
 31
0.0
  0
LINE
  5
258
330
1F
100
AcDbEntity
  8
0
  6
Continuous
 62
     7
370
    25
100
AcDbLine
 10
6973.7062272161
 20
4841.040086775
 30
0.0
 11
6979.2062272161
 21
4841.040086775
 31
0.0
  0
LINE
  5
259
330
1F
100
AcDbEntity
  8
0
  6
Continuous
 62
     7
370
    25
100
AcDbLine
 10
6979.2062272161
 20
4841.040086775
 30
0.0
 11
6979.2062272161
 21
4839.040086775
 31
0.0
  0
LINE
  5
25A
330
1F
100
AcDbEntity
  8
0
  6
Continuous
 62
     7
370
    25
100
AcDbLine
 10
6929.2062272161
 20
4839.040086775
 30
0.0
 11
6956.7062272161
 21
4839.040086775
 31
0.0
  0
LINE
  5
25B
330
1F
100
AcDbEntity
  8
0
  6
Continuous
 62
     7
370
    25
100
AcDbLine
 10
6973.7062272161
 20
4839.040086775
 30
0.0
 11
6979.2062272161
 21
4839.040086775
 31
0.0
  0
LINE
  5
25C
330
1F
100
AcDbEntity
  8
0
  6
Continuous
 62
     7
370
    25
100
AcDbLine
 10
6929.2062272161
 20
4841.040086775
 30
0.0
 11
6929.2062272161
 21
4839.040086775
 31
0.0
  0
LINE
  5
25D
330
1F
100
AcDbEntity
  8
0
  6
Continuous
 62
     7
370
    25
100
AcDbLine
 10
6046.6062272161
 20
4841.040086775
 30
0.0
 11
6046.6062272161
 21
4839.040086775
 31
0.0
  0
LINE
  5
25E
330
1F
100
AcDbEntity
  8
0
  6
Continuous
 62
     7
370
    25
100
AcDbLine
 10
6046.6062272161
 20
4839.040086775
 30
0.0
 11
6096.6062272161
 21
4839.040086775
 31
0.0
  0
LINE
  5
25F
330
1F
100
AcDbEntity
  8
0
  6
Continuous
 62
     7
370
    25
100
AcDbLine
 10
6096.6062272161
 20
4841.040086775
 30
0.0
 11
6096.6062272161
 21
4839.040086775
 31
0.0
  0
LINE
  5
260
330
1F
100
AcDbEntity
  8
0
  6
Continuous
 62
     7
370
    25
100
AcDbLine
 10
6046.6062272161
 20
4841.040086775
 30
0.0
 11
6096.6062272161
 21
4841.040086775
 31
0.0
  0
LINE
  5
261
330
1F
100
AcDbEntity
  8
0
  6
Continuous
 62
     7
370
    25
100
AcDbLine
 10
6056.6062272161
 20
4926.040086775
 30
0.0
 11
6064.6062272161
 21
4926.040086775
 31
0.0
  0
LINE
  5
262
330
1F
100
AcDbEntity
  8
0
  6
Continuous
 62
     8
370
    25
100
AcDbLine
 10
6070.6062272161
 20
4918.2899727926
 30
0.0
 11
6069.1062272161
 21
4918.2899727926
 31
0.0
  0
LINE
  5
263
330
1F
100
AcDbEntity
  8
0
  6
Continuous
 62
     8
370
    25
100
AcDbLine
 10
6052.1062272161
 20
4918.2899727926
 30
0.0
 11
6050.6062272161
 21
4918.2899727926
 31
0.0
  0
LINE
  5
264
330
1F
100
AcDbEntity
  8
0
  6
Continuous
 62
     8
370
    25
100
AcDbLine
 10
6955.2062272161
 20
4918.2899727926
 30
0.0
 11
6956.7062272161
 21
4918.2899727926
 31
0.0
  0
LINE
  5
265
330
1F
100
AcDbEntity
  8
0
  6
Continuous
 62
     8
370
    25
100
AcDbLine
 10
6973.7062272161
 20
4918.2899727926
 30
0.0
 11
6975.2062272161
 21
4918.2899727926
 31
0.0
  0
LINE
  5
266
330
1F
100
AcDbEntity
  8
0
  6
Continuous
 62
     8
370
    25
100
AcDbLine
 10
6042.3062272161
 20
4960.040086775
 30
0.0
 11
6042.3062272161
 21
4957.9885454436
 31
0.0
  0
LINE
  5
267
330
1F
100
AcDbEntity
  8
0
  6
Continuous
 62
     8
370
    25
100
AcDbLine
 10
6983.5062272161
 20
4960.040086775
 30
0.0
 11
6983.5062272161
 21
4957.9885454436
 31
0.0
  0
LINE
  5
268
330
1F
100
AcDbEntity
  8
0
  6
Continuous
 62
     8
370
    25
100
AcDbLine
 10
6983.5062272161
 20
4953.7814875404
 30
0.0
 11
6983.5062272161
 21
4944.040086775
 31
0.0
  0
LINE
  5
269
330
1F
100
AcDbEntity
  8
0
  6
Continuous
 62
     8
370
    25
100
AcDbLine
 10
6042.3062272161
 20
4953.7814875404
 30
0.0
 11
6042.3062272161
 21
4944.040086775
 31
0.0
  0
LINE
  5
26A
330
1F
100
AcDbEntity
  8
0
  6
Continuous
 62
     8
370
    25
100
AcDbLine
 10
6473.6040010835
 20
4938.7637607013
 30
0.0
 11
6552.2084533487
 21
4938.7637607013
 31
0.0
  0
LINE
  5
26B
330
1F
100
AcDbEntity
  8
0
  6
Continuous
 62
     8
370
    25
100
AcDbLine
 10
6473.8431124687
 20
4939.1779137692
 30
0.0
 11
6551.9693419635
 21
4939.1779137692
 31
0.0
  0
LWPOLYLINE
  5
26C
330
1F
100
AcDbEntity
  8
0
  6
Continuous
 62
     8
370
    25
100
AcDbPolyline
 90
       21
 70
   128
 43
0.0
 10
6478.1156430383
 20
4891.9329218898
 10
6483.7059519906
 20
4892.9760304002
 10
6490.2492170463
 20
4894.3580284736
 10
6497.1255774283
 20
4896.0017464987
 10
6504.5476299169
 20
4898.0020959147
 10
6512.0826098186
 20
4900.2810599348
 10
6519.7580189993
 20
4902.8696374259
 10
6527.4665068741
 20
4905.7529007677
 10
6531.2600472685
 20
4907.2805847902
 10
6534.9131081585
 20
4908.8216308406
 10
6538.5422063244
 20
4910.4228302662
 10
6541.9719104234
 20
4912.0018296861
 10
6545.2726534372
 20
4913.5839668594
 10
6548.3098626089
 20
4915.0951268967
 10
6550.972895423
 20
4916.465257249
 10
6553.336989632
 20
4917.7176249106
 10
6555.4456418216
 20
4918.8640667571
 10
6557.1726698204
 20
4919.8241046208
 10
6558.9104458219
 20
4920.8096206655
 10
6559.7619070674
 20
4921.2997523448
 10
6559.7179279875
 20
4921.2743291763
  0
LINE
  5
26D
330
1F
100
AcDbEntity
  8
0
  6
Continuous
 62
     8
370
    25
100
AcDbLine
 10
6561.9062272161
 20
4933.240086775
 30
0.0
 11
6477.1880777691
 21
4933.240086775
 31
0.0
  0
LINE
  5
26E
330
1F
100
AcDbEntity
  8
0
  6
Continuous
 62
     8
370
    25
100
AcDbLine
 10
6489.0618594392
 20
4863.0568481369
 30
0.0
 11
6545.1469721984
 21
4863.0568481369
 31
0.0
  0
LINE
  5
26F
330
1F
100
AcDbEntity
  8
0
  6
Continuous
 62
     8
370
    25
100
AcDbLine
 10
6446.2986111502
 20
4877.1443752453
 30
0.0
 11
6445.835887721
 21
4930.1672283839
 31
0.0
  0
LINE
  5
270
330
1F
100
AcDbEntity
  8
0
  6
Continuous
 62
     8
370
    25
100
AcDbLine
 10
6420.835887721
 20
4929.2874404161
 30
0.0
 11
6421.2870643541
 21
4877.5877190562
 31
0.0
  0
LINE
  5
271
330
1F
100
AcDbEntity
  8
0
  6
Continuous
 62
     8
370
    25
100
AcDbLine
 10
6419.3228145268
 20
4879.5525001217
 30
0.0
 11
6418.9062272161
 21
4927.28867771
 31
0.0
  0
LINE
  5
272
330
1F
100
AcDbEntity
  8
0
  6
Continuous
 62
     8
370
    25
100
AcDbLine
 10
6397.3262711262
 20
4926.4455091298
 30
0.0
 11
6397.7314298479
 21
4880.0189181187
 31
0.0
  0
LINE
  5
273
330
1F
100
AcDbEntity
  8
0
  6
Continuous
 62
     8
370
    25
100
AcDbLine
 10
6397.08128995
 20
4926.2453511134
 30
0.0
 11
6397.4829927445
 21
4880.214770139
 31
0.0
  0
LINE
  5
274
330
1F
100
AcDbEntity
  8
0
  6
Continuous
 62
     8
370
    25
100
AcDbLine
 10
6398.1640897535
 20
4926.4455091298
 30
0.0
 11
6398.5691208714
 21
4880.0335400699
 31
0.0
  0
LINE
  5
275
330
1F
100
AcDbEntity
  8
0
  6
Continuous
 62
     8
370
    25
100
AcDbLine
 10
6398.4099034804
 20
4926.2410680111
 30
0.0
 11
6398.8113291702
 21
4880.2422400922
 31
0.0
  0
LINE
  5
276
330
1F
100
AcDbEntity
  8
0
  6
Continuous
 62
     8
370
    25
100
AcDbLine
 10
6396.6650975025
 20
4924.1996998786
 30
0.0
 11
6397.0311621483
 21
4882.2528462514
 31
0.0
  0
LINE
  5
277
330
1F
100
AcDbEntity
  8
0
  6
Continuous
 62
     8
370
    25
100
AcDbLine
 10
6394.3802220436
 20
4923.2394686886
 30
0.0
 11
6394.7298763421
 21
4883.1730546184
 31
0.0
  0
ARC
  5
278
330
1F
100
AcDbEntity
  8
0
  6
Continuous
 62
     8
370
    25
100
AcDbCircle
 10
6488.8558878687
 20
4858.5635792222
 30
0.0
 40
4.497987308474426
100
AcDbArc
 50
87.3753972298
 51
107.4379694262
  0
LINE
  5
279
330
1F
100
AcDbEntity
  8
0
  6
Continuous
 62
     8
370
    25
100
AcDbLine
 10
6454.017840648
 20
4917.4417275816
 30
0.0
 11
6453.963003271
 21
4923.7254685822
 31
0.0
  0
LWPOLYLINE
  5
27A
330
1F
100
AcDbEntity
  8
0
  6
Continuous
 62
     8
370
    25
100
AcDbPolyline
 90
        6
 70
   128
 43
0.0
 10
6455.5368579921
 20
4883.7928260825
 10
6455.5428368977
 20
4883.7572005759
 10
6455.4806317836
 20
4884.126269695
 10
6455.3313304174
 20
4884.9812744468
 10
6455.0916127477
 20
4886.2104240911
 10
6454.6593695369
 20
4887.8559254209
  0
ARC
  5
27B
330
1F
100
AcDbEntity
  8
0
  6
Continuous
 62
     8
370
    25
100
AcDbCircle
 10
6442.8035355326
 20
4884.1710519208
 30
0.0
 40
14.03982613208187
100
AcDbArc
 50
356.7602233054
 51
11.052987354
  0
LINE
  5
27C
330
1F
100
AcDbEntity
  8
0
  6
Continuous
 62
     7
370
    25
100
AcDbLine
 10
6983.5062272161
 20
4614.7746384119
 30
0.0
 11
6042.3061772161
 21
4614.7746384119
 31
0.0
  0
ARC
  5
27D
330
1F
100
AcDbEntity
  8
0
  6
Continuous
 62
     7
370
    25
100
AcDbCircle
 10
6042.3062272161
 20
4610.3746384119
 30
0.0
 40
4.400000000000546
100
AcDbArc
 50
90.0
 51
180.0
  0
ARC
  5
27E
330
1F
100
AcDbEntity
  8
0
  6
Continuous
 62
     7
370
    25
100
AcDbCircle
 10
6983.5062272161
 20
4610.3746384119
 30
0.0
 40
4.399999999999636
100
AcDbArc
 50
0.0
 51
90.0
  0
LINE
  5
27F
330
1F
100
AcDbEntity
  8
0
  6
Continuous
 62
     7
370
    25
100
AcDbLine
 10
6037.9062272161
 20
4610.3746384119
 30
0.0
 11
6037.9062272161
 21
4510.3746384119
 31
0.0
  0
LINE
  5
280
330
1F
100
AcDbEntity
  8
0
  6
Continuous
 62
     7
370
    25
100
AcDbLine
 10
6987.9062272161
 20
4510.3746384119
 30
0.0
 11
6987.9062272161
 21
4610.3746384119
 31
0.0
  0
ARC
  5
281
330
1F
100
AcDbEntity
  8
0
  6
Continuous
 62
     7
370
    25
100
AcDbCircle
 10
6983.5062272161
 20
4510.3746384119
 30
0.0
 40
4.399999999999636
100
AcDbArc
 50
270.0
 51
0.0
  0
ARC
  5
282
330
1F
100
AcDbEntity
  8
0
  6
Continuous
 62
     7
370
    25
100
AcDbCircle
 10
6042.3062272161
 20
4510.3746384119
 30
0.0
 40
4.400000000000546
100
AcDbArc
 50
180.0
 51
270.0
  0
LINE
  5
283
330
1F
100
AcDbEntity
  8
0
  6
Continuous
 62
     7
370
    25
100
AcDbLine
 10
6042.3062272161
 20
4505.9746384119
 30
0.0
 11
6983.5062272161
 21
4505.9746384119
 31
0.0
  0
ARC
  5
284
330
1F
100
AcDbEntity
  8
0
  6
Continuous
 62
     7
370
    25
100
AcDbCircle
 10
6512.9062272161
 20
4560.3746384119
 30
0.0
 40
18.15000000000114
100
AcDbArc
 50
90.0
 51
176.8328746966
  0
ARC
  5
285
330
1F
100
AcDbEntity
  8
0
  6
Continuous
 62
     7
370
    25
100
AcDbCircle
 10
6512.9062272161
 20
4560.3746384119
 30
0.0
 40
18.15000000000055
100
AcDbArc
 50
3.1671253034
 51
90.0
  0
ARC
  5
286
330
1F
100
AcDbEntity
  8
0
  6
Continuous
 62
     7
370
    25
100
AcDbCircle
 10
6512.9062272161
 20
4560.3746384119
 30
0.0
 40
20.05000000000105
100
AcDbArc
 50
3.1671253034
 51
176.8328746966
  0
ARC
  5
287
330
1F
100
AcDbEntity
  8
0
  6
Continuous
 62
     7
370
    25
100
AcDbCircle
 10
6494.8338726379
 20
4561.3746384119
 30
0.0
 40
0.0500000000002805
100
AcDbArc
 50
176.8328746962
 51
270.0
  0
ARC
  5
288
330
1F
100
AcDbEntity
  8
0
  6
Continuous
 62
     7
370
    25
100
AcDbCircle
 10
6494.8338726379
 20
4561.3746384119
 30
0.0
 40
1.950000000000195
100
AcDbArc
 50
176.8328746966
 51
270.0
  0
ARC
  5
289
330
1F
100
AcDbEntity
  8
0
  6
Continuous
 62
     7
370
    25
100
AcDbCircle
 10
6530.9785817943
 20
4561.3746384119
 30
0.0
 40
0.0500000000002805
100
AcDbArc
 50
270.0
 51
3.1671253038
  0
ARC
  5
28A
330
1F
100
AcDbEntity
  8
0
  6
Continuous
 62
     7
370
    25
100
AcDbCircle
 10
6530.9785817943
 20
4561.3746384119
 30
0.0
 40
1.950000000000195
100
AcDbArc
 50
270.0
 51
3.1671253034
  0
LINE
  5
28B
330
1F
100
AcDbEntity
  8
0
  6
Continuous
 62
     7
370
    25
100
AcDbLine
 10
6494.8338726379
 20
4559.4246384119
 30
0.0
 11
6495.0062272161
 21
4559.4246384119
 31
0.0
  0
LINE
  5
28C
330
1F
100
AcDbEntity
  8
0
  6
Continuous
 62
     7
370
    25
100
AcDbLine
 10
6499.2062272161
 20
4559.4246384119
 30
0.0
 11
6499.3338726379
 21
4559.4246384119
 31
0.0
  0
LINE
  5
28D
330
1F
100
AcDbEntity
  8
0
  6
Continuous
 62
     7
370
    25
100
AcDbLine
 10
6499.3338726379
 20
4561.3246384119
 30
0.0
 11
6499.2062272161
 21
4561.3246384119
 31
0.0
  0
LINE
  5
28E
330
1F
100
AcDbEntity
  8
0
  6
Continuous
 62
     7
370
    25
100
AcDbLine
 10
6495.0062272161
 20
4561.3246384119
 30
0.0
 11
6494.8338726379
 21
4561.3246384119
 31
0.0
  0
LINE
  5
28F
330
1F
100
AcDbEntity
  8
0
  6
Continuous
 62
     7
370
    25
100
AcDbLine
 10
6526.4785817943
 20
4559.4246384119
 30
0.0
 11
6526.6055459875
 21
4559.4246384119
 31
0.0
  0
LINE
  5
290
330
1F
100
AcDbEntity
  8
0
  6
Continuous
 62
     7
370
    25
100
AcDbLine
 10
6530.8055459875
 20
4559.4246384119
 30
0.0
 11
6530.9785817943
 21
4559.4246384119
 31
0.0
  0
LINE
  5
291
330
1F
100
AcDbEntity
  8
0
  6
Continuous
 62
     7
370
    25
100
AcDbLine
 10
6530.9785817943
 20
4561.3246384119
 30
0.0
 11
6530.8055459875
 21
4561.3246384119
 31
0.0
  0
LINE
  5
292
330
1F
100
AcDbEntity
  8
0
  6
Continuous
 62
     7
370
    25
100
AcDbLine
 10
6526.6055459875
 20
4561.3246384119
 30
0.0
 11
6526.4785817943
 21
4561.3246384119
 31
0.0
  0
LINE
  5
293
330
1F
100
AcDbEntity
  8
0
  6
Continuous
 62
     7
370
    25
100
AcDbLine
 10
6495.239558808
 20
4569.9610260192
 30
0.0
 11
6495.2964664954
 21
4569.9610260192
 31
0.0
  0
LINE
  5
294
330
1F
100
AcDbEntity
  8
0
  6
Continuous
 62
     7
370
    25
100
AcDbLine
 10
6495.4104084973
 20
4550.7882508046
 30
0.0
 11
6495.239558808
 21
4550.7882508046
 31
0.0
  0
LINE
  5
295
330
1F
100
AcDbEntity
  8
0
  6
Continuous
 62
     7
370
    25
100
AcDbLine
 10
6010.6062272161
 20
4633.0746384119
 30
0.0
 11
7015.2062272161
 21
4633.0746384119
 31
0.0
  0
LINE
  5
296
330
1F
100
AcDbEntity
  8
0
  6
Continuous
 62
     7
370
    25
100
AcDbLine
 10
7015.2062272161
 20
4633.0746384119
 30
0.0
 11
7015.2062272161
 21
4631.5746384119
 31
0.0
  0
LINE
  5
297
330
1F
100
AcDbEntity
  8
0
  6
Continuous
 62
     7
370
    25
100
AcDbLine
 10
6010.6062272161
 20
4633.0746384119
 30
0.0
 11
6010.6062272161
 21
4631.5746384119
 31
0.0
  0
LINE
  5
298
330
1F
100
AcDbEntity
  8
0
  6
Continuous
 62
     7
370
    25
100
AcDbLine
 10
6010.6062272161
 20
4631.5746384119
 30
0.0
 11
7015.2062272161
 21
4631.5746384119
 31
0.0
  0
LINE
  5
299
330
1F
100
AcDbEntity
  8
0
  6
Continuous
 62
     7
370
    25
100
AcDbLine
 10
6983.5062272161
 20
4611.3746384119
 30
0.0
 11
6042.3062272161
 21
4611.3746384119
 31
0.0
  0
ARC
  5
29A
330
1F
100
AcDbEntity
  8
0
  6
Continuous
 62
     7
370
    25
100
AcDbCircle
 10
6042.3062272161
 20
4610.3746384119
 30
0.0
 40
1.000000000000909
100
AcDbArc
 50
90.0
 51
180.0
  0
ARC
  5
29B
330
1F
100
AcDbEntity
  8
0
  6
Continuous
 62
     7
370
    25
100
AcDbCircle
 10
6983.5062272161
 20
4610.3746384119
 30
0.0
 40
1.0
100
AcDbArc
 50
0.0
 51
90.0
  0
LINE
  5
29C
330
1F
100
AcDbEntity
  8
0
  6
Continuous
 62
     7
370
    25
100
AcDbLine
 10
6041.3062272161
 20
4510.3746384119
 30
0.0
 11
6041.3062272161
 21
4610.3746384119
 31
0.0
  0
LINE
  5
29D
330
1F
100
AcDbEntity
  8
0
  6
Continuous
 62
     7
370
    25
100
AcDbLine
 10
6984.5062272161
 20
4610.3746384119
 30
0.0
 11
6984.5062272161
 21
4510.3746384119
 31
0.0
  0
ARC
  5
29E
330
1F
100
AcDbEntity
  8
0
  6
Continuous
 62
     7
370
    25
100
AcDbCircle
 10
6983.5062272161
 20
4510.3746384119
 30
0.0
 40
1.0
100
AcDbArc
 50
270.0
 51
0.0
  0
ARC
  5
29F
330
1F
100
AcDbEntity
  8
0
  6
Continuous
 62
     7
370
    25
100
AcDbCircle
 10
6042.3062272161
 20
4510.3746384119
 30
0.0
 40
1.000000000000909
100
AcDbArc
 50
180.0
 51
270.0
  0
LINE
  5
2A0
330
1F
100
AcDbEntity
  8
0
  6
Continuous
 62
     7
370
    25
100
AcDbLine
 10
6983.5062272161
 20
4509.3746384119
 30
0.0
 11
6042.3062272161
 21
4509.3746384119
 31
0.0
  0
CIRCLE
  5
2A1
330
1F
100
AcDbEntity
  8
0
  6
Continuous
 62
     7
370
    25
100
AcDbCircle
 10
6512.9062272161
 20
4560.3746384119
 30
0.0
 40
40.0
  0
CIRCLE
  5
2A2
330
1F
100
AcDbEntity
  8
0
  6
Continuous
 62
     7
370
    25
100
AcDbCircle
 10
6512.9062272161
 20
4560.3746384119
 30
0.0
 40
35.20108727315801
  0
LINE
  5
2A3
330
1F
100
AcDbEntity
  8
0
  6
Continuous
 62
     7
370
    25
100
AcDbLine
 10
6010.6062272161
 20
4489.1746384119
 30
0.0
 11
7015.2062272161
 21
4489.1746384119
 31
0.0
  0
CIRCLE
  5
2A4
330
1F
100
AcDbEntity
  8
0
  6
Continuous
 62
     7
370
    25
100
AcDbCircle
 10
6965.2062272161
 20
4619.8545842975
 30
0.0
 40
4.25
  0
CIRCLE
  5
2A5
330
1F
100
AcDbEntity
  8
0
  6
Continuous
 62
     7
370
    25
100
AcDbCircle
 10
6060.6062272161
 20
4619.8545842975
 30
0.0
 40
4.25
  0
LINE
  5
2A6
330
1F
100
AcDbEntity
  8
0
  6
Continuous
 62
     7
370
    25
100
AcDbLine
 10
7015.2062272161
 20
4489.1746384119
 30
0.0
 11
7015.2062272161
 21
4631.5746384119
 31
0.0
  0
LINE
  5
2A7
330
1F
100
AcDbEntity
  8
0
  6
Continuous
 62
     7
370
    25
100
AcDbLine
 10
6010.6062272161
 20
4631.5746384119
 30
0.0
 11
6010.6062272161
 21
4489.1746384119
 31
0.0
  0
LINE
  5
2A8
330
1F
100
AcDbEntity
  8
0
  6
Continuous
 62
     7
370
    25
100
AcDbLine
 10
6070.6062272161
 20
4486.3941549606
 30
0.0
 11
6050.6062272161
 21
4486.3941549606
 31
0.0
  0
LINE
  5
2A9
330
1F
100
AcDbEntity
  8
0
  6
Continuous
 62
     7
370
    25
100
AcDbLine
 10
6050.6062272161
 20
4489.1746384119
 30
0.0
 11
6050.6062272161
 21
4486.3941549606
 31
0.0
  0
LINE
  5
2AA
330
1F
100
AcDbEntity
  8
0
  6
Continuous
 62
     7
370
    25
100
AcDbLine
 10
6070.6062272161
 20
4489.1746384119
 30
0.0
 11
6070.6062272161
 21
4486.3941549606
 31
0.0
  0
LINE
  5
2AB
330
1F
100
AcDbEntity
  8
0
  6
Continuous
 62
     7
370
    25
100
AcDbLine
 10
6955.2062272161
 20
4486.3941549606
 30
0.0
 11
6975.2062272161
 21
4486.3941549606
 31
0.0
  0
LINE
  5
2AC
330
1F
100
AcDbEntity
  8
0
  6
Continuous
 62
     7
370
    25
100
AcDbLine
 10
6955.2062272161
 20
4489.1746384119
 30
0.0
 11
6955.2062272161
 21
4486.3941549606
 31
0.0
  0
LINE
  5
2AD
330
1F
100
AcDbEntity
  8
0
  6
Continuous
 62
     7
370
    25
100
AcDbLine
 10
6975.2062272161
 20
4489.1746384119
 30
0.0
 11
6975.2062272161
 21
4486.3941549606
 31
0.0
  0
LINE
  5
2AE
330
1F
100
AcDbEntity
  8
0
  6
Continuous
 62
     7
370
    25
100
AcDbLine
 10
6069.1062272161
 20
4468.4671611238
 30
0.0
 11
6060.6062272161
 21
4463.5596838357
 31
0.0
  0
LINE
  5
2AF
330
1F
100
AcDbEntity
  8
0
  6
Continuous
 62
     7
370
    25
100
AcDbLine
 10
6060.6062272161
 20
4463.5596838357
 30
0.0
 11
6052.1062272161
 21
4468.4671611238
 31
0.0
  0
LINE
  5
2B0
330
1F
100
AcDbEntity
  8
0
  6
Continuous
 62
     7
370
    25
100
AcDbLine
 10
6052.1062272161
 20
4468.4671611238
 30
0.0
 11
6052.1062272161
 21
4478.2821157
 31
0.0
  0
LINE
  5
2B1
330
1F
100
AcDbEntity
  8
0
  6
Continuous
 62
     7
370
    25
100
AcDbLine
 10
6052.1062272161
 20
4478.2821157
 30
0.0
 11
6060.6062272161
 21
4483.1895929881
 31
0.0
  0
LINE
  5
2B2
330
1F
100
AcDbEntity
  8
0
  6
Continuous
 62
     7
370
    25
100
AcDbLine
 10
6060.6062272161
 20
4483.1895929881
 30
0.0
 11
6069.1062272161
 21
4478.2821157
 31
0.0
  0
LINE
  5
2B3
330
1F
100
AcDbEntity
  8
0
  6
Continuous
 62
     7
370
    25
100
AcDbLine
 10
6069.1062272161
 20
4478.2821157
 30
0.0
 11
6069.1062272161
 21
4468.4671611238
 31
0.0
  0
LINE
  5
2B4
330
1F
100
AcDbEntity
  8
0
  6
Continuous
 62
     7
370
    25
100
AcDbLine
 10
6973.7062272161
 20
4478.2821157
 30
0.0
 11
6965.2062272161
 21
4483.1895929881
 31
0.0
  0
LINE
  5
2B5
330
1F
100
AcDbEntity
  8
0
  6
Continuous
 62
     7
370
    25
100
AcDbLine
 10
6973.7062272161
 20
4468.4671611238
 30
0.0
 11
6973.7062272161
 21
4478.2821157
 31
0.0
  0
LINE
  5
2B6
330
1F
100
AcDbEntity
  8
0
  6
Continuous
 62
     7
370
    25
100
AcDbLine
 10
6965.2062272161
 20
4463.5596838357
 30
0.0
 11
6973.7062272161
 21
4468.4671611238
 31
0.0
  0
LINE
  5
2B7
330
1F
100
AcDbEntity
  8
0
  6
Continuous
 62
     7
370
    25
100
AcDbLine
 10
6956.7062272161
 20
4468.4671611238
 30
0.0
 11
6965.2062272161
 21
4463.5596838357
 31
0.0
  0
LINE
  5
2B8
330
1F
100
AcDbEntity
  8
0
  6
Continuous
 62
     7
370
    25
100
AcDbLine
 10
6956.7062272161
 20
4478.2821157
 30
0.0
 11
6956.7062272161
 21
4468.4671611238
 31
0.0
  0
LINE
  5
2B9
330
1F
100
AcDbEntity
  8
0
  6
Continuous
 62
     7
370
    25
100
AcDbLine
 10
6965.2062272161
 20
4483.1895929881
 30
0.0
 11
6956.7062272161
 21
4478.2821157
 31
0.0
  0
LINE
  5
2BA
330
1F
100
AcDbEntity
  8
0
  6
Continuous
 62
     7
370
    25
100
AcDbLine
 10
6955.2062272161
 20
4485.7328463992
 30
0.0
 11
6975.2062272161
 21
4485.7328463992
 31
0.0
  0
LINE
  5
2BB
330
1F
100
AcDbEntity
  8
0
  6
Continuous
 62
     7
370
    25
100
AcDbLine
 10
6955.2062272161
 20
4486.3941549606
 30
0.0
 11
6955.2062272161
 21
4485.7328463992
 31
0.0
  0
LINE
  5
2BC
330
1F
100
AcDbEntity
  8
0
  6
Continuous
 62
     7
370
    25
100
AcDbLine
 10
6975.2062272161
 20
4486.3941549606
 30
0.0
 11
6975.2062272161
 21
4485.7328463992
 31
0.0
  0
LINE
  5
2BD
330
1F
100
AcDbEntity
  8
0
  6
Continuous
 62
     7
370
    25
100
AcDbLine
 10
6070.6062272161
 20
4485.7328463992
 30
0.0
 11
6050.6062272161
 21
4485.7328463992
 31
0.0
  0
LINE
  5
2BE
330
1F
100
AcDbEntity
  8
0
  6
Continuous
 62
     7
370
    25
100
AcDbLine
 10
6050.6062272161
 20
4486.3941549606
 30
0.0
 11
6050.6062272161
 21
4485.7328463992
 31
0.0
  0
LINE
  5
2BF
330
1F
100
AcDbEntity
  8
0
  6
Continuous
 62
     7
370
    25
100
AcDbLine
 10
6070.6062272161
 20
4486.3941549606
 30
0.0
 11
6070.6062272161
 21
4485.7328463992
 31
0.0
  0
LINE
  5
2C0
330
1F
100
AcDbEntity
  8
0
  6
Continuous
 62
     7
370
    25
100
AcDbLine
 10
6070.6062272161
 20
4464.7328463992
 30
0.0
 11
6062.6382043816
 21
4464.7328463992
 31
0.0
  0
LINE
  5
2C1
330
1F
100
AcDbEntity
  8
0
  6
Continuous
 62
     7
370
    25
100
AcDbLine
 10
6058.5742500506
 20
4464.7328463992
 30
0.0
 11
6050.6062272161
 21
4464.7328463992
 31
0.0
  0
LINE
  5
2C2
330
1F
100
AcDbEntity
  8
0
  6
Continuous
 62
     7
370
    25
100
AcDbLine
 10
6050.6062272161
 20
4485.7328463992
 30
0.0
 11
6050.6062272161
 21
4464.7328463992
 31
0.0
  0
LINE
  5
2C3
330
1F
100
AcDbEntity
  8
0
  6
Continuous
 62
     7
370
    25
100
AcDbLine
 10
6070.6062272161
 20
4485.7328463992
 30
0.0
 11
6070.6062272161
 21
4464.7328463992
 31
0.0
  0
LINE
  5
2C4
330
1F
100
AcDbEntity
  8
0
  6
Continuous
 62
     7
370
    25
100
AcDbLine
 10
6967.2382043816
 20
4464.7328463992
 30
0.0
 11
6975.2062272161
 21
4464.7328463992
 31
0.0
  0
LINE
  5
2C5
330
1F
100
AcDbEntity
  8
0
  6
Continuous
 62
     7
370
    25
100
AcDbLine
 10
6955.2062272161
 20
4464.7328463992
 30
0.0
 11
6963.1742500506
 21
4464.7328463992
 31
0.0
  0
LINE
  5
2C6
330
1F
100
AcDbEntity
  8
0
  6
Continuous
 62
     7
370
    25
100
AcDbLine
 10
6955.2062272161
 20
4485.7328463992
 30
0.0
 11
6955.2062272161
 21
4464.7328463992
 31
0.0
  0
LINE
  5
2C7
330
1F
100
AcDbEntity
  8
0
  6
Continuous
 62
     7
370
    25
100
AcDbLine
 10
6975.2062272161
 20
4485.7328463992
 30
0.0
 11
6975.2062272161
 21
4464.7328463992
 31
0.0
  0
LINE
  5
2C8
330
1F
100
AcDbEntity
  8
0
  6
Continuous
 62
     7
370
    25
100
AcDbLine
 10
6530.1055459875
 20
4560.3746384119
 30
0.0
 11
6530.1055459875
 21
4563.8746384119
 31
0.0
  0
LINE
  5
2C9
330
1F
100
AcDbEntity
  8
0
  6
Continuous
 62
     7
370
    25
100
AcDbLine
 10
6527.3055459875
 20
4560.3746384119
 30
0.0
 11
6530.1055459875
 21
4560.3746384119
 31
0.0
  0
LINE
  5
2CA
330
1F
100
AcDbEntity
  8
0
  6
Continuous
 62
     7
370
    25
100
AcDbLine
 10
6527.3055459875
 20
4563.8746384119
 30
0.0
 11
6527.3055459875
 21
4560.3746384119
 31
0.0
  0
LINE
  5
2CB
330
1F
100
AcDbEntity
  8
0
  6
Continuous
 62
     7
370
    25
100
AcDbLine
 10
6527.3055459875
 20
4563.8746384119
 30
0.0
 11
6530.1055459875
 21
4563.8746384119
 31
0.0
  0
LINE
  5
2CC
330
1F
100
AcDbEntity
  8
0
  6
Continuous
 62
     7
370
    25
100
AcDbLine
 10
6495.7062272161
 20
4563.8746384119
 30
0.0
 11
6495.7062272161
 21
4560.3746384119
 31
0.0
  0
LINE
  5
2CD
330
1F
100
AcDbEntity
  8
0
  6
Continuous
 62
     7
370
    25
100
AcDbLine
 10
6495.7062272161
 20
4563.8746384119
 30
0.0
 11
6498.5062272161
 21
4563.8746384119
 31
0.0
  0
LINE
  5
2CE
330
1F
100
AcDbEntity
  8
0
  6
Continuous
 62
     7
370
    25
100
AcDbLine
 10
6498.5062272161
 20
4560.3746384119
 30
0.0
 11
6498.5062272161
 21
4563.8746384119
 31
0.0
  0
LINE
  5
2CF
330
1F
100
AcDbEntity
  8
0
  6
Continuous
 62
     7
370
    25
100
AcDbLine
 10
6495.7062272161
 20
4560.3746384119
 30
0.0
 11
6498.5062272161
 21
4560.3746384119
 31
0.0
  0
ARC
  5
2D0
330
1F
100
AcDbEntity
  8
0
  6
Continuous
 62
     7
370
    25
100
AcDbCircle
 10
6498.5062272161
 20
4563.1746384119
 30
0.0
 40
0.7000000000007276
100
AcDbArc
 50
0.0
 51
90.0
  0
LINE
  5
2D1
330
1F
100
AcDbEntity
  8
0
  6
Continuous
 62
     7
370
    25
100
AcDbLine
 10
6499.2062272161
 20
4563.1746384119
 30
0.0
 11
6499.2062272161
 21
4560.3746384119
 31
0.0
  0
LINE
  5
2D2
330
1F
100
AcDbEntity
  8
0
  6
Continuous
 62
     7
370
    25
100
AcDbLine
 10
6499.2062272161
 20
4560.3746384119
 30
0.0
 11
6498.5062272161
 21
4560.3746384119
 31
0.0
  0
LINE
  5
2D3
330
1F
100
AcDbEntity
  8
0
  6
Continuous
 62
     7
370
    25
100
AcDbLine
 10
6495.7062272161
 20
4560.3746384119
 30
0.0
 11
6495.0062272161
 21
4560.3746384119
 31
0.0
  0
LINE
  5
2D4
330
1F
100
AcDbEntity
  8
0
  6
Continuous
 62
     7
370
    25
100
AcDbLine
 10
6495.0062272161
 20
4560.3746384119
 30
0.0
 11
6495.0062272161
 21
4563.1746384119
 31
0.0
  0
ARC
  5
2D5
330
1F
100
AcDbEntity
  8
0
  6
Continuous
 62
     7
370
    25
100
AcDbCircle
 10
6495.7062272161
 20
4563.1746384119
 30
0.0
 40
0.7000000000007276
100
AcDbArc
 50
90.0
 51
180.0
  0
LINE
  5
2D6
330
1F
100
AcDbEntity
  8
0
  6
Continuous
 62
     7
370
    25
100
AcDbLine
 10
6526.6055459875
 20
4560.3746384119
 30
0.0
 11
6526.6055459875
 21
4563.1746384119
 31
0.0
  0
ARC
  5
2D7
330
1F
100
AcDbEntity
  8
0
  6
Continuous
 62
     7
370
    25
100
AcDbCircle
 10
6527.3055459875
 20
4563.1746384119
 30
0.0
 40
0.7000000000007276
100
AcDbArc
 50
90.0
 51
180.0
  0
LINE
  5
2D8
330
1F
100
AcDbEntity
  8
0
  6
Continuous
 62
     7
370
    25
100
AcDbLine
 10
6527.3055459875
 20
4560.3746384119
 30
0.0
 11
6526.6055459875
 21
4560.3746384119
 31
0.0
  0
ARC
  5
2D9
330
1F
100
AcDbEntity
  8
0
  6
Continuous
 62
     7
370
    25
100
AcDbCircle
 10
6530.1055459875
 20
4563.1746384119
 30
0.0
 40
0.7000000000007276
100
AcDbArc
 50
0.0
 51
90.0
  0
LINE
  5
2DA
330
1F
100
AcDbEntity
  8
0
  6
Continuous
 62
     7
370
    25
100
AcDbLine
 10
6530.8055459875
 20
4563.1746384119
 30
0.0
 11
6530.8055459875
 21
4560.3746384119
 31
0.0
  0
LINE
  5
2DB
330
1F
100
AcDbEntity
  8
0
  6
Continuous
 62
     7
370
    25
100
AcDbLine
 10
6530.1055459875
 20
4560.3746384119
 30
0.0
 11
6530.8055459875
 21
4560.3746384119
 31
0.0
  0
LINE
  5
2DC
330
1F
100
AcDbEntity
  8
0
  6
Continuous
 62
     7
370
    25
100
AcDbLine
 10
6530.1055459875
 20
4556.8746384119
 30
0.0
 11
6530.1055459875
 21
4560.3746384119
 31
0.0
  0
LINE
  5
2DD
330
1F
100
AcDbEntity
  8
0
  6
Continuous
 62
     7
370
    25
100
AcDbLine
 10
6530.1055459875
 20
4556.8746384119
 30
0.0
 11
6527.3055459875
 21
4556.8746384119
 31
0.0
  0
LINE
  5
2DE
330
1F
100
AcDbEntity
  8
0
  6
Continuous
 62
     7
370
    25
100
AcDbLine
 10
6527.3055459875
 20
4560.3746384119
 30
0.0
 11
6527.3055459875
 21
4556.8746384119
 31
0.0
  0
ARC
  5
2DF
330
1F
100
AcDbEntity
  8
0
  6
Continuous
 62
     7
370
    25
100
AcDbCircle
 10
6527.3055459875
 20
4557.5746384119
 30
0.0
 40
0.6999999999998181
100
AcDbArc
 50
180.0
 51
270.0
  0
LINE
  5
2E0
330
1F
100
AcDbEntity
  8
0
  6
Continuous
 62
     7
370
    25
100
AcDbLine
 10
6526.6055459875
 20
4557.5746384119
 30
0.0
 11
6526.6055459875
 21
4560.3746384119
 31
0.0
  0
LINE
  5
2E1
330
1F
100
AcDbEntity
  8
0
  6
Continuous
 62
     7
370
    25
100
AcDbLine
 10
6495.7062272161
 20
4560.3746384119
 30
0.0
 11
6495.7062272161
 21
4556.8746384119
 31
0.0
  0
ARC
  5
2E2
330
1F
100
AcDbEntity
  8
0
  6
Continuous
 62
     7
370
    25
100
AcDbCircle
 10
6495.7062272161
 20
4557.5746384119
 30
0.0
 40
0.6999999999998181
100
AcDbArc
 50
180.0
 51
270.0
  0
LINE
  5
2E3
330
1F
100
AcDbEntity
  8
0
  6
Continuous
 62
     7
370
    25
100
AcDbLine
 10
6495.0062272161
 20
4557.5746384119
 30
0.0
 11
6495.0062272161
 21
4560.3746384119
 31
0.0
  0
LINE
  5
2E4
330
1F
100
AcDbEntity
  8
0
  6
Continuous
 62
     7
370
    25
100
AcDbLine
 10
6530.8055459875
 20
4560.3746384119
 30
0.0
 11
6530.8055459875
 21
4557.5746384119
 31
0.0
  0
ARC
  5
2E5
330
1F
100
AcDbEntity
  8
0
  6
Continuous
 62
     7
370
    25
100
AcDbCircle
 10
6530.1055459875
 20
4557.5746384119
 30
0.0
 40
0.6999999999998181
100
AcDbArc
 50
270.0
 51
0.0
  0
LINE
  5
2E6
330
1F
100
AcDbEntity
  8
0
  6
Continuous
 62
     7
370
    25
100
AcDbLine
 10
6498.5062272161
 20
4556.8746384119
 30
0.0
 11
6498.5062272161
 21
4560.3746384119
 31
0.0
  0
LINE
  5
2E7
330
1F
100
AcDbEntity
  8
0
  6
Continuous
 62
     7
370
    25
100
AcDbLine
 10
6498.5062272161
 20
4556.8746384119
 30
0.0
 11
6495.7062272161
 21
4556.8746384119
 31
0.0
  0
LINE
  5
2E8
330
1F
100
AcDbEntity
  8
0
  6
Continuous
 62
     7
370
    25
100
AcDbLine
 10
6499.2062272161
 20
4560.3746384119
 30
0.0
 11
6499.2062272161
 21
4557.5746384119
 31
0.0
  0
ARC
  5
2E9
330
1F
100
AcDbEntity
  8
0
  6
Continuous
 62
     7
370
    25
100
AcDbCircle
 10
6498.5062272161
 20
4557.5746384119
 30
0.0
 40
0.6999999999998181
100
AcDbArc
 50
270.0
 51
0.0
  0
LINE
  5
2EA
330
1F
100
AcDbEntity
  8
0
  6
Continuous
 62
     7
370
    25
100
AcDbLine
 10
6499.3338726379
 20
4561.3246384119
 30
0.0
 11
6499.3338726379
 21
4559.4246384119
 31
0.0
  0
LINE
  5
2EB
330
1F
100
AcDbEntity
  8
0
  6
Continuous
 62
     7
370
    25
100
AcDbLine
 10
6526.4785817943
 20
4561.3246384119
 30
0.0
 11
6526.4785817943
 21
4559.4246384119
 31
0.0
  0
LINE
  5
2EC
330
1F
100
AcDbEntity
  8
0
  6
Continuous
 62
     7
370
    25
100
AcDbLine
 10
6495.0062272161
 20
4557.5746384119
 30
0.0
 11
6494.3062272161
 21
4557.5746384119
 31
0.0
  0
LINE
  5
2ED
330
1F
100
AcDbEntity
  8
0
  6
Continuous
 62
     7
370
    25
100
AcDbLine
 10
6530.8055459875
 20
4557.5746384119
 30
0.0
 11
6531.5055459875
 21
4557.5746384119
 31
0.0
  0
LINE
  5
2EE
330
1F
100
AcDbEntity
  8
0
  6
Continuous
 62
     7
370
    25
100
AcDbLine
 10
6530.1055459875
 20
4556.8746384119
 30
0.0
 11
6530.1055459875
 21
4556.1746384119
 31
0.0
  0
LINE
  5
2EF
330
1F
100
AcDbEntity
  8
0
  6
Continuous
 62
     7
370
    25
100
AcDbLine
 10
6530.1055459875
 20
4556.1746384119
 30
0.0
 11
6528.6332110164
 21
4556.1746384119
 31
0.0
  0
ARC
  5
2F0
330
1F
100
AcDbEntity
  8
0
  6
Continuous
 62
     7
370
    25
100
AcDbCircle
 10
6523.8456026658
 20
4557.6225828171
 30
0.0
 40
5.001773357434662
100
AcDbArc
 50
343.172801418
 51
351.39997094
  0
LINE
  5
2F1
330
1F
100
AcDbEntity
  8
0
  6
Continuous
 62
     7
370
    25
100
AcDbLine
 10
6495.7062272161
 20
4563.8746384119
 30
0.0
 11
6495.7062272161
 21
4564.5746384119
 31
0.0
  0
LINE
  5
2F2
330
1F
100
AcDbEntity
  8
0
  6
Continuous
 62
     7
370
    25
100
AcDbLine
 10
6495.7062272161
 20
4564.5746384119
 30
0.0
 11
6496.7562804629
 21
4564.5746384119
 31
0.0
  0
ARC
  5
2F3
330
1F
100
AcDbEntity
  8
0
  6
Continuous
 62
     7
370
    25
100
AcDbCircle
 10
6511.431689411
 20
4561.5858539949
 30
0.0
 40
14.97666385031761
100
AcDbArc
 50
168.4886082312
 51
171.2094187141
  0
LINE
  5
2F4
330
1F
100
AcDbEntity
  8
0
  6
Continuous
 62
     7
370
    25
100
AcDbLine
 10
6497.0193892749
 20
4556.1746384119
 30
0.0
 11
6495.7062272161
 21
4556.1746384119
 31
0.0
  0
LINE
  5
2F5
330
1F
100
AcDbEntity
  8
0
  6
Continuous
 62
     7
370
    25
100
AcDbLine
 10
6495.7062272161
 20
4556.8746384119
 30
0.0
 11
6495.7062272161
 21
4556.1746384119
 31
0.0
  0
ARC
  5
2F6
330
1F
100
AcDbEntity
  8
0
  6
Continuous
 62
     7
370
    25
100
AcDbCircle
 10
6511.3012316755
 20
4560.3012123189
 30
0.0
 40
14.86605645648551
100
AcDbArc
 50
193.3263042335
 51
196.1160409617
  0
LINE
  5
2F7
330
1F
100
AcDbEntity
  8
0
  6
Continuous
 62
     7
370
    25
100
AcDbLine
 10
6528.6332110164
 20
4564.5746384119
 30
0.0
 11
6530.1055459875
 21
4564.5746384119
 31
0.0
  0
LINE
  5
2F8
330
1F
100
AcDbEntity
  8
0
  6
Continuous
 62
     7
370
    25
100
AcDbLine
 10
6530.1055459875
 20
4563.8746384119
 30
0.0
 11
6530.1055459875
 21
4564.5746384119
 31
0.0
  0
ARC
  5
2F9
330
1F
100
AcDbEntity
  8
0
  6
Continuous
 62
     7
370
    25
100
AcDbCircle
 10
6522.5245842317
 20
4562.8286598044
 30
0.0
 40
6.3532481844412
100
AcDbArc
 50
9.476137532
 51
15.9510901101
  0
ARC
  5
2FA
330
1F
100
AcDbEntity
  8
0
  6
Continuous
 62
     7
370
    25
100
AcDbCircle
 10
6530.1055459875
 20
4557.5746384119
 30
0.0
 40
1.399999999999636
100
AcDbArc
 50
270.0
 51
0.0
  0
ARC
  5
2FB
330
1F
100
AcDbEntity
  8
0
  6
Continuous
 62
     7
370
    25
100
AcDbCircle
 10
6495.7062272161
 20
4557.5746384119
 30
0.0
 40
1.399999999999636
100
AcDbArc
 50
180.0
 51
270.0
  0
ARC
  5
2FC
330
1F
100
AcDbEntity
  8
0
  6
Continuous
 62
     7
370
    25
100
AcDbCircle
 10
6507.15758829
 20
4573.3187066383
 30
0.0
 40
2.114962488156814
100
AcDbArc
 50
113.9466658893
 51
122.6187463668
  0
ARC
  5
2FD
330
1F
100
AcDbEntity
  8
0
  6
Continuous
 62
     7
370
    25
100
AcDbCircle
 10
6507.15758829
 20
4547.4305701855
 30
0.0
 40
2.11496248815748
100
AcDbArc
 50
236.8243605215
 51
246.0533341107
  0
ARC
  5
2FE
330
1F
100
AcDbEntity
  8
0
  6
Continuous
 62
     7
370
    25
100
AcDbCircle
 10
6512.9062272161
 20
4560.3746384119
 30
0.0
 40
19.95000000000019
100
AcDbArc
 50
270.0
 51
1.3083677854
  0
ARC
  5
2FF
330
1F
100
AcDbEntity
  8
0
  6
Continuous
 62
     7
370
    25
100
AcDbCircle
 10
6512.9062272161
 20
4560.3746384119
 30
0.0
 40
19.95000000000031
100
AcDbArc
 50
178.6916322146
 51
270.0
  0
ARC
  5
300
330
1F
100
AcDbEntity
  8
0
  6
Continuous
 62
     7
370
    25
100
AcDbCircle
 10
6513.2965310924
 20
4560.9852195506
 30
0.0
 40
16.97312689632769
100
AcDbArc
 50
196.4646299597
 51
244.5405854637
  0
ARC
  5
301
330
1F
100
AcDbEntity
  8
0
  6
Continuous
 62
     7
370
    25
100
AcDbCircle
 10
6511.981604238
 20
4560.5151856367
 30
0.0
 40
15.75720917195717
100
AcDbArc
 50
112.2407026115
 51
165.0708087807
  0
ARC
  5
302
330
1F
100
AcDbEntity
  8
0
  6
Continuous
 62
     7
370
    25
100
AcDbCircle
 10
6512.9062272161
 20
4560.3746384119
 30
0.0
 40
16.27814545502477
100
AcDbArc
 50
14.95229104
 51
113.9466658893
  0
ARC
  5
303
330
1F
100
AcDbEntity
  8
0
  6
Continuous
 62
     7
370
    25
100
AcDbCircle
 10
6512.9062272161
 20
4560.3746384119
 30
0.0
 40
16.2781454550256
100
AcDbArc
 50
246.0533341107
 51
345.04770896
  0
LINE
  5
304
330
1F
100
AcDbEntity
  8
0
  6
Continuous
 62
     7
370
    25
100
AcDbLine
 10
6496.7562804628
 20
4564.5746384112
 30
0.0
 11
6498.0333140708
 21
4564.5746384119
 31
0.0
  0
ARC
  5
305
330
1F
100
AcDbEntity
  8
0
  6
Continuous
 62
     7
370
    25
100
AcDbCircle
 10
6498.6470316956
 20
4564.4795122844
 30
0.0
 40
0.621046136024948
100
AcDbArc
 50
171.1892765273
 51
256.8958738101
  0
ARC
  5
306
330
1F
100
AcDbEntity
  8
0
  6
Continuous
 62
     7
370
    25
100
AcDbCircle
 10
6498.6470316956
 20
4556.2697645394
 30
0.0
 40
0.6210461360280178
100
AcDbArc
 50
103.10412619
 51
188.8107234726
  0
LINE
  5
307
330
1F
100
AcDbEntity
  8
0
  6
Continuous
 62
     7
370
    25
100
AcDbLine
 10
6498.0333140708
 20
4556.1746384119
 30
0.0
 11
6497.0193892749
 21
4556.1746384119
 31
0.0
  0
LINE
  5
308
330
1F
100
AcDbEntity
  8
0
  6
Continuous
 62
     7
370
    25
100
AcDbLine
 10
6499.4333140708
 20
4563.1746384119
 30
0.0
 11
6499.4333140708
 21
4557.5746384119
 31
0.0
  0
ARC
  5
309
330
1F
100
AcDbEntity
  8
0
  6
Continuous
 62
     7
370
    25
100
AcDbCircle
 10
6498.0333140708
 20
4563.1746384119
 30
0.0
 40
1.400000000000546
100
AcDbArc
 50
0.0
 51
90.0
  0
ELLIPSE
  5
30A
330
1F
100
AcDbEntity
  8
0
  6
Continuous
 62
     7
370
    25
100
AcDbEllipse
 10
6510.6544106486
 20
4573.3187066383
 30
0.0
 11
7.43195645916694
 21
0.0
 31
0.0
210
0.0
220
0.0
230
1.0
 40
0.9998720779
 41
3.11877515114191
 42
4.187842385738711
  0
ELLIPSE
  5
30B
330
1F
100
AcDbEntity
  8
0
  6
Continuous
 62
     7
370
    25
100
AcDbEllipse
 10
6503.1638240213
 20
4560.3746384119
 30
0.0
 11
7.524669661682309
 21
0.0
 31
0.0
210
0.0
220
0.0
230
1.0
 40
0.9998720779
 41
5.23693557503073
 42
7.329435039328518
  0
ELLIPSE
  5
30C
330
1F
100
AcDbEntity
  8
0
  6
Continuous
 62
     7
370
    25
100
AcDbEllipse
 10
6510.6544106486
 20
4547.4305701855
 30
0.0
 11
7.43195645916694
 21
0.0
 31
0.0
210
0.0
220
0.0
230
1.0
 40
0.9998720779
 41
2.095342921440828
 42
3.159634691503431
  0
ARC
  5
30D
330
1F
100
AcDbEntity
  8
0
  6
Continuous
 62
     7
370
    25
100
AcDbCircle
 10
6498.0333140708
 20
4557.5746384119
 30
0.0
 40
1.400000000000546
100
AcDbArc
 50
270.0
 51
0.0
  0
LINE
  5
30E
330
1F
100
AcDbEntity
  8
0
  6
Continuous
 62
     7
370
    25
100
AcDbLine
 10
6499.4333140708
 20
4563.1746384119
 30
0.0
 11
6499.2062272161
 21
4563.1746384119
 31
0.0
  0
LINE
  5
30F
330
1F
100
AcDbEntity
  8
0
  6
Continuous
 62
     7
370
    25
100
AcDbLine
 10
6499.4333140708
 20
4557.5746384119
 30
0.0
 11
6499.2062272161
 21
4557.5746384119
 31
0.0
  0
ARC
  5
310
330
1F
100
AcDbEntity
  8
0
  6
Continuous
 62
     7
370
    25
100
AcDbCircle
 10
6503.7274335996
 20
4568.4808953022
 30
0.0
 40
3.579462495000278
100
AcDbArc
 50
333.5544399289
 51
50.6354567783
  0
ARC
  5
311
330
1F
100
AcDbEntity
  8
0
  6
Continuous
 62
     7
370
    25
100
AcDbCircle
 10
6507.2781314639
 20
4573.3187644677
 30
0.0
 40
2.434420996736607
100
AcDbArc
 50
143.877510115
 51
238.2668902283
  0
ARC
  5
312
330
1F
100
AcDbEntity
  8
0
  6
Continuous
 62
     7
370
    25
100
AcDbCircle
 10
6503.7274335996
 20
4552.2683815216
 30
0.0
 40
3.579462495002135
100
AcDbArc
 50
309.3645432217
 51
26.4455600711
  0
ARC
  5
313
330
1F
100
AcDbEntity
  8
0
  6
Continuous
 62
     7
370
    25
100
AcDbCircle
 10
6507.2781825128
 20
4547.4305023514
 30
0.0
 40
2.434456355960082
100
AcDbArc
 50
121.7340077699
 51
216.0920467523
  0
ARC
  5
314
330
1F
100
AcDbEntity
  8
0
  6
Continuous
 62
     7
370
    25
100
AcDbCircle
 10
6499.787699462
 20
4560.3746384119
 30
0.0
 40
12.52198860922837
100
AcDbArc
 50
299.7310219646
 51
60.2689780354
  0
CIRCLE
  5
315
330
1F
100
AcDbEntity
  8
0
  6
Continuous
 62
     7
370
    25
100
AcDbCircle
 10
6512.9062272161
 20
4560.3746384119
 30
0.0
 40
20.10000000000036
  0
ARC
  5
316
330
1F
100
AcDbEntity
  8
0
  6
Continuous
 62
     7
370
    25
100
AcDbCircle
 10
6512.9062272161
 20
4560.3746384119
 30
0.0
 40
25.55435605731845
100
AcDbArc
 50
4.3156322274
 51
85.6843677726
  0
ARC
  5
317
330
1F
100
AcDbEntity
  8
0
  6
Continuous
 62
     7
370
    25
100
AcDbCircle
 10
6539.9062272161
 20
4560.3746384119
 30
0.0
 40
2.449999999997672
100
AcDbArc
 50
128.289306363
 51
231.710693637
  0
ARC
  5
318
330
1F
100
AcDbEntity
  8
0
  6
Continuous
 62
     7
370
    25
100
AcDbCircle
 10
6512.9062272161
 20
4560.3746384119
 30
0.0
 40
25.55435605731762
100
AcDbArc
 50
274.3156322274
 51
355.6843677726
  0
ARC
  5
319
330
1F
100
AcDbEntity
  8
0
  6
Continuous
 62
     7
370
    25
100
AcDbCircle
 10
6512.9062272161
 20
4533.3746384119
 30
0.0
 40
2.449999999999362
100
AcDbArc
 50
38.2893063631
 51
141.7106936369
  0
ARC
  5
31A
330
1F
100
AcDbEntity
  8
0
  6
Continuous
 62
     7
370
    25
100
AcDbCircle
 10
6512.9062272161
 20
4560.3746384119
 30
0.0
 40
25.55435605731853
100
AcDbArc
 50
184.3156322274
 51
265.6843677726
  0
ARC
  5
31B
330
1F
100
AcDbEntity
  8
0
  6
Continuous
 62
     7
370
    25
100
AcDbCircle
 10
6485.9062272161
 20
4560.3746384119
 30
0.0
 40
2.45000000000049
100
AcDbArc
 50
308.2893063631
 51
51.7106936369
  0
ARC
  5
31C
330
1F
100
AcDbEntity
  8
0
  6
Continuous
 62
     7
370
    25
100
AcDbCircle
 10
6512.9062272161
 20
4560.3746384119
 30
0.0
 40
25.55435605731859
100
AcDbArc
 50
94.3156322274
 51
175.6843677726
  0
ARC
  5
31D
330
1F
100
AcDbEntity
  8
0
  6
Continuous
 62
     7
370
    25
100
AcDbCircle
 10
6512.9062272161
 20
4587.3746384119
 30
0.0
 40
2.449999999999362
100
AcDbArc
 50
218.2893063631
 51
321.7106936369
  0
CIRCLE
  5
31E
330
1F
100
AcDbEntity
  8
0
  6
Continuous
 62
     7
370
    25
100
AcDbCircle
 10
6512.9062272161
 20
4560.3746384119
 30
0.0
 40
34.90000000000055
  0
ARC
  5
31F
330
1F
100
AcDbEntity
  8
0
  6
Continuous
 62
     7
370
    25
100
AcDbCircle
 10
6512.9062272161
 20
4533.3746384119
 30
0.0
 40
2.449999999999926
100
AcDbArc
 50
141.7106936369
 51
38.2893063631
  0
ARC
  5
320
330
1F
100
AcDbEntity
  8
0
  6
Continuous
 62
     7
370
    25
100
AcDbCircle
 10
6539.9062272161
 20
4560.3746384119
 30
0.0
 40
2.45000000000049
100
AcDbArc
 50
231.7106936369
 51
128.2893063631
  0
ARC
  5
321
330
1F
100
AcDbEntity
  8
0
  6
Continuous
 62
     7
370
    25
100
AcDbCircle
 10
6485.9062272161
 20
4560.3746384119
 30
0.0
 40
2.45000000000049
100
AcDbArc
 50
51.7106936369
 51
308.2893063631
  0
ARC
  5
322
330
1F
100
AcDbEntity
  8
0
  6
Continuous
 62
     7
370
    25
100
AcDbCircle
 10
6512.9062272161
 20
4587.3746384119
 30
0.0
 40
2.449999999999926
100
AcDbArc
 50
321.7106936369
 51
218.2893063631
  0
ELLIPSE
  5
323
330
1F
100
AcDbEntity
  8
0
  6
Continuous
 62
     7
370
    25
100
AcDbEllipse
 10
6444.3238387463
 20
4552.8220124099
 30
0.0
 11
198.0
 21
0.0
 31
0.0
210
0.0
220
0.0
230
1.0
 40
0.0261859216
 41
4.982746857089573
 42
4.983749892018666
  0
LINE
  5
324
330
1F
100
AcDbEntity
  8
0
  6
Continuous
 62
     7
370
    25
100
AcDbLine
 10
6505.0117009668
 20
4572.1369664121
 30
0.0
 11
6506.4250530285
 21
4573.5503184737
 31
0.0
  0
ARC
  5
325
330
1F
100
AcDbEntity
  8
0
  6
Continuous
 62
     7
370
    25
100
AcDbCircle
 10
6504.9062272161
 20
4563.7177841624
 30
0.0
 40
8.026623719119016
100
AcDbArc
 50
0.0
 51
45.0
  0
LINE
  5
326
330
1F
100
AcDbEntity
  8
0
  6
Continuous
 62
     7
370
    25
100
AcDbLine
 10
6506.4250530285
 20
4573.5503184737
 30
0.0
 11
6510.5819072779
 21
4569.3934642242
 31
0.0
  0
LINE
  5
327
330
1F
100
AcDbEntity
  8
0
  6
Continuous
 62
     7
370
    25
100
AcDbLine
 10
6512.9328509352
 20
4563.7177841624
 30
0.0
 11
6512.9328509352
 21
4557.0314926614
 31
0.0
  0
ARC
  5
328
330
1F
100
AcDbEntity
  8
0
  6
Continuous
 62
     7
370
    25
100
AcDbCircle
 10
6504.9062272161
 20
4557.0314926614
 30
0.0
 40
8.026623719119016
100
AcDbArc
 50
315.0
 51
0.0
  0
LINE
  5
329
330
1F
100
AcDbEntity
  8
0
  6
Continuous
 62
     7
370
    25
100
AcDbLine
 10
6506.4250530285
 20
4547.1989583501
 30
0.0
 11
6505.0117009668
 21
4548.6123104118
 31
0.0
  0
LINE
  5
32A
330
1F
100
AcDbEntity
  8
0
  6
Continuous
 62
     7
370
    25
100
AcDbLine
 10
6510.5819072779
 20
4551.3558125996
 30
0.0
 11
6506.4250530285
 21
4547.1989583501
 31
0.0
  0
ARC
  5
32B
330
1F
100
AcDbEntity
  8
0
  6
Continuous
 62
     7
370
    25
100
AcDbCircle
 10
6060.6062272161
 20
4620.3746384119
 30
0.0
 40
4.0
100
AcDbArc
 50
270.0
 51
25.514208372
  0
ARC
  5
32C
330
1F
100
AcDbEntity
  8
0
  6
Continuous
 62
     7
370
    25
100
AcDbCircle
 10
6060.6062272161
 20
4620.3746384119
 30
0.0
 40
4.000000000000481
100
AcDbArc
 50
154.4857916398
 51
270.0
  0
CIRCLE
  5
32D
330
1F
100
AcDbEntity
  8
0
  6
Continuous
 62
     7
370
    25
100
AcDbCircle
 10
6965.2062272161
 20
4473.3746384119
 30
0.0
 40
3.999999999999091
  0
CIRCLE
  5
32E
330
1F
100
AcDbEntity
  8
0
  6
Continuous
 62
     7
370
    25
100
AcDbCircle
 10
6965.2062272161
 20
4473.3746384119
 30
0.0
 40
5.0
  0
ARC
  5
32F
330
1F
100
AcDbEntity
  8
0
  6
Continuous
 62
     7
370
    25
100
AcDbCircle
 10
6965.2062272161
 20
4620.3746384119
 30
0.0
 40
4.0
100
AcDbArc
 50
270.0
 51
25.5142083602
  0
ARC
  5
330
330
1F
100
AcDbEntity
  8
0
  6
Continuous
 62
     7
370
    25
100
AcDbCircle
 10
6965.2062272161
 20
4620.3746384119
 30
0.0
 40
4.0
100
AcDbArc
 50
154.4857916281
 51
270.0
  0
LINE
  5
331
330
1F
100
AcDbEntity
  8
0
  6
Continuous
 62
     7
370
    25
100
AcDbLine
 10
6979.2062272161
 20
4635.3746384119
 30
0.0
 11
6929.2062272161
 21
4635.3746384119
 31
0.0
  0
LINE
  5
332
330
1F
100
AcDbEntity
  8
0
  6
Continuous
 62
     7
370
    25
100
AcDbLine
 10
6979.2062272161
 20
4633.0746384119
 30
0.0
 11
6979.2062272161
 21
4635.3746384119
 31
0.0
  0
LINE
  5
333
330
1F
100
AcDbEntity
  8
0
  6
Continuous
 62
     7
370
    25
100
AcDbLine
 10
6929.2062272161
 20
4635.3746384119
 30
0.0
 11
6929.2062272161
 21
4633.0746384119
 31
0.0
  0
CIRCLE
  5
334
330
1F
100
AcDbEntity
  8
0
  6
Continuous
 62
     7
370
    25
100
AcDbCircle
 10
6060.6062272161
 20
4473.3746384119
 30
0.0
 40
4.000000000000909
  0
CIRCLE
  5
335
330
1F
100
AcDbEntity
  8
0
  6
Continuous
 62
     7
370
    25
100
AcDbCircle
 10
6060.6062272161
 20
4473.3746384119
 30
0.0
 40
5.0
  0
LINE
  5
336
330
1F
100
AcDbEntity
  8
0
  6
Continuous
 62
     7
370
    25
100
AcDbLine
 10
6046.6062272161
 20
4458.3746384119
 30
0.0
 11
6096.6062272161
 21
4458.3746384119
 31
0.0
  0
CIRCLE
  5
337
330
1F
100
AcDbEntity
  8
0
  6
Continuous
 62
     7
370
    25
100
AcDbCircle
 10
6082.6062272161
 20
4473.3746384119
 30
0.0
 40
2.75
  0
LINE
  5
338
330
1F
100
AcDbEntity
  8
0
  6
Continuous
 62
     7
370
    25
100
AcDbLine
 10
6046.6062272161
 20
4488.3746384119
 30
0.0
 11
6046.6062272161
 21
4458.3746384119
 31
0.0
  0
LINE
  5
339
330
1F
100
AcDbEntity
  8
0
  6
Continuous
 62
     7
370
    25
100
AcDbLine
 10
6096.6062272161
 20
4488.3746384119
 30
0.0
 11
6070.6062272161
 21
4488.3746384119
 31
0.0
  0
LINE
  5
33A
330
1F
100
AcDbEntity
  8
0
  6
Continuous
 62
     7
370
    25
100
AcDbLine
 10
6050.6062272161
 20
4488.3746384119
 30
0.0
 11
6046.6062272161
 21
4488.3746384119
 31
0.0
  0
LINE
  5
33B
330
1F
100
AcDbEntity
  8
0
  6
Continuous
 62
     7
370
    25
100
AcDbLine
 10
6096.6062272161
 20
4458.3746384119
 30
0.0
 11
6096.6062272161
 21
4488.3746384119
 31
0.0
  0
LINE
  5
33C
330
1F
100
AcDbEntity
  8
0
  6
Continuous
 62
     8
370
    25
100
AcDbLine
 10
6983.5062272161
 20
4611.3746384119
 30
0.0
 11
6983.5062272161
 21
4614.7746384119
 31
0.0
  0
LINE
  5
33D
330
1F
100
AcDbEntity
  8
0
  6
Continuous
 62
     8
370
    25
100
AcDbLine
 10
6042.3062272161
 20
4611.3746384119
 30
0.0
 11
6042.3062272161
 21
4614.774637428
 31
0.0
  0
LINE
  5
33E
330
1F
100
AcDbEntity
  8
0
  6
Continuous
 62
     8
370
    25
100
AcDbLine
 10
6041.3062272161
 20
4610.3746384119
 30
0.0
 11
6037.9062272161
 21
4610.3746384119
 31
0.0
  0
LINE
  5
33F
330
1F
100
AcDbEntity
  8
0
  6
Continuous
 62
     8
370
    25
100
AcDbLine
 10
6984.5062272161
 20
4610.3746384119
 30
0.0
 11
6987.9062272161
 21
4610.3746384119
 31
0.0
  0
LINE
  5
340
330
1F
100
AcDbEntity
  8
0
  6
Continuous
 62
     8
370
    25
100
AcDbLine
 10
6041.3062272161
 20
4510.3746384119
 30
0.0
 11
6037.9062272161
 21
4510.3746384119
 31
0.0
  0
LINE
  5
341
330
1F
100
AcDbEntity
  8
0
  6
Continuous
 62
     8
370
    25
100
AcDbLine
 10
6984.5062272161
 20
4510.3746384119
 30
0.0
 11
6987.9062272161
 21
4510.3746384119
 31
0.0
  0
LINE
  5
342
330
1F
100
AcDbEntity
  8
0
  6
Continuous
 62
     8
370
    25
100
AcDbLine
 10
6983.5062272161
 20
4509.3746384119
 30
0.0
 11
6983.5062272161
 21
4505.9746384119
 31
0.0
  0
LINE
  5
343
330
1F
100
AcDbEntity
  8
0
  6
Continuous
 62
     8
370
    25
100
AcDbLine
 10
6042.3062272161
 20
4509.3746384119
 30
0.0
 11
6042.3062272161
 21
4505.9746384119
 31
0.0
  0
LINE
  5
344
330
1F
100
AcDbEntity
  8
0
  6
Continuous
 62
     8
370
    25
100
AcDbLine
 10
6494.7839490065
 20
4561.3774008429
 30
0.0
 11
6492.8868510121
 21
4561.4823732185
 31
0.0
  0
LINE
  5
345
330
1F
100
AcDbEntity
  8
0
  6
Continuous
 62
     8
370
    25
100
AcDbLine
 10
6531.0285054258
 20
4561.3774008429
 30
0.0
 11
6532.9256034201
 21
4561.4823732185
 31
0.0
  0
LINE
  5
346
330
1F
100
AcDbEntity
  8
0
  6
Continuous
 62
     8
370
    25
100
AcDbLine
 10
6494.8338726379
 20
4561.3246384119
 30
0.0
 11
6494.8338726379
 21
4559.4246384119
 31
0.0
  0
LINE
  5
347
330
1F
100
AcDbEntity
  8
0
  6
Continuous
 62
     8
370
    25
100
AcDbLine
 10
6530.9785817943
 20
4561.3246384119
 30
0.0
 11
6530.9785817943
 21
4559.4246384119
 31
0.0
  0
LINE
  5
348
330
1F
100
AcDbEntity
  8
0
  6
Continuous
 62
     8
370
    25
100
AcDbLine
 10
6494.3062272161
 20
4557.5746384119
 30
0.0
 11
6494.3062272161
 21
4559.4973823535
 31
0.0
  0
LINE
  5
349
330
1F
100
AcDbEntity
  8
0
  6
Continuous
 62
     8
370
    25
100
AcDbLine
 10
6495.0062272161
 20
4563.1746384119
 30
0.0
 11
6494.9735057272
 21
4563.1746384119
 31
0.0
  0
LINE
  5
34A
330
1F
100
AcDbEntity
  8
0
  6
Continuous
 62
     8
370
    25
100
AcDbLine
 10
6530.8055459875
 20
4563.1746384119
 30
0.0
 11
6530.8389487051
 21
4563.1746384119
 31
0.0
  0
LINE
  5
34B
330
1F
100
AcDbEntity
  8
0
  6
Continuous
 62
     8
370
    25
100
AcDbLine
 10
6531.5055459875
 20
4559.4971910121
 30
0.0
 11
6531.5055459875
 21
4557.5746384119
 31
0.0
  0
LWPOLYLINE
  5
34C
330
1F
100
AcDbEntity
  8
0
  6
Continuous
 62
     8
370
    25
100
AcDbPolyline
 90
        3
 70
   128
 43
0.0
 10
6530.5833763123
 20
4564.4905708497
 10
6530.3786724384
 20
4564.5477378045
 10
6530.1055459875
 20
4564.5746384119
  0
LWPOLYLINE
  5
34D
330
1F
100
AcDbEntity
  8
0
  6
Continuous
 62
     8
370
    25
100
AcDbPolyline
 90
        3
 70
   128
 43
0.0
 10
6495.7062272161
 20
4564.5746384119
 10
6495.4331007653
 20
4564.5477378045
 10
6495.2291409766
 20
4564.4908407976
  0
LINE
  5
34E
330
1F
100
AcDbEntity
  8
0
  6
Continuous
 62
     8
370
    25
100
AcDbLine
 10
6496.2005098068
 20
4571.4616355635
 30
0.0
 11
6496.1405332501
 21
4571.4616355635
 31
0.0
  0
LINE
  5
34F
330
1F
100
AcDbEntity
  8
0
  6
Continuous
 62
     8
370
    25
100
AcDbLine
 10
6496.1405332501
 20
4549.2876412603
 30
0.0
 11
6496.3206613783
 21
4549.2876412603
 31
0.0
  0
LINE
  5
350
330
1F
100
AcDbEntity
  8
0
  6
Continuous
 62
     8
370
    25
100
AcDbLine
 10
6495.6938106212
 20
4550.2882508046
 30
0.0
 11
6495.5201757657
 21
4550.2882508046
 31
0.0
  0
LINE
  5
351
330
1F
100
AcDbEntity
  8
0
  6
Continuous
 62
     8
370
    25
100
AcDbLine
 10
6495.5201757657
 20
4570.4610260192
 30
0.0
 11
6495.5780050039
 21
4570.4610260192
 31
0.0
  0
LINE
  5
352
330
1F
100
AcDbEntity
  8
0
  6
Continuous
 62
     8
370
    25
100
AcDbLine
 10
6496.4818990593
 20
4571.961330977
 30
0.0
 11
6496.5431267947
 21
4571.961330977
 31
0.0
  0
LINE
  5
353
330
1F
100
AcDbEntity
  8
0
  6
Continuous
 62
     8
370
    25
100
AcDbLine
 10
6496.6658129541
 20
4548.7879458468
 30
0.0
 11
6496.4818990593
 21
4548.7879458468
 31
0.0
  0
LINE
  5
354
330
1F
100
AcDbEntity
  8
0
  6
Continuous
 62
     8
370
    25
100
AcDbLine
 10
6498.1075789987
 20
4573.902480477
 30
0.0
 11
6498.0399065865
 21
4573.902480477
 31
0.0
  0
LINE
  5
355
330
1F
100
AcDbEntity
  8
0
  6
Continuous
 62
     8
370
    25
100
AcDbLine
 10
6506.1023543652
 20
4571.0463130137
 30
0.0
 11
6505.0117009668
 21
4572.1369664121
 31
0.0
  0
LINE
  5
356
330
1F
100
AcDbEntity
  8
0
  6
Continuous
 62
     8
370
    25
100
AcDbLine
 10
6505.0117009668
 20
4548.6123104118
 30
0.0
 11
6506.0937134832
 21
4549.6943229282
 31
0.0
  0
LINE
  5
357
330
1F
100
AcDbEntity
  8
0
  6
Continuous
 62
     8
370
    25
100
AcDbLine
 10
6498.0399065865
 20
4546.8467963468
 30
0.0
 11
6498.2433492905
 21
4546.8467963468
 31
0.0
  0
LWPOLYLINE
  5
358
330
1F
100
AcDbEntity
  8
0
  6
Continuous
 62
     8
370
    25
100
AcDbPolyline
 90
        3
 70
   128
 43
0.0
 10
6505.2158734982
 20
4574.5437508963
 10
6505.8414091486
 20
4574.079302452
 10
6506.4250530285
 20
4573.5503184737
  0
LINE
  5
359
330
1F
100
AcDbEntity
  8
0
  6
Continuous
 62
     8
370
    25
100
AcDbLine
 10
6500.1416686305
 20
4575.901262131
 30
0.0
 11
6500.2205480508
 21
4575.901262131
 31
0.0
  0
LINE
  5
35A
330
1F
100
AcDbEntity
  8
0
  6
Continuous
 62
     8
370
    25
100
AcDbLine
 10
6512.9328509352
 20
4563.7177841624
 30
0.0
 11
6511.7944027316
 21
4563.7177841624
 31
0.0
  0
LINE
  5
35B
330
1F
100
AcDbEntity
  8
0
  6
Continuous
 62
     8
370
    25
100
AcDbLine
 10
6509.4566279311
 20
4568.2681848774
 30
0.0
 11
6510.5819072779
 21
4569.3934642242
 31
0.0
  0
LINE
  5
35C
330
1F
100
AcDbEntity
  8
0
  6
Continuous
 62
     8
370
    25
100
AcDbLine
 10
6512.9328509352
 20
4557.0314926614
 30
0.0
 11
6511.7804545979
 21
4557.0314926614
 31
0.0
  0
LINE
  5
35D
330
1F
100
AcDbEntity
  8
0
  6
Continuous
 62
     8
370
    25
100
AcDbLine
 10
6510.5819072779
 20
4551.3558125996
 30
0.0
 11
6509.3762980887
 21
4552.5614217889
 31
0.0
  0
ARC
  5
35E
330
1F
100
AcDbEntity
  8
0
  6
Continuous
 62
     8
370
    25
100
AcDbCircle
 10
6500.7493729666
 20
4552.8746384119
 30
0.0
 40
8.026623719119687
100
AcDbArc
 50
303.715507283
 51
315.0
  0
LINE
  5
35F
330
1F
100
AcDbEntity
  8
0
  6
Continuous
 62
     8
370
    25
100
AcDbLine
 10
6500.3791982034
 20
4544.8480146928
 30
0.0
 11
6500.1416686305
 21
4544.8480146928
 31
0.0
  0
LINE
  5
360
330
1F
100
AcDbEntity
  8
0
  6
Continuous
 62
     7
370
    25
100
AcDbLine
 10
7332.0948631442
 20
4960.040086775
 30
0.0
 11
7232.0948631442
 21
4960.040086775
 31
0.0
  0
LINE
  5
361
330
1F
100
AcDbEntity
  8
0
  6
Continuous
 62
     7
370
    25
100
AcDbLine
 10
7232.0948631442
 20
4960.040086775
 30
0.0
 11
7229.3948631442
 21
4960.040086775
 31
0.0
  0
LINE
  5
362
330
1F
100
AcDbEntity
  8
0
  6
Continuous
 62
     7
370
    25
100
AcDbLine
 10
7334.7948631442
 20
4960.040086775
 30
0.0
 11
7332.0948631442
 21
4960.040086775
 31
0.0
  0
LINE
  5
363
330
1F
100
AcDbEntity
  8
0
  6
Continuous
 62
     7
370
    25
100
AcDbLine
 10
7279.0948631442
 20
4935.840086775
 30
0.0
 11
7279.0948631442
 21
4920.840086775
 31
0.0
  0
LINE
  5
364
330
1F
100
AcDbEntity
  8
0
  6
Continuous
 62
     7
370
    25
100
AcDbLine
 10
7285.0948631442
 20
4920.840086775
 30
0.0
 11
7285.0948631442
 21
4935.840086775
 31
0.0
  0
LINE
  5
365
330
1F
100
AcDbEntity
  8
0
  6
Continuous
 62
     7
370
    25
100
AcDbLine
 10
7250.5548992811
 20
4940.2444505413
 30
0.0
 11
7252.2098029781
 21
4939.2326650796
 31
0.0
  0
LINE
  5
366
330
1F
100
AcDbEntity
  8
0
  6
Continuous
 62
     7
370
    25
100
AcDbLine
 10
7311.9799233103
 20
4939.2326650796
 30
0.0
 11
7313.6348270073
 21
4940.2444505413
 31
0.0
  0
LINE
  5
367
330
1F
100
AcDbEntity
  8
0
  6
Continuous
 62
     7
370
    25
100
AcDbLine
 10
7248.8448631442
 20
4940.840086775
 30
0.0
 11
7248.8448631442
 21
4940.2444505413
 31
0.0
  0
LINE
  5
368
330
1F
100
AcDbEntity
  8
0
  6
Continuous
 62
     7
370
    25
100
AcDbLine
 10
7315.3448631442
 20
4940.2444505413
 30
0.0
 11
7315.3448631442
 21
4940.840086775
 31
0.0
  0
LINE
  5
369
330
1F
100
AcDbEntity
  8
0
  6
Continuous
 62
     7
370
    25
100
AcDbLine
 10
7242.0948631442
 20
4938.7363759273
 30
0.0
 11
7242.0948631442
 21
4938.240086775
 31
0.0
  0
LINE
  5
36A
330
1F
100
AcDbEntity
  8
0
  6
Continuous
 62
     7
370
    25
100
AcDbLine
 10
7322.0948631442
 20
4938.240086775
 30
0.0
 11
7322.0948631442
 21
4938.7363759273
 31
0.0
  0
ARC
  5
36B
330
1F
100
AcDbEntity
  8
0
  6
Continuous
 62
     7
370
    25
100
AcDbCircle
 10
7242.7452051917
 20
4938.7911454753
 30
0.0
 40
0.0547695479962573
100
AcDbArc
 50
270.0
 51
330.0
  0
ARC
  5
36C
330
1F
100
AcDbEntity
  8
0
  6
Continuous
 62
     7
370
    25
100
AcDbCircle
 10
7321.4445210967
 20
4938.7911454753
 30
0.0
 40
0.0547695479954696
100
AcDbArc
 50
210.0000000005
 51
270.0
  0
LINE
  5
36D
330
1F
100
AcDbEntity
  8
0
  6
Continuous
 62
     7
370
    25
100
AcDbLine
 10
7321.3970892768
 20
4938.7637607013
 30
0.0
 11
7321.1579778916
 21
4939.1779137692
 31
0.0
  0
LINE
  5
36E
330
1F
100
AcDbEntity
  8
0
  6
Continuous
 62
     7
370
    25
100
AcDbLine
 10
7243.0317483968
 20
4939.1779137692
 30
0.0
 11
7242.7926370116
 21
4938.7637607013
 31
0.0
  0
ARC
  5
36F
330
1F
100
AcDbEntity
  8
0
  6
Continuous
 62
     7
370
    25
100
AcDbCircle
 10
7243.1265804483
 20
4939.1231624587
 30
0.0
 40
0.109502620936837
100
AcDbArc
 50
90.0
 51
149.9999999999
  0
ARC
  5
370
330
1F
100
AcDbEntity
  8
0
  6
Continuous
 62
     7
370
    25
100
AcDbCircle
 10
7321.0631458401
 20
4939.1231624587
 30
0.0
 40
0.1095026209379374
100
AcDbArc
 50
29.9999999997
 51
90.0
  0
LINE
  5
371
330
1F
100
AcDbEntity
  8
0
  6
Continuous
 62
     7
370
    25
100
AcDbLine
 10
7321.0631458401
 20
4939.2326650796
 30
0.0
 11
7287.8683658361
 21
4939.2326650796
 31
0.0
  0
LINE
  5
372
330
1F
100
AcDbEntity
  8
0
  6
Continuous
 62
     7
370
    25
100
AcDbLine
 10
7276.3213604523
 20
4939.2326650796
 30
0.0
 11
7243.1265804483
 21
4939.2326650796
 31
0.0
  0
LINE
  5
373
330
1F
100
AcDbEntity
  8
0
  6
Continuous
 62
     7
370
    25
100
AcDbLine
 10
7262.0949583402
 20
4902.93265329
 30
0.0
 11
7262.0949583402
 21
4902.3344147293
 31
0.0
  0
LINE
  5
374
330
1F
100
AcDbEntity
  8
0
  6
Continuous
 62
     7
370
    25
100
AcDbLine
 10
7302.0947679482
 20
4902.3344147293
 30
0.0
 11
7302.0947679482
 21
4902.93265329
 31
0.0
  0
ARC
  5
375
330
1F
100
AcDbEntity
  8
0
  6
Continuous
 62
     7
370
    25
100
AcDbCircle
 10
7282.0948631442
 20
4903.0909392235
 30
0.0
 40
26.99999999999921
100
AcDbArc
 50
0.0
 51
83.6206297916
  0
ARC
  5
376
330
1F
100
AcDbEntity
  8
0
  6
Continuous
 62
     7
370
    25
100
AcDbCircle
 10
7282.0948631442
 20
4903.0909392235
 30
0.0
 40
26.99999999999991
100
AcDbArc
 50
96.3793702084
 51
0.0
  0
ARC
  5
377
330
1F
100
AcDbEntity
  8
0
  6
Continuous
 62
     7
370
    25
100
AcDbCircle
 10
7317.7191657352
 20
4832.9091383264
 30
0.0
 40
52.79442234761233
100
AcDbArc
 50
98.6113344955
 51
109.5792512048
  0
ARC
  5
378
330
1F
100
AcDbEntity
  8
0
  6
Continuous
 62
     7
370
    25
100
AcDbCircle
 10
7246.7433691153
 20
4833.9497943346
 30
0.0
 40
51.72268379387005
100
AcDbArc
 50
70.3260562123
 51
81.523490746
  0
LINE
  5
379
330
1F
100
AcDbEntity
  8
0
  6
Continuous
 62
     7
370
    25
100
AcDbLine
 10
7323.8448631442
 20
4935.240086775
 30
0.0
 11
7323.8448631442
 21
4938.240086775
 31
0.0
  0
LINE
  5
37A
330
1F
100
AcDbEntity
  8
0
  6
Continuous
 62
     7
370
    25
100
AcDbLine
 10
7240.3448631442
 20
4938.240086775
 30
0.0
 11
7240.3448631442
 21
4935.240086775
 31
0.0
  0
LWPOLYLINE
  5
37B
330
1F
100
AcDbEntity
  8
0
  6
Continuous
 62
     7
370
    25
100
AcDbPolyline
 90
       14
 70
   128
 43
0.0
 10
7235.3903166391
 20
4900.5741729563
 10
7235.405027296
 20
4899.5639317527
 10
7235.7479725075
 20
4897.5833560225
 10
7236.3904391954
 20
4895.7332975645
 10
7237.2996569887
 20
4894.0329353077
 10
7238.4505654629
 20
4892.4849284469
 10
7239.8377886844
 20
4891.0763679705
 10
7241.4783137072
 20
4889.7901002537
 10
7243.4102365281
 20
4888.6118787732
 10
7245.6741285725
 20
4887.5407669673
 10
7248.2690263486
 20
4886.5957937284
 10
7251.1020326973
 20
4885.8070937516
 10
7254.1365463798
 20
4885.1558766235
 10
7254.4059317349
 20
4885.1109558585
  0
LWPOLYLINE
  5
37C
330
1F
100
AcDbEntity
  8
0
  6
Continuous
 62
     7
370
    25
100
AcDbPolyline
 90
       13
 70
   128
 43
0.0
 10
7309.763386727
 20
4885.1207963287
 10
7311.3250287294
 20
4885.409662799
 10
7314.2025009305
 20
4886.092552115
 10
7316.9678148968
 20
4886.9508092346
 10
7319.4727095822
 20
4887.9718585191
 10
7321.8371525879
 20
4889.2417620825
 10
7323.6632869844
 20
4890.5266324915
 10
7325.1907934675
 20
4891.9194621507
 10
7326.4455204051
 20
4893.4204553735
 10
7327.4404640798
 20
4895.0299363604
 10
7328.2366215896
 20
4896.9261308631
 10
7328.6942295491
 20
4898.8624591798
 10
7328.8161330246
 20
4900.5834354158
  0
LINE
  5
37D
330
1F
100
AcDbEntity
  8
0
  6
Continuous
 62
     7
370
    25
100
AcDbLine
 10
7235.2111591149
 20
4916.9138884721
 30
0.0
 11
7235.3539554445
 21
4900.5510498204
 31
0.0
  0
LINE
  5
37E
330
1F
100
AcDbEntity
  8
0
  6
Continuous
 62
     7
370
    25
100
AcDbLine
 10
7328.835822623
 20
4900.5569831253
 30
0.0
 11
7329.0948631442
 21
4930.240086775
 31
0.0
  0
ARC
  5
37F
330
1F
100
AcDbEntity
  8
0
  6
Continuous
 62
     7
370
    25
100
AcDbCircle
 10
7235.0948631442
 20
4933.240086775
 30
0.0
 40
2.000000000000918
100
AcDbArc
 50
120.0010464821
 51
180.0
  0
ARC
  5
380
330
1F
100
AcDbEntity
  8
0
  6
Continuous
 62
     7
370
    25
100
AcDbCircle
 10
7329.0948631442
 20
4933.240086775
 30
0.0
 40
2.000000000000909
100
AcDbArc
 50
0.0
 51
90.0
  0
LINE
  5
381
330
1F
100
AcDbEntity
  8
0
  6
Continuous
 62
     7
370
    25
100
AcDbLine
 10
7331.0948631442
 20
4930.240086775
 30
0.0
 11
7331.0948631442
 21
4933.240086775
 31
0.0
  0
LINE
  5
382
330
1F
100
AcDbEntity
  8
0
  6
Continuous
 62
     7
370
    25
100
AcDbLine
 10
7233.0948631442
 20
4933.240086775
 30
0.0
 11
7233.0948631442
 21
4930.240086775
 31
0.0
  0
LINE
  5
383
330
1F
100
AcDbEntity
  8
0
  6
Continuous
 62
     7
370
    25
100
AcDbLine
 10
7249.2448429575
 20
4886.3241294812
 30
0.0
 11
7249.8541181619
 21
4863.0568481369
 31
0.0
  0
LINE
  5
384
330
1F
100
AcDbEntity
  8
0
  6
Continuous
 62
     7
370
    25
100
AcDbLine
 10
7314.3356081265
 20
4863.0568481369
 30
0.0
 11
7314.9448525022
 21
4886.3229521815
 31
0.0
  0
ARC
  5
385
330
1F
100
AcDbEntity
  8
0
  6
Continuous
 62
     7
370
    25
100
AcDbCircle
 10
7307.3380068516
 20
4863.240086775
 30
0.0
 40
7.000000000000909
100
AcDbArc
 50
270.0
 51
358.5
  0
ARC
  5
386
330
1F
100
AcDbEntity
  8
0
  6
Continuous
 62
     7
370
    25
100
AcDbCircle
 10
7256.8517194368
 20
4863.240086775
 30
0.0
 40
7.000000000000909
100
AcDbArc
 50
181.5
 51
270.0
  0
LINE
  5
387
330
1F
100
AcDbEntity
  8
0
  6
Continuous
 62
     7
370
    25
100
AcDbLine
 10
7227.0948631442
 20
4846.040086775
 30
0.0
 11
7227.0948631442
 21
4916.040086775
 31
0.0
  0
LINE
  5
388
330
1F
100
AcDbEntity
  8
0
  6
Continuous
 62
     7
370
    25
100
AcDbLine
 10
7217.0948631442
 20
4916.040086775
 30
0.0
 11
7217.0948631442
 21
4846.040086775
 31
0.0
  0
LINE
  5
389
330
1F
100
AcDbEntity
  8
0
  6
Continuous
 62
     7
370
    25
100
AcDbLine
 10
7227.0948631442
 20
4925.040086775
 30
0.0
 11
7226.0948631442
 21
4926.040086775
 31
0.0
  0
LINE
  5
38A
330
1F
100
AcDbEntity
  8
0
  6
Continuous
 62
     7
370
    25
100
AcDbLine
 10
7218.0948631442
 20
4926.040086775
 30
0.0
 11
7217.0948631442
 21
4925.040086775
 31
0.0
  0
LINE
  5
38B
330
1F
100
AcDbEntity
  8
0
  6
Continuous
 62
     7
370
    25
100
AcDbLine
 10
7374.0948631442
 20
4841.040086775
 30
0.0
 11
7374.0948631442
 21
4916.040086775
 31
0.0
  0
LINE
  5
38C
330
1F
100
AcDbEntity
  8
0
  6
Continuous
 62
     7
370
    25
100
AcDbLine
 10
7364.0948631442
 20
4916.040086775
 30
0.0
 11
7364.0948631442
 21
4841.040086775
 31
0.0
  0
LINE
  5
38D
330
1F
100
AcDbEntity
  8
0
  6
Continuous
 62
     7
370
    25
100
AcDbLine
 10
7374.0948631442
 20
4925.040086775
 30
0.0
 11
7373.0948631442
 21
4926.040086775
 31
0.0
  0
LINE
  5
38E
330
1F
100
AcDbEntity
  8
0
  6
Continuous
 62
     7
370
    25
100
AcDbLine
 10
7365.0948631442
 20
4926.040086775
 30
0.0
 11
7364.0948631442
 21
4925.040086775
 31
0.0
  0
LINE
  5
38F
330
1F
100
AcDbEntity
  8
0
  6
Continuous
 62
     7
370
    25
100
AcDbLine
 10
7209.3948631442
 20
4942.840086775
 30
0.0
 11
7209.3948631442
 21
5012.840086775
 31
0.0
  0
LINE
  5
390
330
1F
100
AcDbEntity
  8
0
  6
Continuous
 62
     7
370
    25
100
AcDbLine
 10
7209.3948631442
 20
5012.840086775
 30
0.0
 11
7210.8948631442
 21
5012.840086775
 31
0.0
  0
LINE
  5
391
330
1F
100
AcDbEntity
  8
0
  6
Continuous
 62
     7
370
    25
100
AcDbLine
 10
7353.2948631442
 20
4944.040086775
 30
0.0
 11
7353.2948631442
 21
4942.840086775
 31
0.0
  0
LINE
  5
392
330
1F
100
AcDbEntity
  8
0
  6
Continuous
 62
     7
370
    25
100
AcDbLine
 10
7209.3948631442
 20
4942.840086775
 30
0.0
 11
7353.2948631442
 21
4942.840086775
 31
0.0
  0
LINE
  5
393
330
1F
100
AcDbEntity
  8
0
  6
Continuous
 62
     7
370
    25
100
AcDbLine
 10
7210.8948631442
 20
4944.040086775
 30
0.0
 11
7353.2948631442
 21
4944.040086775
 31
0.0
  0
LINE
  5
394
330
1F
100
AcDbEntity
  8
0
  6
Continuous
 62
     7
370
    25
100
AcDbLine
 10
7210.8948631442
 20
4944.040086775
 30
0.0
 11
7210.8948631442
 21
5012.840086775
 31
0.0
  0
LINE
  5
395
330
1F
100
AcDbEntity
  8
0
  6
Continuous
 62
     7
370
    25
100
AcDbLine
 10
7332.0948631442
 20
4957.9885454436
 30
0.0
 11
7232.0948631442
 21
4957.9885454436
 31
0.0
  0
LINE
  5
396
330
1F
100
AcDbEntity
  8
0
  6
Continuous
 62
     7
370
    25
100
AcDbLine
 10
7232.0948631442
 20
4957.9885454436
 30
0.0
 11
7227.7316076941
 21
4957.9885454436
 31
0.0
  0
ARC
  5
397
330
1F
100
AcDbEntity
  8
0
  6
Continuous
 62
     7
370
    25
100
AcDbCircle
 10
7229.3764938113
 20
4958.3473218053
 30
0.0
 40
1.683558973215646
100
AcDbArc
 50
89.3750030156
 51
192.3044287047
  0
LINE
  5
398
330
1F
100
AcDbEntity
  8
0
  6
Continuous
 62
     7
370
    25
100
AcDbLine
 10
7336.4581185943
 20
4957.9885454436
 30
0.0
 11
7332.0948631442
 21
4957.9885454436
 31
0.0
  0
ARC
  5
399
330
1F
100
AcDbEntity
  8
0
  6
Continuous
 62
     7
370
    25
100
AcDbCircle
 10
7334.7948631442
 20
4958.340086775
 30
0.0
 40
1.700000000000728
100
AcDbArc
 50
348.0657534268
 51
90.0
  0
LINE
  5
39A
330
1F
100
AcDbEntity
  8
0
  6
Continuous
 62
     7
370
    25
100
AcDbLine
 10
7232.0948631442
 20
4953.7814875404
 30
0.0
 11
7228.6208004735
 21
4953.7814875404
 31
0.0
  0
LINE
  5
39B
330
1F
100
AcDbEntity
  8
0
  6
Continuous
 62
     7
370
    25
100
AcDbLine
 10
7227.7316076941
 20
4957.9885454436
 30
0.0
 11
7228.6208004735
 21
4953.7814875404
 31
0.0
  0
LINE
  5
39C
330
1F
100
AcDbEntity
  8
0
  6
Continuous
 62
     7
370
    25
100
AcDbLine
 10
7232.0948631442
 20
4957.9885454436
 30
0.0
 11
7232.0948631442
 21
4953.7814875404
 31
0.0
  0
LINE
  5
39D
330
1F
100
AcDbEntity
  8
0
  6
Continuous
 62
     7
370
    25
100
AcDbLine
 10
7332.0948631442
 20
4953.7814875404
 30
0.0
 11
7232.0948631442
 21
4953.7814875404
 31
0.0
  0
LINE
  5
39E
330
1F
100
AcDbEntity
  8
0
  6
Continuous
 62
     7
370
    25
100
AcDbLine
 10
7332.0948631442
 20
4957.9885454436
 30
0.0
 11
7332.0948631442
 21
4953.7814875404
 31
0.0
  0
LINE
  5
39F
330
1F
100
AcDbEntity
  8
0
  6
Continuous
 62
     7
370
    25
100
AcDbLine
 10
7335.5689258149
 20
4953.7814875404
 30
0.0
 11
7332.0948631442
 21
4953.7814875404
 31
0.0
  0
LINE
  5
3A0
330
1F
100
AcDbEntity
  8
0
  6
Continuous
 62
     7
370
    25
100
AcDbLine
 10
7336.4581185943
 20
4957.9885454436
 30
0.0
 11
7335.5689258149
 21
4953.7814875404
 31
0.0
  0
LINE
  5
3A1
330
1F
100
AcDbEntity
  8
0
  6
Continuous
 62
     7
370
    25
100
AcDbLine
 10
7229.8948631442
 20
4953.7814875404
 30
0.0
 11
7229.8948631442
 21
4944.040086775
 31
0.0
  0
LINE
  5
3A2
330
1F
100
AcDbEntity
  8
0
  6
Continuous
 62
     7
370
    25
100
AcDbLine
 10
7334.2948631442
 20
4953.7814875404
 30
0.0
 11
7334.2948631442
 21
4944.040086775
 31
0.0
  0
LINE
  5
3A3
330
1F
100
AcDbEntity
  8
0
  6
Continuous
 62
     7
370
    25
100
AcDbLine
 10
7212.0947279735
 20
4918.040086775
 30
0.0
 11
7233.0947279735
 21
4918.040086775
 31
0.0
  0
ARC
  5
3A4
330
1F
100
AcDbEntity
  8
0
  6
Continuous
 62
     7
370
    25
100
AcDbCircle
 10
7233.0947279735
 20
4919.040086775
 30
0.0
 40
1.000000000000197
100
AcDbArc
 50
270.0
 51
359.9996276583
  0
LINE
  5
3A5
330
1F
100
AcDbEntity
  8
0
  6
Continuous
 62
     7
370
    25
100
AcDbLine
 10
7234.0947279735
 20
4919.0400802764
 30
0.0
 11
7234.0948631443
 21
4939.8401062708
 31
0.0
  0
ARC
  5
3A6
330
1F
100
AcDbEntity
  8
0
  6
Continuous
 62
     7
370
    25
100
AcDbCircle
 10
7237.0948631442
 20
4939.840086775
 30
0.0
 40
2.999999999999683
100
AcDbArc
 50
90.0
 51
179.9996276583
  0
ARC
  5
3A7
330
1F
100
AcDbEntity
  8
0
  6
Continuous
 62
     7
370
    25
100
AcDbCircle
 10
7327.0948631442
 20
4939.840086775
 30
0.0
 40
2.999999999999499
100
AcDbArc
 50
48.6002523617
 51
90.0
  0
LINE
  5
3A8
330
1F
100
AcDbEntity
  8
0
  6
Continuous
 62
     7
370
    25
100
AcDbLine
 10
7329.0787888285
 20
4942.0904287222
 30
0.0
 11
7356.0753465955
 21
4918.2899727926
 31
0.0
  0
ARC
  5
3A9
330
1F
100
AcDbEntity
  8
0
  6
Continuous
 62
     7
370
    25
100
AcDbCircle
 10
7356.7366551569
 20
4919.040086775
 30
0.0
 40
1.0
100
AcDbArc
 50
228.6002523617
 51
270.0
  0
LINE
  5
3AA
330
1F
100
AcDbEntity
  8
0
  6
Continuous
 62
     7
370
    25
100
AcDbLine
 10
7356.7366551569
 20
4918.040086775
 30
0.0
 11
7377.7366551569
 21
4918.040086775
 31
0.0
  0
LINE
  5
3AB
330
1F
100
AcDbEntity
  8
0
  6
Continuous
 62
     7
370
    25
100
AcDbLine
 10
7377.7366551569
 20
4918.040086775
 30
0.0
 11
7377.7366551569
 21
4916.040086775
 31
0.0
  0
LINE
  5
3AC
330
1F
100
AcDbEntity
  8
0
  6
Continuous
 62
     7
370
    25
100
AcDbLine
 10
7377.7366551569
 20
4916.040086775
 30
0.0
 11
7356.7366551569
 21
4916.040086775
 31
0.0
  0
ARC
  5
3AD
330
1F
100
AcDbEntity
  8
0
  6
Continuous
 62
     7
370
    25
100
AcDbCircle
 10
7356.7366551569
 20
4919.040086775
 30
0.0
 40
3.0000000000001
100
AcDbArc
 50
228.6002523617
 51
270.0
  0
LINE
  5
3AE
330
1F
100
AcDbEntity
  8
0
  6
Continuous
 62
     7
370
    25
100
AcDbLine
 10
7354.7527294727
 20
4916.7897448278
 30
0.0
 11
7327.7561717056
 21
4940.5902007574
 31
0.0
  0
ARC
  5
3AF
330
1F
100
AcDbEntity
  8
0
  6
Continuous
 62
     7
370
    25
100
AcDbCircle
 10
7327.0948631442
 20
4939.840086775
 30
0.0
 40
0.9999999999990905
100
AcDbArc
 50
48.6002523617
 51
90.0
  0
LINE
  5
3B0
330
1F
100
AcDbEntity
  8
0
  6
Continuous
 62
     7
370
    25
100
AcDbLine
 10
7327.0948631442
 20
4940.840086775
 30
0.0
 11
7237.0948631442
 21
4940.840086775
 31
0.0
  0
ARC
  5
3B1
330
1F
100
AcDbEntity
  8
0
  6
Continuous
 62
     7
370
    25
100
AcDbCircle
 10
7237.0948631442
 20
4939.840086775
 30
0.0
 40
0.9999999999992879
100
AcDbArc
 50
90.0
 51
179.9996276583
  0
LINE
  5
3B2
330
1F
100
AcDbEntity
  8
0
  6
Continuous
 62
     7
370
    25
100
AcDbLine
 10
7236.0948631442
 20
4939.8400932736
 30
0.0
 11
7236.0947279734
 21
4919.0400672793
 31
0.0
  0
ARC
  5
3B3
330
1F
100
AcDbEntity
  8
0
  6
Continuous
 62
     7
370
    25
100
AcDbCircle
 10
7233.0947279735
 20
4919.040086775
 30
0.0
 40
3.0
100
AcDbArc
 50
270.0
 51
359.9996276583
  0
LINE
  5
3B4
330
1F
100
AcDbEntity
  8
0
  6
Continuous
 62
     7
370
    25
100
AcDbLine
 10
7212.0947279735
 20
4916.040086775
 30
0.0
 11
7212.0947279735
 21
4918.040086775
 31
0.0
  0
LINE
  5
3B5
330
1F
100
AcDbEntity
  8
0
  6
Continuous
 62
     7
370
    25
100
AcDbLine
 10
7233.0947279735
 20
4916.040086775
 30
0.0
 11
7212.0947279735
 21
4916.040086775
 31
0.0
  0
LINE
  5
3B6
330
1F
100
AcDbEntity
  8
0
  6
Continuous
 62
     7
370
    25
100
AcDbLine
 10
7217.1873858561
 20
4925.040086775
 30
0.0
 11
7217.1873858561
 21
4918.040086775
 31
0.0
  0
LINE
  5
3B7
330
1F
100
AcDbEntity
  8
0
  6
Continuous
 62
     7
370
    25
100
AcDbLine
 10
7227.0023404323
 20
4925.040086775
 30
0.0
 11
7217.1873858561
 21
4925.040086775
 31
0.0
  0
LINE
  5
3B8
330
1F
100
AcDbEntity
  8
0
  6
Continuous
 62
     7
370
    25
100
AcDbLine
 10
7227.0023404323
 20
4925.040086775
 30
0.0
 11
7227.0023404323
 21
4918.040086775
 31
0.0
  0
LINE
  5
3B9
330
1F
100
AcDbEntity
  8
0
  6
Continuous
 62
     7
370
    25
100
AcDbLine
 10
7212.279908568
 20
4925.040086775
 30
0.0
 11
7212.279908568
 21
4918.040086775
 31
0.0
  0
LINE
  5
3BA
330
1F
100
AcDbEntity
  8
0
  6
Continuous
 62
     7
370
    25
100
AcDbLine
 10
7217.1873858561
 20
4925.040086775
 30
0.0
 11
7212.279908568
 21
4925.040086775
 31
0.0
  0
LINE
  5
3BB
330
1F
100
AcDbEntity
  8
0
  6
Continuous
 62
     7
370
    25
100
AcDbLine
 10
7231.9098177204
 20
4925.040086775
 30
0.0
 11
7231.9098177204
 21
4918.040086775
 31
0.0
  0
LINE
  5
3BC
330
1F
100
AcDbEntity
  8
0
  6
Continuous
 62
     7
370
    25
100
AcDbLine
 10
7231.9098177204
 20
4925.040086775
 30
0.0
 11
7227.0023404323
 21
4925.040086775
 31
0.0
  0
LINE
  5
3BD
330
1F
100
AcDbEntity
  8
0
  6
Continuous
 62
     7
370
    25
100
AcDbLine
 10
7359.279908568
 20
4925.040086775
 30
0.0
 11
7359.279908568
 21
4918.040086775
 31
0.0
  0
LINE
  5
3BE
330
1F
100
AcDbEntity
  8
0
  6
Continuous
 62
     7
370
    25
100
AcDbLine
 10
7364.1873858561
 20
4925.040086775
 30
0.0
 11
7364.1873858561
 21
4918.040086775
 31
0.0
  0
LINE
  5
3BF
330
1F
100
AcDbEntity
  8
0
  6
Continuous
 62
     7
370
    25
100
AcDbLine
 10
7364.1873858561
 20
4925.040086775
 30
0.0
 11
7359.279908568
 21
4925.040086775
 31
0.0
  0
LINE
  5
3C0
330
1F
100
AcDbEntity
  8
0
  6
Continuous
 62
     7
370
    25
100
AcDbLine
 10
7374.0023404323
 20
4925.040086775
 30
0.0
 11
7374.0023404323
 21
4918.040086775
 31
0.0
  0
LINE
  5
3C1
330
1F
100
AcDbEntity
  8
0
  6
Continuous
 62
     7
370
    25
100
AcDbLine
 10
7374.0023404323
 20
4925.040086775
 30
0.0
 11
7364.1873858561
 21
4925.040086775
 31
0.0
  0
LINE
  5
3C2
330
1F
100
AcDbEntity
  8
0
  6
Continuous
 62
     7
370
    25
100
AcDbLine
 10
7378.9098177204
 20
4925.040086775
 30
0.0
 11
7378.9098177204
 21
4918.040086775
 31
0.0
  0
LINE
  5
3C3
330
1F
100
AcDbEntity
  8
0
  6
Continuous
 62
     7
370
    25
100
AcDbLine
 10
7378.9098177204
 20
4918.040086775
 30
0.0
 11
7377.7366551569
 21
4918.040086775
 31
0.0
  0
LINE
  5
3C4
330
1F
100
AcDbEntity
  8
0
  6
Continuous
 62
     7
370
    25
100
AcDbLine
 10
7378.9098177204
 20
4925.040086775
 30
0.0
 11
7374.0023404323
 21
4925.040086775
 31
0.0
  0
LINE
  5
3C5
330
1F
100
AcDbEntity
  8
0
  6
Continuous
 62
     7
370
    25
100
AcDbLine
 10
7279.2081117983
 20
4935.840086775
 30
0.0
 11
7279.2081117983
 21
4940.840086775
 31
0.0
  0
LINE
  5
3C6
330
1F
100
AcDbEntity
  8
0
  6
Continuous
 62
     7
370
    25
100
AcDbLine
 10
7276.3213604523
 20
4935.840086775
 30
0.0
 11
7276.3213604523
 21
4940.840086775
 31
0.0
  0
LINE
  5
3C7
330
1F
100
AcDbEntity
  8
0
  6
Continuous
 62
     7
370
    25
100
AcDbLine
 10
7276.3213604523
 20
4935.840086775
 30
0.0
 11
7279.2081117983
 21
4935.840086775
 31
0.0
  0
LINE
  5
3C8
330
1F
100
AcDbEntity
  8
0
  6
Continuous
 62
     7
370
    25
100
AcDbLine
 10
7284.9816144901
 20
4935.840086775
 30
0.0
 11
7284.9816144901
 21
4940.840086775
 31
0.0
  0
LINE
  5
3C9
330
1F
100
AcDbEntity
  8
0
  6
Continuous
 62
     7
370
    25
100
AcDbLine
 10
7279.2081117983
 20
4935.840086775
 30
0.0
 11
7284.9816144901
 21
4935.840086775
 31
0.0
  0
LINE
  5
3CA
330
1F
100
AcDbEntity
  8
0
  6
Continuous
 62
     7
370
    25
100
AcDbLine
 10
7287.8683658361
 20
4935.840086775
 30
0.0
 11
7287.8683658361
 21
4940.840086775
 31
0.0
  0
LINE
  5
3CB
330
1F
100
AcDbEntity
  8
0
  6
Continuous
 62
     7
370
    25
100
AcDbLine
 10
7284.9816144901
 20
4935.840086775
 30
0.0
 11
7287.8683658361
 21
4935.840086775
 31
0.0
  0
LINE
  5
3CC
330
1F
100
AcDbEntity
  8
0
  6
Continuous
 62
     7
370
    25
100
AcDbLine
 10
7279.0948631442
 20
4920.840086775
 30
0.0
 11
7285.0948631442
 21
4920.840086775
 31
0.0
  0
LINE
  5
3CD
330
1F
100
AcDbEntity
  8
0
  6
Continuous
 62
     7
370
    25
100
AcDbLine
 10
7315.3448631442
 20
4940.2444505413
 30
0.0
 11
7287.8683658361
 21
4940.2444505413
 31
0.0
  0
LINE
  5
3CE
330
1F
100
AcDbEntity
  8
0
  6
Continuous
 62
     7
370
    25
100
AcDbLine
 10
7276.3213604523
 20
4940.2444505413
 30
0.0
 11
7248.8448631442
 21
4940.2444505413
 31
0.0
  0
LINE
  5
3CF
330
1F
100
AcDbEntity
  8
0
  6
Continuous
 62
     7
370
    25
100
AcDbLine
 10
7242.0948631442
 20
4938.7363759273
 30
0.0
 11
7276.3213604523
 21
4938.7363759273
 31
0.0
  0
LINE
  5
3D0
330
1F
100
AcDbEntity
  8
0
  6
Continuous
 62
     7
370
    25
100
AcDbLine
 10
7287.8683658361
 20
4938.7363759273
 30
0.0
 11
7322.0948631442
 21
4938.7363759273
 31
0.0
  0
LWPOLYLINE
  5
3D1
330
1F
100
AcDbEntity
  8
0
  6
Continuous
 62
     7
370
    25
100
AcDbPolyline
 90
        8
 70
   128
 43
0.0
 10
7292.1799019541
 20
4916.1698505173
 10
7291.7391502085
 20
4916.1664444226
 10
7288.1684186966
 20
4916.1406653618
 10
7284.4341280712
 20
4916.1153862755
 10
7280.6468630911
 20
4916.0911161396
 10
7276.9156423046
 20
4916.0661417153
 10
7273.3312292532
 20
4916.0404452757
 10
7272.0699614478
 20
4916.0307215181
  0
LINE
  5
3D2
330
1F
100
AcDbEntity
  8
0
  6
Continuous
 62
     7
370
    25
100
AcDbLine
 10
7282.0948631442
 20
4914.740086775
 30
0.0
 11
7291.7857082878
 21
4914.740086775
 31
0.0
  0
LINE
  5
3D3
330
1F
100
AcDbEntity
  8
0
  6
Continuous
 62
     7
370
    25
100
AcDbLine
 10
7272.4040180006
 20
4914.740086775
 30
0.0
 11
7282.0948631442
 21
4914.740086775
 31
0.0
  0
LWPOLYLINE
  5
3D4
330
1F
100
AcDbEntity
  8
0
  6
Continuous
 62
     7
370
    25
100
AcDbPolyline
 90
        7
 70
   128
 43
0.0
 10
7272.9623251113
 20
4917.0808055695
 10
7273.2166075133
 20
4917.0838367709
 10
7277.6122556326
 20
4917.1320891434
 10
7282.0948631442
 20
4917.1775867709
 10
7286.5774706558
 20
4917.2230843985
 10
7290.9731187751
 20
4917.2713367709
 10
7291.0403442047
 20
4917.2721381391
  0
LWPOLYLINE
  5
3D5
330
1F
100
AcDbEntity
  8
0
  6
Continuous
 62
     7
370
    25
100
AcDbPolyline
 90
        5
 70
   128
 43
0.0
 10
7273.3306745977
 20
4917.2725889243
 10
7277.6122556326
 20
4917.3195891475
 10
7282.0948631442
 20
4917.365086775
 10
7286.5774706558
 20
4917.4105844026
 10
7290.6355878426
 20
4917.4551315948
  0
LWPOLYLINE
  5
3D6
330
1F
100
AcDbEntity
  8
0
  6
Continuous
 62
     7
370
    25
100
AcDbPolyline
 90
        7
 70
   128
 43
0.0
 10
7272.2030308298
 20
4916.5987281018
 10
7273.5273077376
 20
4916.615086773
 10
7277.7691273445
 20
4916.6633391454
 10
7282.0948631442
 20
4916.708836773
 10
7286.4205989439
 20
4916.7543344005
 10
7290.6624185508
 20
4916.802586773
 10
7291.7811715689
 20
4916.8164066264
  0
LWPOLYLINE
  5
3D7
330
1F
100
AcDbEntity
  8
0
  6
Continuous
 62
     7
370
    25
100
AcDbPolyline
 90
        4
 70
   128
 43
0.0
 10
7274.9805727668
 20
4918.1316182363
 10
7277.7691273445
 20
4918.1633391454
 10
7282.0948631442
 20
4918.208836773
 10
7285.0659906473
 20
4918.240086775
  0
LWPOLYLINE
  5
3D8
330
1F
100
AcDbEntity
  8
0
  6
Continuous
 62
     7
370
    25
100
AcDbPolyline
 90
        7
 70
   128
 43
0.0
 10
7272.1913450896
 20
4916.2235837489
 10
7273.5273077376
 20
4916.240086773
 10
7277.7691273445
 20
4916.2883391454
 10
7282.0948631442
 20
4916.333836773
 10
7286.4205989439
 20
4916.3793344005
 10
7290.6624185508
 20
4916.427586773
 10
7291.9915058953
 20
4916.444004867
  0
LWPOLYLINE
  5
3D9
330
1F
100
AcDbEntity
  8
0
  6
Continuous
 62
     7
370
    25
100
AcDbPolyline
 90
        5
 70
   128
 43
0.0
 10
7274.2442399339
 20
4917.7482421597
 10
7277.7691273445
 20
4917.7883391454
 10
7282.0948631442
 20
4917.833836773
 10
7286.4205989439
 20
4917.8793344005
 10
7289.6168883384
 20
4917.9156934541
  0
ARC
  5
3DA
330
1F
100
AcDbEntity
  8
0
  6
Continuous
 62
     7
370
    25
100
AcDbCircle
 10
7282.0948631442
 20
4902.3034979449
 30
0.0
 40
19.71434232641745
100
AcDbArc
 50
98.7529037444
 51
81.2470962556
  0
CIRCLE
  5
3DB
330
1F
100
AcDbEntity
  8
0
  6
Continuous
 62
     7
370
    25
100
AcDbCircle
 10
7282.0947999251
 20
4902.3033628585
 30
0.0
 40
17.49968043751283
  0
ARC
  5
3DC
330
1F
100
AcDbEntity
  8
0
  6
Continuous
 62
     7
370
    25
100
AcDbCircle
 10
7282.0948631442
 20
4902.3339320438
 30
0.0
 40
19.9996376281031
100
AcDbArc
 50
98.6270840614
 51
81.3729159386
  0
ARC
  5
3DD
330
1F
100
AcDbEntity
  8
0
  6
Continuous
 62
     7
370
    25
100
AcDbCircle
 10
7282.0954233991
 20
4902.9323820409
 30
0.0
 40
19.99934455095127
100
AcDbArc
 50
0.0007770969
 51
81.3744119802
  0
ARC
  5
3DE
330
1F
100
AcDbEntity
  8
0
  6
Continuous
 62
     7
370
    25
100
AcDbCircle
 10
7282.094375028
 20
4902.932320019
 30
0.0
 40
19.99941669060185
100
AcDbArc
 50
98.6257657018
 51
179.9990452211
  0
ARC
  5
3DF
330
1F
100
AcDbEntity
  8
0
  6
Continuous
 62
     7
370
    25
100
AcDbCircle
 10
7279.6552464
 20
4903.1811582588
 30
0.0
 40
15.04056685101969
100
AcDbArc
 50
177.7865545128
 51
205.5322813903
  0
ARC
  5
3E0
330
1F
100
AcDbEntity
  8
0
  6
Continuous
 62
     7
370
    25
100
AcDbCircle
 10
7282.0948631442
 20
4903.7619994811
 30
0.0
 40
17.50023986067525
100
AcDbArc
 50
203.8052968746
 51
336.1947031255
  0
ARC
  5
3E1
330
1F
100
AcDbEntity
  8
0
  6
Continuous
 62
     7
370
    25
100
AcDbCircle
 10
7283.7485554185
 20
4903.2873913521
 30
0.0
 40
15.7973958778365
100
AcDbArc
 50
335.348694842
 51
1.7302785812
  0
ARC
  5
3E2
330
1F
100
AcDbEntity
  8
0
  6
Continuous
 62
     7
370
    25
100
AcDbCircle
 10
7282.0949137791
 20
4903.6540801876
 30
0.0
 40
26.51314433552362
100
AcDbArc
 50
59.5202020098
 51
83.5030967339
  0
ARC
  5
3E3
330
1F
100
AcDbEntity
  8
0
  6
Continuous
 62
     7
370
    25
100
AcDbCircle
 10
7282.0948062858
 20
4903.6540995482
 30
0.0
 40
26.51312449363594
100
AcDbArc
 50
96.2484580151
 51
120.479807607
  0
LINE
  5
3E4
330
1F
100
AcDbEntity
  8
0
  6
Continuous
 62
     7
370
    25
100
AcDbLine
 10
7258.0752468092
 20
4933.240086775
 30
0.0
 11
7258.0752468092
 21
4930.240086775
 31
0.0
  0
LINE
  5
3E5
330
1F
100
AcDbEntity
  8
0
  6
Continuous
 62
     7
370
    25
100
AcDbLine
 10
7264.9615986675
 20
4933.240086775
 30
0.0
 11
7258.0752468092
 21
4933.240086775
 31
0.0
  0
LINE
  5
3E6
330
1F
100
AcDbEntity
  8
0
  6
Continuous
 62
     7
370
    25
100
AcDbLine
 10
7264.9615986675
 20
4933.240086775
 30
0.0
 11
7264.9615986675
 21
4930.240086775
 31
0.0
  0
LINE
  5
3E7
330
1F
100
AcDbEntity
  8
0
  6
Continuous
 62
     7
370
    25
100
AcDbLine
 10
7258.0752468092
 20
4930.240086775
 30
0.0
 11
7264.9615986675
 21
4930.240086775
 31
0.0
  0
LINE
  5
3E8
330
1F
100
AcDbEntity
  8
0
  6
Continuous
 62
     7
370
    25
100
AcDbLine
 10
7260.0427759116
 20
4935.240086775
 30
0.0
 11
7264.9615986675
 21
4935.240086775
 31
0.0
  0
LINE
  5
3E9
330
1F
100
AcDbEntity
  8
0
  6
Continuous
 62
     7
370
    25
100
AcDbLine
 10
7264.9615986675
 20
4935.240086775
 30
0.0
 11
7264.9615986675
 21
4933.240086775
 31
0.0
  0
ARC
  5
3EA
330
1F
100
AcDbEntity
  8
0
  6
Continuous
 62
     7
370
    25
100
AcDbCircle
 10
7260.0591453304
 20
4933.2561904289
 30
0.0
 40
1.983963878171779
100
AcDbArc
 50
90.4727451246
 51
180.4650697253
  0
LINE
  5
3EB
330
1F
100
AcDbEntity
  8
0
  6
Continuous
 62
     7
370
    25
100
AcDbLine
 10
7299.2281276209
 20
4933.240086775
 30
0.0
 11
7299.2281276209
 21
4930.240086775
 31
0.0
  0
LINE
  5
3EC
330
1F
100
AcDbEntity
  8
0
  6
Continuous
 62
     7
370
    25
100
AcDbLine
 10
7264.9615986675
 20
4930.240086775
 30
0.0
 11
7279.0948631442
 21
4930.240086775
 31
0.0
  0
LINE
  5
3ED
330
1F
100
AcDbEntity
  8
0
  6
Continuous
 62
     7
370
    25
100
AcDbLine
 10
7285.0948631442
 20
4930.240086775
 30
0.0
 11
7299.2281276209
 21
4930.240086775
 31
0.0
  0
LINE
  5
3EE
330
1F
100
AcDbEntity
  8
0
  6
Continuous
 62
     7
370
    25
100
AcDbLine
 10
7264.9615986675
 20
4935.240086775
 30
0.0
 11
7279.0948631442
 21
4935.240086775
 31
0.0
  0
LINE
  5
3EF
330
1F
100
AcDbEntity
  8
0
  6
Continuous
 62
     7
370
    25
100
AcDbLine
 10
7285.0948631442
 20
4935.240086775
 30
0.0
 11
7299.2281276209
 21
4935.240086775
 31
0.0
  0
LINE
  5
3F0
330
1F
100
AcDbEntity
  8
0
  6
Continuous
 62
     7
370
    25
100
AcDbLine
 10
7299.2281276209
 20
4935.240086775
 30
0.0
 11
7299.2281276209
 21
4933.240086775
 31
0.0
  0
LINE
  5
3F1
330
1F
100
AcDbEntity
  8
0
  6
Continuous
 62
     7
370
    25
100
AcDbLine
 10
7299.2281276209
 20
4935.240086775
 30
0.0
 11
7304.1469503768
 21
4935.240086775
 31
0.0
  0
ARC
  5
3F2
330
1F
100
AcDbEntity
  8
0
  6
Continuous
 62
     7
370
    25
100
AcDbCircle
 10
7304.130580958
 20
4933.2561904289
 30
0.0
 40
1.983963878170381
100
AcDbArc
 50
359.5349302746
 51
89.5272548754
  0
LINE
  5
3F3
330
1F
100
AcDbEntity
  8
0
  6
Continuous
 62
     7
370
    25
100
AcDbLine
 10
7306.1144794792
 20
4933.240086775
 30
0.0
 11
7299.2281276209
 21
4933.240086775
 31
0.0
  0
LINE
  5
3F4
330
1F
100
AcDbEntity
  8
0
  6
Continuous
 62
     7
370
    25
100
AcDbLine
 10
7306.1144794792
 20
4933.240086775
 30
0.0
 11
7306.1144794792
 21
4930.240086775
 31
0.0
  0
LINE
  5
3F5
330
1F
100
AcDbEntity
  8
0
  6
Continuous
 62
     7
370
    25
100
AcDbLine
 10
7299.2281276209
 20
4930.240086775
 30
0.0
 11
7306.1144794792
 21
4930.240086775
 31
0.0
  0
LWPOLYLINE
  5
3F6
330
1F
100
AcDbEntity
  8
0
  6
Continuous
 62
     7
370
    25
100
AcDbPolyline
 90
        3
 70
   128
 43
0.0
 10
7299.8679039477
 20
4882.6414722935
 10
7299.5359085388
 20
4882.4210436722
 10
7299.159857985
 20
4882.3556406922
  0
LWPOLYLINE
  5
3F7
330
1F
100
AcDbEntity
  8
0
  6
Continuous
 62
     7
370
    25
100
AcDbPolyline
 90
        3
 70
   128
 43
0.0
 10
7264.3218223407
 20
4882.6414722935
 10
7264.6538177496
 20
4882.4210436722
 10
7265.0513592502
 20
4882.3519029714
  0
LINE
  5
3F8
330
1F
100
AcDbEntity
  8
0
  6
Continuous
 62
     7
370
    25
100
AcDbLine
 10
7258.0752468092
 20
4933.240086775
 30
0.0
 11
7248.5506564897
 21
4933.240086775
 31
0.0
  0
ARC
  5
3F9
330
1F
100
AcDbEntity
  8
0
  6
Continuous
 62
     7
370
    25
100
AcDbCircle
 10
7250.3085907882
 20
4933.5046743568
 30
0.0
 40
1.777734397020438
100
AcDbArc
 50
102.5271579556
 51
188.5593696972
  0
LINE
  5
3FA
330
1F
100
AcDbEntity
  8
0
  6
Continuous
 62
     7
370
    25
100
AcDbLine
 10
7249.9229960203
 20
4935.240086775
 30
0.0
 11
7260.0427759116
 21
4935.240086775
 31
0.0
  0
LINE
  5
3FB
330
1F
100
AcDbEntity
  8
0
  6
Continuous
 62
     7
370
    25
100
AcDbLine
 10
7248.5506564897
 20
4933.240086775
 30
0.0
 11
7248.5506564897
 21
4930.240086775
 31
0.0
  0
LINE
  5
3FC
330
1F
100
AcDbEntity
  8
0
  6
Continuous
 62
     7
370
    25
100
AcDbLine
 10
7248.5506564897
 20
4930.240086775
 30
0.0
 11
7258.0752468092
 21
4930.240086775
 31
0.0
  0
ARC
  5
3FD
330
1F
100
AcDbEntity
  8
0
  6
Continuous
 62
     7
370
    25
100
AcDbCircle
 10
7313.8780828436
 20
4933.5025797162
 30
0.0
 40
1.780443090939213
100
AcDbArc
 50
351.5219073503
 51
77.3915649969
  0
LINE
  5
3FE
330
1F
100
AcDbEntity
  8
0
  6
Continuous
 62
     7
370
    25
100
AcDbLine
 10
7315.6390697987
 20
4933.240086775
 30
0.0
 11
7306.1144794792
 21
4933.240086775
 31
0.0
  0
LINE
  5
3FF
330
1F
100
AcDbEntity
  8
0
  6
Continuous
 62
     7
370
    25
100
AcDbLine
 10
7304.1469503768
 20
4935.240086775
 30
0.0
 11
7314.2667302681
 21
4935.240086775
 31
0.0
  0
LINE
  5
400
330
1F
100
AcDbEntity
  8
0
  6
Continuous
 62
     7
370
    25
100
AcDbLine
 10
7315.6390697987
 20
4933.240086775
 30
0.0
 11
7315.6390697987
 21
4930.240086775
 31
0.0
  0
LINE
  5
401
330
1F
100
AcDbEntity
  8
0
  6
Continuous
 62
     7
370
    25
100
AcDbLine
 10
7306.1144794792
 20
4930.240086775
 30
0.0
 11
7315.6390697987
 21
4930.240086775
 31
0.0
  0
LINE
  5
402
330
1F
100
AcDbEntity
  8
0
  6
Continuous
 62
     7
370
    25
100
AcDbLine
 10
7250.9933734187
 20
4891.9329218898
 30
0.0
 11
7250.7705700109
 21
4930.240086775
 31
0.0
  0
LINE
  5
403
330
1F
100
AcDbEntity
  8
0
  6
Continuous
 62
     7
370
    25
100
AcDbLine
 10
7313.1963528697
 20
4891.9329218898
 30
0.0
 11
7313.4191562775
 21
4930.240086775
 31
0.0
  0
LINE
  5
404
330
1F
100
AcDbEntity
  8
0
  6
Continuous
 62
     7
370
    25
100
AcDbLine
 10
7274.865600074
 20
4918.240086775
 30
0.0
 11
7289.3241262144
 21
4918.240086775
 31
0.0
  0
LINE
  5
405
330
1F
100
AcDbEntity
  8
0
  6
Continuous
 62
     7
370
    25
100
AcDbLine
 10
7287.8683658361
 20
4938.240086775
 30
0.0
 11
7323.8448631442
 21
4938.240086775
 31
0.0
  0
LINE
  5
406
330
1F
100
AcDbEntity
  8
0
  6
Continuous
 62
     7
370
    25
100
AcDbLine
 10
7240.3448631442
 20
4938.240086775
 30
0.0
 11
7276.3213604523
 21
4938.240086775
 31
0.0
  0
LINE
  5
407
330
1F
100
AcDbEntity
  8
0
  6
Continuous
 62
     7
370
    25
100
AcDbLine
 10
7314.2667302681
 20
4935.240086775
 30
0.0
 11
7329.0948631442
 21
4935.240086775
 31
0.0
  0
LINE
  5
408
330
1F
100
AcDbEntity
  8
0
  6
Continuous
 62
     7
370
    25
100
AcDbLine
 10
7236.0948332507
 20
4935.240086775
 30
0.0
 11
7249.9229960203
 21
4935.240086775
 31
0.0
  0
LINE
  5
409
330
1F
100
AcDbEntity
  8
0
  6
Continuous
 62
     7
370
    25
100
AcDbLine
 10
7315.6390697987
 20
4930.240086775
 30
0.0
 11
7331.0948631442
 21
4930.240086775
 31
0.0
  0
LINE
  5
40A
330
1F
100
AcDbEntity
  8
0
  6
Continuous
 62
     7
370
    25
100
AcDbLine
 10
7233.0948631442
 20
4930.240086775
 30
0.0
 11
7234.0948007577
 21
4930.240086775
 31
0.0
  0
LINE
  5
40B
330
1F
100
AcDbEntity
  8
0
  6
Continuous
 62
     7
370
    25
100
AcDbLine
 10
7236.0948631442
 20
4930.240086775
 30
0.0
 11
7248.5506564897
 21
4930.240086775
 31
0.0
  0
LINE
  5
40C
330
1F
100
AcDbEntity
  8
0
  6
Continuous
 62
     7
370
    25
100
AcDbLine
 10
7270.8356081265
 20
4863.0568481369
 30
0.0
 11
7271.236611141
 21
4878.3705354357
 31
0.0
  0
ARC
  5
40D
330
1F
100
AcDbEntity
  8
0
  6
Continuous
 62
     7
370
    25
100
AcDbCircle
 10
7265.6149849201
 20
4911.4682198686
 30
0.0
 40
48.69205088732422
100
AcDbArc
 50
263.8450785085
 51
276.1549214915
  0
ARC
  5
40E
330
1F
100
AcDbEntity
  8
0
  6
Continuous
 62
     7
370
    25
100
AcDbCircle
 10
7298.5747413683
 20
4911.4682197856
 30
0.0
 40
48.69205080480951
100
AcDbArc
 50
263.845078498
 51
276.154921502
  0
LINE
  5
40F
330
1F
100
AcDbEntity
  8
0
  6
Continuous
 62
     7
370
    25
100
AcDbLine
 10
7293.3541181619
 20
4863.0568481369
 30
0.0
 11
7292.9531151474
 21
4878.3705354357
 31
0.0
  0
LINE
  5
410
330
1F
100
AcDbEntity
  8
0
  6
Continuous
 62
     7
370
    25
100
AcDbLine
 10
7271.5333703075
 20
4889.8079989163
 30
0.0
 11
7272.4040180006
 21
4914.740086775
 31
0.0
  0
LINE
  5
411
330
1F
100
AcDbEntity
  8
0
  6
Continuous
 62
     7
370
    25
100
AcDbLine
 10
7292.6563559809
 20
4889.8079989163
 30
0.0
 11
7291.7857082878
 21
4914.740086775
 31
0.0
  0
LWPOLYLINE
  5
412
330
1F
100
AcDbEntity
  8
0
  6
Continuous
 62
     7
370
    25
100
AcDbPolyline
 90
        6
 70
   128
 43
0.0
 10
7263.8380068516
 20
4856.240086775
 10
7262.5603892292
 20
4856.7326493667
 10
7261.4558695691
 20
4858.1699940977
 10
7260.6918514358
 20
4860.3789813663
 10
7260.4789406396
 20
4861.6827003186
 10
7260.3943617138
 20
4863.0568481369
  0
ARC
  5
413
330
1F
100
AcDbEntity
  8
0
  6
Continuous
 62
     7
370
    25
100
AcDbCircle
 10
7263.8380068516
 20
4863.240086775
 30
0.0
 40
7.000000000002277
100
AcDbArc
 50
270.0
 51
358.5
  0
LWPOLYLINE
  5
414
330
1F
100
AcDbEntity
  8
0
  6
Continuous
 62
     7
370
    25
100
AcDbPolyline
 90
        6
 70
   128
 43
0.0
 10
7303.7953645746
 20
4863.0568481369
 10
7303.7107883747
 20
4861.6827186274
 10
7303.4978816587
 20
4860.3790042185
 10
7302.7338567193
 20
4858.1699940977
 10
7301.6293370592
 20
4856.7326493667
 10
7300.3517194368
 20
4856.240086775
  0
ARC
  5
415
330
1F
100
AcDbEntity
  8
0
  6
Continuous
 62
     7
370
    25
100
AcDbCircle
 10
7300.3517194368
 20
4863.240086775
 30
0.0
 40
7.000000000001819
100
AcDbArc
 50
181.5
 51
270.0
  0
LINE
  5
416
330
1F
100
AcDbEntity
  8
0
  6
Continuous
 62
     7
370
    25
100
AcDbLine
 10
7263.8380068516
 20
4856.240086775
 30
0.0
 11
7256.8517194368
 21
4856.240086775
 31
0.0
  0
LINE
  5
417
330
1F
100
AcDbEntity
  8
0
  6
Continuous
 62
     7
370
    25
100
AcDbLine
 10
7307.3380068516
 20
4856.240086775
 30
0.0
 11
7300.3517194368
 21
4856.240086775
 31
0.0
  0
LINE
  5
418
330
1F
100
AcDbEntity
  8
0
  6
Continuous
 62
     7
370
    25
100
AcDbLine
 10
7270.8356081265
 20
4863.0568481369
 30
0.0
 11
7272.2295616478
 21
4863.0568481369
 31
0.0
  0
LWPOLYLINE
  5
419
330
1F
100
AcDbEntity
  8
0
  6
Continuous
 62
     7
370
    25
100
AcDbPolyline
 90
        9
 70
   128
 43
0.0
 10
7267.2815103343
 20
4856.240086775
 10
7268.231266249
 20
4856.3701575611
 10
7269.145726307
 20
4856.7555360879
 10
7269.9909063545
 20
4857.3819005019
 10
7270.7353968963
 20
4858.225973171
 10
7271.3515303695
 20
4859.2563857539
 10
7271.8164093555
 20
4860.4348449433
 10
7272.1127575186
 20
4861.7175555642
 10
7272.2295616478
 20
4863.0568481369
  0
LINE
  5
41A
330
1F
100
AcDbEntity
  8
0
  6
Continuous
 62
     7
370
    25
100
AcDbLine
 10
7267.2815103343
 20
4856.240086775
 30
0.0
 11
7263.8380068516
 21
4856.240086775
 31
0.0
  0
LINE
  5
41B
330
1F
100
AcDbEntity
  8
0
  6
Continuous
 62
     7
370
    25
100
AcDbLine
 10
7291.9601646406
 20
4863.0568481369
 30
0.0
 11
7293.3541181619
 21
4863.0568481369
 31
0.0
  0
LWPOLYLINE
  5
41C
330
1F
100
AcDbEntity
  8
0
  6
Continuous
 62
     7
370
    25
100
AcDbPolyline
 90
        9
 70
   128
 43
0.0
 10
7291.9601646406
 20
4863.0568481369
 10
7292.0769687698
 20
4861.7175555642
 10
7292.3733169329
 20
4860.4348449433
 10
7292.8381959189
 20
4859.2563857539
 10
7293.4543293921
 20
4858.225973171
 10
7294.1988199339
 20
4857.3819005019
 10
7295.0439999814
 20
4856.7555360879
 10
7295.9584600394
 20
4856.3701575611
 10
7296.9082159541
 20
4856.240086775
  0
LINE
  5
41D
330
1F
100
AcDbEntity
  8
0
  6
Continuous
 62
     7
370
    25
100
AcDbLine
 10
7300.3517194368
 20
4856.240086775
 30
0.0
 11
7296.9082159541
 21
4856.240086775
 31
0.0
  0
LINE
  5
41E
330
1F
100
AcDbEntity
  8
0
  6
Continuous
 62
     7
370
    25
100
AcDbLine
 10
7272.2295616478
 20
4863.0568481369
 30
0.0
 11
7275.9722023349
 21
4863.0568481369
 31
0.0
  0
LINE
  5
41F
330
1F
100
AcDbEntity
  8
0
  6
Continuous
 62
     7
370
    25
100
AcDbLine
 10
7288.2175239535
 20
4863.0568481369
 30
0.0
 11
7291.9601646406
 21
4863.0568481369
 31
0.0
  0
LWPOLYLINE
  5
420
330
1F
100
AcDbEntity
  8
0
  6
Continuous
 62
     7
370
    25
100
AcDbPolyline
 90
        9
 70
   128
 43
0.0
 10
7271.0241510214
 20
4856.240086775
 10
7271.9739069361
 20
4856.3701575611
 10
7272.8883669942
 20
4856.7555360879
 10
7273.7335470416
 20
4857.3819005019
 10
7274.4780375834
 20
4858.225973171
 10
7275.0941710566
 20
4859.2563857539
 10
7275.5590500426
 20
4860.4348449433
 10
7275.8553982057
 20
4861.7175555642
 10
7275.9722023349
 20
4863.0568481369
  0
LINE
  5
421
330
1F
100
AcDbEntity
  8
0
  6
Continuous
 62
     7
370
    25
100
AcDbLine
 10
7271.0241510214
 20
4856.240086775
 30
0.0
 11
7267.2815103343
 21
4856.240086775
 31
0.0
  0
LWPOLYLINE
  5
422
330
1F
100
AcDbEntity
  8
0
  6
Continuous
 62
     7
370
    25
100
AcDbPolyline
 90
        9
 70
   128
 43
0.0
 10
7288.2175239535
 20
4863.0568481369
 10
7288.3343280827
 20
4861.7175555642
 10
7288.6306762458
 20
4860.4348449433
 10
7289.0955552318
 20
4859.2563857539
 10
7289.711688705
 20
4858.225973171
 10
7290.4561792468
 20
4857.3819005019
 10
7291.3013592942
 20
4856.7555360879
 10
7292.2158193523
 20
4856.3701575611
 10
7293.165575267
 20
4856.240086775
  0
LINE
  5
423
330
1F
100
AcDbEntity
  8
0
  6
Continuous
 62
     7
370
    25
100
AcDbLine
 10
7296.9082159541
 20
4856.240086775
 30
0.0
 11
7293.165575267
 21
4856.240086775
 31
0.0
  0
LINE
  5
424
330
1F
100
AcDbEntity
  8
0
  6
Continuous
 62
     7
370
    25
100
AcDbLine
 10
7275.9722023349
 20
4863.0568481369
 30
0.0
 11
7279.3375038313
 21
4863.0568481369
 31
0.0
  0
LINE
  5
425
330
1F
100
AcDbEntity
  8
0
  6
Continuous
 62
     7
370
    25
100
AcDbLine
 10
7284.8522224571
 20
4863.0568481369
 30
0.0
 11
7288.2175239535
 21
4863.0568481369
 31
0.0
  0
LINE
  5
426
330
1F
100
AcDbEntity
  8
0
  6
Continuous
 62
     7
370
    25
100
AcDbLine
 10
7279.3375038313
 20
4856.240086775
 30
0.0
 11
7279.3375038313
 21
4863.0568481369
 31
0.0
  0
LINE
  5
427
330
1F
100
AcDbEntity
  8
0
  6
Continuous
 62
     7
370
    25
100
AcDbLine
 10
7279.3375038313
 20
4856.240086775
 30
0.0
 11
7271.0241510214
 21
4856.240086775
 31
0.0
  0
LINE
  5
428
330
1F
100
AcDbEntity
  8
0
  6
Continuous
 62
     7
370
    25
100
AcDbLine
 10
7284.8522224571
 20
4863.0568481369
 30
0.0
 11
7284.8522224571
 21
4856.240086775
 31
0.0
  0
LINE
  5
429
330
1F
100
AcDbEntity
  8
0
  6
Continuous
 62
     7
370
    25
100
AcDbLine
 10
7293.165575267
 20
4856.240086775
 30
0.0
 11
7284.8522224571
 21
4856.240086775
 31
0.0
  0
LINE
  5
42A
330
1F
100
AcDbEntity
  8
0
  6
Continuous
 62
     7
370
    25
100
AcDbLine
 10
7279.3375038313
 20
4863.0568481369
 30
0.0
 11
7284.8522224571
 21
4863.0568481369
 31
0.0
  0
LINE
  5
42B
330
1F
100
AcDbEntity
  8
0
  6
Continuous
 62
     7
370
    25
100
AcDbLine
 10
7284.8522224571
 20
4856.240086775
 30
0.0
 11
7279.3375038313
 21
4856.240086775
 31
0.0
  0
LINE
  5
42C
330
1F
100
AcDbEntity
  8
0
  6
Continuous
 62
     7
370
    25
100
AcDbLine
 10
7217.1873858561
 20
4846.040086775
 30
0.0
 11
7217.1873858561
 21
4839.040086775
 31
0.0
  0
LINE
  5
42D
330
1F
100
AcDbEntity
  8
0
  6
Continuous
 62
     7
370
    25
100
AcDbLine
 10
7227.0023404323
 20
4846.040086775
 30
0.0
 11
7227.0023404323
 21
4839.040086775
 31
0.0
  0
LINE
  5
42E
330
1F
100
AcDbEntity
  8
0
  6
Continuous
 62
     7
370
    25
100
AcDbLine
 10
7217.1873858561
 20
4839.040086775
 30
0.0
 11
7227.0023404323
 21
4839.040086775
 31
0.0
  0
LINE
  5
42F
330
1F
100
AcDbEntity
  8
0
  6
Continuous
 62
     7
370
    25
100
AcDbLine
 10
7217.1873858561
 20
4846.040086775
 30
0.0
 11
7227.0023404323
 21
4846.040086775
 31
0.0
  0
LINE
  5
430
330
1F
100
AcDbEntity
  8
0
  6
Continuous
 62
     7
370
    25
100
AcDbLine
 10
7212.279908568
 20
4846.040086775
 30
0.0
 11
7212.279908568
 21
4839.040086775
 31
0.0
  0
LINE
  5
431
330
1F
100
AcDbEntity
  8
0
  6
Continuous
 62
     7
370
    25
100
AcDbLine
 10
7212.279908568
 20
4839.040086775
 30
0.0
 11
7217.1873858561
 21
4839.040086775
 31
0.0
  0
LINE
  5
432
330
1F
100
AcDbEntity
  8
0
  6
Continuous
 62
     7
370
    25
100
AcDbLine
 10
7212.279908568
 20
4846.040086775
 30
0.0
 11
7217.1873858561
 21
4846.040086775
 31
0.0
  0
LINE
  5
433
330
1F
100
AcDbEntity
  8
0
  6
Continuous
 62
     7
370
    25
100
AcDbLine
 10
7231.9098177204
 20
4846.040086775
 30
0.0
 11
7231.9098177204
 21
4839.040086775
 31
0.0
  0
LINE
  5
434
330
1F
100
AcDbEntity
  8
0
  6
Continuous
 62
     7
370
    25
100
AcDbLine
 10
7227.0023404323
 20
4839.040086775
 30
0.0
 11
7231.9098177204
 21
4839.040086775
 31
0.0
  0
LINE
  5
435
330
1F
100
AcDbEntity
  8
0
  6
Continuous
 62
     7
370
    25
100
AcDbLine
 10
7227.0023404323
 20
4846.040086775
 30
0.0
 11
7231.9098177204
 21
4846.040086775
 31
0.0
  0
LINE
  5
436
330
1F
100
AcDbEntity
  8
0
  6
Continuous
 62
     7
370
    25
100
AcDbLine
 10
7218.0948631442
 20
4926.040086775
 30
0.0
 11
7226.0948631442
 21
4926.040086775
 31
0.0
  0
LINE
  5
437
330
1F
100
AcDbEntity
  8
0
  6
Continuous
 62
     7
370
    25
100
AcDbLine
 10
7359.279908568
 20
4846.040086775
 30
0.0
 11
7359.279908568
 21
4841.040086775
 31
0.0
  0
LINE
  5
438
330
1F
100
AcDbEntity
  8
0
  6
Continuous
 62
     7
370
    25
100
AcDbLine
 10
7359.279908568
 20
4846.040086775
 30
0.0
 11
7364.0948631442
 21
4846.040086775
 31
0.0
  0
LINE
  5
439
330
1F
100
AcDbEntity
  8
0
  6
Continuous
 62
     7
370
    25
100
AcDbLine
 10
7378.9098177204
 20
4846.040086775
 30
0.0
 11
7378.9098177204
 21
4841.040086775
 31
0.0
  0
LINE
  5
43A
330
1F
100
AcDbEntity
  8
0
  6
Continuous
 62
     7
370
    25
100
AcDbLine
 10
7374.0948631442
 20
4846.040086775
 30
0.0
 11
7378.9098177204
 21
4846.040086775
 31
0.0
  0
LINE
  5
43B
330
1F
100
AcDbEntity
  8
0
  6
Continuous
 62
     7
370
    25
100
AcDbLine
 10
7207.0948631442
 20
4841.040086775
 30
0.0
 11
7207.0948631442
 21
4839.040086775
 31
0.0
  0
LINE
  5
43C
330
1F
100
AcDbEntity
  8
0
  6
Continuous
 62
     7
370
    25
100
AcDbLine
 10
7207.0948631442
 20
4841.040086775
 30
0.0
 11
7212.279908568
 21
4841.040086775
 31
0.0
  0
LINE
  5
43D
330
1F
100
AcDbEntity
  8
0
  6
Continuous
 62
     7
370
    25
100
AcDbLine
 10
7231.9098177204
 20
4841.040086775
 30
0.0
 11
7237.0948631442
 21
4841.040086775
 31
0.0
  0
LINE
  5
43E
330
1F
100
AcDbEntity
  8
0
  6
Continuous
 62
     7
370
    25
100
AcDbLine
 10
7237.0948631442
 20
4841.040086775
 30
0.0
 11
7237.0948631442
 21
4839.040086775
 31
0.0
  0
LINE
  5
43F
330
1F
100
AcDbEntity
  8
0
  6
Continuous
 62
     7
370
    25
100
AcDbLine
 10
7207.0948631442
 20
4839.040086775
 30
0.0
 11
7212.279908568
 21
4839.040086775
 31
0.0
  0
LINE
  5
440
330
1F
100
AcDbEntity
  8
0
  6
Continuous
 62
     7
370
    25
100
AcDbLine
 10
7231.9098177204
 20
4839.040086775
 30
0.0
 11
7237.0948631442
 21
4839.040086775
 31
0.0
  0
LINE
  5
441
330
1F
100
AcDbEntity
  8
0
  6
Continuous
 62
     7
370
    25
100
AcDbLine
 10
7354.0948631442
 20
4841.040086775
 30
0.0
 11
7354.0948631442
 21
4839.040086775
 31
0.0
  0
LINE
  5
442
330
1F
100
AcDbEntity
  8
0
  6
Continuous
 62
     7
370
    25
100
AcDbLine
 10
7384.0948631442
 20
4841.040086775
 30
0.0
 11
7384.0948631442
 21
4839.040086775
 31
0.0
  0
LINE
  5
443
330
1F
100
AcDbEntity
  8
0
  6
Continuous
 62
     7
370
    25
100
AcDbLine
 10
7354.0948631442
 20
4839.040086775
 30
0.0
 11
7384.0948631442
 21
4839.040086775
 31
0.0
  0
LINE
  5
444
330
1F
100
AcDbEntity
  8
0
  6
Continuous
 62
     7
370
    25
100
AcDbLine
 10
7354.0948631442
 20
4841.040086775
 30
0.0
 11
7384.0948631442
 21
4841.040086775
 31
0.0
  0
LINE
  5
445
330
1F
100
AcDbEntity
  8
0
  6
Continuous
 62
     7
370
    25
100
AcDbLine
 10
7365.0948631442
 20
4926.040086775
 30
0.0
 11
7373.0948631442
 21
4926.040086775
 31
0.0
  0
LINE
  5
446
330
1F
100
AcDbEntity
  8
0
  6
Continuous
 62
     8
370
    25
100
AcDbLine
 10
7232.0948631442
 20
4960.040086775
 30
0.0
 11
7232.0948631442
 21
4957.9885454436
 31
0.0
  0
LINE
  5
447
330
1F
100
AcDbEntity
  8
0
  6
Continuous
 62
     8
370
    25
100
AcDbLine
 10
7332.0948631442
 20
4960.040086775
 30
0.0
 11
7332.0948631442
 21
4957.9885454436
 31
0.0
  0
LINE
  5
448
330
1F
100
AcDbEntity
  8
0
  6
Continuous
 62
     8
370
    25
100
AcDbLine
 10
7232.0948631442
 20
4953.7814875404
 30
0.0
 11
7232.0948631442
 21
4944.040086775
 31
0.0
  0
LINE
  5
449
330
1F
100
AcDbEntity
  8
0
  6
Continuous
 62
     8
370
    25
100
AcDbLine
 10
7332.0948631442
 20
4953.7814875404
 30
0.0
 11
7332.0948631442
 21
4944.040086775
 31
0.0
  0
LINE
  5
44A
330
1F
100
AcDbEntity
  8
0
  6
Continuous
 62
     8
370
    25
100
AcDbLine
 10
7242.7926370116
 20
4938.7637607013
 30
0.0
 11
7276.3213604523
 21
4938.7637607013
 31
0.0
  0
LINE
  5
44B
330
1F
100
AcDbEntity
  8
0
  6
Continuous
 62
     8
370
    25
100
AcDbLine
 10
7287.8683658361
 20
4938.7637607013
 30
0.0
 11
7321.3970892768
 21
4938.7637607013
 31
0.0
  0
LINE
  5
44C
330
1F
100
AcDbEntity
  8
0
  6
Continuous
 62
     8
370
    25
100
AcDbLine
 10
7243.0317483968
 20
4939.1779137692
 30
0.0
 11
7276.3213604523
 21
4939.1779137692
 31
0.0
  0
LINE
  5
44D
330
1F
100
AcDbEntity
  8
0
  6
Continuous
 62
     8
370
    25
100
AcDbLine
 10
7287.8683658361
 20
4939.1779137692
 30
0.0
 11
7321.1579778916
 21
4939.1779137692
 31
0.0
  0
ARC
  5
44E
330
1F
100
AcDbEntity
  8
0
  6
Continuous
 62
     8
370
    25
100
AcDbCircle
 10
7282.095196311
 20
4903.246603848
 30
0.0
 40
17.49966683632655
100
AcDbArc
 50
269.9989091761
 51
359.9989091346
  0
ARC
  5
44F
330
1F
100
AcDbEntity
  8
0
  6
Continuous
 62
     8
370
    25
100
AcDbCircle
 10
7282.0945290723
 20
4903.2466020285
 30
0.0
 40
17.4996650168751
100
AcDbArc
 50
180.0011153103
 51
270.0010937871
  0
LINE
  5
450
330
1F
100
AcDbEntity
  8
0
  6
Continuous
 62
     8
370
    25
100
AcDbLine
 10
7299.2281276209
 20
4933.240086775
 30
0.0
 11
7285.0948631442
 21
4933.240086775
 31
0.0
  0
LINE
  5
451
330
1F
100
AcDbEntity
  8
0
  6
Continuous
 62
     8
370
    25
100
AcDbLine
 10
7279.0948631442
 20
4933.240086775
 30
0.0
 11
7264.9615986675
 21
4933.240086775
 31
0.0
  0
LINE
  5
452
330
1F
100
AcDbEntity
  8
0
  6
Continuous
 62
     8
370
    25
100
AcDbLine
 10
7303.9228617114
 20
4918.9823985193
 30
0.0
 11
7304.0196891441
 21
4930.240086775
 31
0.0
  0
LINE
  5
453
330
1F
100
AcDbEntity
  8
0
  6
Continuous
 62
     8
370
    25
100
AcDbLine
 10
7298.106223846
 20
4924.8311399695
 30
0.0
 11
7298.106223846
 21
4930.240086775
 31
0.0
  0
LINE
  5
454
330
1F
100
AcDbEntity
  8
0
  6
Continuous
 62
     8
370
    25
100
AcDbLine
 10
7260.266864577
 20
4918.9823985193
 30
0.0
 11
7260.1700371443
 21
4930.240086775
 31
0.0
  0
LINE
  5
455
330
1F
100
AcDbEntity
  8
0
  6
Continuous
 62
     8
370
    25
100
AcDbLine
 10
7266.0835024424
 20
4924.8311399695
 30
0.0
 11
7266.0835024424
 21
4930.240086775
 31
0.0
  0
ARC
  5
456
330
1F
100
AcDbEntity
  8
0
  6
Continuous
 62
     8
370
    25
100
AcDbCircle
 10
7297.6552560495
 20
4888.0416350456
 30
0.0
 40
5.835886262676869
100
AcDbArc
 50
292.2807405458
 51
346.2292893367
  0
ARC
  5
457
330
1F
100
AcDbEntity
  8
0
  6
Continuous
 62
     8
370
    25
100
AcDbCircle
 10
7266.5360698004
 20
4888.0432327916
 30
0.0
 40
5.837971247902064
100
AcDbArc
 50
193.7452696728
 51
247.7106782337
  0
ARC
  5
458
330
1F
100
AcDbEntity
  8
0
  6
Continuous
 62
     8
370
    25
100
AcDbCircle
 10
7323.241795645
 20
4844.1190281232
 30
0.0
 40
48.85774613795063
100
AcDbArc
 50
101.8649724379
 51
111.5369123433
  0
LWPOLYLINE
  5
459
330
1F
100
AcDbEntity
  8
0
  6
Continuous
 62
     8
370
    25
100
AcDbPolyline
 90
        8
 70
   128
 43
0.0
 10
7313.1963528697
 20
4891.9329218898
 10
7313.2321441812
 20
4890.4604116686
 10
7313.0531178807
 20
4889.0579818675
 10
7312.6674548964
 20
4887.7897190329
 10
7312.0927787904
 20
4886.7135787111
 10
7311.3553504187
 20
4885.8787370654
 10
7310.4888678941
 20
4885.3233436829
 10
7309.8116236238
 20
4885.1121253646
  0
ARC
  5
45A
330
1F
100
AcDbEntity
  8
0
  6
Continuous
 62
     8
370
    25
100
AcDbCircle
 10
7241.030439005
 20
4844.3935668886
 30
0.0
 40
48.57211479914692
100
AcDbArc
 50
68.5846849951
 51
78.1636904354
  0
LWPOLYLINE
  5
45B
330
1F
100
AcDbEntity
  8
0
  6
Continuous
 62
     8
370
    25
100
AcDbPolyline
 90
        8
 70
   128
 43
0.0
 10
7250.9933734187
 20
4891.9329218898
 10
7250.9575821072
 20
4890.4604116686
 10
7251.1366084077
 20
4889.0579818675
 10
7251.522271392
 20
4887.7897190329
 10
7252.096947498
 20
4886.7135787111
 10
7252.8343758697
 20
4885.8787370654
 10
7253.7008583943
 20
4885.3233436829
 10
7254.3698448749
 20
4885.1136950625
  0
LWPOLYLINE
  5
45C
330
1F
100
AcDbEntity
  8
0
  6
Continuous
 62
     8
370
    25
100
AcDbPolyline
 90
        7
 70
   128
 43
0.0
 10
7313.1963528697
 20
4891.9329218898
 10
7318.5075123535
 20
4892.9760304002
 10
7322.9154826342
 20
4894.3580284736
 10
7326.0490868744
 20
4896.0017464987
 10
7328.0597122489
 20
4898.0020959147
 10
7328.8261573039
 20
4900.2810599348
 10
7328.7686480035
 20
4900.5945544377
  0
LWPOLYLINE
  5
45D
330
1F
100
AcDbEntity
  8
0
  6
Continuous
 62
     8
370
    25
100
AcDbPolyline
 90
       11
 70
   128
 43
0.0
 10
7235.3825613968
 20
4900.573569932
 10
7235.3613668014
 20
4900.3245839088
 10
7235.6337355409
 20
4898.9923638241
 10
7236.3352811421
 20
4897.7064792964
 10
7237.4632488952
 20
4896.5217570162
 10
7238.8444152373
 20
4895.5459563182
 10
7240.5638418805
 20
4894.6592012559
 10
7242.6873899744
 20
4893.8377154126
 10
7245.1476877622
 20
4893.1109914512
 10
7247.9097786769
 20
4892.4804108276
 10
7250.9933734187
 20
4891.9329218898
  0
LINE
  5
45E
330
1F
100
AcDbEntity
  8
0
  6
Continuous
 62
     8
370
    25
100
AcDbLine
 10
7248.5506564897
 20
4933.240086775
 30
0.0
 11
7236.0948202535
 21
4933.240086775
 31
0.0
  0
LINE
  5
45F
330
1F
100
AcDbEntity
  8
0
  6
Continuous
 62
     8
370
    25
100
AcDbLine
 10
7234.0948202535
 20
4933.240086775
 30
0.0
 11
7233.0948631442
 21
4933.240086775
 31
0.0
  0
LINE
  5
460
330
1F
100
AcDbEntity
  8
0
  6
Continuous
 62
     8
370
    25
100
AcDbLine
 10
7331.0948631442
 20
4933.240086775
 30
0.0
 11
7315.6390697987
 21
4933.240086775
 31
0.0
  0
LINE
  5
461
330
1F
100
AcDbEntity
  8
0
  6
Continuous
 62
     8
370
    25
100
AcDbLine
 10
7260.3943617138
 20
4863.0568481369
 30
0.0
 11
7260.0270996011
 21
4883.894249869
 31
0.0
  0
LINE
  5
462
330
1F
100
AcDbEntity
  8
0
  6
Continuous
 62
     8
370
    25
100
AcDbLine
 10
7303.7953645746
 20
4863.0568481369
 30
0.0
 11
7314.3356081265
 21
4863.0568481369
 31
0.0
  0
LINE
  5
463
330
1F
100
AcDbEntity
  8
0
  6
Continuous
 62
     8
370
    25
100
AcDbLine
 10
7249.8541181619
 20
4863.0568481369
 30
0.0
 11
7260.3943617138
 21
4863.0568481369
 31
0.0
  0
LINE
  5
464
330
1F
100
AcDbEntity
  8
0
  6
Continuous
 62
     8
370
    25
100
AcDbLine
 10
7303.7953645746
 20
4863.0568481369
 30
0.0
 11
7304.1627098606
 21
4883.8989688857
 31
0.0
  0
LINE
  5
465
330
1F
100
AcDbEntity
  8
0
  6
Continuous
 62
     8
370
    25
100
AcDbLine
 10
7272.2295616478
 20
4863.0568481369
 30
0.0
 11
7272.5035115657
 21
4877.8519619285
 31
0.0
  0
LINE
  5
466
330
1F
100
AcDbEntity
  8
0
  6
Continuous
 62
     8
370
    25
100
AcDbLine
 10
7291.9601646406
 20
4863.0568481369
 30
0.0
 11
7291.6862147227
 21
4877.8519619285
 31
0.0
  0
LINE
  5
467
330
1F
100
AcDbEntity
  8
0
  6
Continuous
 62
     8
370
    25
100
AcDbLine
 10
7272.4146238782
 20
4889.1828379365
 30
0.0
 11
7273.0457016866
 21
4914.740086775
 31
0.0
  0
LINE
  5
468
330
1F
100
AcDbEntity
  8
0
  6
Continuous
 62
     8
370
    25
100
AcDbLine
 10
7291.7751024102
 20
4889.1828379365
 30
0.0
 11
7291.1440246018
 21
4914.740086775
 31
0.0
  0
LINE
  5
469
330
1F
100
AcDbEntity
  8
0
  6
Continuous
 62
     8
370
    25
100
AcDbLine
 10
7276.5218466019
 20
4887.1728714314
 30
0.0
 11
7277.2025559361
 21
4914.740086775
 31
0.0
  0
LINE
  5
46A
330
1F
100
AcDbEntity
  8
0
  6
Continuous
 62
     8
370
    25
100
AcDbLine
 10
7287.6678796865
 20
4887.1728714314
 30
0.0
 11
7286.9871703523
 21
4914.740086775
 31
0.0
  0
LINE
  5
46B
330
1F
100
AcDbEntity
  8
0
  6
Continuous
 62
     8
370
    25
100
AcDbLine
 10
7275.9722023349
 20
4863.0568481369
 30
0.0
 11
7276.2255001577
 21
4876.7366117206
 31
0.0
  0
LINE
  5
46C
330
1F
100
AcDbEntity
  8
0
  6
Continuous
 62
     8
370
    25
100
AcDbLine
 10
7288.2175239535
 20
4863.0568481369
 30
0.0
 11
7287.9642261307
 21
4876.7366117206
 31
0.0
  0
LINE
  5
46D
330
1F
100
AcDbEntity
  8
0
  6
Continuous
 62
     8
370
    25
100
AcDbLine
 10
7278.7517173937
 20
4886.5840903603
 30
0.0
 11
7278.7517173937
 21
4914.740086775
 31
0.0
  0
LINE
  5
46E
330
1F
100
AcDbEntity
  8
0
  6
Continuous
 62
     8
370
    25
100
AcDbLine
 10
7285.4380088947
 20
4886.5840903603
 30
0.0
 11
7285.4380088947
 21
4914.740086775
 31
0.0
  0
LINE
  5
46F
330
1F
100
AcDbEntity
  8
0
  6
Continuous
 62
     8
370
    25
100
AcDbLine
 10
7279.3375038313
 20
4863.0568481369
 30
0.0
 11
7279.3375038313
 21
4876.2321051159
 31
0.0
  0
LINE
  5
470
330
1F
100
AcDbEntity
  8
0
  6
Continuous
 62
     8
370
    25
100
AcDbLine
 10
7284.8522224571
 20
4863.0568481369
 30
0.0
 11
7284.8522224571
 21
4876.2321051159
 31
0.0
  0
ENDSEC
  0
SECTION
  2
OBJECTS
  0
DICTIONARY
  5
C
330
0
100
AcDbDictionary
281
     1
  3
ACAD_GROUP
350
D
  3
ACAD_LAYOUT
350
1A
  3
ACAD_MLINESTYLE
350
17
  3
ACAD_PLOTSETTINGS
350
19
  3
ACAD_PLOTSTYLENAME
350
E
  3
ACAD_SCALELIST
350
47
  3
DWGPROPS
350
471
  0
DICTIONARY
  5
D
102
{ACAD_REACTORS
330
C
102
}
330
C
100
AcDbDictionary
281
     1
  0
DICTIONARY
  5
1A
102
{ACAD_REACTORS
330
C
102
}
330
C
100
AcDbDictionary
281
     1
  3
Layout1
350
1E
  3
Layout2
350
26
  3
Model
350
22
  0
DICTIONARY
  5
17
102
{ACAD_REACTORS
330
C
102
}
330
C
100
AcDbDictionary
281
     1
  3
Standard
350
18
  0
DICTIONARY
  5
19
102
{ACAD_REACTORS
330
C
102
}
330
C
100
AcDbDictionary
281
     1
  0
ACDBDICTIONARYWDFLT
  5
E
102
{ACAD_REACTORS
330
C
102
}
330
C
100
AcDbDictionary
281
     1
  3
Normal
350
F
100
AcDbDictionaryWithDefault
340
F
  0
DICTIONARY
  5
47
102
{ACAD_REACTORS
330
C
102
}
330
C
100
AcDbDictionary
281
     1
  3
A0
350
48
  3
A1
350
49
  3
A2
350
4A
  3
A3
350
4B
  3
A4
350
4C
  3
A5
350
4D
  3
A6
350
4E
  3
A7
350
4F
  3
A8
350
50
  3
A9
350
51
  3
B0
350
52
  3
B1
350
53
  3
B2
350
54
  3
B3
350
55
  3
B4
350
56
  3
B5
350
57
  3
B6
350
58
  3
B7
350
59
  3
B8
350
5A
  3
B9
350
5B
  3
C0
350
5C
  3
C1
350
5D
  3
C2
350
5E
  3
C3
350
5F
  3
C4
350
60
  3
C5
350
61
  3
C6
350
62
  3
C7
350
63
  3
C8
350
64
  3
C9
350
65
  3
D0
350
66
  3
D1
350
67
  3
D2
350
68
  0
XRECORD
  5
471
102
{ACAD_REACTORS
330
C
102
}
330
C
100
AcDbXrecord
280
     1
  1
DWGPROPS COOKIE
  2

  3

  4

  6

  7

  8
radek.stransky
  9

300
=
301
=
302
=
303
=
304
=
305
=
306
=
307
=
308
=
309
=
 40
0.0
 41
2459157.422153519
 42
2459157.422153866
  1

 90
        0
  0
LAYOUT
  5
1E
102
{ACAD_REACTORS
330
1A
102
}
330
1A
100
AcDbPlotSettings
  1

  2
none_device
  4

  6

 40
0.0
 41
0.0
 42
0.0
 43
0.0
 44
0.0
 45
0.0
 46
0.0
 47
0.0
 48
0.0
 49
0.0
140
0.0
141
0.0
142
1.0
143
1.0
 70
   688
 72
     1
 73
     0
 74
     5
  7

 75
    16
147
1.0
148
0.0
149
0.0
100
AcDbLayout
  1
Layout1
 70
     1
 71
     1
 10
0.0
 20
0.0
 11
420.0
 21
297.0
 12
0.0
 22
0.0
 32
0.0
 14
1.0000000000E+20
 24
1.0000000000E+20
 34
1.0000000000E+20
 15
-1.0000000000E+20
 25
-1.0000000000E+20
 35
-1.0000000000E+20
146
0.0
 13
0.0
 23
0.0
 33
0.0
 16
1.0
 26
0.0
 36
0.0
 17
0.0
 27
1.0
 37
0.0
 76
     0
330
1B
  0
LAYOUT
  5
26
102
{ACAD_REACTORS
330
1A
102
}
330
1A
100
AcDbPlotSettings
  1

  2
none_device
  4

  6

 40
0.0
 41
0.0
 42
0.0
 43
0.0
 44
0.0
 45
0.0
 46
0.0
 47
0.0
 48
0.0
 49
0.0
140
0.0
141
0.0
142
1.0
143
1.0
 70
   688
 72
     1
 73
     0
 74
     5
  7

 75
    16
147
1.0
148
0.0
149
0.0
100
AcDbLayout
  1
Layout2
 70
     1
 71
     2
 10
0.0
 20
0.0
 11
0.0
 21
0.0
 12
0.0
 22
0.0
 32
0.0
 14
0.0
 24
0.0
 34
0.0
 15
0.0
 25
0.0
 35
0.0
146
0.0
 13
0.0
 23
0.0
 33
0.0
 16
1.0
 26
0.0
 36
0.0
 17
0.0
 27
1.0
 37
0.0
 76
     0
330
23
  0
LAYOUT
  5
22
102
{ACAD_REACTORS
330
1A
102
}
330
1A
100
AcDbPlotSettings
  1

  2
none_device
  4
Letter_(8.50_x_11.00_Inches)
  6

 40
6.35
 41
6.35
 42
6.35000508
 43
6.35000508
 44
215.9
 45
279.4
 46
0.0
 47
0.0
 48
0.0
 49
0.0
140
0.0
141
0.0
142
1.0
143
1.0
 70
  1712
 72
     1
 73
     0
 74
     0
  7

 75
     0
147
1.0
148
0.0
149
0.0
100
AcDbLayout
  1
Model
 70
     1
 71
     0
 10
0.0
 20
0.0
 11
20000.0
 21
10000.0
 12
0.0
 22
0.0
 32
0.0
 14
0.0
 24
0.0
 34
0.0
 15
20000.0
 25
10000.0
 35
0.0
146
0.0
 13
0.0
 23
0.0
 33
0.0
 16
1.0
 26
0.0
 36
0.0
 17
0.0
 27
1.0
 37
0.0
 76
     0
330
1F
331
29
  0
MLINESTYLE
  5
18
102
{ACAD_REACTORS
330
17
102
}
330
17
100
AcDbMlineStyle
  2
Standard
 70
     0
  3

 62
   256
 51
90.0
 52
90.0
 71
     2
 49
0.5
 62
   256
  6
BYLAYER
 49
-0.5
 62
   256
  6
BYLAYER
  0
ACDBPLACEHOLDER
  5
F
102
{ACAD_REACTORS
330
E
102
}
330
E
  0
SCALE
  5
48
102
{ACAD_REACTORS
330
47
102
}
330
47
100
AcDbScale
 70
     0
300
1:1
140
1.0
141
1.0
290
     1
  0
SCALE
  5
49
102
{ACAD_REACTORS
330
47
102
}
330
47
100
AcDbScale
 70
     0
300
1:2
140
1.0
141
2.0
290
     0
  0
SCALE
  5
4A
102
{ACAD_REACTORS
330
47
102
}
330
47
100
AcDbScale
 70
     0
300
1:4
140
1.0
141
4.0
290
     0
  0
SCALE
  5
4B
102
{ACAD_REACTORS
330
47
102
}
330
47
100
AcDbScale
 70
     0
300
1:5
140
1.0
141
5.0
290
     0
  0
SCALE
  5
4C
102
{ACAD_REACTORS
330
47
102
}
330
47
100
AcDbScale
 70
     0
300
1:8
140
1.0
141
8.0
290
     0
  0
SCALE
  5
4D
102
{ACAD_REACTORS
330
47
102
}
330
47
100
AcDbScale
 70
     0
300
1:10
140
1.0
141
10.0
290
     0
  0
SCALE
  5
4E
102
{ACAD_REACTORS
330
47
102
}
330
47
100
AcDbScale
 70
     0
300
1:16
140
1.0
141
16.0
290
     0
  0
SCALE
  5
4F
102
{ACAD_REACTORS
330
47
102
}
330
47
100
AcDbScale
 70
     0
300
1:20
140
1.0
141
20.0
290
     0
  0
SCALE
  5
50
102
{ACAD_REACTORS
330
47
102
}
330
47
100
AcDbScale
 70
     0
300
1:30
140
1.0
141
30.0
290
     0
  0
SCALE
  5
51
102
{ACAD_REACTORS
330
47
102
}
330
47
100
AcDbScale
 70
     0
300
1:40
140
1.0
141
40.0
290
     0
  0
SCALE
  5
52
102
{ACAD_REACTORS
330
47
102
}
330
47
100
AcDbScale
 70
     0
300
1:50
140
1.0
141
50.0
290
     0
  0
SCALE
  5
53
102
{ACAD_REACTORS
330
47
102
}
330
47
100
AcDbScale
 70
     0
300
1:100
140
1.0
141
100.0
290
     0
  0
SCALE
  5
54
102
{ACAD_REACTORS
330
47
102
}
330
47
100
AcDbScale
 70
     0
300
2:1
140
2.0
141
1.0
290
     0
  0
SCALE
  5
55
102
{ACAD_REACTORS
330
47
102
}
330
47
100
AcDbScale
 70
     0
300
4:1
140
4.0
141
1.0
290
     0
  0
SCALE
  5
56
102
{ACAD_REACTORS
330
47
102
}
330
47
100
AcDbScale
 70
     0
300
8:1
140
8.0
141
1.0
290
     0
  0
SCALE
  5
57
102
{ACAD_REACTORS
330
47
102
}
330
47
100
AcDbScale
 70
     0
300
10:1
140
10.0
141
1.0
290
     0
  0
SCALE
  5
58
102
{ACAD_REACTORS
330
47
102
}
330
47
100
AcDbScale
 70
     0
300
100:1
140
100.0
141
1.0
290
     0
  0
SCALE
  5
59
102
{ACAD_REACTORS
330
47
102
}
330
47
100
AcDbScale
 70
     0
300
1/128" = 1'-0"
140
0.0078125
141
12.0
290
     0
  0
SCALE
  5
5A
102
{ACAD_REACTORS
330
47
102
}
330
47
100
AcDbScale
 70
     0
300
1/64" = 1'-0"
140
0.015625
141
12.0
290
     0
  0
SCALE
  5
5B
102
{ACAD_REACTORS
330
47
102
}
330
47
100
AcDbScale
 70
     0
300
1/32" = 1'-0"
140
0.03125
141
12.0
290
     0
  0
SCALE
  5
5C
102
{ACAD_REACTORS
330
47
102
}
330
47
100
AcDbScale
 70
     0
300
1/16" = 1'-0"
140
0.0625
141
12.0
290
     0
  0
SCALE
  5
5D
102
{ACAD_REACTORS
330
47
102
}
330
47
100
AcDbScale
 70
     0
300
3/32" = 1'-0"
140
0.09375
141
12.0
290
     0
  0
SCALE
  5
5E
102
{ACAD_REACTORS
330
47
102
}
330
47
100
AcDbScale
 70
     0
300
1/8" = 1'-0"
140
0.125
141
12.0
290
     0
  0
SCALE
  5
5F
102
{ACAD_REACTORS
330
47
102
}
330
47
100
AcDbScale
 70
     0
300
3/16" = 1'-0"
140
0.1875
141
12.0
290
     0
  0
SCALE
  5
60
102
{ACAD_REACTORS
330
47
102
}
330
47
100
AcDbScale
 70
     0
300
1/4" = 1'-0"
140
0.25
141
12.0
290
     0
  0
SCALE
  5
61
102
{ACAD_REACTORS
330
47
102
}
330
47
100
AcDbScale
 70
     0
300
3/8" = 1'-0"
140
0.375
141
12.0
290
     0
  0
SCALE
  5
62
102
{ACAD_REACTORS
330
47
102
}
330
47
100
AcDbScale
 70
     0
300
1/2" = 1'-0"
140
0.5
141
12.0
290
     0
  0
SCALE
  5
63
102
{ACAD_REACTORS
330
47
102
}
330
47
100
AcDbScale
 70
     0
300
3/4" = 1'-0"
140
0.75
141
12.0
290
     0
  0
SCALE
  5
64
102
{ACAD_REACTORS
330
47
102
}
330
47
100
AcDbScale
 70
     0
300
1" = 1'-0"
140
1.0
141
12.0
290
     0
  0
SCALE
  5
65
102
{ACAD_REACTORS
330
47
102
}
330
47
100
AcDbScale
 70
     0
300
1-1/2" = 1'-0"
140
1.5
141
12.0
290
     0
  0
SCALE
  5
66
102
{ACAD_REACTORS
330
47
102
}
330
47
100
AcDbScale
 70
     0
300
3" = 1'-0"
140
3.0
141
12.0
290
     0
  0
SCALE
  5
67
102
{ACAD_REACTORS
330
47
102
}
330
47
100
AcDbScale
 70
     0
300
6" = 1'-0"
140
6.0
141
12.0
290
     0
  0
SCALE
  5
68
102
{ACAD_REACTORS
330
47
102
}
330
47
100
AcDbScale
 70
     0
300
1'-0" = 1'-0"
140
12.0
141
12.0
290
     0
  0
ENDSEC
  0
EOF
