  0
SECTION
  2
HEADER
  9
$ACADVER
  1
AC1015
  9
$ACADMAINTVER
 70
     6
  9
$DWGCODEPAGE
  3
ANSI_1250
  9
$INSBASE
 10
0.0
 20
0.0
 30
0.0
  9
$EXTMIN
 10
0.0
 20
0.0
 30
0.0
  9
$EXTMAX
 10
20000.0
 20
10000.0
 30
0.0
  9
$LIMMIN
 10
0.0
 20
0.0
  9
$LIMMAX
 10
20000.0
 20
10000.0
  9
$ORTHOMODE
 70
     0
  9
$REGENMODE
 70
     1
  9
$FILLMODE
 70
     1
  9
$QTEXTMODE
 70
     0
  9
$MIRRTEXT
 70
     1
  9
$LTSCALE
 40
1.0
  9
$ATTMODE
 70
     1
  9
$TEXTSIZE
 40
2.0
  9
$TRACEWID
 40
1.0
  9
$TEXTSTYLE
  7
Standard
  9
$CLAYER
  8
0
  9
$CELTYPE
  6
ByLayer
  9
$CECOLOR
 62
   256
  9
$CELTSCALE
 40
1.0
  9
$DISPSILH
 70
     0
  9
$DIMSCALE
 40
1.0
  9
$DIMASZ
 40
2.0
  9
$DIMEXO
 40
1.0
  9
$DIMDLI
 40
3.75
  9
$DIMRND
 40
0.0
  9
$DIMDLE
 40
0.0
  9
$DIMEXE
 40
1.0
  9
$DIMTP
 40
0.0
  9
$DIMTM
 40
0.0
  9
$DIMTXT
 40
2.0
  9
$DIMCEN
 40
2.5
  9
$DIMTSZ
 40
0.0
  9
$DIMTOL
 70
     0
  9
$DIMLIM
 70
     0
  9
$DIMTIH
 70
     1
  9
$DIMTOH
 70
     1
  9
$DIMSE1
 70
     0
  9
$DIMSE2
 70
     0
  9
$DIMTAD
 70
     1
  9
$DIMZIN
 70
     0
  9
$DIMBLK
  1

  9
$DIMASO
 70
     1
  9
$DIMSHO
 70
     1
  9
$DIMPOST
  1

  9
$DIMAPOST
  1

  9
$DIMALT
 70
     0
  9
$DIMALTD
 70
     3
  9
$DIMALTF
 40
0.0393700787
  9
$DIMLFAC
 40
1.0
  9
$DIMTOFL
 70
     1
  9
$DIMTVP
 40
0.0
  9
$DIMTIX
 70
     0
  9
$DIMSOXD
 70
     0
  9
$DIMSAH
 70
     0
  9
$DIMBLK1
  1

  9
$DIMBLK2
  1

  9
$DIMSTYLE
  2
ISO-25
  9
$DIMCLRD
 70
     0
  9
$DIMCLRE
 70
     0
  9
$DIMCLRT
 70
     0
  9
$DIMTFAC
 40
1.0
  9
$DIMGAP
 40
1.524
  9
$DIMJUST
 70
     0
  9
$DIMSD1
 70
     0
  9
$DIMSD2
 70
     0
  9
$DIMTOLJ
 70
     0
  9
$DIMTZIN
 70
     0
  9
$DIMALTZ
 70
     0
  9
$DIMALTTZ
 70
     0
  9
$DIMUPT
 70
     0
  9
$DIMDEC
 70
     2
  9
$DIMTDEC
 70
     0
  9
$DIMALTU
 70
     2
  9
$DIMALTTD
 70
     3
  9
$DIMTXSTY
  7
Standard
  9
$DIMAUNIT
 70
     0
  9
$DIMADEC
 70
     2
  9
$DIMALTRND
 40
0.0
  9
$DIMAZIN
 70
     0
  9
$DIMDSEP
 70
    44
  9
$DIMATFIT
 70
     3
  9
$DIMFRAC
 70
     0
  9
$DIMLDRBLK
  1

  9
$DIMLUNIT
 70
     2
  9
$DIMLWD
 70
    -2
  9
$DIMLWE
 70
    -2
  9
$DIMTMOVE
 70
     0
  9
$LUNITS
 70
     2
  9
$LUPREC
 70
     3
  9
$SKETCHINC
 40
1.0
  9
$FILLETRAD
 40
10.0
  9
$AUNITS
 70
     0
  9
$AUPREC
 70
     2
  9
$MENU
  1
.
  9
$ELEVATION
 40
0.0
  9
$PELEVATION
 40
0.0
  9
$THICKNESS
 40
0.0
  9
$LIMCHECK
 70
     0
  9
$CHAMFERA
 40
0.0
  9
$CHAMFERB
 40
0.0
  9
$CHAMFERC
 40
0.0
  9
$CHAMFERD
 40
0.0
  9
$SKPOLY
 70
     0
  9
$TDCREATE
 40
2459157.462606065
  9
$TDUCREATE
 40
2459157.420939398
  9
$TDUPDATE
 40
2459157.462606424
  9
$TDUUPDATE
 40
2459157.420939757
  9
$TDINDWG
 40
0.0000000116
  9
$TDUSRTIMER
 40
0.0000000116
  9
$USRTIMER
 70
     1
  9
$ANGBASE
 50
0.0
  9
$ANGDIR
 70
     0
  9
$PDMODE
 70
     0
  9
$PDSIZE
 40
-1.0
  9
$PLINEWID
 40
0.0
  9
$SPLFRAME
 70
     0
  9
$SPLINETYPE
 70
     6
  9
$SPLINESEGS
 70
     8
  9
$HANDSEED
  5
451
  9
$SURFTAB1
 70
     6
  9
$SURFTAB2
 70
     6
  9
$SURFTYPE
 70
     6
  9
$SURFU
 70
     6
  9
$SURFV
 70
     6
  9
$UCSBASE
  2

  9
$UCSNAME
  2

  9
$UCSORG
 10
0.0
 20
0.0
 30
0.0
  9
$UCSXDIR
 10
1.0
 20
0.0
 30
0.0
  9
$UCSYDIR
 10
0.0
 20
1.0
 30
0.0
  9
$UCSORTHOREF
  2

  9
$UCSORTHOVIEW
 70
     0
  9
$UCSORGTOP
 10
0.0
 20
0.0
 30
0.0
  9
$UCSORGBOTTOM
 10
0.0
 20
0.0
 30
0.0
  9
$UCSORGLEFT
 10
0.0
 20
0.0
 30
0.0
  9
$UCSORGRIGHT
 10
0.0
 20
0.0
 30
0.0
  9
$UCSORGFRONT
 10
0.0
 20
0.0
 30
0.0
  9
$UCSORGBACK
 10
0.0
 20
0.0
 30
0.0
  9
$PUCSBASE
  2

  9
$PUCSNAME
  2

  9
$PUCSORG
 10
0.0
 20
0.0
 30
0.0
  9
$PUCSXDIR
 10
1.0
 20
0.0
 30
0.0
  9
$PUCSYDIR
 10
0.0
 20
1.0
 30
0.0
  9
$PUCSORTHOREF
  2

  9
$PUCSORTHOVIEW
 70
     0
  9
$PUCSORGTOP
 10
0.0
 20
0.0
 30
0.0
  9
$PUCSORGBOTTOM
 10
0.0
 20
0.0
 30
0.0
  9
$PUCSORGLEFT
 10
0.0
 20
0.0
 30
0.0
  9
$PUCSORGRIGHT
 10
0.0
 20
0.0
 30
0.0
  9
$PUCSORGFRONT
 10
0.0
 20
0.0
 30
0.0
  9
$PUCSORGBACK
 10
0.0
 20
0.0
 30
0.0
  9
$USERI1
 70
     0
  9
$USERI2
 70
     0
  9
$USERI3
 70
     0
  9
$USERI4
 70
     0
  9
$USERI5
 70
     0
  9
$USERR1
 40
0.0
  9
$USERR2
 40
0.0
  9
$USERR3
 40
0.0
  9
$USERR4
 40
0.0
  9
$USERR5
 40
0.0
  9
$WORLDVIEW
 70
     1
  9
$SHADEDGE
 70
     3
  9
$SHADEDIF
 70
    70
  9
$TILEMODE
 70
     1
  9
$MAXACTVP
 70
    64
  9
$PINSBASE
 10
0.0
 20
0.0
 30
0.0
  9
$PLIMCHECK
 70
     0
  9
$PEXTMIN
 10
1.0000000000E+20
 20
1.0000000000E+20
 30
1.0000000000E+20
  9
$PEXTMAX
 10
-1.0000000000E+20
 20
-1.0000000000E+20
 30
-1.0000000000E+20
  9
$PLIMMIN
 10
0.0
 20
0.0
  9
$PLIMMAX
 10
420.0
 20
297.0
  9
$UNITMODE
 70
     0
  9
$VISRETAIN
 70
     1
  9
$PLINEGEN
 70
     0
  9
$PSLTSCALE
 70
     1
  9
$TREEDEPTH
 70
  3020
  9
$CMLSTYLE
  2
Standard
  9
$CMLJUST
 70
     0
  9
$CMLSCALE
 40
20.0
  9
$PROXYGRAPHICS
 70
     1
  9
$MEASUREMENT
 70
     1
  9
$CELWEIGHT
370
    -1
  9
$ENDCAPS
280
     0
  9
$JOINSTYLE
280
     0
  9
$LWDISPLAY
290
     1
  9
$INSUNITS
 70
     4
  9
$HYPERLINKBASE
  1

  9
$STYLESHEET
  1

  9
$XEDIT
290
     1
  9
$CEPSNTYPE
380
     0
  9
$PSTYLEMODE
290
     1
  9
$FINGERPRINTGUID
  2
{4aae0e2e-81aa-4596-a7a2-c50eefe6012d}
  9
$VERSIONGUID
  2
{FAEB1C32-E019-11D5-929B-00C0DF256EC4}
  9
$EXTNAMES
290
     1
  9
$PSVPSCALE
 40
0.0
  9
$OLESTARTUP
290
     0
  0
ENDSEC
  0
SECTION
  2
CLASSES
  0
CLASS
  1
ACDBDICTIONARYWDFLT
  2
AcDbDictionaryWithDefault
  3
ObjectDBX Classes
 90
        0
280
     0
281
     0
  0
CLASS
  1
VISUALSTYLE
  2
AcDbVisualStyle
  3
ObjectDBX Classes
 90
     4095
280
     0
281
     0
  0
CLASS
  1
MATERIAL
  2
AcDbMaterial
  3
ObjectDBX Classes
 90
     1153
280
     0
281
     0
  0
CLASS
  1
SCALE
  2
AcDbScale
  3
ObjectDBX Classes
 90
     1153
280
     0
281
     0
  0
CLASS
  1
TABLESTYLE
  2
AcDbTableStyle
  3
ObjectDBX Classes
 90
     4095
280
     0
281
     0
  0
CLASS
  1
MLEADERSTYLE
  2
AcDbMLeaderStyle
  3
ACDB_MLEADERSTYLE_CLASS
 90
     4095
280
     0
281
     0
  0
CLASS
  1
SUN
  2
AcDbSun
  3
SCENEOE
 90
     1153
280
     0
281
     0
  0
CLASS
  1
ACDBPLACEHOLDER
  2
AcDbPlaceHolder
  3
ObjectDBX Classes
 90
        0
280
     0
281
     0
  0
CLASS
  1
LAYOUT
  2
AcDbLayout
  3
ObjectDBX Classes
 90
        0
280
     0
281
     0
  0
ENDSEC
  0
SECTION
  2
TABLES
  0
TABLE
  2
VPORT
  5
8
330
0
100
AcDbSymbolTable
 70
     1
  0
VPORT
  5
29
330
8
100
AcDbSymbolTableRecord
100
AcDbViewportTableRecord
  2
*Active
 70
     0
 10
0.0
 20
0.0
 11
1.0
 21
1.0
 12
10000.0
 22
5000.0
 13
0.0
 23
0.0
 14
10.0
 24
10.0
 15
10.0
 25
10.0
 16
0.0
 26
0.0
 36
1.0
 17
0.0
 27
0.0
 37
0.0
 40
10000.0
 41
2.0
 42
50.0
 43
0.0
 44
0.0
 50
0.0
 51
0.0
 71
     0
 72
  2000
 73
     1
 74
     3
 75
     0
 76
     0
 77
     0
 78
     0
281
     0
 65
     1
110
0.0
120
0.0
130
0.0
111
1.0
121
0.0
131
0.0
112
0.0
122
1.0
132
0.0
 79
     0
146
0.0
  0
ENDTAB
  0
TABLE
  2
LTYPE
  5
5
330
0
100
AcDbSymbolTable
 70
     6
  0
LTYPE
  5
14
330
5
100
AcDbSymbolTableRecord
100
AcDbLinetypeTableRecord
  2
ByBlock
 70
     0
  3

 72
    65
 73
     0
 40
0.0
  0
LTYPE
  5
15
330
5
100
AcDbSymbolTableRecord
100
AcDbLinetypeTableRecord
  2
ByLayer
 70
     0
  3

 72
    65
 73
     0
 40
0.0
  0
LTYPE
  5
16
330
5
100
AcDbSymbolTableRecord
100
AcDbLinetypeTableRecord
  2
Continuous
 70
     0
  3
Solid line
 72
    65
 73
     0
 40
0.0
  0
LTYPE
  5
6E
330
5
100
AcDbSymbolTableRecord
100
AcDbLinetypeTableRecord
  2
HIDDEN
 70
     0
  3
Hidden __ __ __ __ __ __ __ __ __ __ __ __ __ __
 72
    65
 73
     2
 40
1.905
 49
1.27
 74
     0
 49
-0.635
 74
     0
  0
LTYPE
  5
6F
330
5
100
AcDbSymbolTableRecord
100
AcDbLinetypeTableRecord
  2
PHANTOM
 70
     0
  3
Phantom ______  __  __  ______  __  __  ______
 72
    65
 73
     6
 40
12.7
 49
6.35
 74
     0
 49
-1.27
 74
     0
 49
1.27
 74
     0
 49
-1.27
 74
     0
 49
1.27
 74
     0
 49
-1.27
 74
     0
  0
LTYPE
  5
70
330
5
100
AcDbSymbolTableRecord
100
AcDbLinetypeTableRecord
  2
CENTER
 70
     0
  3
Center ____ _ ____ _ ____ _ ____ _ ____ _ ____
 72
    65
 73
     4
 40
10.16
 49
6.35
 74
     0
 49
-1.27
 74
     0
 49
1.27
 74
     0
 49
-1.27
 74
     0
  0
LTYPE
  5
71
330
5
100
AcDbSymbolTableRecord
100
AcDbLinetypeTableRecord
  2
CENTERX2
 70
     0
  3
Center (2x) ________  __  ________  __  _____
 72
    65
 73
     4
 40
20.32
 49
12.7
 74
     0
 49
-2.54
 74
     0
 49
2.54
 74
     0
 49
-2.54
 74
     0
  0
LTYPE
  5
72
330
5
100
AcDbSymbolTableRecord
100
AcDbLinetypeTableRecord
  2
DOT2
 70
     0
  3
Dot (.5x) ........................................
 72
    65
 73
     2
 40
0.635
 49
0.0
 74
     0
 49
-0.635
 74
     0
  0
ENDTAB
  0
TABLE
  2
LAYER
  5
2
330
0
100
AcDbSymbolTable
 70
    13
  0
LAYER
  5
10
330
2
100
AcDbSymbolTableRecord
100
AcDbLayerTableRecord
  2
0
 70
     0
 62
     7
  6
Continuous
370
    -3
390
F
  0
LAYER
  5
73
330
2
100
AcDbSymbolTableRecord
100
AcDbLayerTableRecord
  2
FORMAT
 70
     0
 62
     7
  6
Continuous
370
    -3
390
F
  0
LAYER
  5
74
330
2
100
AcDbSymbolTableRecord
100
AcDbLayerTableRecord
  2
OSA
 70
     0
 62
     7
  6
CENTER
370
    -3
390
F
  0
LAYER
  5
75
330
2
100
AcDbSymbolTableRecord
100
AcDbLayerTableRecord
  2
0_35
 70
     0
 62
     7
  6
Continuous
370
    35
390
F
  0
LAYER
  5
76
330
2
100
AcDbSymbolTableRecord
100
AcDbLayerTableRecord
  2
0_5
 70
     0
 62
     7
  6
Continuous
370
    50
390
F
  0
LAYER
  5
77
330
2
100
AcDbSymbolTableRecord
100
AcDbLayerTableRecord
  2
0_25
 70
     0
 62
     7
  6
Continuous
370
    25
390
F
  0
LAYER
  5
78
330
2
100
AcDbSymbolTableRecord
100
AcDbLayerTableRecord
  2
0_18
 70
     0
 62
     7
  6
Continuous
370
    -3
390
F
  0
LAYER
  5
79
330
2
100
AcDbSymbolTableRecord
100
AcDbLayerTableRecord
  2
SLD-0
 70
     0
 62
   179
  6
Continuous
370
    -3
390
F
  0
LAYER
  5
7A
330
2
100
AcDbSymbolTableRecord
100
AcDbLayerTableRecord
  2
KOTY
 70
     0
 62
     7
  6
Continuous
370
    -3
390
F
  0
LAYER
  5
7B
330
2
100
AcDbSymbolTableRecord
100
AcDbLayerTableRecord
  2
SILNA
 70
     0
 62
   179
  6
Continuous
370
    -3
390
F
  0
LAYER
  5
7C
330
2
100
AcDbSymbolTableRecord
100
AcDbLayerTableRecord
  2
0_18_1
 70
     0
 62
   179
  6
Continuous
370
    -3
390
F
  0
LAYER
  5
7D
330
2
100
AcDbSymbolTableRecord
100
AcDbLayerTableRecord
  2
0_35_1
 70
     0
 62
   179
  6
Continuous
370
    35
390
F
  0
LAYER
  5
7E
330
2
100
AcDbSymbolTableRecord
100
AcDbLayerTableRecord
  2
0_5_1
 70
     0
 62
   179
  6
Continuous
370
    50
390
F
  0
ENDTAB
  0
TABLE
  2
STYLE
  5
3
330
0
100
AcDbSymbolTable
 70
     1
  0
STYLE
  5
11
330
3
100
AcDbSymbolTableRecord
100
AcDbTextStyleTableRecord
  2
Standard
 70
     0
 40
0.0
 41
1.0
 50
0.0
 71
     0
 42
2.0
  3
txt
  4

  0
ENDTAB
  0
TABLE
  2
VIEW
  5
6
330
0
100
AcDbSymbolTable
 70
     0
  0
ENDTAB
  0
TABLE
  2
UCS
  5
7
330
0
100
AcDbSymbolTable
 70
     0
  0
ENDTAB
  0
TABLE
  2
APPID
  5
9
330
0
100
AcDbSymbolTable
 70
     1
  0
APPID
  5
12
330
9
100
AcDbSymbolTableRecord
100
AcDbRegAppTableRecord
  2
ACAD
 70
     0
  0
ENDTAB
  0
TABLE
  2
DIMSTYLE
  5
A
330
0
100
AcDbSymbolTable
 70
     1
100
AcDbDimStyleTable
  0
DIMSTYLE
105
27
330
A
100
AcDbSymbolTableRecord
100
AcDbDimStyleTableRecord
  2
ISO-25
 70
     0
 41
2.5
 42
0.625
 43
3.75
 44
1.25
 73
     0
 74
     0
 77
     1
 78
     8
140
2.5
141
2.5
143
0.0393700787
147
0.625
171
     3
172
     1
178
     0
271
     2
272
     2
274
     3
278
    44
283
     0
284
     8
340
11
  0
ENDTAB
  0
TABLE
  2
BLOCK_RECORD
  5
1
330
0
100
AcDbSymbolTable
 70
     1
  0
BLOCK_RECORD
  5
1F
330
1
100
AcDbSymbolTableRecord
100
AcDbBlockTableRecord
  2
*Model_Space
340
22
  0
BLOCK_RECORD
  5
1B
330
1
100
AcDbSymbolTableRecord
100
AcDbBlockTableRecord
  2
*Paper_Space
340
1E
  0
BLOCK_RECORD
  5
23
330
1
100
AcDbSymbolTableRecord
100
AcDbBlockTableRecord
  2
*Paper_Space0
340
26
  0
ENDTAB
  0
ENDSEC
  0
SECTION
  2
BLOCKS
  0
BLOCK
  5
20
330
1F
100
AcDbEntity
  8
0
100
AcDbBlockBegin
  2
*Model_Space
 70
     0
 10
0.0
 20
0.0
 30
0.0
  3
*Model_Space
  1

  0
ENDBLK
  5
21
330
1F
100
AcDbEntity
  8
0
100
AcDbBlockEnd
  0
BLOCK
  5
1C
330
1B
100
AcDbEntity
 67
     1
  8
0
100
AcDbBlockBegin
  2
*Paper_Space
 70
     0
 10
0.0
 20
0.0
 30
0.0
  3
*Paper_Space
  1

  0
ENDBLK
  5
1D
330
1B
100
AcDbEntity
 67
     1
  8
0
100
AcDbBlockEnd
  0
BLOCK
  5
24
330
23
100
AcDbEntity
  8
0
100
AcDbBlockBegin
  2
*Paper_Space0
 70
     0
 10
0.0
 20
0.0
 30
0.0
  3
*Paper_Space0
  1

  0
ENDBLK
  5
25
330
23
100
AcDbEntity
  8
0
100
AcDbBlockEnd
  0
ENDSEC
  0
SECTION
  2
ENTITIES
  0
LINE
  5
7F
330
1F
100
AcDbEntity
  8
0
  6
Continuous
 62
     7
370
    25
100
AcDbLine
 10
7041.5110742488
 20
4665.3629560171
 30
0.0
 11
6200.3110742488
 21
4665.3629560171
 31
0.0
  0
LINE
  5
80
330
1F
100
AcDbEntity
  8
0
  6
Continuous
 62
     7
370
    25
100
AcDbLine
 10
6200.3110742488
 20
4665.3629560171
 30
0.0
 11
6197.6110742488
 21
4665.3629560171
 31
0.0
  0
LINE
  5
81
330
1F
100
AcDbEntity
  8
0
  6
Continuous
 62
     7
370
    25
100
AcDbLine
 10
7044.2110742488
 20
4665.3629560171
 30
0.0
 11
7041.5110742488
 21
4665.3629560171
 31
0.0
  0
LINE
  5
82
330
1F
100
AcDbEntity
  8
0
  6
Continuous
 62
     7
370
    25
100
AcDbLine
 10
6585.1256174801
 20
4648.1629560171
 30
0.0
 11
6587.6610742488
 21
4646.6128124639
 31
0.0
  0
LINE
  5
83
330
1F
100
AcDbEntity
  8
0
  6
Continuous
 62
     7
370
    25
100
AcDbLine
 10
6589.3711103857
 20
4645.5673197833
 30
0.0
 11
6591.0260140827
 21
4644.5555343217
 31
0.0
  0
LINE
  5
84
330
1F
100
AcDbEntity
  8
0
  6
Continuous
 62
     7
370
    25
100
AcDbLine
 10
6650.7961344148
 20
4644.5555343217
 30
0.0
 11
6652.4510381119
 21
4645.5673197833
 31
0.0
  0
LINE
  5
85
330
1F
100
AcDbEntity
  8
0
  6
Continuous
 62
     7
370
    25
100
AcDbLine
 10
6654.1610742488
 20
4646.6128124639
 30
0.0
 11
6656.6965310175
 21
4648.1629560171
 31
0.0
  0
LINE
  5
86
330
1F
100
AcDbEntity
  8
0
  6
Continuous
 62
     7
370
    25
100
AcDbLine
 10
6587.6610742488
 20
4646.6128124639
 30
0.0
 11
6587.6610742488
 21
4645.5673197833
 31
0.0
  0
LINE
  5
87
330
1F
100
AcDbEntity
  8
0
  6
Continuous
 62
     7
370
    25
100
AcDbLine
 10
6654.1610742488
 20
4645.5673197833
 30
0.0
 11
6654.1610742488
 21
4646.6128124639
 31
0.0
  0
LINE
  5
88
330
1F
100
AcDbEntity
  8
0
  6
Continuous
 62
     7
370
    25
100
AcDbLine
 10
6580.9110742488
 20
4644.0592451694
 30
0.0
 11
6580.9110742488
 21
4643.5629560171
 31
0.0
  0
LINE
  5
89
330
1F
100
AcDbEntity
  8
0
  6
Continuous
 62
     7
370
    25
100
AcDbLine
 10
6660.9110742488
 20
4643.5629560171
 30
0.0
 11
6660.9110742488
 21
4644.0592451694
 31
0.0
  0
ARC
  5
8A
330
1F
100
AcDbEntity
  8
0
  6
Continuous
 62
     7
370
    25
100
AcDbCircle
 10
6581.5614162963
 20
4644.1140147174
 30
0.0
 40
0.0547695479950149
100
AcDbArc
 50
270.0
 51
330.0000000003
  0
ARC
  5
8B
330
1F
100
AcDbEntity
  8
0
  6
Continuous
 62
     7
370
    25
100
AcDbCircle
 10
6660.2607322013
 20
4644.1140147174
 30
0.0
 40
0.05476954799542
100
AcDbArc
 50
210.000000001
 51
270.0
  0
LINE
  5
8C
330
1F
100
AcDbEntity
  8
0
  6
Continuous
 62
     7
370
    25
100
AcDbLine
 10
6660.2133003814
 20
4644.0866299434
 30
0.0
 11
6659.9741889962
 21
4644.5007830112
 31
0.0
  0
LINE
  5
8D
330
1F
100
AcDbEntity
  8
0
  6
Continuous
 62
     7
370
    25
100
AcDbLine
 10
6581.8479595014
 20
4644.5007830112
 30
0.0
 11
6581.6088481162
 21
4644.0866299434
 31
0.0
  0
ARC
  5
8E
330
1F
100
AcDbEntity
  8
0
  6
Continuous
 62
     7
370
    25
100
AcDbCircle
 10
6581.9427915529
 20
4644.4460317008
 30
0.0
 40
0.1095026209371498
100
AcDbArc
 50
90.0
 51
150.0000000001
  0
ARC
  5
8F
330
1F
100
AcDbEntity
  8
0
  6
Continuous
 62
     7
370
    25
100
AcDbCircle
 10
6659.8793569447
 20
4644.4460317008
 30
0.0
 40
0.1095026209379374
100
AcDbArc
 50
29.9999999997
 51
90.0
  0
LINE
  5
90
330
1F
100
AcDbEntity
  8
0
  6
Continuous
 62
     7
370
    25
100
AcDbLine
 10
6659.8793569447
 20
4644.5555343217
 30
0.0
 11
6581.9427915529
 21
4644.5555343217
 31
0.0
  0
ARC
  5
91
330
1F
100
AcDbEntity
  8
0
  6
Continuous
 62
     7
370
    25
100
AcDbCircle
 10
6660.9496324679
 20
4626.6248852966
 30
0.0
 40
6.8530852752413
100
AcDbArc
 50
305.7382565021
 51
359.768651806
  0
LINE
  5
92
330
1F
100
AcDbEntity
  8
0
  6
Continuous
 62
     7
370
    25
100
AcDbLine
 10
6667.8328224717
 20
4626.5961905127
 30
0.0
 11
6667.9110742488
 21
4635.5629560171
 31
0.0
  0
ARC
  5
93
330
1F
100
AcDbEntity
  8
0
  6
Continuous
 62
     7
370
    25
100
AcDbCircle
 10
6667.9110742488
 20
4638.5629560171
 30
0.0
 40
2.000000000000909
100
AcDbArc
 50
0.0
 51
90.0
  0
LINE
  5
94
330
1F
100
AcDbEntity
  8
0
  6
Continuous
 62
     7
370
    25
100
AcDbLine
 10
6669.9110742488
 20
4635.5629560171
 30
0.0
 11
6669.9110742488
 21
4638.5629560171
 31
0.0
  0
LINE
  5
95
330
1F
100
AcDbEntity
  8
0
  6
Continuous
 62
     7
370
    25
100
AcDbLine
 10
6662.6610742488
 20
4640.5629560171
 30
0.0
 11
6662.6610742488
 21
4643.5629560171
 31
0.0
  0
LINE
  5
96
330
1F
100
AcDbEntity
  8
0
  6
Continuous
 62
     7
370
    25
100
AcDbLine
 10
6579.1610742488
 20
4643.5629560171
 30
0.0
 11
6579.1610742488
 21
4640.5629560171
 31
0.0
  0
LINE
  5
97
330
1F
100
AcDbEntity
  8
0
  6
Continuous
 62
     7
370
    25
100
AcDbLine
 10
6653.151819231
 20
4568.3797173789
 30
0.0
 11
6654.3536825698
 21
4614.2770265727
 31
0.0
  0
ARC
  5
98
330
1F
100
AcDbEntity
  8
0
  6
Continuous
 62
     7
370
    25
100
AcDbCircle
 10
6646.1542179562
 20
4568.5629560171
 30
0.0
 40
7.000000000000909
100
AcDbArc
 50
270.0
 51
358.5
  0
ARC
  5
99
330
1F
100
AcDbEntity
  8
0
  6
Continuous
 62
     7
370
    25
100
AcDbCircle
 10
6489.3452546453
 20
4608.4138084656
 30
0.0
 40
27.0
100
AcDbArc
 50
73.1772087534
 51
90.0
  0
ARC
  5
9A
330
1F
100
AcDbEntity
  8
0
  6
Continuous
 62
     7
370
    25
100
AcDbCircle
 10
6489.3452546453
 20
4608.4138084656
 30
0.0
 40
27.00000000000062
100
AcDbArc
 50
228.2942528904
 51
287.8227912466
  0
ARC
  5
9B
330
1F
100
AcDbEntity
  8
0
  6
Continuous
 62
     7
370
    25
100
AcDbCircle
 10
6489.3452546453
 20
4608.4138084656
 30
0.0
 40
27.0
100
AcDbArc
 50
90.0
 51
132.7057471096
  0
ARC
  5
9C
330
1F
100
AcDbEntity
  8
0
  6
Continuous
 62
     7
370
    25
100
AcDbCircle
 10
6553.9110742488
 20
4633.4913349199
 30
0.0
 40
2.000000000000287
100
AcDbArc
 50
0.5
 51
92.0154937467
  0
ARC
  5
9D
330
1F
100
AcDbEntity
  8
0
  6
Continuous
 62
     7
370
    25
100
AcDbCircle
 10
6554.3389037458
 20
4584.4669303658
 30
0.0
 40
2.000000000001259
100
AcDbArc
 50
268.9845062533
 51
0.5
  0
LINE
  5
9E
330
1F
100
AcDbEntity
  8
0
  6
Continuous
 62
     7
370
    25
100
AcDbLine
 10
6556.338827592
 20
4584.4843834368
 30
0.0
 11
6555.9109980949
 21
4633.5087879909
 31
0.0
  0
LINE
  5
9F
330
1F
100
AcDbEntity
  8
0
  6
Continuous
 62
     7
370
    25
100
AcDbLine
 10
6553.8407347536
 20
4635.490097626
 30
0.0
 11
6528.8407347536
 21
4634.6103096582
 31
0.0
  0
LINE
  5
A0
330
1F
100
AcDbEntity
  8
0
  6
Continuous
 62
     7
370
    25
100
AcDbLine
 10
6529.2919113867
 20
4582.9105882983
 30
0.0
 11
6554.3034581828
 21
4582.4672444874
 31
0.0
  0
ARC
  5
A1
330
1F
100
AcDbEntity
  8
0
  6
Continuous
 62
     7
370
    25
100
AcDbCircle
 10
6528.9110742488
 20
4632.6115469521
 30
0.0
 40
2.0
100
AcDbArc
 50
92.0154937467
 51
180.0
  0
ARC
  5
A2
330
1F
100
AcDbEntity
  8
0
  6
Continuous
 62
     7
370
    25
100
AcDbCircle
 10
6529.3273569497
 20
4584.9102741767
 30
0.0
 40
2.000000000000286
100
AcDbArc
 50
181.0
 51
268.9845062532
  0
LINE
  5
A3
330
1F
100
AcDbEntity
  8
0
  6
Continuous
 62
     7
370
    25
100
AcDbLine
 10
6526.9110742488
 20
4632.6115469521
 30
0.0
 11
6526.9110742488
 21
4628.7424019745
 31
0.0
  0
LINE
  5
A4
330
1F
100
AcDbEntity
  8
0
  6
Continuous
 62
     7
370
    25
100
AcDbLine
 10
6527.2601356687
 20
4588.7439250519
 30
0.0
 11
6527.3276615594
 21
4584.8753693638
 31
0.0
  0
ARC
  5
A5
330
1F
100
AcDbEntity
  8
0
  6
Continuous
 62
     7
370
    25
100
AcDbCircle
 10
6505.3311181588
 20
4631.5183783718
 30
0.0
 40
0.250000000000034
100
AcDbArc
 50
90.0
 51
168.5000000001
  0
ARC
  5
A6
330
1F
100
AcDbEntity
  8
0
  6
Continuous
 62
     7
370
    25
100
AcDbCircle
 10
6505.731913779
 20
4585.5917492846
 30
0.0
 40
0.2499999999996683
100
AcDbArc
 50
192.4999999998
 51
271.0000000001
  0
LINE
  5
A7
330
1F
100
AcDbEntity
  8
0
  6
Continuous
 62
     7
370
    25
100
AcDbLine
 10
6505.7362768806
 20
4585.3417873608
 30
0.0
 11
6506.573967904
 21
4585.356409312
 31
0.0
  0
LINE
  5
A8
330
1F
100
AcDbEntity
  8
0
  6
Continuous
 62
     7
370
    25
100
AcDbLine
 10
6506.1689367862
 20
4631.7683783718
 30
0.0
 11
6505.3311181588
 21
4631.7683783718
 31
0.0
  0
ARC
  5
A9
330
1F
100
AcDbEntity
  8
0
  6
Continuous
 62
     7
370
    25
100
AcDbCircle
 10
6506.1689367862
 20
4631.5183783718
 30
0.0
 40
0.2500000000003411
100
AcDbArc
 50
10.5
 51
90.0
  0
ARC
  5
AA
330
1F
100
AcDbEntity
  8
0
  6
Continuous
 62
     7
370
    25
100
AcDbCircle
 10
6506.5696048024
 20
4585.6063712358
 30
0.0
 40
0.250000000000231
100
AcDbArc
 50
271.0000000001
 51
350.5000000002
  0
LINE
  5
AB
330
1F
100
AcDbEntity
  8
0
  6
Continuous
 62
     7
370
    25
100
AcDbLine
 10
6505.0861369827
 20
4631.5682203555
 30
0.0
 11
6504.6699445352
 21
4629.5225691207
 31
0.0
  0
LINE
  5
AC
330
1F
100
AcDbEntity
  8
0
  6
Continuous
 62
     7
370
    25
100
AcDbLine
 10
6505.036009181
 20
4587.5757154935
 30
0.0
 11
6505.4878397772
 21
4585.5376393811
 31
0.0
  0
LINE
  5
AD
330
1F
100
AcDbEntity
  8
0
  6
Continuous
 62
     7
370
    25
100
AcDbLine
 10
6506.8161762028
 20
4585.5651093343
 30
0.0
 11
6507.3190059551
 21
4588.5699014493
 31
0.0
  0
LINE
  5
AE
330
1F
100
AcDbEntity
  8
0
  6
Continuous
 62
     7
370
    25
100
AcDbLine
 10
6506.9699445352
 20
4628.5683783718
 30
0.0
 11
6506.414750513
 21
4631.5639372532
 31
0.0
  0
ARC
  5
AF
330
1F
100
AcDbEntity
  8
0
  6
Continuous
 62
     7
370
    25
100
AcDbCircle
 10
6489.3452546453
 20
4608.4138084656
 30
0.0
 40
23.99999999999965
100
AcDbArc
 50
57.0896848103
 51
70.9987276534
  0
ARC
  5
B0
330
1F
100
AcDbEntity
  8
0
  6
Continuous
 62
     7
370
    25
100
AcDbCircle
 10
6489.3452546453
 20
4608.4138084656
 30
0.0
 40
23.99999999999999
100
AcDbArc
 50
290.0012723466
 51
303.9103151897
  0
LINE
  5
B1
330
1F
100
AcDbEntity
  8
0
  6
Continuous
 62
     7
370
    25
100
AcDbLine
 10
6594.8511066792
 20
4590.9238185196
 30
0.0
 11
6595.4478700696
 21
4568.134344076
 31
0.0
  0
LWPOLYLINE
  5
B2
330
1F
100
AcDbEntity
  8
0
  6
Continuous
 62
     7
370
    25
100
AcDbPolyline
 90
        7
 70
   128
 43
0.0
 10
6595.4469481424
 20
4568.1737691867
 10
6595.6221717054
 20
4567.0148968144
 10
6596.5746718716
 20
4565.1154844337
 10
6598.3269140294
 20
4563.376815669
 10
6600.2648248797
 20
4562.2577799931
 10
6601.445991014
 20
4561.8406239987
 10
6603.4782459485
 20
4561.5629560171
  0
LINE
  5
B3
330
1F
100
AcDbEntity
  8
0
  6
Continuous
 62
     7
370
    25
100
AcDbLine
 10
6561.9678503037
 20
4629.0483378243
 30
0.0
 11
6555.9503821335
 21
4628.9958241751
 31
0.0
  0
LINE
  5
B4
330
1F
100
AcDbEntity
  8
0
  6
Continuous
 62
     7
370
    25
100
AcDbLine
 10
6556.2994435534
 20
4588.9973472525
 30
0.0
 11
6563.5421862383
 21
4589.0605537104
 31
0.0
  0
ARC
  5
B5
330
1F
100
AcDbEntity
  8
0
  6
Continuous
 62
     7
370
    25
100
AcDbCircle
 10
6503.2000574782
 20
4629.8216210223
 30
0.0
 40
1.500000000001277
100
AcDbArc
 50
237.0896848103
 51
348.5
  0
ARC
  5
B6
330
1F
100
AcDbEntity
  8
0
  6
Continuous
 62
     7
370
    25
100
AcDbCircle
 10
6503.5715651703
 20
4587.2510560726
 30
0.0
 40
1.50000000000058
100
AcDbArc
 50
12.5
 51
123.9103151897
  0
LINE
  5
B7
330
1F
100
AcDbEntity
  8
0
  6
Continuous
 62
     7
370
    25
100
AcDbLine
 10
6526.9110742488
 20
4628.7424019745
 30
0.0
 11
6506.9699445352
 21
4628.5683783718
 31
0.0
  0
LINE
  5
B8
330
1F
100
AcDbEntity
  8
0
  6
Continuous
 62
     7
370
    25
100
AcDbLine
 10
6507.3190059551
 20
4588.5699014493
 30
0.0
 11
6527.2601356687
 21
4588.7439250519
 31
0.0
  0
LINE
  5
B9
330
1F
100
AcDbEntity
  8
0
  6
Continuous
 62
     7
370
    25
100
AcDbLine
 10
6402.4816041865
 20
4627.6564272404
 30
0.0
 11
6398.9958740137
 21
4627.3406976689
 31
0.0
  0
LINE
  5
BA
330
1F
100
AcDbEntity
  8
0
  6
Continuous
 62
     7
370
    25
100
AcDbLine
 10
6399.339954425
 20
4587.9129878071
 30
0.0
 11
6402.830663945
 21
4587.6581407025
 31
0.0
  0
LINE
  5
BB
330
1F
100
AcDbEntity
  8
0
  6
Continuous
 62
     7
370
    25
100
AcDbLine
 10
6471.03295331
 20
4628.254665801
 30
0.0
 11
6402.4816041865
 21
4627.6564272404
 31
0.0
  0
LINE
  5
BC
330
1F
100
AcDbEntity
  8
0
  6
Continuous
 62
     7
370
    25
100
AcDbLine
 10
6402.830663945
 20
4587.6581407025
 30
0.0
 11
6471.3820130685
 21
4588.2563792631
 31
0.0
  0
LINE
  5
BD
330
1F
100
AcDbEntity
  8
0
  6
Continuous
 62
     7
370
    25
100
AcDbLine
 10
6398.9958740137
 20
4627.3406976689
 30
0.0
 11
6398.9958740137
 21
4625.125912538
 31
0.0
  0
LINE
  5
BE
330
1F
100
AcDbEntity
  8
0
  6
Continuous
 62
     7
370
    25
100
AcDbLine
 10
6399.3013010947
 20
4590.1274356155
 30
0.0
 11
6399.339954425
 21
4587.9129878071
 31
0.0
  0
ARC
  5
BF
330
1F
100
AcDbEntity
  8
0
  6
Continuous
 62
     7
370
    25
100
AcDbCircle
 10
6561.9503972327
 20
4631.0482616704
 30
0.0
 40
1.99999999999944
100
AcDbArc
 50
270.5
 51
0.5
  0
ARC
  5
C0
330
1F
100
AcDbEntity
  8
0
  6
Continuous
 62
     7
370
    25
100
AcDbCircle
 10
6569.8573703349
 20
4595.9024466838
 30
0.0
 40
8.836610070962545
100
AcDbArc
 50
235.0092265577
 51
282.7578591461
  0
LWPOLYLINE
  5
C1
330
1F
100
AcDbEntity
  8
0
  6
Continuous
 62
     7
370
    25
100
AcDbPolyline
 90
        3
 70
   128
 43
0.0
 10
6571.8556907082
 20
4587.2883439592
 10
6571.8611565333
 20
4587.2888506275
 10
6571.8508023422
 20
4587.2879883085
  0
ARC
  5
C2
330
1F
100
AcDbEntity
  8
0
  6
Continuous
 62
     7
370
    25
100
AcDbCircle
 10
6563.7229578103
 20
4587.4302519535
 30
0.0
 40
1.61265167173315
100
AcDbArc
 50
48.4360533118
 51
96.2068831893
  0
LINE
  5
C3
330
1F
100
AcDbEntity
  8
0
  6
Continuous
 62
     7
370
    25
100
AcDbLine
 10
7028.2110742488
 20
4630.3629560171
 30
0.0
 11
7027.2110742488
 21
4631.3629560171
 31
0.0
  0
LINE
  5
C4
330
1F
100
AcDbEntity
  8
0
  6
Continuous
 62
     7
370
    25
100
AcDbLine
 10
7019.2110742488
 20
4631.3629560171
 30
0.0
 11
7018.2110742488
 21
4630.3629560171
 31
0.0
  0
LINE
  5
C5
330
1F
100
AcDbEntity
  8
0
  6
Continuous
 62
     7
370
    25
100
AcDbLine
 10
7028.2110742488
 20
4551.3629560171
 30
0.0
 11
7028.2110742488
 21
4621.3629560171
 31
0.0
  0
LINE
  5
C6
330
1F
100
AcDbEntity
  8
0
  6
Continuous
 62
     7
370
    25
100
AcDbLine
 10
7018.2110742488
 20
4621.3629560171
 30
0.0
 11
7018.2110742488
 21
4551.3629560171
 31
0.0
  0
LINE
  5
C7
330
1F
100
AcDbEntity
  8
0
  6
Continuous
 62
     7
370
    25
100
AcDbLine
 10
6223.6110742488
 20
4546.3629560171
 30
0.0
 11
6223.6110742488
 21
4621.3629560171
 31
0.0
  0
LINE
  5
C8
330
1F
100
AcDbEntity
  8
0
  6
Continuous
 62
     7
370
    25
100
AcDbLine
 10
6213.6110742488
 20
4621.3629560171
 30
0.0
 11
6213.6110742488
 21
4546.3629560171
 31
0.0
  0
LINE
  5
C9
330
1F
100
AcDbEntity
  8
0
  6
Continuous
 62
     7
370
    25
100
AcDbLine
 10
6223.6110742488
 20
4630.3629560171
 30
0.0
 11
6222.6110742488
 21
4631.3629560171
 31
0.0
  0
LINE
  5
CA
330
1F
100
AcDbEntity
  8
0
  6
Continuous
 62
     7
370
    25
100
AcDbLine
 10
6214.6110742488
 20
4631.3629560171
 30
0.0
 11
6213.6110742488
 21
4630.3629560171
 31
0.0
  0
LINE
  5
CB
330
1F
100
AcDbEntity
  8
0
  6
Continuous
 62
     7
370
    25
100
AcDbLine
 10
6220.6430514143
 20
4623.3629560171
 30
0.0
 11
6218.6110742488
 21
4623.3629560171
 31
0.0
  0
LINE
  5
CC
330
1F
100
AcDbEntity
  8
0
  6
Continuous
 62
     7
370
    25
100
AcDbLine
 10
6218.6110742488
 20
4630.3629560171
 30
0.0
 11
6218.6110742488
 21
4623.3629560171
 31
0.0
  0
LINE
  5
CD
330
1F
100
AcDbEntity
  8
0
  6
Continuous
 62
     7
370
    25
100
AcDbLine
 10
6227.1110742488
 20
4630.3629560171
 30
0.0
 11
6218.6110742488
 21
4630.3629560171
 31
0.0
  0
LINE
  5
CE
330
1F
100
AcDbEntity
  8
0
  6
Continuous
 62
     7
370
    25
100
AcDbLine
 10
6227.1110742488
 20
4630.3629560171
 30
0.0
 11
6227.1110742488
 21
4623.3629560171
 31
0.0
  0
LINE
  5
CF
330
1F
100
AcDbEntity
  8
0
  6
Continuous
 62
     7
370
    25
100
AcDbLine
 10
7014.7110742488
 20
4630.3629560171
 30
0.0
 11
7014.7110742488
 21
4623.3629560171
 31
0.0
  0
LINE
  5
D0
330
1F
100
AcDbEntity
  8
0
  6
Continuous
 62
     7
370
    25
100
AcDbLine
 10
7014.7110742488
 20
4630.3629560171
 30
0.0
 11
7023.2110742488
 21
4630.3629560171
 31
0.0
  0
LINE
  5
D1
330
1F
100
AcDbEntity
  8
0
  6
Continuous
 62
     7
370
    25
100
AcDbLine
 10
7023.2110742488
 20
4630.3629560171
 30
0.0
 11
7023.2110742488
 21
4623.3629560171
 31
0.0
  0
LINE
  5
D2
330
1F
100
AcDbEntity
  8
0
  6
Continuous
 62
     7
370
    25
100
AcDbLine
 10
7021.1790970833
 20
4623.3629560171
 30
0.0
 11
7023.2110742488
 21
4623.3629560171
 31
0.0
  0
LINE
  5
D3
330
1F
100
AcDbEntity
  8
0
  6
Continuous
 62
     7
370
    25
100
AcDbLine
 10
6210.1110742488
 20
4630.3629560171
 30
0.0
 11
6210.1110742488
 21
4623.3629560171
 31
0.0
  0
LINE
  5
D4
330
1F
100
AcDbEntity
  8
0
  6
Continuous
 62
     7
370
    25
100
AcDbLine
 10
6218.6110742488
 20
4630.3629560171
 30
0.0
 11
6210.1110742488
 21
4630.3629560171
 31
0.0
  0
LINE
  5
D5
330
1F
100
AcDbEntity
  8
0
  6
Continuous
 62
     7
370
    25
100
AcDbLine
 10
6218.6110742488
 20
4623.3629560171
 30
0.0
 11
6216.5790970833
 21
4623.3629560171
 31
0.0
  0
LINE
  5
D6
330
1F
100
AcDbEntity
  8
0
  6
Continuous
 62
     7
370
    25
100
AcDbLine
 10
7031.7110742488
 20
4630.3629560171
 30
0.0
 11
7031.7110742488
 21
4623.3629560171
 31
0.0
  0
LINE
  5
D7
330
1F
100
AcDbEntity
  8
0
  6
Continuous
 62
     7
370
    25
100
AcDbLine
 10
7023.2110742488
 20
4623.3629560171
 30
0.0
 11
7025.2430514143
 21
4623.3629560171
 31
0.0
  0
LINE
  5
D8
330
1F
100
AcDbEntity
  8
0
  6
Continuous
 62
     7
370
    25
100
AcDbLine
 10
7023.2110742488
 20
4630.3629560171
 30
0.0
 11
7031.7110742488
 21
4630.3629560171
 31
0.0
  0
LINE
  5
D9
330
1F
100
AcDbEntity
  8
0
  6
Continuous
 62
     7
370
    25
100
AcDbLine
 10
6216.5790970833
 20
4623.3629560171
 30
0.0
 11
6208.6110742488
 21
4623.3629560171
 31
0.0
  0
LINE
  5
DA
330
1F
100
AcDbEntity
  8
0
  6
Continuous
 62
     7
370
    25
100
AcDbLine
 10
6228.6110742488
 20
4623.3629560171
 30
0.0
 11
6220.6430514143
 21
4623.3629560171
 31
0.0
  0
LINE
  5
DB
330
1F
100
AcDbEntity
  8
0
  6
Continuous
 62
     7
370
    25
100
AcDbLine
 10
6228.6110742488
 20
4623.3629560171
 30
0.0
 11
6228.6110742488
 21
4621.3629560171
 31
0.0
  0
LINE
  5
DC
330
1F
100
AcDbEntity
  8
0
  6
Continuous
 62
     7
370
    25
100
AcDbLine
 10
6228.6110742488
 20
4621.3629560171
 30
0.0
 11
6208.6110742488
 21
4621.3629560171
 31
0.0
  0
LINE
  5
DD
330
1F
100
AcDbEntity
  8
0
  6
Continuous
 62
     7
370
    25
100
AcDbLine
 10
6208.6110742488
 20
4623.3629560171
 30
0.0
 11
6208.6110742488
 21
4621.3629560171
 31
0.0
  0
LINE
  5
DE
330
1F
100
AcDbEntity
  8
0
  6
Continuous
 62
     7
370
    25
100
AcDbLine
 10
7013.2110742488
 20
4621.3629560171
 30
0.0
 11
7033.2110742488
 21
4621.3629560171
 31
0.0
  0
LINE
  5
DF
330
1F
100
AcDbEntity
  8
0
  6
Continuous
 62
     7
370
    25
100
AcDbLine
 10
7013.2110742488
 20
4623.3629560171
 30
0.0
 11
7013.2110742488
 21
4621.3629560171
 31
0.0
  0
LINE
  5
E0
330
1F
100
AcDbEntity
  8
0
  6
Continuous
 62
     7
370
    25
100
AcDbLine
 10
7013.2110742488
 20
4623.3629560171
 30
0.0
 11
7021.1790970833
 21
4623.3629560171
 31
0.0
  0
LINE
  5
E1
330
1F
100
AcDbEntity
  8
0
  6
Continuous
 62
     7
370
    25
100
AcDbLine
 10
7025.2430514143
 20
4623.3629560171
 30
0.0
 11
7033.2110742488
 21
4623.3629560171
 31
0.0
  0
LINE
  5
E2
330
1F
100
AcDbEntity
  8
0
  6
Continuous
 62
     7
370
    25
100
AcDbLine
 10
7033.2110742488
 20
4623.3629560171
 30
0.0
 11
7033.2110742488
 21
4621.3629560171
 31
0.0
  0
LINE
  5
E3
330
1F
100
AcDbEntity
  8
0
  6
Continuous
 62
     7
370
    25
100
AcDbLine
 10
7033.2110742488
 20
4623.6128420347
 30
0.0
 11
7033.2110742488
 21
4623.3629560171
 31
0.0
  0
LINE
  5
E4
330
1F
100
AcDbEntity
  8
0
  6
Continuous
 62
     7
370
    25
100
AcDbLine
 10
7013.2110742488
 20
4623.6128420347
 30
0.0
 11
7013.2110742488
 21
4623.3629560171
 31
0.0
  0
LINE
  5
E5
330
1F
100
AcDbEntity
  8
0
  6
Continuous
 62
     7
370
    25
100
AcDbLine
 10
6228.6110742488
 20
4623.6128420347
 30
0.0
 11
6228.6110742488
 21
4623.3629560171
 31
0.0
  0
LINE
  5
E6
330
1F
100
AcDbEntity
  8
0
  6
Continuous
 62
     7
370
    25
100
AcDbLine
 10
6208.6110742488
 20
4623.6128420347
 30
0.0
 11
6208.6110742488
 21
4623.3629560171
 31
0.0
  0
LINE
  5
E7
330
1F
100
AcDbEntity
  8
0
  6
Continuous
 62
     7
370
    25
100
AcDbLine
 10
6228.6110742488
 20
4647.4132979643
 30
0.0
 11
6208.6110742488
 21
4647.4132979643
 31
0.0
  0
LINE
  5
E8
330
1F
100
AcDbEntity
  8
0
  6
Continuous
 62
     7
370
    25
100
AcDbLine
 10
6228.6110742488
 20
4647.4132979643
 30
0.0
 11
6228.6110742488
 21
4623.6128420347
 31
0.0
  0
LINE
  5
E9
330
1F
100
AcDbEntity
  8
0
  6
Continuous
 62
     7
370
    25
100
AcDbLine
 10
6208.6110742488
 20
4647.4132979643
 30
0.0
 11
6208.6110742488
 21
4623.6128420347
 31
0.0
  0
LINE
  5
EA
330
1F
100
AcDbEntity
  8
0
  6
Continuous
 62
     7
370
    25
100
AcDbLine
 10
7013.2110742488
 20
4647.4132979643
 30
0.0
 11
7033.2110742488
 21
4647.4132979643
 31
0.0
  0
LINE
  5
EB
330
1F
100
AcDbEntity
  8
0
  6
Continuous
 62
     7
370
    25
100
AcDbLine
 10
7033.2110742488
 20
4647.4132979643
 30
0.0
 11
7033.2110742488
 21
4623.6128420347
 31
0.0
  0
LINE
  5
EC
330
1F
100
AcDbEntity
  8
0
  6
Continuous
 62
     7
370
    25
100
AcDbLine
 10
7013.2110742488
 20
4647.4132979643
 30
0.0
 11
7013.2110742488
 21
4623.6128420347
 31
0.0
  0
LINE
  5
ED
330
1F
100
AcDbEntity
  8
0
  6
Continuous
 62
     7
370
    25
100
AcDbLine
 10
6168.6110742488
 20
4648.1629560171
 30
0.0
 11
7073.2110742488
 21
4648.1629560171
 31
0.0
  0
LINE
  5
EE
330
1F
100
AcDbEntity
  8
0
  6
Continuous
 62
     7
370
    25
100
AcDbLine
 10
7073.2110742488
 20
4649.3629560171
 30
0.0
 11
7073.2110742488
 21
4648.1629560171
 31
0.0
  0
LINE
  5
EF
330
1F
100
AcDbEntity
  8
0
  6
Continuous
 62
     7
370
    25
100
AcDbLine
 10
6168.6110742488
 20
4649.3629560171
 30
0.0
 11
6168.6110742488
 21
4648.1629560171
 31
0.0
  0
LINE
  5
F0
330
1F
100
AcDbEntity
  8
0
  6
Continuous
 62
     7
370
    25
100
AcDbLine
 10
6168.6110742488
 20
4649.3629560171
 30
0.0
 11
7073.2110742488
 21
4649.3629560171
 31
0.0
  0
LINE
  5
F1
330
1F
100
AcDbEntity
  8
0
  6
Continuous
 62
     7
370
    25
100
AcDbLine
 10
7041.5110742488
 20
4663.3114146857
 30
0.0
 11
6200.3110742488
 21
4663.3114146857
 31
0.0
  0
LINE
  5
F2
330
1F
100
AcDbEntity
  8
0
  6
Continuous
 62
     7
370
    25
100
AcDbLine
 10
6200.3110742488
 20
4663.3114146857
 30
0.0
 11
6195.9478187987
 21
4663.3114146857
 31
0.0
  0
ARC
  5
F3
330
1F
100
AcDbEntity
  8
0
  6
Continuous
 62
     7
370
    25
100
AcDbCircle
 10
6197.6110742488
 20
4663.6629560171
 30
0.0
 40
1.700000000000728
100
AcDbArc
 50
90.0
 51
191.9342465732
  0
LINE
  5
F4
330
1F
100
AcDbEntity
  8
0
  6
Continuous
 62
     7
370
    25
100
AcDbLine
 10
7045.8743296989
 20
4663.3114146857
 30
0.0
 11
7041.5110742488
 21
4663.3114146857
 31
0.0
  0
ARC
  5
F5
330
1F
100
AcDbEntity
  8
0
  6
Continuous
 62
     7
370
    25
100
AcDbCircle
 10
7044.2110742488
 20
4663.6629560171
 30
0.0
 40
1.700000000000728
100
AcDbArc
 50
348.0657534268
 51
90.0
  0
LINE
  5
F6
330
1F
100
AcDbEntity
  8
0
  6
Continuous
 62
     7
370
    25
100
AcDbLine
 10
7044.9851369194
 20
4659.1043567825
 30
0.0
 11
7041.5110742488
 21
4659.1043567825
 31
0.0
  0
LINE
  5
F7
330
1F
100
AcDbEntity
  8
0
  6
Continuous
 62
     7
370
    25
100
AcDbLine
 10
7041.5110742488
 20
4663.3114146857
 30
0.0
 11
7041.5110742488
 21
4659.1043567825
 31
0.0
  0
LINE
  5
F8
330
1F
100
AcDbEntity
  8
0
  6
Continuous
 62
     7
370
    25
100
AcDbLine
 10
7045.8743296989
 20
4663.3114146857
 30
0.0
 11
7044.9851369194
 21
4659.1043567825
 31
0.0
  0
LINE
  5
F9
330
1F
100
AcDbEntity
  8
0
  6
Continuous
 62
     7
370
    25
100
AcDbLine
 10
7041.5110742488
 20
4659.1043567825
 30
0.0
 11
6200.3110742488
 21
4659.1043567825
 31
0.0
  0
LINE
  5
FA
330
1F
100
AcDbEntity
  8
0
  6
Continuous
 62
     7
370
    25
100
AcDbLine
 10
6200.3110742488
 20
4663.3114146857
 30
0.0
 11
6200.3110742488
 21
4659.1043567825
 31
0.0
  0
LINE
  5
FB
330
1F
100
AcDbEntity
  8
0
  6
Continuous
 62
     7
370
    25
100
AcDbLine
 10
6200.3110742488
 20
4659.1043567825
 30
0.0
 11
6196.8370115781
 21
4659.1043567825
 31
0.0
  0
LINE
  5
FC
330
1F
100
AcDbEntity
  8
0
  6
Continuous
 62
     7
370
    25
100
AcDbLine
 10
6195.9478187987
 20
4663.3114146857
 30
0.0
 11
6196.8370115781
 21
4659.1043567825
 31
0.0
  0
LINE
  5
FD
330
1F
100
AcDbEntity
  8
0
  6
Continuous
 62
     7
370
    25
100
AcDbLine
 10
7043.7110742488
 20
4659.1043567825
 30
0.0
 11
7043.7110742488
 21
4649.3629560171
 31
0.0
  0
LINE
  5
FE
330
1F
100
AcDbEntity
  8
0
  6
Continuous
 62
     7
370
    25
100
AcDbLine
 10
6198.1110742488
 20
4659.1043567825
 30
0.0
 11
6198.1110742488
 21
4649.3629560171
 31
0.0
  0
LINE
  5
FF
330
1F
100
AcDbEntity
  8
0
  6
Continuous
 62
     7
370
    25
100
AcDbLine
 10
7033.2110742488
 20
4648.1629560171
 30
0.0
 11
7033.2110742488
 21
4647.4132979643
 31
0.0
  0
LINE
  5
100
330
1F
100
AcDbEntity
  8
0
  6
Continuous
 62
     7
370
    25
100
AcDbLine
 10
7013.2110742488
 20
4648.1629560171
 30
0.0
 11
7013.2110742488
 21
4647.4132979643
 31
0.0
  0
LINE
  5
101
330
1F
100
AcDbEntity
  8
0
  6
Continuous
 62
     7
370
    25
100
AcDbLine
 10
6228.6110742488
 20
4648.1629560171
 30
0.0
 11
6228.6110742488
 21
4647.4132979643
 31
0.0
  0
LINE
  5
102
330
1F
100
AcDbEntity
  8
0
  6
Continuous
 62
     7
370
    25
100
AcDbLine
 10
6208.6110742488
 20
4648.1629560171
 30
0.0
 11
6208.6110742488
 21
4647.4132979643
 31
0.0
  0
LINE
  5
103
330
1F
100
AcDbEntity
  8
0
  6
Continuous
 62
     7
370
    25
100
AcDbLine
 10
7039.6110742488
 20
4679.3629560171
 30
0.0
 11
7059.6110742488
 21
4679.3629560171
 31
0.0
  0
ARC
  5
104
330
1F
100
AcDbEntity
  8
0
  6
Continuous
 62
     7
370
    25
100
AcDbCircle
 10
7059.6110742488
 20
4684.3629560171
 30
0.0
 40
5.0
100
AcDbArc
 50
270.0
 51
90.0
  0
LINE
  5
105
330
1F
100
AcDbEntity
  8
0
  6
Continuous
 62
     7
370
    25
100
AcDbLine
 10
7059.6110742488
 20
4689.3629560171
 30
0.0
 11
7039.6110742488
 21
4689.3629560171
 31
0.0
  0
ARC
  5
106
330
1F
100
AcDbEntity
  8
0
  6
Continuous
 62
     7
370
    25
100
AcDbCircle
 10
7039.6110742488
 20
4684.3629560171
 30
0.0
 40
5.0
100
AcDbArc
 50
90.0
 51
270.0
  0
LINE
  5
107
330
1F
100
AcDbEntity
  8
0
  6
Continuous
 62
     7
370
    25
100
AcDbLine
 10
6998.6110742488
 20
4679.3629560171
 30
0.0
 11
7018.6110742488
 21
4679.3629560171
 31
0.0
  0
ARC
  5
108
330
1F
100
AcDbEntity
  8
0
  6
Continuous
 62
     7
370
    25
100
AcDbCircle
 10
7018.6110742488
 20
4684.3629560171
 30
0.0
 40
5.0
100
AcDbArc
 50
270.0
 51
90.0
  0
LINE
  5
109
330
1F
100
AcDbEntity
  8
0
  6
Continuous
 62
     7
370
    25
100
AcDbLine
 10
7018.6110742488
 20
4689.3629560171
 30
0.0
 11
6998.6110742488
 21
4689.3629560171
 31
0.0
  0
ARC
  5
10A
330
1F
100
AcDbEntity
  8
0
  6
Continuous
 62
     7
370
    25
100
AcDbCircle
 10
6998.6110742488
 20
4684.3629560171
 30
0.0
 40
5.0
100
AcDbArc
 50
90.0
 51
270.0
  0
LINE
  5
10B
330
1F
100
AcDbEntity
  8
0
  6
Continuous
 62
     7
370
    25
100
AcDbLine
 10
6957.6110742488
 20
4679.3629560171
 30
0.0
 11
6977.6110742488
 21
4679.3629560171
 31
0.0
  0
ARC
  5
10C
330
1F
100
AcDbEntity
  8
0
  6
Continuous
 62
     7
370
    25
100
AcDbCircle
 10
6977.6110742488
 20
4684.3629560171
 30
0.0
 40
5.0
100
AcDbArc
 50
270.0
 51
90.0
  0
LINE
  5
10D
330
1F
100
AcDbEntity
  8
0
  6
Continuous
 62
     7
370
    25
100
AcDbLine
 10
6977.6110742488
 20
4689.3629560171
 30
0.0
 11
6957.6110742488
 21
4689.3629560171
 31
0.0
  0
ARC
  5
10E
330
1F
100
AcDbEntity
  8
0
  6
Continuous
 62
     7
370
    25
100
AcDbCircle
 10
6957.6110742488
 20
4684.3629560171
 30
0.0
 40
5.0
100
AcDbArc
 50
90.0
 51
270.0
  0
LINE
  5
10F
330
1F
100
AcDbEntity
  8
0
  6
Continuous
 62
     7
370
    25
100
AcDbLine
 10
6916.6110742488
 20
4679.3629560171
 30
0.0
 11
6936.6110742488
 21
4679.3629560171
 31
0.0
  0
ARC
  5
110
330
1F
100
AcDbEntity
  8
0
  6
Continuous
 62
     7
370
    25
100
AcDbCircle
 10
6936.6110742488
 20
4684.3629560171
 30
0.0
 40
5.0
100
AcDbArc
 50
270.0
 51
90.0
  0
LINE
  5
111
330
1F
100
AcDbEntity
  8
0
  6
Continuous
 62
     7
370
    25
100
AcDbLine
 10
6936.6110742488
 20
4689.3629560171
 30
0.0
 11
6916.6110742488
 21
4689.3629560171
 31
0.0
  0
ARC
  5
112
330
1F
100
AcDbEntity
  8
0
  6
Continuous
 62
     7
370
    25
100
AcDbCircle
 10
6916.6110742488
 20
4684.3629560171
 30
0.0
 40
5.0
100
AcDbArc
 50
90.0
 51
270.0
  0
LINE
  5
113
330
1F
100
AcDbEntity
  8
0
  6
Continuous
 62
     7
370
    25
100
AcDbLine
 10
6875.6110742488
 20
4679.3629560171
 30
0.0
 11
6895.6110742488
 21
4679.3629560171
 31
0.0
  0
ARC
  5
114
330
1F
100
AcDbEntity
  8
0
  6
Continuous
 62
     7
370
    25
100
AcDbCircle
 10
6895.6110742488
 20
4684.3629560171
 30
0.0
 40
5.0
100
AcDbArc
 50
270.0
 51
90.0
  0
LINE
  5
115
330
1F
100
AcDbEntity
  8
0
  6
Continuous
 62
     7
370
    25
100
AcDbLine
 10
6895.6110742488
 20
4689.3629560171
 30
0.0
 11
6875.6110742488
 21
4689.3629560171
 31
0.0
  0
ARC
  5
116
330
1F
100
AcDbEntity
  8
0
  6
Continuous
 62
     7
370
    25
100
AcDbCircle
 10
6875.6110742488
 20
4684.3629560171
 30
0.0
 40
5.0
100
AcDbArc
 50
90.0
 51
270.0
  0
LINE
  5
117
330
1F
100
AcDbEntity
  8
0
  6
Continuous
 62
     7
370
    25
100
AcDbLine
 10
6834.6110742488
 20
4679.3629560171
 30
0.0
 11
6854.6110742488
 21
4679.3629560171
 31
0.0
  0
ARC
  5
118
330
1F
100
AcDbEntity
  8
0
  6
Continuous
 62
     7
370
    25
100
AcDbCircle
 10
6854.6110742488
 20
4684.3629560171
 30
0.0
 40
5.0
100
AcDbArc
 50
270.0
 51
90.0
  0
LINE
  5
119
330
1F
100
AcDbEntity
  8
0
  6
Continuous
 62
     7
370
    25
100
AcDbLine
 10
6854.6110742488
 20
4689.3629560171
 30
0.0
 11
6834.6110742488
 21
4689.3629560171
 31
0.0
  0
ARC
  5
11A
330
1F
100
AcDbEntity
  8
0
  6
Continuous
 62
     7
370
    25
100
AcDbCircle
 10
6834.6110742488
 20
4684.3629560171
 30
0.0
 40
5.0
100
AcDbArc
 50
90.0
 51
270.0
  0
LINE
  5
11B
330
1F
100
AcDbEntity
  8
0
  6
Continuous
 62
     7
370
    25
100
AcDbLine
 10
6793.6110742488
 20
4679.3629560171
 30
0.0
 11
6813.6110742488
 21
4679.3629560171
 31
0.0
  0
ARC
  5
11C
330
1F
100
AcDbEntity
  8
0
  6
Continuous
 62
     7
370
    25
100
AcDbCircle
 10
6813.6110742488
 20
4684.3629560171
 30
0.0
 40
5.0
100
AcDbArc
 50
270.0
 51
90.0
  0
LINE
  5
11D
330
1F
100
AcDbEntity
  8
0
  6
Continuous
 62
     7
370
    25
100
AcDbLine
 10
6813.6110742488
 20
4689.3629560171
 30
0.0
 11
6793.6110742488
 21
4689.3629560171
 31
0.0
  0
ARC
  5
11E
330
1F
100
AcDbEntity
  8
0
  6
Continuous
 62
     7
370
    25
100
AcDbCircle
 10
6793.6110742488
 20
4684.3629560171
 30
0.0
 40
5.0
100
AcDbArc
 50
90.0
 51
270.0
  0
LINE
  5
11F
330
1F
100
AcDbEntity
  8
0
  6
Continuous
 62
     7
370
    25
100
AcDbLine
 10
6752.6110742488
 20
4679.3629560171
 30
0.0
 11
6772.6110742488
 21
4679.3629560171
 31
0.0
  0
ARC
  5
120
330
1F
100
AcDbEntity
  8
0
  6
Continuous
 62
     7
370
    25
100
AcDbCircle
 10
6772.6110742488
 20
4684.3629560171
 30
0.0
 40
5.0
100
AcDbArc
 50
270.0
 51
90.0
  0
LINE
  5
121
330
1F
100
AcDbEntity
  8
0
  6
Continuous
 62
     7
370
    25
100
AcDbLine
 10
6772.6110742488
 20
4689.3629560171
 30
0.0
 11
6752.6110742488
 21
4689.3629560171
 31
0.0
  0
ARC
  5
122
330
1F
100
AcDbEntity
  8
0
  6
Continuous
 62
     7
370
    25
100
AcDbCircle
 10
6752.6110742488
 20
4684.3629560171
 30
0.0
 40
5.0
100
AcDbArc
 50
90.0
 51
270.0
  0
LINE
  5
123
330
1F
100
AcDbEntity
  8
0
  6
Continuous
 62
     7
370
    25
100
AcDbLine
 10
6711.6110742488
 20
4679.3629560171
 30
0.0
 11
6731.6110742488
 21
4679.3629560171
 31
0.0
  0
ARC
  5
124
330
1F
100
AcDbEntity
  8
0
  6
Continuous
 62
     7
370
    25
100
AcDbCircle
 10
6731.6110742488
 20
4684.3629560171
 30
0.0
 40
5.000000000000909
100
AcDbArc
 50
270.0
 51
90.0
  0
LINE
  5
125
330
1F
100
AcDbEntity
  8
0
  6
Continuous
 62
     7
370
    25
100
AcDbLine
 10
6731.6110742488
 20
4689.3629560171
 30
0.0
 11
6711.6110742488
 21
4689.3629560171
 31
0.0
  0
ARC
  5
126
330
1F
100
AcDbEntity
  8
0
  6
Continuous
 62
     7
370
    25
100
AcDbCircle
 10
6711.6110742488
 20
4684.3629560171
 30
0.0
 40
5.000000000000909
100
AcDbArc
 50
90.0
 51
270.0
  0
LINE
  5
127
330
1F
100
AcDbEntity
  8
0
  6
Continuous
 62
     7
370
    25
100
AcDbLine
 10
6670.6110742488
 20
4679.3629560171
 30
0.0
 11
6690.6110742488
 21
4679.3629560171
 31
0.0
  0
ARC
  5
128
330
1F
100
AcDbEntity
  8
0
  6
Continuous
 62
     7
370
    25
100
AcDbCircle
 10
6690.6110742488
 20
4684.3629560171
 30
0.0
 40
5.000000000000909
100
AcDbArc
 50
270.0
 51
90.0
  0
LINE
  5
129
330
1F
100
AcDbEntity
  8
0
  6
Continuous
 62
     7
370
    25
100
AcDbLine
 10
6690.6110742488
 20
4689.3629560171
 30
0.0
 11
6670.6110742488
 21
4689.3629560171
 31
0.0
  0
ARC
  5
12A
330
1F
100
AcDbEntity
  8
0
  6
Continuous
 62
     7
370
    25
100
AcDbCircle
 10
6670.6110742488
 20
4684.3629560171
 30
0.0
 40
5.000000000000909
100
AcDbArc
 50
90.0
 51
270.0
  0
LINE
  5
12B
330
1F
100
AcDbEntity
  8
0
  6
Continuous
 62
     7
370
    25
100
AcDbLine
 10
6629.6110742488
 20
4679.3629560171
 30
0.0
 11
6649.6110742488
 21
4679.3629560171
 31
0.0
  0
ARC
  5
12C
330
1F
100
AcDbEntity
  8
0
  6
Continuous
 62
     7
370
    25
100
AcDbCircle
 10
6649.6110742488
 20
4684.3629560171
 30
0.0
 40
5.000000000000909
100
AcDbArc
 50
270.0
 51
90.0
  0
LINE
  5
12D
330
1F
100
AcDbEntity
  8
0
  6
Continuous
 62
     7
370
    25
100
AcDbLine
 10
6649.6110742488
 20
4689.3629560171
 30
0.0
 11
6629.6110742488
 21
4689.3629560171
 31
0.0
  0
ARC
  5
12E
330
1F
100
AcDbEntity
  8
0
  6
Continuous
 62
     7
370
    25
100
AcDbCircle
 10
6629.6110742488
 20
4684.3629560171
 30
0.0
 40
5.000000000000909
100
AcDbArc
 50
90.0
 51
270.0
  0
LINE
  5
12F
330
1F
100
AcDbEntity
  8
0
  6
Continuous
 62
     7
370
    25
100
AcDbLine
 10
6588.6110742488
 20
4679.3629560171
 30
0.0
 11
6608.6110742488
 21
4679.3629560171
 31
0.0
  0
ARC
  5
130
330
1F
100
AcDbEntity
  8
0
  6
Continuous
 62
     7
370
    25
100
AcDbCircle
 10
6608.6110742488
 20
4684.3629560171
 30
0.0
 40
5.000000000000909
100
AcDbArc
 50
270.0
 51
90.0
  0
LINE
  5
131
330
1F
100
AcDbEntity
  8
0
  6
Continuous
 62
     7
370
    25
100
AcDbLine
 10
6608.6110742488
 20
4689.3629560171
 30
0.0
 11
6588.6110742488
 21
4689.3629560171
 31
0.0
  0
ARC
  5
132
330
1F
100
AcDbEntity
  8
0
  6
Continuous
 62
     7
370
    25
100
AcDbCircle
 10
6588.6110742488
 20
4684.3629560171
 30
0.0
 40
5.000000000000909
100
AcDbArc
 50
90.0
 51
270.0
  0
LINE
  5
133
330
1F
100
AcDbEntity
  8
0
  6
Continuous
 62
     7
370
    25
100
AcDbLine
 10
6547.6110742488
 20
4679.3629560171
 30
0.0
 11
6567.6110742488
 21
4679.3629560171
 31
0.0
  0
ARC
  5
134
330
1F
100
AcDbEntity
  8
0
  6
Continuous
 62
     7
370
    25
100
AcDbCircle
 10
6567.6110742488
 20
4684.3629560171
 30
0.0
 40
5.000000000000909
100
AcDbArc
 50
270.0
 51
90.0
  0
LINE
  5
135
330
1F
100
AcDbEntity
  8
0
  6
Continuous
 62
     7
370
    25
100
AcDbLine
 10
6567.6110742488
 20
4689.3629560171
 30
0.0
 11
6547.6110742488
 21
4689.3629560171
 31
0.0
  0
ARC
  5
136
330
1F
100
AcDbEntity
  8
0
  6
Continuous
 62
     7
370
    25
100
AcDbCircle
 10
6547.6110742488
 20
4684.3629560171
 30
0.0
 40
5.000000000000909
100
AcDbArc
 50
90.0
 51
270.0
  0
LINE
  5
137
330
1F
100
AcDbEntity
  8
0
  6
Continuous
 62
     7
370
    25
100
AcDbLine
 10
6506.6110742488
 20
4679.3629560171
 30
0.0
 11
6526.6110742488
 21
4679.3629560171
 31
0.0
  0
ARC
  5
138
330
1F
100
AcDbEntity
  8
0
  6
Continuous
 62
     7
370
    25
100
AcDbCircle
 10
6526.6110742488
 20
4684.3629560171
 30
0.0
 40
5.000000000000909
100
AcDbArc
 50
270.0
 51
90.0
  0
LINE
  5
139
330
1F
100
AcDbEntity
  8
0
  6
Continuous
 62
     7
370
    25
100
AcDbLine
 10
6526.6110742488
 20
4689.3629560171
 30
0.0
 11
6506.6110742488
 21
4689.3629560171
 31
0.0
  0
ARC
  5
13A
330
1F
100
AcDbEntity
  8
0
  6
Continuous
 62
     7
370
    25
100
AcDbCircle
 10
6506.6110742488
 20
4684.3629560171
 30
0.0
 40
5.000000000000909
100
AcDbArc
 50
90.0
 51
270.0
  0
LINE
  5
13B
330
1F
100
AcDbEntity
  8
0
  6
Continuous
 62
     7
370
    25
100
AcDbLine
 10
6465.6110742488
 20
4679.3629560171
 30
0.0
 11
6485.6110742488
 21
4679.3629560171
 31
0.0
  0
ARC
  5
13C
330
1F
100
AcDbEntity
  8
0
  6
Continuous
 62
     7
370
    25
100
AcDbCircle
 10
6485.6110742488
 20
4684.3629560171
 30
0.0
 40
5.000000000000909
100
AcDbArc
 50
270.0
 51
90.0
  0
LINE
  5
13D
330
1F
100
AcDbEntity
  8
0
  6
Continuous
 62
     7
370
    25
100
AcDbLine
 10
6485.6110742488
 20
4689.3629560171
 30
0.0
 11
6465.6110742488
 21
4689.3629560171
 31
0.0
  0
ARC
  5
13E
330
1F
100
AcDbEntity
  8
0
  6
Continuous
 62
     7
370
    25
100
AcDbCircle
 10
6465.6110742488
 20
4684.3629560171
 30
0.0
 40
5.000000000000909
100
AcDbArc
 50
90.0
 51
270.0
  0
LINE
  5
13F
330
1F
100
AcDbEntity
  8
0
  6
Continuous
 62
     7
370
    25
100
AcDbLine
 10
6424.6110742488
 20
4679.3629560171
 30
0.0
 11
6444.6110742488
 21
4679.3629560171
 31
0.0
  0
ARC
  5
140
330
1F
100
AcDbEntity
  8
0
  6
Continuous
 62
     7
370
    25
100
AcDbCircle
 10
6444.6110742488
 20
4684.3629560171
 30
0.0
 40
5.000000000000909
100
AcDbArc
 50
270.0
 51
90.0
  0
LINE
  5
141
330
1F
100
AcDbEntity
  8
0
  6
Continuous
 62
     7
370
    25
100
AcDbLine
 10
6444.6110742488
 20
4689.3629560171
 30
0.0
 11
6424.6110742488
 21
4689.3629560171
 31
0.0
  0
ARC
  5
142
330
1F
100
AcDbEntity
  8
0
  6
Continuous
 62
     7
370
    25
100
AcDbCircle
 10
6424.6110742488
 20
4684.3629560171
 30
0.0
 40
5.000000000000909
100
AcDbArc
 50
90.0
 51
270.0
  0
LINE
  5
143
330
1F
100
AcDbEntity
  8
0
  6
Continuous
 62
     7
370
    25
100
AcDbLine
 10
6383.6110742488
 20
4679.3629560171
 30
0.0
 11
6403.6110742488
 21
4679.3629560171
 31
0.0
  0
ARC
  5
144
330
1F
100
AcDbEntity
  8
0
  6
Continuous
 62
     7
370
    25
100
AcDbCircle
 10
6403.6110742488
 20
4684.3629560171
 30
0.0
 40
5.000000000000909
100
AcDbArc
 50
270.0
 51
90.0
  0
LINE
  5
145
330
1F
100
AcDbEntity
  8
0
  6
Continuous
 62
     7
370
    25
100
AcDbLine
 10
6403.6110742488
 20
4689.3629560171
 30
0.0
 11
6383.6110742488
 21
4689.3629560171
 31
0.0
  0
ARC
  5
146
330
1F
100
AcDbEntity
  8
0
  6
Continuous
 62
     7
370
    25
100
AcDbCircle
 10
6383.6110742488
 20
4684.3629560171
 30
0.0
 40
5.000000000000909
100
AcDbArc
 50
90.0
 51
270.0
  0
LINE
  5
147
330
1F
100
AcDbEntity
  8
0
  6
Continuous
 62
     7
370
    25
100
AcDbLine
 10
6342.6110742488
 20
4679.3629560171
 30
0.0
 11
6362.6110742488
 21
4679.3629560171
 31
0.0
  0
ARC
  5
148
330
1F
100
AcDbEntity
  8
0
  6
Continuous
 62
     7
370
    25
100
AcDbCircle
 10
6362.6110742488
 20
4684.3629560171
 30
0.0
 40
5.000000000000909
100
AcDbArc
 50
270.0
 51
90.0
  0
LINE
  5
149
330
1F
100
AcDbEntity
  8
0
  6
Continuous
 62
     7
370
    25
100
AcDbLine
 10
6362.6110742488
 20
4689.3629560171
 30
0.0
 11
6342.6110742488
 21
4689.3629560171
 31
0.0
  0
ARC
  5
14A
330
1F
100
AcDbEntity
  8
0
  6
Continuous
 62
     7
370
    25
100
AcDbCircle
 10
6342.6110742488
 20
4684.3629560171
 30
0.0
 40
5.000000000000909
100
AcDbArc
 50
90.0
 51
270.0
  0
LINE
  5
14B
330
1F
100
AcDbEntity
  8
0
  6
Continuous
 62
     7
370
    25
100
AcDbLine
 10
6301.6110742488
 20
4679.3629560171
 30
0.0
 11
6321.6110742488
 21
4679.3629560171
 31
0.0
  0
ARC
  5
14C
330
1F
100
AcDbEntity
  8
0
  6
Continuous
 62
     7
370
    25
100
AcDbCircle
 10
6321.6110742488
 20
4684.3629560171
 30
0.0
 40
5.000000000000909
100
AcDbArc
 50
270.0
 51
90.0
  0
LINE
  5
14D
330
1F
100
AcDbEntity
  8
0
  6
Continuous
 62
     7
370
    25
100
AcDbLine
 10
6321.6110742488
 20
4689.3629560171
 30
0.0
 11
6301.6110742488
 21
4689.3629560171
 31
0.0
  0
ARC
  5
14E
330
1F
100
AcDbEntity
  8
0
  6
Continuous
 62
     7
370
    25
100
AcDbCircle
 10
6301.6110742488
 20
4684.3629560171
 30
0.0
 40
5.000000000000909
100
AcDbArc
 50
90.0
 51
270.0
  0
LINE
  5
14F
330
1F
100
AcDbEntity
  8
0
  6
Continuous
 62
     7
370
    25
100
AcDbLine
 10
6260.6110742488
 20
4679.3629560171
 30
0.0
 11
6280.6110742488
 21
4679.3629560171
 31
0.0
  0
ARC
  5
150
330
1F
100
AcDbEntity
  8
0
  6
Continuous
 62
     7
370
    25
100
AcDbCircle
 10
6280.6110742488
 20
4684.3629560171
 30
0.0
 40
5.000000000000909
100
AcDbArc
 50
270.0
 51
90.0
  0
LINE
  5
151
330
1F
100
AcDbEntity
  8
0
  6
Continuous
 62
     7
370
    25
100
AcDbLine
 10
6280.6110742488
 20
4689.3629560171
 30
0.0
 11
6260.6110742488
 21
4689.3629560171
 31
0.0
  0
ARC
  5
152
330
1F
100
AcDbEntity
  8
0
  6
Continuous
 62
     7
370
    25
100
AcDbCircle
 10
6260.6110742488
 20
4684.3629560171
 30
0.0
 40
5.000000000000909
100
AcDbArc
 50
90.0
 51
270.0
  0
LINE
  5
153
330
1F
100
AcDbEntity
  8
0
  6
Continuous
 62
     7
370
    25
100
AcDbLine
 10
7039.6110742488
 20
4699.3629560171
 30
0.0
 11
7059.6110742488
 21
4699.3629560171
 31
0.0
  0
ARC
  5
154
330
1F
100
AcDbEntity
  8
0
  6
Continuous
 62
     7
370
    25
100
AcDbCircle
 10
7059.6110742488
 20
4704.3629560171
 30
0.0
 40
5.0
100
AcDbArc
 50
270.0
 51
90.0
  0
LINE
  5
155
330
1F
100
AcDbEntity
  8
0
  6
Continuous
 62
     7
370
    25
100
AcDbLine
 10
7059.6110742488
 20
4709.3629560171
 30
0.0
 11
7039.6110742488
 21
4709.3629560171
 31
0.0
  0
ARC
  5
156
330
1F
100
AcDbEntity
  8
0
  6
Continuous
 62
     7
370
    25
100
AcDbCircle
 10
7039.6110742488
 20
4704.3629560171
 30
0.0
 40
5.0
100
AcDbArc
 50
90.0
 51
270.0
  0
LINE
  5
157
330
1F
100
AcDbEntity
  8
0
  6
Continuous
 62
     7
370
    25
100
AcDbLine
 10
6998.6110742488
 20
4699.3629560171
 30
0.0
 11
7018.6110742488
 21
4699.3629560171
 31
0.0
  0
ARC
  5
158
330
1F
100
AcDbEntity
  8
0
  6
Continuous
 62
     7
370
    25
100
AcDbCircle
 10
7018.6110742488
 20
4704.3629560171
 30
0.0
 40
5.0
100
AcDbArc
 50
270.0
 51
90.0
  0
LINE
  5
159
330
1F
100
AcDbEntity
  8
0
  6
Continuous
 62
     7
370
    25
100
AcDbLine
 10
7018.6110742488
 20
4709.3629560171
 30
0.0
 11
6998.6110742488
 21
4709.3629560171
 31
0.0
  0
ARC
  5
15A
330
1F
100
AcDbEntity
  8
0
  6
Continuous
 62
     7
370
    25
100
AcDbCircle
 10
6998.6110742488
 20
4704.3629560171
 30
0.0
 40
5.0
100
AcDbArc
 50
90.0
 51
270.0
  0
LINE
  5
15B
330
1F
100
AcDbEntity
  8
0
  6
Continuous
 62
     7
370
    25
100
AcDbLine
 10
6957.6110742488
 20
4699.3629560171
 30
0.0
 11
6977.6110742488
 21
4699.3629560171
 31
0.0
  0
ARC
  5
15C
330
1F
100
AcDbEntity
  8
0
  6
Continuous
 62
     7
370
    25
100
AcDbCircle
 10
6977.6110742488
 20
4704.3629560171
 30
0.0
 40
5.0
100
AcDbArc
 50
270.0
 51
90.0
  0
LINE
  5
15D
330
1F
100
AcDbEntity
  8
0
  6
Continuous
 62
     7
370
    25
100
AcDbLine
 10
6977.6110742488
 20
4709.3629560171
 30
0.0
 11
6957.6110742488
 21
4709.3629560171
 31
0.0
  0
ARC
  5
15E
330
1F
100
AcDbEntity
  8
0
  6
Continuous
 62
     7
370
    25
100
AcDbCircle
 10
6957.6110742488
 20
4704.3629560171
 30
0.0
 40
5.0
100
AcDbArc
 50
90.0
 51
270.0
  0
LINE
  5
15F
330
1F
100
AcDbEntity
  8
0
  6
Continuous
 62
     7
370
    25
100
AcDbLine
 10
6916.6110742488
 20
4699.3629560171
 30
0.0
 11
6936.6110742488
 21
4699.3629560171
 31
0.0
  0
ARC
  5
160
330
1F
100
AcDbEntity
  8
0
  6
Continuous
 62
     7
370
    25
100
AcDbCircle
 10
6936.6110742488
 20
4704.3629560171
 30
0.0
 40
5.0
100
AcDbArc
 50
270.0
 51
90.0
  0
LINE
  5
161
330
1F
100
AcDbEntity
  8
0
  6
Continuous
 62
     7
370
    25
100
AcDbLine
 10
6936.6110742488
 20
4709.3629560171
 30
0.0
 11
6916.6110742488
 21
4709.3629560171
 31
0.0
  0
ARC
  5
162
330
1F
100
AcDbEntity
  8
0
  6
Continuous
 62
     7
370
    25
100
AcDbCircle
 10
6916.6110742488
 20
4704.3629560171
 30
0.0
 40
5.0
100
AcDbArc
 50
90.0
 51
270.0
  0
LINE
  5
163
330
1F
100
AcDbEntity
  8
0
  6
Continuous
 62
     7
370
    25
100
AcDbLine
 10
6875.6110742488
 20
4699.3629560171
 30
0.0
 11
6895.6110742488
 21
4699.3629560171
 31
0.0
  0
ARC
  5
164
330
1F
100
AcDbEntity
  8
0
  6
Continuous
 62
     7
370
    25
100
AcDbCircle
 10
6895.6110742488
 20
4704.3629560171
 30
0.0
 40
5.0
100
AcDbArc
 50
270.0
 51
90.0
  0
LINE
  5
165
330
1F
100
AcDbEntity
  8
0
  6
Continuous
 62
     7
370
    25
100
AcDbLine
 10
6895.6110742488
 20
4709.3629560171
 30
0.0
 11
6875.6110742488
 21
4709.3629560171
 31
0.0
  0
ARC
  5
166
330
1F
100
AcDbEntity
  8
0
  6
Continuous
 62
     7
370
    25
100
AcDbCircle
 10
6875.6110742488
 20
4704.3629560171
 30
0.0
 40
5.0
100
AcDbArc
 50
90.0
 51
270.0
  0
LINE
  5
167
330
1F
100
AcDbEntity
  8
0
  6
Continuous
 62
     7
370
    25
100
AcDbLine
 10
6834.6110742488
 20
4699.3629560171
 30
0.0
 11
6854.6110742488
 21
4699.3629560171
 31
0.0
  0
ARC
  5
168
330
1F
100
AcDbEntity
  8
0
  6
Continuous
 62
     7
370
    25
100
AcDbCircle
 10
6854.6110742488
 20
4704.3629560171
 30
0.0
 40
5.0
100
AcDbArc
 50
270.0
 51
90.0
  0
LINE
  5
169
330
1F
100
AcDbEntity
  8
0
  6
Continuous
 62
     7
370
    25
100
AcDbLine
 10
6854.6110742488
 20
4709.3629560171
 30
0.0
 11
6834.6110742488
 21
4709.3629560171
 31
0.0
  0
ARC
  5
16A
330
1F
100
AcDbEntity
  8
0
  6
Continuous
 62
     7
370
    25
100
AcDbCircle
 10
6834.6110742488
 20
4704.3629560171
 30
0.0
 40
5.0
100
AcDbArc
 50
90.0
 51
270.0
  0
LINE
  5
16B
330
1F
100
AcDbEntity
  8
0
  6
Continuous
 62
     7
370
    25
100
AcDbLine
 10
6793.6110742488
 20
4699.3629560171
 30
0.0
 11
6813.6110742488
 21
4699.3629560171
 31
0.0
  0
ARC
  5
16C
330
1F
100
AcDbEntity
  8
0
  6
Continuous
 62
     7
370
    25
100
AcDbCircle
 10
6813.6110742488
 20
4704.3629560171
 30
0.0
 40
5.0
100
AcDbArc
 50
270.0
 51
90.0
  0
LINE
  5
16D
330
1F
100
AcDbEntity
  8
0
  6
Continuous
 62
     7
370
    25
100
AcDbLine
 10
6813.6110742488
 20
4709.3629560171
 30
0.0
 11
6793.6110742488
 21
4709.3629560171
 31
0.0
  0
ARC
  5
16E
330
1F
100
AcDbEntity
  8
0
  6
Continuous
 62
     7
370
    25
100
AcDbCircle
 10
6793.6110742488
 20
4704.3629560171
 30
0.0
 40
5.0
100
AcDbArc
 50
90.0
 51
270.0
  0
LINE
  5
16F
330
1F
100
AcDbEntity
  8
0
  6
Continuous
 62
     7
370
    25
100
AcDbLine
 10
6752.6110742488
 20
4699.3629560171
 30
0.0
 11
6772.6110742488
 21
4699.3629560171
 31
0.0
  0
ARC
  5
170
330
1F
100
AcDbEntity
  8
0
  6
Continuous
 62
     7
370
    25
100
AcDbCircle
 10
6772.6110742488
 20
4704.3629560171
 30
0.0
 40
5.0
100
AcDbArc
 50
270.0
 51
90.0
  0
LINE
  5
171
330
1F
100
AcDbEntity
  8
0
  6
Continuous
 62
     7
370
    25
100
AcDbLine
 10
6772.6110742488
 20
4709.3629560171
 30
0.0
 11
6752.6110742488
 21
4709.3629560171
 31
0.0
  0
ARC
  5
172
330
1F
100
AcDbEntity
  8
0
  6
Continuous
 62
     7
370
    25
100
AcDbCircle
 10
6752.6110742488
 20
4704.3629560171
 30
0.0
 40
5.0
100
AcDbArc
 50
90.0
 51
270.0
  0
LINE
  5
173
330
1F
100
AcDbEntity
  8
0
  6
Continuous
 62
     7
370
    25
100
AcDbLine
 10
6711.6110742488
 20
4699.3629560171
 30
0.0
 11
6731.6110742488
 21
4699.3629560171
 31
0.0
  0
ARC
  5
174
330
1F
100
AcDbEntity
  8
0
  6
Continuous
 62
     7
370
    25
100
AcDbCircle
 10
6731.6110742488
 20
4704.3629560171
 30
0.0
 40
5.0
100
AcDbArc
 50
270.0
 51
90.0
  0
LINE
  5
175
330
1F
100
AcDbEntity
  8
0
  6
Continuous
 62
     7
370
    25
100
AcDbLine
 10
6731.6110742488
 20
4709.3629560171
 30
0.0
 11
6711.6110742488
 21
4709.3629560171
 31
0.0
  0
ARC
  5
176
330
1F
100
AcDbEntity
  8
0
  6
Continuous
 62
     7
370
    25
100
AcDbCircle
 10
6711.6110742488
 20
4704.3629560171
 30
0.0
 40
5.0
100
AcDbArc
 50
90.0
 51
270.0
  0
LINE
  5
177
330
1F
100
AcDbEntity
  8
0
  6
Continuous
 62
     7
370
    25
100
AcDbLine
 10
6670.6110742488
 20
4699.3629560171
 30
0.0
 11
6690.6110742488
 21
4699.3629560171
 31
0.0
  0
ARC
  5
178
330
1F
100
AcDbEntity
  8
0
  6
Continuous
 62
     7
370
    25
100
AcDbCircle
 10
6690.6110742488
 20
4704.3629560171
 30
0.0
 40
5.0
100
AcDbArc
 50
270.0
 51
90.0
  0
LINE
  5
179
330
1F
100
AcDbEntity
  8
0
  6
Continuous
 62
     7
370
    25
100
AcDbLine
 10
6690.6110742488
 20
4709.3629560171
 30
0.0
 11
6670.6110742488
 21
4709.3629560171
 31
0.0
  0
ARC
  5
17A
330
1F
100
AcDbEntity
  8
0
  6
Continuous
 62
     7
370
    25
100
AcDbCircle
 10
6670.6110742488
 20
4704.3629560171
 30
0.0
 40
5.0
100
AcDbArc
 50
90.0
 51
270.0
  0
LINE
  5
17B
330
1F
100
AcDbEntity
  8
0
  6
Continuous
 62
     7
370
    25
100
AcDbLine
 10
6629.6110742488
 20
4699.3629560171
 30
0.0
 11
6649.6110742488
 21
4699.3629560171
 31
0.0
  0
ARC
  5
17C
330
1F
100
AcDbEntity
  8
0
  6
Continuous
 62
     7
370
    25
100
AcDbCircle
 10
6649.6110742488
 20
4704.3629560171
 30
0.0
 40
5.0
100
AcDbArc
 50
270.0
 51
90.0
  0
LINE
  5
17D
330
1F
100
AcDbEntity
  8
0
  6
Continuous
 62
     7
370
    25
100
AcDbLine
 10
6649.6110742488
 20
4709.3629560171
 30
0.0
 11
6629.6110742488
 21
4709.3629560171
 31
0.0
  0
ARC
  5
17E
330
1F
100
AcDbEntity
  8
0
  6
Continuous
 62
     7
370
    25
100
AcDbCircle
 10
6629.6110742488
 20
4704.3629560171
 30
0.0
 40
5.0
100
AcDbArc
 50
90.0
 51
270.0
  0
LINE
  5
17F
330
1F
100
AcDbEntity
  8
0
  6
Continuous
 62
     7
370
    25
100
AcDbLine
 10
6588.6110742488
 20
4699.3629560171
 30
0.0
 11
6608.6110742488
 21
4699.3629560171
 31
0.0
  0
ARC
  5
180
330
1F
100
AcDbEntity
  8
0
  6
Continuous
 62
     7
370
    25
100
AcDbCircle
 10
6608.6110742488
 20
4704.3629560171
 30
0.0
 40
5.0
100
AcDbArc
 50
270.0
 51
90.0
  0
LINE
  5
181
330
1F
100
AcDbEntity
  8
0
  6
Continuous
 62
     7
370
    25
100
AcDbLine
 10
6608.6110742488
 20
4709.3629560171
 30
0.0
 11
6588.6110742488
 21
4709.3629560171
 31
0.0
  0
ARC
  5
182
330
1F
100
AcDbEntity
  8
0
  6
Continuous
 62
     7
370
    25
100
AcDbCircle
 10
6588.6110742488
 20
4704.3629560171
 30
0.0
 40
5.0
100
AcDbArc
 50
90.0
 51
270.0
  0
LINE
  5
183
330
1F
100
AcDbEntity
  8
0
  6
Continuous
 62
     7
370
    25
100
AcDbLine
 10
6547.6110742488
 20
4699.3629560171
 30
0.0
 11
6567.6110742488
 21
4699.3629560171
 31
0.0
  0
ARC
  5
184
330
1F
100
AcDbEntity
  8
0
  6
Continuous
 62
     7
370
    25
100
AcDbCircle
 10
6567.6110742488
 20
4704.3629560171
 30
0.0
 40
5.0
100
AcDbArc
 50
270.0
 51
90.0
  0
LINE
  5
185
330
1F
100
AcDbEntity
  8
0
  6
Continuous
 62
     7
370
    25
100
AcDbLine
 10
6567.6110742488
 20
4709.3629560171
 30
0.0
 11
6547.6110742488
 21
4709.3629560171
 31
0.0
  0
ARC
  5
186
330
1F
100
AcDbEntity
  8
0
  6
Continuous
 62
     7
370
    25
100
AcDbCircle
 10
6547.6110742488
 20
4704.3629560171
 30
0.0
 40
5.0
100
AcDbArc
 50
90.0
 51
270.0
  0
LINE
  5
187
330
1F
100
AcDbEntity
  8
0
  6
Continuous
 62
     7
370
    25
100
AcDbLine
 10
6506.6110742488
 20
4699.3629560171
 30
0.0
 11
6526.6110742488
 21
4699.3629560171
 31
0.0
  0
ARC
  5
188
330
1F
100
AcDbEntity
  8
0
  6
Continuous
 62
     7
370
    25
100
AcDbCircle
 10
6526.6110742488
 20
4704.3629560171
 30
0.0
 40
5.0
100
AcDbArc
 50
270.0
 51
90.0
  0
LINE
  5
189
330
1F
100
AcDbEntity
  8
0
  6
Continuous
 62
     7
370
    25
100
AcDbLine
 10
6526.6110742488
 20
4709.3629560171
 30
0.0
 11
6506.6110742488
 21
4709.3629560171
 31
0.0
  0
ARC
  5
18A
330
1F
100
AcDbEntity
  8
0
  6
Continuous
 62
     7
370
    25
100
AcDbCircle
 10
6506.6110742488
 20
4704.3629560171
 30
0.0
 40
5.0
100
AcDbArc
 50
90.0
 51
270.0
  0
LINE
  5
18B
330
1F
100
AcDbEntity
  8
0
  6
Continuous
 62
     7
370
    25
100
AcDbLine
 10
6465.6110742488
 20
4699.3629560171
 30
0.0
 11
6485.6110742488
 21
4699.3629560171
 31
0.0
  0
ARC
  5
18C
330
1F
100
AcDbEntity
  8
0
  6
Continuous
 62
     7
370
    25
100
AcDbCircle
 10
6485.6110742488
 20
4704.3629560171
 30
0.0
 40
5.0
100
AcDbArc
 50
270.0
 51
90.0
  0
LINE
  5
18D
330
1F
100
AcDbEntity
  8
0
  6
Continuous
 62
     7
370
    25
100
AcDbLine
 10
6485.6110742488
 20
4709.3629560171
 30
0.0
 11
6465.6110742488
 21
4709.3629560171
 31
0.0
  0
ARC
  5
18E
330
1F
100
AcDbEntity
  8
0
  6
Continuous
 62
     7
370
    25
100
AcDbCircle
 10
6465.6110742488
 20
4704.3629560171
 30
0.0
 40
5.0
100
AcDbArc
 50
90.0
 51
270.0
  0
LINE
  5
18F
330
1F
100
AcDbEntity
  8
0
  6
Continuous
 62
     7
370
    25
100
AcDbLine
 10
6424.6110742488
 20
4699.3629560171
 30
0.0
 11
6444.6110742488
 21
4699.3629560171
 31
0.0
  0
ARC
  5
190
330
1F
100
AcDbEntity
  8
0
  6
Continuous
 62
     7
370
    25
100
AcDbCircle
 10
6444.6110742488
 20
4704.3629560171
 30
0.0
 40
5.0
100
AcDbArc
 50
270.0
 51
90.0
  0
LINE
  5
191
330
1F
100
AcDbEntity
  8
0
  6
Continuous
 62
     7
370
    25
100
AcDbLine
 10
6444.6110742488
 20
4709.3629560171
 30
0.0
 11
6424.6110742488
 21
4709.3629560171
 31
0.0
  0
ARC
  5
192
330
1F
100
AcDbEntity
  8
0
  6
Continuous
 62
     7
370
    25
100
AcDbCircle
 10
6424.6110742488
 20
4704.3629560171
 30
0.0
 40
5.0
100
AcDbArc
 50
90.0
 51
270.0
  0
LINE
  5
193
330
1F
100
AcDbEntity
  8
0
  6
Continuous
 62
     7
370
    25
100
AcDbLine
 10
6383.6110742488
 20
4699.3629560171
 30
0.0
 11
6403.6110742488
 21
4699.3629560171
 31
0.0
  0
ARC
  5
194
330
1F
100
AcDbEntity
  8
0
  6
Continuous
 62
     7
370
    25
100
AcDbCircle
 10
6403.6110742488
 20
4704.3629560171
 30
0.0
 40
5.0
100
AcDbArc
 50
270.0
 51
90.0
  0
LINE
  5
195
330
1F
100
AcDbEntity
  8
0
  6
Continuous
 62
     7
370
    25
100
AcDbLine
 10
6403.6110742488
 20
4709.3629560171
 30
0.0
 11
6383.6110742488
 21
4709.3629560171
 31
0.0
  0
ARC
  5
196
330
1F
100
AcDbEntity
  8
0
  6
Continuous
 62
     7
370
    25
100
AcDbCircle
 10
6383.6110742488
 20
4704.3629560171
 30
0.0
 40
5.0
100
AcDbArc
 50
90.0
 51
270.0
  0
LINE
  5
197
330
1F
100
AcDbEntity
  8
0
  6
Continuous
 62
     7
370
    25
100
AcDbLine
 10
6342.6110742488
 20
4699.3629560171
 30
0.0
 11
6362.6110742488
 21
4699.3629560171
 31
0.0
  0
ARC
  5
198
330
1F
100
AcDbEntity
  8
0
  6
Continuous
 62
     7
370
    25
100
AcDbCircle
 10
6362.6110742488
 20
4704.3629560171
 30
0.0
 40
5.0
100
AcDbArc
 50
270.0
 51
90.0
  0
LINE
  5
199
330
1F
100
AcDbEntity
  8
0
  6
Continuous
 62
     7
370
    25
100
AcDbLine
 10
6362.6110742488
 20
4709.3629560171
 30
0.0
 11
6342.6110742488
 21
4709.3629560171
 31
0.0
  0
ARC
  5
19A
330
1F
100
AcDbEntity
  8
0
  6
Continuous
 62
     7
370
    25
100
AcDbCircle
 10
6342.6110742488
 20
4704.3629560171
 30
0.0
 40
5.0
100
AcDbArc
 50
90.0
 51
270.0
  0
LINE
  5
19B
330
1F
100
AcDbEntity
  8
0
  6
Continuous
 62
     7
370
    25
100
AcDbLine
 10
6301.6110742488
 20
4699.3629560171
 30
0.0
 11
6321.6110742488
 21
4699.3629560171
 31
0.0
  0
ARC
  5
19C
330
1F
100
AcDbEntity
  8
0
  6
Continuous
 62
     7
370
    25
100
AcDbCircle
 10
6321.6110742488
 20
4704.3629560171
 30
0.0
 40
5.0
100
AcDbArc
 50
270.0
 51
90.0
  0
LINE
  5
19D
330
1F
100
AcDbEntity
  8
0
  6
Continuous
 62
     7
370
    25
100
AcDbLine
 10
6321.6110742488
 20
4709.3629560171
 30
0.0
 11
6301.6110742488
 21
4709.3629560171
 31
0.0
  0
ARC
  5
19E
330
1F
100
AcDbEntity
  8
0
  6
Continuous
 62
     7
370
    25
100
AcDbCircle
 10
6301.6110742488
 20
4704.3629560171
 30
0.0
 40
5.0
100
AcDbArc
 50
90.0
 51
270.0
  0
LINE
  5
19F
330
1F
100
AcDbEntity
  8
0
  6
Continuous
 62
     7
370
    25
100
AcDbLine
 10
6260.6110742488
 20
4699.3629560171
 30
0.0
 11
6280.6110742488
 21
4699.3629560171
 31
0.0
  0
ARC
  5
1A0
330
1F
100
AcDbEntity
  8
0
  6
Continuous
 62
     7
370
    25
100
AcDbCircle
 10
6280.6110742488
 20
4704.3629560171
 30
0.0
 40
5.0
100
AcDbArc
 50
270.0
 51
90.0
  0
LINE
  5
1A1
330
1F
100
AcDbEntity
  8
0
  6
Continuous
 62
     7
370
    25
100
AcDbLine
 10
6280.6110742488
 20
4709.3629560171
 30
0.0
 11
6260.6110742488
 21
4709.3629560171
 31
0.0
  0
ARC
  5
1A2
330
1F
100
AcDbEntity
  8
0
  6
Continuous
 62
     7
370
    25
100
AcDbCircle
 10
6260.6110742488
 20
4704.3629560171
 30
0.0
 40
5.0
100
AcDbArc
 50
90.0
 51
270.0
  0
LINE
  5
1A3
330
1F
100
AcDbEntity
  8
0
  6
Continuous
 62
     7
370
    25
100
AcDbLine
 10
7045.0397937788
 20
4659.3629560171
 30
0.0
 11
7059.6110742488
 21
4659.3629560171
 31
0.0
  0
ARC
  5
1A4
330
1F
100
AcDbEntity
  8
0
  6
Continuous
 62
     7
370
    25
100
AcDbCircle
 10
7059.6110742488
 20
4664.3629560171
 30
0.0
 40
5.0
100
AcDbArc
 50
270.0
 51
90.0
  0
LINE
  5
1A5
330
1F
100
AcDbEntity
  8
0
  6
Continuous
 62
     7
370
    25
100
AcDbLine
 10
7059.6110742488
 20
4669.3629560171
 30
0.0
 11
7039.6110742488
 21
4669.3629560171
 31
0.0
  0
ARC
  5
1A6
330
1F
100
AcDbEntity
  8
0
  6
Continuous
 62
     7
370
    25
100
AcDbCircle
 10
7039.6110742488
 20
4664.3629560171
 30
0.0
 40
5.0
100
AcDbArc
 50
90.0
 51
168.4630409672
  0
ARC
  5
1A7
330
1F
100
AcDbEntity
  8
0
  6
Continuous
 62
     7
370
    25
100
AcDbCircle
 10
7018.6110742488
 20
4664.3629560171
 30
0.0
 40
5.0
100
AcDbArc
 50
11.5369590328
 51
90.0
  0
LINE
  5
1A8
330
1F
100
AcDbEntity
  8
0
  6
Continuous
 62
     7
370
    25
100
AcDbLine
 10
7018.6110742488
 20
4669.3629560171
 30
0.0
 11
6998.6110742488
 21
4669.3629560171
 31
0.0
  0
ARC
  5
1A9
330
1F
100
AcDbEntity
  8
0
  6
Continuous
 62
     7
370
    25
100
AcDbCircle
 10
6998.6110742488
 20
4664.3629560171
 30
0.0
 40
5.0
100
AcDbArc
 50
90.0
 51
168.4630409672
  0
ARC
  5
1AA
330
1F
100
AcDbEntity
  8
0
  6
Continuous
 62
     7
370
    25
100
AcDbCircle
 10
6977.6110742488
 20
4664.3629560171
 30
0.0
 40
5.0
100
AcDbArc
 50
11.5369590328
 51
90.0
  0
LINE
  5
1AB
330
1F
100
AcDbEntity
  8
0
  6
Continuous
 62
     7
370
    25
100
AcDbLine
 10
6977.6110742488
 20
4669.3629560171
 30
0.0
 11
6957.6110742488
 21
4669.3629560171
 31
0.0
  0
ARC
  5
1AC
330
1F
100
AcDbEntity
  8
0
  6
Continuous
 62
     7
370
    25
100
AcDbCircle
 10
6957.6110742488
 20
4664.3629560171
 30
0.0
 40
5.00000000000081
100
AcDbArc
 50
90.0
 51
168.4630409672
  0
ARC
  5
1AD
330
1F
100
AcDbEntity
  8
0
  6
Continuous
 62
     7
370
    25
100
AcDbCircle
 10
6936.6110742488
 20
4664.3629560171
 30
0.0
 40
5.0
100
AcDbArc
 50
11.5369590328
 51
90.0
  0
LINE
  5
1AE
330
1F
100
AcDbEntity
  8
0
  6
Continuous
 62
     7
370
    25
100
AcDbLine
 10
6936.6110742488
 20
4669.3629560171
 30
0.0
 11
6916.6110742488
 21
4669.3629560171
 31
0.0
  0
ARC
  5
1AF
330
1F
100
AcDbEntity
  8
0
  6
Continuous
 62
     7
370
    25
100
AcDbCircle
 10
6916.6110742488
 20
4664.3629560171
 30
0.0
 40
5.0
100
AcDbArc
 50
90.0
 51
168.4630409672
  0
ARC
  5
1B0
330
1F
100
AcDbEntity
  8
0
  6
Continuous
 62
     7
370
    25
100
AcDbCircle
 10
6895.6110742488
 20
4664.3629560171
 30
0.0
 40
5.0
100
AcDbArc
 50
11.5369590328
 51
90.0
  0
LINE
  5
1B1
330
1F
100
AcDbEntity
  8
0
  6
Continuous
 62
     7
370
    25
100
AcDbLine
 10
6895.6110742488
 20
4669.3629560171
 30
0.0
 11
6875.6110742488
 21
4669.3629560171
 31
0.0
  0
ARC
  5
1B2
330
1F
100
AcDbEntity
  8
0
  6
Continuous
 62
     7
370
    25
100
AcDbCircle
 10
6875.6110742488
 20
4664.3629560171
 30
0.0
 40
5.0
100
AcDbArc
 50
90.0
 51
168.4630409672
  0
ARC
  5
1B3
330
1F
100
AcDbEntity
  8
0
  6
Continuous
 62
     7
370
    25
100
AcDbCircle
 10
6854.6110742488
 20
4664.3629560171
 30
0.0
 40
5.0
100
AcDbArc
 50
11.5369590328
 51
90.0
  0
LINE
  5
1B4
330
1F
100
AcDbEntity
  8
0
  6
Continuous
 62
     7
370
    25
100
AcDbLine
 10
6854.6110742488
 20
4669.3629560171
 30
0.0
 11
6834.6110742488
 21
4669.3629560171
 31
0.0
  0
ARC
  5
1B5
330
1F
100
AcDbEntity
  8
0
  6
Continuous
 62
     7
370
    25
100
AcDbCircle
 10
6834.6110742488
 20
4664.3629560171
 30
0.0
 40
5.0
100
AcDbArc
 50
90.0
 51
168.4630409672
  0
ARC
  5
1B6
330
1F
100
AcDbEntity
  8
0
  6
Continuous
 62
     7
370
    25
100
AcDbCircle
 10
6813.6110742488
 20
4664.3629560171
 30
0.0
 40
5.00000000000081
100
AcDbArc
 50
11.5369590328
 51
90.0
  0
LINE
  5
1B7
330
1F
100
AcDbEntity
  8
0
  6
Continuous
 62
     7
370
    25
100
AcDbLine
 10
6813.6110742488
 20
4669.3629560171
 30
0.0
 11
6793.6110742488
 21
4669.3629560171
 31
0.0
  0
ARC
  5
1B8
330
1F
100
AcDbEntity
  8
0
  6
Continuous
 62
     7
370
    25
100
AcDbCircle
 10
6793.6110742488
 20
4664.3629560171
 30
0.0
 40
5.0
100
AcDbArc
 50
90.0
 51
168.4630409672
  0
ARC
  5
1B9
330
1F
100
AcDbEntity
  8
0
  6
Continuous
 62
     7
370
    25
100
AcDbCircle
 10
6772.6110742488
 20
4664.3629560171
 30
0.0
 40
5.0
100
AcDbArc
 50
11.5369590328
 51
90.0
  0
LINE
  5
1BA
330
1F
100
AcDbEntity
  8
0
  6
Continuous
 62
     7
370
    25
100
AcDbLine
 10
6772.6110742488
 20
4669.3629560171
 30
0.0
 11
6752.6110742488
 21
4669.3629560171
 31
0.0
  0
ARC
  5
1BB
330
1F
100
AcDbEntity
  8
0
  6
Continuous
 62
     7
370
    25
100
AcDbCircle
 10
6752.6110742488
 20
4664.3629560171
 30
0.0
 40
5.00000000000081
100
AcDbArc
 50
90.0
 51
168.4630409672
  0
ARC
  5
1BC
330
1F
100
AcDbEntity
  8
0
  6
Continuous
 62
     7
370
    25
100
AcDbCircle
 10
6731.6110742488
 20
4664.3629560171
 30
0.0
 40
5.0
100
AcDbArc
 50
11.5369590328
 51
90.0
  0
LINE
  5
1BD
330
1F
100
AcDbEntity
  8
0
  6
Continuous
 62
     7
370
    25
100
AcDbLine
 10
6731.6110742488
 20
4669.3629560171
 30
0.0
 11
6711.6110742488
 21
4669.3629560171
 31
0.0
  0
ARC
  5
1BE
330
1F
100
AcDbEntity
  8
0
  6
Continuous
 62
     7
370
    25
100
AcDbCircle
 10
6711.6110742488
 20
4664.3629560171
 30
0.0
 40
5.0
100
AcDbArc
 50
90.0
 51
168.4630409672
  0
ARC
  5
1BF
330
1F
100
AcDbEntity
  8
0
  6
Continuous
 62
     7
370
    25
100
AcDbCircle
 10
6690.6110742488
 20
4664.3629560171
 30
0.0
 40
5.0
100
AcDbArc
 50
11.5369590328
 51
90.0
  0
LINE
  5
1C0
330
1F
100
AcDbEntity
  8
0
  6
Continuous
 62
     7
370
    25
100
AcDbLine
 10
6690.6110742488
 20
4669.3629560171
 30
0.0
 11
6670.6110742488
 21
4669.3629560171
 31
0.0
  0
ARC
  5
1C1
330
1F
100
AcDbEntity
  8
0
  6
Continuous
 62
     7
370
    25
100
AcDbCircle
 10
6670.6110742488
 20
4664.3629560171
 30
0.0
 40
5.00000000000081
100
AcDbArc
 50
90.0
 51
168.4630409672
  0
ARC
  5
1C2
330
1F
100
AcDbEntity
  8
0
  6
Continuous
 62
     7
370
    25
100
AcDbCircle
 10
6649.6110742488
 20
4664.3629560171
 30
0.0
 40
5.0
100
AcDbArc
 50
11.5369590328
 51
90.0
  0
LINE
  5
1C3
330
1F
100
AcDbEntity
  8
0
  6
Continuous
 62
     7
370
    25
100
AcDbLine
 10
6649.6110742488
 20
4669.3629560171
 30
0.0
 11
6629.6110742488
 21
4669.3629560171
 31
0.0
  0
ARC
  5
1C4
330
1F
100
AcDbEntity
  8
0
  6
Continuous
 62
     7
370
    25
100
AcDbCircle
 10
6629.6110742488
 20
4664.3629560171
 30
0.0
 40
5.0
100
AcDbArc
 50
90.0
 51
168.4630409672
  0
ARC
  5
1C5
330
1F
100
AcDbEntity
  8
0
  6
Continuous
 62
     7
370
    25
100
AcDbCircle
 10
6608.6110742488
 20
4664.3629560171
 30
0.0
 40
5.00000000000081
100
AcDbArc
 50
11.5369590328
 51
90.0
  0
LINE
  5
1C6
330
1F
100
AcDbEntity
  8
0
  6
Continuous
 62
     7
370
    25
100
AcDbLine
 10
6608.6110742488
 20
4669.3629560171
 30
0.0
 11
6588.6110742488
 21
4669.3629560171
 31
0.0
  0
ARC
  5
1C7
330
1F
100
AcDbEntity
  8
0
  6
Continuous
 62
     7
370
    25
100
AcDbCircle
 10
6588.6110742488
 20
4664.3629560171
 30
0.0
 40
5.0
100
AcDbArc
 50
90.0
 51
168.4630409672
  0
ARC
  5
1C8
330
1F
100
AcDbEntity
  8
0
  6
Continuous
 62
     7
370
    25
100
AcDbCircle
 10
6567.6110742488
 20
4664.3629560171
 30
0.0
 40
5.0
100
AcDbArc
 50
11.5369590328
 51
90.0
  0
LINE
  5
1C9
330
1F
100
AcDbEntity
  8
0
  6
Continuous
 62
     7
370
    25
100
AcDbLine
 10
6567.6110742488
 20
4669.3629560171
 30
0.0
 11
6547.6110742488
 21
4669.3629560171
 31
0.0
  0
ARC
  5
1CA
330
1F
100
AcDbEntity
  8
0
  6
Continuous
 62
     7
370
    25
100
AcDbCircle
 10
6547.6110742488
 20
4664.3629560171
 30
0.0
 40
5.0
100
AcDbArc
 50
90.0
 51
168.4630409672
  0
ARC
  5
1CB
330
1F
100
AcDbEntity
  8
0
  6
Continuous
 62
     7
370
    25
100
AcDbCircle
 10
6526.6110742488
 20
4664.3629560171
 30
0.0
 40
5.0
100
AcDbArc
 50
11.5369590328
 51
90.0
  0
LINE
  5
1CC
330
1F
100
AcDbEntity
  8
0
  6
Continuous
 62
     7
370
    25
100
AcDbLine
 10
6526.6110742488
 20
4669.3629560171
 30
0.0
 11
6506.6110742488
 21
4669.3629560171
 31
0.0
  0
ARC
  5
1CD
330
1F
100
AcDbEntity
  8
0
  6
Continuous
 62
     7
370
    25
100
AcDbCircle
 10
6506.6110742488
 20
4664.3629560171
 30
0.0
 40
5.0
100
AcDbArc
 50
90.0
 51
168.4630409672
  0
ARC
  5
1CE
330
1F
100
AcDbEntity
  8
0
  6
Continuous
 62
     7
370
    25
100
AcDbCircle
 10
6485.6110742488
 20
4664.3629560171
 30
0.0
 40
5.0
100
AcDbArc
 50
11.5369590328
 51
90.0
  0
LINE
  5
1CF
330
1F
100
AcDbEntity
  8
0
  6
Continuous
 62
     7
370
    25
100
AcDbLine
 10
6485.6110742488
 20
4669.3629560171
 30
0.0
 11
6465.6110742488
 21
4669.3629560171
 31
0.0
  0
ARC
  5
1D0
330
1F
100
AcDbEntity
  8
0
  6
Continuous
 62
     7
370
    25
100
AcDbCircle
 10
6465.6110742488
 20
4664.3629560171
 30
0.0
 40
5.00000000000081
100
AcDbArc
 50
90.0
 51
168.4630409672
  0
ARC
  5
1D1
330
1F
100
AcDbEntity
  8
0
  6
Continuous
 62
     7
370
    25
100
AcDbCircle
 10
6444.6110742488
 20
4664.3629560171
 30
0.0
 40
5.0
100
AcDbArc
 50
11.5369590328
 51
90.0
  0
LINE
  5
1D2
330
1F
100
AcDbEntity
  8
0
  6
Continuous
 62
     7
370
    25
100
AcDbLine
 10
6444.6110742488
 20
4669.3629560171
 30
0.0
 11
6424.6110742488
 21
4669.3629560171
 31
0.0
  0
ARC
  5
1D3
330
1F
100
AcDbEntity
  8
0
  6
Continuous
 62
     7
370
    25
100
AcDbCircle
 10
6424.6110742488
 20
4664.3629560171
 30
0.0
 40
5.0
100
AcDbArc
 50
90.0
 51
168.4630409672
  0
ARC
  5
1D4
330
1F
100
AcDbEntity
  8
0
  6
Continuous
 62
     7
370
    25
100
AcDbCircle
 10
6403.6110742488
 20
4664.3629560171
 30
0.0
 40
5.0
100
AcDbArc
 50
11.5369590328
 51
90.0
  0
LINE
  5
1D5
330
1F
100
AcDbEntity
  8
0
  6
Continuous
 62
     7
370
    25
100
AcDbLine
 10
6403.6110742488
 20
4669.3629560171
 30
0.0
 11
6383.6110742488
 21
4669.3629560171
 31
0.0
  0
ARC
  5
1D6
330
1F
100
AcDbEntity
  8
0
  6
Continuous
 62
     7
370
    25
100
AcDbCircle
 10
6383.6110742488
 20
4664.3629560171
 30
0.0
 40
5.0
100
AcDbArc
 50
90.0
 51
168.4630409672
  0
ARC
  5
1D7
330
1F
100
AcDbEntity
  8
0
  6
Continuous
 62
     7
370
    25
100
AcDbCircle
 10
6362.6110742488
 20
4664.3629560171
 30
0.0
 40
5.0
100
AcDbArc
 50
11.5369590328
 51
90.0
  0
LINE
  5
1D8
330
1F
100
AcDbEntity
  8
0
  6
Continuous
 62
     7
370
    25
100
AcDbLine
 10
6362.6110742488
 20
4669.3629560171
 30
0.0
 11
6342.6110742488
 21
4669.3629560171
 31
0.0
  0
ARC
  5
1D9
330
1F
100
AcDbEntity
  8
0
  6
Continuous
 62
     7
370
    25
100
AcDbCircle
 10
6342.6110742488
 20
4664.3629560171
 30
0.0
 40
5.0
100
AcDbArc
 50
90.0
 51
168.4630409672
  0
ARC
  5
1DA
330
1F
100
AcDbEntity
  8
0
  6
Continuous
 62
     7
370
    25
100
AcDbCircle
 10
6321.6110742488
 20
4664.3629560171
 30
0.0
 40
5.00000000000081
100
AcDbArc
 50
11.5369590328
 51
90.0
  0
LINE
  5
1DB
330
1F
100
AcDbEntity
  8
0
  6
Continuous
 62
     7
370
    25
100
AcDbLine
 10
6321.6110742488
 20
4669.3629560171
 30
0.0
 11
6301.6110742488
 21
4669.3629560171
 31
0.0
  0
ARC
  5
1DC
330
1F
100
AcDbEntity
  8
0
  6
Continuous
 62
     7
370
    25
100
AcDbCircle
 10
6301.6110742488
 20
4664.3629560171
 30
0.0
 40
5.0
100
AcDbArc
 50
90.0
 51
168.4630409672
  0
ARC
  5
1DD
330
1F
100
AcDbEntity
  8
0
  6
Continuous
 62
     7
370
    25
100
AcDbCircle
 10
6280.6110742488
 20
4664.3629560171
 30
0.0
 40
5.0
100
AcDbArc
 50
11.5369590328
 51
90.0
  0
LINE
  5
1DE
330
1F
100
AcDbEntity
  8
0
  6
Continuous
 62
     7
370
    25
100
AcDbLine
 10
6280.6110742488
 20
4669.3629560171
 30
0.0
 11
6260.6110742488
 21
4669.3629560171
 31
0.0
  0
ARC
  5
1DF
330
1F
100
AcDbEntity
  8
0
  6
Continuous
 62
     7
370
    25
100
AcDbCircle
 10
6260.6110742488
 20
4664.3629560171
 30
0.0
 40
5.00000000000081
100
AcDbArc
 50
90.0
 51
168.4630409672
  0
LINE
  5
1E0
330
1F
100
AcDbEntity
  8
0
  6
Continuous
 62
     7
370
    25
100
AcDbLine
 10
6168.6110742488
 20
4718.1629560171
 30
0.0
 11
7073.2110742488
 21
4718.1629560171
 31
0.0
  0
ARC
  5
1E1
330
1F
100
AcDbEntity
  8
0
  6
Continuous
 62
     7
370
    25
100
AcDbCircle
 10
6198.6110742488
 20
4704.3629560171
 30
0.0
 40
5.0
100
AcDbArc
 50
270.0
 51
90.0
  0
LINE
  5
1E2
330
1F
100
AcDbEntity
  8
0
  6
Continuous
 62
     7
370
    25
100
AcDbLine
 10
6198.6110742488
 20
4709.3629560171
 30
0.0
 11
6178.6110742488
 21
4709.3629560171
 31
0.0
  0
ARC
  5
1E3
330
1F
100
AcDbEntity
  8
0
  6
Continuous
 62
     7
370
    25
100
AcDbCircle
 10
6178.6110742488
 20
4704.3629560171
 30
0.0
 40
5.0
100
AcDbArc
 50
90.0
 51
270.0
  0
LINE
  5
1E4
330
1F
100
AcDbEntity
  8
0
  6
Continuous
 62
     7
370
    25
100
AcDbLine
 10
6178.6110742488
 20
4699.3629560171
 30
0.0
 11
6198.6110742488
 21
4699.3629560171
 31
0.0
  0
ARC
  5
1E5
330
1F
100
AcDbEntity
  8
0
  6
Continuous
 62
     7
370
    25
100
AcDbCircle
 10
6198.6110742488
 20
4684.3629560171
 30
0.0
 40
5.000000000000909
100
AcDbArc
 50
270.0
 51
90.0
  0
LINE
  5
1E6
330
1F
100
AcDbEntity
  8
0
  6
Continuous
 62
     7
370
    25
100
AcDbLine
 10
6198.6110742488
 20
4689.3629560171
 30
0.0
 11
6178.6110742488
 21
4689.3629560171
 31
0.0
  0
ARC
  5
1E7
330
1F
100
AcDbEntity
  8
0
  6
Continuous
 62
     7
370
    25
100
AcDbCircle
 10
6178.6110742488
 20
4684.3629560171
 30
0.0
 40
5.000000000000909
100
AcDbArc
 50
90.0
 51
270.0
  0
LINE
  5
1E8
330
1F
100
AcDbEntity
  8
0
  6
Continuous
 62
     7
370
    25
100
AcDbLine
 10
6178.6110742488
 20
4679.3629560171
 30
0.0
 11
6198.6110742488
 21
4679.3629560171
 31
0.0
  0
ARC
  5
1E9
330
1F
100
AcDbEntity
  8
0
  6
Continuous
 62
     7
370
    25
100
AcDbCircle
 10
6198.6110742488
 20
4664.3629560171
 30
0.0
 40
5.0
100
AcDbArc
 50
11.5369590328
 51
90.0
  0
LINE
  5
1EA
330
1F
100
AcDbEntity
  8
0
  6
Continuous
 62
     7
370
    25
100
AcDbLine
 10
6198.6110742488
 20
4669.3629560171
 30
0.0
 11
6178.6110742488
 21
4669.3629560171
 31
0.0
  0
ARC
  5
1EB
330
1F
100
AcDbEntity
  8
0
  6
Continuous
 62
     7
370
    25
100
AcDbCircle
 10
6178.6110742488
 20
4664.3629560171
 30
0.0
 40
5.0
100
AcDbArc
 50
90.0
 51
270.0
  0
LINE
  5
1EC
330
1F
100
AcDbEntity
  8
0
  6
Continuous
 62
     7
370
    25
100
AcDbLine
 10
6178.6110742488
 20
4659.3629560171
 30
0.0
 11
6196.7823547187
 21
4659.3629560171
 31
0.0
  0
ARC
  5
1ED
330
1F
100
AcDbEntity
  8
0
  6
Continuous
 62
     7
370
    25
100
AcDbCircle
 10
6239.6110742488
 20
4664.3629560171
 30
0.0
 40
5.0
100
AcDbArc
 50
11.5369590328
 51
90.0
  0
LINE
  5
1EE
330
1F
100
AcDbEntity
  8
0
  6
Continuous
 62
     7
370
    25
100
AcDbLine
 10
6239.6110742488
 20
4669.3629560171
 30
0.0
 11
6219.6110742488
 21
4669.3629560171
 31
0.0
  0
ARC
  5
1EF
330
1F
100
AcDbEntity
  8
0
  6
Continuous
 62
     7
370
    25
100
AcDbCircle
 10
6219.6110742488
 20
4664.3629560171
 30
0.0
 40
5.0
100
AcDbArc
 50
90.0
 51
168.4630409672
  0
ARC
  5
1F0
330
1F
100
AcDbEntity
  8
0
  6
Continuous
 62
     7
370
    25
100
AcDbCircle
 10
6239.6110742488
 20
4704.3629560171
 30
0.0
 40
5.0
100
AcDbArc
 50
270.0
 51
90.0
  0
LINE
  5
1F1
330
1F
100
AcDbEntity
  8
0
  6
Continuous
 62
     7
370
    25
100
AcDbLine
 10
6239.6110742488
 20
4709.3629560171
 30
0.0
 11
6219.6110742488
 21
4709.3629560171
 31
0.0
  0
ARC
  5
1F2
330
1F
100
AcDbEntity
  8
0
  6
Continuous
 62
     7
370
    25
100
AcDbCircle
 10
6219.6110742488
 20
4704.3629560171
 30
0.0
 40
5.0
100
AcDbArc
 50
90.0
 51
270.0
  0
LINE
  5
1F3
330
1F
100
AcDbEntity
  8
0
  6
Continuous
 62
     7
370
    25
100
AcDbLine
 10
6219.6110742488
 20
4699.3629560171
 30
0.0
 11
6239.6110742488
 21
4699.3629560171
 31
0.0
  0
ARC
  5
1F4
330
1F
100
AcDbEntity
  8
0
  6
Continuous
 62
     7
370
    25
100
AcDbCircle
 10
6239.6110742488
 20
4684.3629560171
 30
0.0
 40
5.000000000000909
100
AcDbArc
 50
270.0
 51
90.0
  0
LINE
  5
1F5
330
1F
100
AcDbEntity
  8
0
  6
Continuous
 62
     7
370
    25
100
AcDbLine
 10
6239.6110742488
 20
4689.3629560171
 30
0.0
 11
6219.6110742488
 21
4689.3629560171
 31
0.0
  0
ARC
  5
1F6
330
1F
100
AcDbEntity
  8
0
  6
Continuous
 62
     7
370
    25
100
AcDbCircle
 10
6219.6110742488
 20
4684.3629560171
 30
0.0
 40
5.000000000000909
100
AcDbArc
 50
90.0
 51
270.0
  0
LINE
  5
1F7
330
1F
100
AcDbEntity
  8
0
  6
Continuous
 62
     7
370
    25
100
AcDbLine
 10
6219.6110742488
 20
4679.3629560171
 30
0.0
 11
6239.6110742488
 21
4679.3629560171
 31
0.0
  0
LINE
  5
1F8
330
1F
100
AcDbEntity
  8
0
  6
Continuous
 62
     7
370
    25
100
AcDbLine
 10
7073.2110742488
 20
4718.1629560171
 30
0.0
 11
7073.2110742488
 21
4649.3629560171
 31
0.0
  0
LINE
  5
1F9
330
1F
100
AcDbEntity
  8
0
  6
Continuous
 62
     7
370
    25
100
AcDbLine
 10
6168.6110742488
 20
4649.3629560171
 30
0.0
 11
6168.6110742488
 21
4718.1629560171
 31
0.0
  0
LINE
  5
1FA
330
1F
100
AcDbEntity
  8
0
  6
Continuous
 62
     7
370
    25
100
AcDbLine
 10
6654.1610742488
 20
4645.5673197833
 30
0.0
 11
6587.6610742488
 21
4645.5673197833
 31
0.0
  0
LINE
  5
1FB
330
1F
100
AcDbEntity
  8
0
  6
Continuous
 62
     7
370
    25
100
AcDbLine
 10
6580.9110742488
 20
4644.0592451694
 30
0.0
 11
6660.9110742488
 21
4644.0592451694
 31
0.0
  0
LWPOLYLINE
  5
1FC
330
1F
100
AcDbEntity
  8
0
  6
Continuous
 62
     7
370
    25
100
AcDbPolyline
 90
       18
 70
   128
 43
0.0
 10
6664.6651891035
 20
4620.8624288995
 10
6664.7102663239
 20
4620.8933087364
 10
6663.9669620802
 20
4620.390295575
 10
6662.4255072435
 20
4619.3641401106
 10
6660.34367475
 20
4618.0103989407
 10
6657.7058524417
 20
4616.3467076709
 10
6654.6068968906
 20
4614.4636450597
 10
6651.0223129702
 20
4612.3818407764
 10
6647.0589112437
 20
4610.1921465944
 10
6642.7936466187
 20
4607.9626128772
 10
6636.3119676472
 20
4604.8223292271
 10
6629.435967664
 20
4601.7947440537
 10
6622.7701454293
 20
4599.1504051347
 10
6616.0345278962
 20
4596.7506595861
 10
6609.6038440527
 20
4594.7112019193
 10
6603.4399089523
 20
4592.9744238959
 10
6597.7782634361
 20
4591.5667707914
 10
6592.7538686631
 20
4590.4613600785
  0
LWPOLYLINE
  5
1FD
330
1F
100
AcDbEntity
  8
0
  6
Continuous
 62
     7
370
    25
100
AcDbPolyline
 90
        9
 70
   128
 43
0.0
 10
6586.120490071
 20
4597.2557911319
 10
6586.3842618771
 20
4595.7832809107
 10
6586.8744487513
 20
4594.3808511095
 10
6587.5686507249
 20
4593.1125882749
 10
6588.4351449927
 20
4592.0364479532
 10
6589.4343355443
 20
4591.2016063075
 10
6590.5205625742
 20
4590.646212925
 10
6591.6441889889
 20
4590.3956475032
 10
6592.7538686631
 20
4590.4613600785
  0
LINE
  5
1FE
330
1F
100
AcDbEntity
  8
0
  6
Continuous
 62
     7
370
    25
100
AcDbLine
 10
6586.120490071
 20
4597.2557911319
 30
0.0
 11
6585.8712588997
 21
4635.5629560171
 31
0.0
  0
ARC
  5
1FF
330
1F
100
AcDbEntity
  8
0
  6
Continuous
 62
     7
370
    25
100
AcDbCircle
 10
6586.9687660727
 20
4638.8003054335
 30
0.0
 40
1.791632486066472
100
AcDbArc
 50
100.3196220904
 51
187.6127302625
  0
LINE
  5
200
330
1F
100
AcDbEntity
  8
0
  6
Continuous
 62
     7
370
    25
100
AcDbLine
 10
6586.6478145416
 20
4640.5629560171
 30
0.0
 11
6667.9110742488
 21
4640.5629560171
 31
0.0
  0
LINE
  5
201
330
1F
100
AcDbEntity
  8
0
  6
Continuous
 62
     7
370
    25
100
AcDbLine
 10
6585.1929248017
 20
4638.5629560171
 30
0.0
 11
6585.1929248017
 21
4635.5629560171
 31
0.0
  0
LINE
  5
202
330
1F
100
AcDbEntity
  8
0
  6
Continuous
 62
     7
370
    25
100
AcDbLine
 10
6585.1929248017
 20
4635.5629560171
 30
0.0
 11
6669.9110742488
 21
4635.5629560171
 31
0.0
  0
LINE
  5
203
330
1F
100
AcDbEntity
  8
0
  6
Continuous
 62
     7
370
    25
100
AcDbLine
 10
6579.1610742488
 20
4643.5629560171
 30
0.0
 11
6662.6610742488
 21
4643.5629560171
 31
0.0
  0
LINE
  5
204
330
1F
100
AcDbEntity
  8
0
  6
Continuous
 62
     7
370
    25
100
AcDbLine
 10
6597.0667064718
 20
4568.379717379
 30
0.0
 11
6596.6228260516
 21
4591.2998635209
 31
0.0
  0
LINE
  5
205
330
1F
100
AcDbEntity
  8
0
  6
Continuous
 62
     7
370
    25
100
AcDbLine
 10
6585.1929248017
 20
4638.5629560171
 30
0.0
 11
6567.6548266284
 21
4638.5629560171
 31
0.0
  0
ARC
  5
206
330
1F
100
AcDbEntity
  8
0
  6
Continuous
 62
     7
370
    25
100
AcDbCircle
 10
6570.7100974764
 20
4639.0468523632
 30
0.0
 40
3.093353459918438
100
AcDbArc
 50
150.6517591702
 51
188.9997984493
  0
LINE
  5
207
330
1F
100
AcDbEntity
  8
0
  6
Continuous
 62
     7
370
    25
100
AcDbLine
 10
6568.01375452
 20
4640.5629560171
 30
0.0
 11
6586.6478145416
 21
4640.5629560171
 31
0.0
  0
LINE
  5
208
330
1F
100
AcDbEntity
  8
0
  6
Continuous
 62
     7
370
    25
100
AcDbLine
 10
6567.6548266284
 20
4638.5629560171
 30
0.0
 11
6567.6548266284
 21
4635.5629560171
 31
0.0
  0
LINE
  5
209
330
1F
100
AcDbEntity
  8
0
  6
Continuous
 62
     7
370
    25
100
AcDbLine
 10
6567.6548266284
 20
4635.5629560171
 30
0.0
 11
6585.1929248017
 21
4635.5629560171
 31
0.0
  0
ARC
  5
20A
330
1F
100
AcDbEntity
  8
0
  6
Continuous
 62
     7
370
    25
100
AcDbCircle
 10
6554.285948775
 20
4721.9796329561
 30
0.0
 40
128.7224717712958
100
AcDbArc
 50
276.5444516408
 51
284.318474563
  0
LWPOLYLINE
  5
20B
330
1F
100
AcDbEntity
  8
0
  6
Continuous
 62
     7
370
    25
100
AcDbPolyline
 90
        6
 70
   128
 43
0.0
 10
6568.9569663446
 20
4594.0959515015
 10
6569.1301360196
 20
4592.7524869454
 10
6569.3966274706
 20
4591.41205171
 10
6570.1230756997
 20
4589.1859453578
 10
6571.0227100779
 20
4587.7439129143
 10
6571.9587950804
 20
4587.2989530481
  0
ARC
  5
20C
330
1F
100
AcDbEntity
  8
0
  6
Continuous
 62
     7
370
    25
100
AcDbCircle
 10
6552.3286857789
 20
4786.3332687044
 30
0.0
 40
199.9999999999345
100
AcDbArc
 50
275.6326806459
 51
281.6613043232
  0
LINE
  5
20D
330
1F
100
AcDbEntity
  8
0
  6
Continuous
 62
     7
370
    25
100
AcDbLine
 10
6568.9569663446
 20
4594.0959515015
 30
0.0
 11
6568.8957279195
 21
4635.5629560171
 31
0.0
  0
LINE
  5
20E
330
1F
100
AcDbEntity
  8
0
  6
Continuous
 62
     7
370
    25
100
AcDbLine
 10
6646.1542179562
 20
4561.5629560171
 30
0.0
 11
6603.4782459485
 21
4561.5629560171
 31
0.0
  0
ARC
  5
20F
330
1F
100
AcDbEntity
  8
0
  6
Continuous
 62
     7
370
    25
100
AcDbCircle
 10
6603.7777961525
 20
4568.2682831503
 30
0.0
 40
6.71201477116945
100
AcDbArc
 50
179.0487201604
 51
267.4420996519
  0
LINE
  5
210
330
1F
100
AcDbEntity
  8
0
  6
Continuous
 62
     7
370
    25
100
AcDbLine
 10
6497.1593942733
 20
4634.2583286174
 30
0.0
 11
6497.6092532119
 21
4582.7096001002
 31
0.0
  0
LINE
  5
211
330
1F
100
AcDbEntity
  8
0
  6
Continuous
 62
     7
370
    25
100
AcDbLine
 10
6471.03295331
 20
4628.254665801
 30
0.0
 11
6471.3820130685
 21
4588.2563792631
 31
0.0
  0
LINE
  5
212
330
1F
100
AcDbEntity
  8
0
  6
Continuous
 62
     7
370
    25
100
AcDbLine
 10
6561.9110742488
 20
4638.5629560171
 30
0.0
 11
6561.9110742488
 21
4635.5629560171
 31
0.0
  0
LINE
  5
213
330
1F
100
AcDbEntity
  8
0
  6
Continuous
 62
     7
370
    25
100
AcDbLine
 10
6567.6548266284
 20
4638.5629560171
 30
0.0
 11
6561.9110742488
 21
4638.5629560171
 31
0.0
  0
LINE
  5
214
330
1F
100
AcDbEntity
  8
0
  6
Continuous
 62
     7
370
    25
100
AcDbLine
 10
6561.9110742488
 20
4635.5629560171
 30
0.0
 11
6567.6548266284
 21
4635.5629560171
 31
0.0
  0
ARC
  5
215
330
1F
100
AcDbEntity
  8
0
  6
Continuous
 62
     7
370
    25
100
AcDbCircle
 10
6563.9110742488
 20
4638.5629560171
 30
0.0
 40
2.000000000000909
100
AcDbArc
 50
90.0
 51
180.0
  0
LINE
  5
216
330
1F
100
AcDbEntity
  8
0
  6
Continuous
 62
     7
370
    25
100
AcDbLine
 10
6563.9110742488
 20
4640.5629560171
 30
0.0
 11
6568.01375452
 21
4640.5629560171
 31
0.0
  0
LINE
  5
217
330
1F
100
AcDbEntity
  8
0
  6
Continuous
 62
     7
370
    25
100
AcDbLine
 10
6527.2601356687
 20
4588.7439250519
 30
0.0
 11
6526.9110742488
 21
4628.7424019745
 31
0.0
  0
LINE
  5
218
330
1F
100
AcDbEntity
  8
0
  6
Continuous
 62
     7
370
    25
100
AcDbLine
 10
6506.9699445352
 20
4628.5683783718
 30
0.0
 11
6507.3190059551
 21
4588.5699014493
 31
0.0
  0
ARC
  5
219
330
1F
100
AcDbEntity
  8
0
  6
Continuous
 62
     7
370
    25
100
AcDbCircle
 10
6567.5865666014
 20
4637.8360493517
 30
0.0
 40
43.76156024868504
100
AcDbArc
 50
265.6588877915
 51
271.794519202
  0
LWPOLYLINE
  5
21A
330
1F
100
AcDbEntity
  8
0
  6
Continuous
 62
     7
370
    25
100
AcDbPolyline
 90
       11
 70
   128
 43
0.0
 10
6564.0106421935
 20
4624.1535996407
 10
6564.1679384023
 20
4622.1094823708
 10
6564.5320054978
 20
4619.91727825
 10
6565.2433795469
 20
4616.5022119726
 10
6565.9161900636
 20
4612.8866278367
 10
6566.1892760909
 20
4610.352563351
 10
6566.2152610613
 20
4607.7531265673
 10
6565.597186077
 20
4602.7518290644
 10
6564.9465749418
 20
4599.3916593161
 10
6564.4090715902
 20
4596.1183662179
 10
6564.2740731391
 20
4594.2000335704
  0
LINE
  5
21B
330
1F
100
AcDbEntity
  8
0
  6
Continuous
 62
     7
370
    25
100
AcDbLine
 10
6564.0106421935
 20
4624.1535996407
 30
0.0
 11
6563.9110742488
 21
4635.5629560171
 31
0.0
  0
ARC
  5
21C
330
1F
100
AcDbEntity
  8
0
  6
Continuous
 62
     7
370
    25
100
AcDbCircle
 10
6571.2717412549
 20
4594.2651540961
 30
0.0
 40
6.999999999998697
100
AcDbArc
 50
181.914945567
 51
275.6326806459
  0
LWPOLYLINE
  5
21D
330
1F
100
AcDbEntity
  8
0
  6
Continuous
 62
     7
370
    25
100
AcDbPolyline
 90
        4
 70
   128
 43
0.0
 10
6564.2740818176
 20
4594.2000377525
 10
6564.2740811499
 20
4594.1999924983
 10
6564.2756536621
 20
4594.0313248627
 10
6564.2756551594
 20
4594.0312801574
  0
LWPOLYLINE
  5
21E
330
1F
100
AcDbEntity
  8
0
  6
Continuous
 62
     7
370
    25
100
AcDbPolyline
 90
       12
 70
   128
 43
0.0
 10
6562.2630748993
 20
4595.534084396
 10
6562.4532479394
 20
4597.2781861033
 10
6563.1732244992
 20
4600.1848946518
 10
6564.0821949192
 20
4603.3099408597
 10
6564.6170460251
 20
4605.5427480755
 10
6564.9303800542
 20
4607.857279292
 10
6564.8970815422
 20
4610.2097485912
 10
6564.5422102379
 20
4612.5238230024
 10
6563.6490806675
 20
4615.8230779865
 10
6562.7059036947
 20
4618.9139108905
 10
6562.2248200212
 20
4620.9099736368
 10
6562.0226876806
 20
4622.7645968236
  0
ARC
  5
21F
330
1F
100
AcDbEntity
  8
0
  6
Continuous
 62
     7
370
    25
100
AcDbCircle
 10
6562.2721768057
 20
4624.5246169786
 30
0.0
 40
1.777615191625252
100
AcDbArc
 50
261.931873147
 51
347.952862863
  0
ARC
  5
220
330
1F
100
AcDbEntity
  8
0
  6
Continuous
 62
     7
370
    25
100
AcDbCircle
 10
6562.5159583327
 20
4593.7325378752
 30
0.0
 40
1.81920859098998
100
AcDbArc
 50
14.8907936099
 51
97.990412116
  0
LINE
  5
221
330
1F
100
AcDbEntity
  8
0
  6
Continuous
 62
     7
370
    25
100
AcDbLine
 10
6562.2648081503
 20
4595.3356848343
 30
0.0
 11
6562.2630919637
 21
4595.5340842926
 31
0.0
  0
LINE
  5
222
330
1F
100
AcDbEntity
  8
0
  6
Continuous
 62
     7
370
    25
100
AcDbLine
 10
6562.6642165696
 20
4593.178794663
 30
0.0
 11
6562.2648022685
 21
4595.3356846983
 31
0.0
  0
LINE
  5
223
330
1F
100
AcDbEntity
  8
0
  6
Continuous
 62
     7
370
    25
100
AcDbLine
 10
6402.4816041865
 20
4627.6564272404
 30
0.0
 11
6402.830663945
 21
4587.6581407025
 31
0.0
  0
LINE
  5
224
330
1F
100
AcDbEntity
  8
0
  6
Continuous
 62
     7
370
    25
100
AcDbLine
 10
6398.9958740137
 20
4627.3406976689
 30
0.0
 11
6399.339954425
 21
4587.9129878071
 31
0.0
  0
LINE
  5
225
330
1F
100
AcDbEntity
  8
0
  6
Continuous
 62
     7
370
    25
100
AcDbLine
 10
6398.9958740137
 20
4625.125912538
 30
0.0
 11
6399.3013010947
 21
4590.1274356155
 31
0.0
  0
ARC
  5
226
330
1F
100
AcDbEntity
  8
0
  6
Continuous
 62
     7
370
    25
100
AcDbCircle
 10
6562.5647846582
 20
4593.59603695
 30
0.0
 40
1.765353851706011
100
AcDbArc
 50
14.2723990244
 51
99.7836484596
  0
ARC
  5
227
330
1F
100
AcDbEntity
  8
0
  6
Continuous
 62
     7
370
    25
100
AcDbCircle
 10
6563.0237309339
 20
4591.51577535
 30
0.0
 40
1.701435809414696
100
AcDbArc
 50
23.1834570491
 51
102.198580133
  0
LINE
  5
228
330
1F
100
AcDbEntity
  8
0
  6
Continuous
 62
     7
370
    25
100
AcDbLine
 10
6564.8257698314
 20
4588.700465397
 30
0.0
 11
6564.8253070118
 21
4588.6899181539
 31
0.0
  0
LINE
  5
229
330
1F
100
AcDbEntity
  8
0
  6
Continuous
 62
     7
370
    25
100
AcDbLine
 10
7023.2110742488
 20
4551.3629560171
 30
0.0
 11
7023.2110742488
 21
4544.3629560171
 31
0.0
  0
LINE
  5
22A
330
1F
100
AcDbEntity
  8
0
  6
Continuous
 62
     7
370
    25
100
AcDbLine
 10
7023.2110742488
 20
4551.3629560171
 30
0.0
 11
7031.7110742488
 21
4551.3629560171
 31
0.0
  0
LINE
  5
22B
330
1F
100
AcDbEntity
  8
0
  6
Continuous
 62
     7
370
    25
100
AcDbLine
 10
7031.7110742488
 20
4551.3629560171
 30
0.0
 11
7031.7110742488
 21
4544.3629560171
 31
0.0
  0
LINE
  5
22C
330
1F
100
AcDbEntity
  8
0
  6
Continuous
 62
     7
370
    25
100
AcDbLine
 10
7023.2110742488
 20
4544.3629560171
 30
0.0
 11
7031.7110742488
 21
4544.3629560171
 31
0.0
  0
LINE
  5
22D
330
1F
100
AcDbEntity
  8
0
  6
Continuous
 62
     7
370
    25
100
AcDbLine
 10
7014.7110742488
 20
4551.3629560171
 30
0.0
 11
7014.7110742488
 21
4544.3629560171
 31
0.0
  0
LINE
  5
22E
330
1F
100
AcDbEntity
  8
0
  6
Continuous
 62
     7
370
    25
100
AcDbLine
 10
7014.7110742488
 20
4551.3629560171
 30
0.0
 11
7023.2110742488
 21
4551.3629560171
 31
0.0
  0
LINE
  5
22F
330
1F
100
AcDbEntity
  8
0
  6
Continuous
 62
     7
370
    25
100
AcDbLine
 10
7014.7110742488
 20
4544.3629560171
 30
0.0
 11
7023.2110742488
 21
4544.3629560171
 31
0.0
  0
LINE
  5
230
330
1F
100
AcDbEntity
  8
0
  6
Continuous
 62
     7
370
    25
100
AcDbLine
 10
7023.2110742488
 20
4631.3629560171
 30
0.0
 11
7027.2110742488
 21
4631.3629560171
 31
0.0
  0
LINE
  5
231
330
1F
100
AcDbEntity
  8
0
  6
Continuous
 62
     7
370
    25
100
AcDbLine
 10
7019.2110742488
 20
4631.3629560171
 30
0.0
 11
7023.2110742488
 21
4631.3629560171
 31
0.0
  0
LINE
  5
232
330
1F
100
AcDbEntity
  8
0
  6
Continuous
 62
     7
370
    25
100
AcDbLine
 10
6223.6110742488
 20
4551.3629560171
 30
0.0
 11
6227.1110742488
 21
4551.3629560171
 31
0.0
  0
LINE
  5
233
330
1F
100
AcDbEntity
  8
0
  6
Continuous
 62
     7
370
    25
100
AcDbLine
 10
6227.1110742488
 20
4551.3629560171
 30
0.0
 11
6227.1110742488
 21
4546.3629560171
 31
0.0
  0
LINE
  5
234
330
1F
100
AcDbEntity
  8
0
  6
Continuous
 62
     7
370
    25
100
AcDbLine
 10
6210.1110742488
 20
4551.3629560171
 30
0.0
 11
6210.1110742488
 21
4546.3629560171
 31
0.0
  0
LINE
  5
235
330
1F
100
AcDbEntity
  8
0
  6
Continuous
 62
     7
370
    25
100
AcDbLine
 10
6210.1110742488
 20
4551.3629560171
 30
0.0
 11
6213.6110742488
 21
4551.3629560171
 31
0.0
  0
LINE
  5
236
330
1F
100
AcDbEntity
  8
0
  6
Continuous
 62
     7
370
    25
100
AcDbLine
 10
6204.6110742488
 20
4546.3629560171
 30
0.0
 11
6254.6110742488
 21
4546.3629560171
 31
0.0
  0
LINE
  5
237
330
1F
100
AcDbEntity
  8
0
  6
Continuous
 62
     7
370
    25
100
AcDbLine
 10
6254.6110742488
 20
4546.3629560171
 30
0.0
 11
6254.6110742488
 21
4544.3629560171
 31
0.0
  0
LINE
  5
238
330
1F
100
AcDbEntity
  8
0
  6
Continuous
 62
     7
370
    25
100
AcDbLine
 10
6204.6110742488
 20
4546.3629560171
 30
0.0
 11
6204.6110742488
 21
4544.3629560171
 31
0.0
  0
LINE
  5
239
330
1F
100
AcDbEntity
  8
0
  6
Continuous
 62
     7
370
    25
100
AcDbLine
 10
6204.6110742488
 20
4544.3629560171
 30
0.0
 11
6254.6110742488
 21
4544.3629560171
 31
0.0
  0
LINE
  5
23A
330
1F
100
AcDbEntity
  8
0
  6
Continuous
 62
     7
370
    25
100
AcDbLine
 10
6214.6110742488
 20
4631.3629560171
 30
0.0
 11
6222.6110742488
 21
4631.3629560171
 31
0.0
  0
LINE
  5
23B
330
1F
100
AcDbEntity
  8
0
  6
Continuous
 62
     7
370
    25
100
AcDbLine
 10
7037.2110742488
 20
4546.3629560171
 30
0.0
 11
7037.2110742488
 21
4544.3629560171
 31
0.0
  0
LINE
  5
23C
330
1F
100
AcDbEntity
  8
0
  6
Continuous
 62
     7
370
    25
100
AcDbLine
 10
6987.2110742488
 20
4544.3629560171
 30
0.0
 11
7014.7110742488
 21
4544.3629560171
 31
0.0
  0
LINE
  5
23D
330
1F
100
AcDbEntity
  8
0
  6
Continuous
 62
     7
370
    25
100
AcDbLine
 10
7031.7110742488
 20
4544.3629560171
 30
0.0
 11
7037.2110742488
 21
4544.3629560171
 31
0.0
  0
LINE
  5
23E
330
1F
100
AcDbEntity
  8
0
  6
Continuous
 62
     7
370
    25
100
AcDbLine
 10
6987.2110742488
 20
4546.3629560171
 30
0.0
 11
6987.2110742488
 21
4544.3629560171
 31
0.0
  0
LINE
  5
23F
330
1F
100
AcDbEntity
  8
0
  6
Continuous
 62
     7
370
    25
100
AcDbLine
 10
6987.2110742488
 20
4546.3629560171
 30
0.0
 11
7014.7110742488
 21
4546.3629560171
 31
0.0
  0
LINE
  5
240
330
1F
100
AcDbEntity
  8
0
  6
Continuous
 62
     7
370
    25
100
AcDbLine
 10
7031.7110742488
 20
4546.3629560171
 30
0.0
 11
7037.2110742488
 21
4546.3629560171
 31
0.0
  0
LINE
  5
241
330
1F
100
AcDbEntity
  8
0
  6
Continuous
 62
     8
370
    25
100
AcDbLine
 10
7013.2110742488
 20
4623.6128420347
 30
0.0
 11
7014.7110742488
 21
4623.6128420347
 31
0.0
  0
LINE
  5
242
330
1F
100
AcDbEntity
  8
0
  6
Continuous
 62
     8
370
    25
100
AcDbLine
 10
7031.7110742488
 20
4623.6128420347
 30
0.0
 11
7033.2110742488
 21
4623.6128420347
 31
0.0
  0
LINE
  5
243
330
1F
100
AcDbEntity
  8
0
  6
Continuous
 62
     8
370
    25
100
AcDbLine
 10
6228.6110742488
 20
4623.6128420347
 30
0.0
 11
6227.1110742488
 21
4623.6128420347
 31
0.0
  0
LINE
  5
244
330
1F
100
AcDbEntity
  8
0
  6
Continuous
 62
     8
370
    25
100
AcDbLine
 10
6210.1110742488
 20
4623.6128420347
 30
0.0
 11
6208.6110742488
 21
4623.6128420347
 31
0.0
  0
LINE
  5
245
330
1F
100
AcDbEntity
  8
0
  6
Continuous
 62
     8
370
    25
100
AcDbLine
 10
6200.3110742488
 20
4665.3629560171
 30
0.0
 11
6200.3110742488
 21
4663.3114146857
 31
0.0
  0
LINE
  5
246
330
1F
100
AcDbEntity
  8
0
  6
Continuous
 62
     8
370
    25
100
AcDbLine
 10
7041.5110742488
 20
4665.3629560171
 30
0.0
 11
7041.5110742488
 21
4663.3114146857
 31
0.0
  0
LINE
  5
247
330
1F
100
AcDbEntity
  8
0
  6
Continuous
 62
     8
370
    25
100
AcDbLine
 10
6200.3110742488
 20
4659.1043567825
 30
0.0
 11
6200.3110742488
 21
4649.3629560171
 31
0.0
  0
LINE
  5
248
330
1F
100
AcDbEntity
  8
0
  6
Continuous
 62
     8
370
    25
100
AcDbLine
 10
7041.5110742488
 20
4659.1043567825
 30
0.0
 11
7041.5110742488
 21
4649.3629560171
 31
0.0
  0
LINE
  5
249
330
1F
100
AcDbEntity
  8
0
  6
Continuous
 62
     8
370
    25
100
AcDbLine
 10
6581.6088481162
 20
4644.0866299434
 30
0.0
 11
6660.2133003814
 21
4644.0866299434
 31
0.0
  0
LINE
  5
24A
330
1F
100
AcDbEntity
  8
0
  6
Continuous
 62
     8
370
    25
100
AcDbLine
 10
6581.8479595014
 20
4644.5007830112
 30
0.0
 11
6659.9741889962
 21
4644.5007830112
 31
0.0
  0
LWPOLYLINE
  5
24B
330
1F
100
AcDbEntity
  8
0
  6
Continuous
 62
     8
370
    25
100
AcDbPolyline
 90
       21
 70
   128
 43
0.0
 10
6586.120490071
 20
4597.2557911319
 10
6591.7107990233
 20
4598.2988996423
 10
6598.254064079
 20
4599.6808977157
 10
6605.130424461
 20
4601.3246157408
 10
6612.5524769496
 20
4603.3249651568
 10
6620.0874568513
 20
4605.6039291769
 10
6627.7628660319
 20
4608.1925066679
 10
6635.4713539068
 20
4611.0757700098
 10
6639.2648943012
 20
4612.6034540323
 10
6642.9179551912
 20
4614.1445000827
 10
6646.5470533571
 20
4615.7456995083
 10
6649.9767574561
 20
4617.3246989282
 10
6653.2775004698
 20
4618.9068361015
 10
6656.3147096416
 20
4620.4179961388
 10
6658.9777424557
 20
4621.788126491
 10
6661.3418366646
 20
4623.0404941527
 10
6663.4504888543
 20
4624.1869359992
 10
6665.177516853
 20
4625.1469738629
 10
6666.9152928545
 20
4626.1324899076
 10
6667.7667541
 20
4626.6226215868
 10
6667.7227750201
 20
4626.5971984183
  0
LINE
  5
24C
330
1F
100
AcDbEntity
  8
0
  6
Continuous
 62
     8
370
    25
100
AcDbLine
 10
6669.9110742488
 20
4638.5629560171
 30
0.0
 11
6585.1929248017
 21
4638.5629560171
 31
0.0
  0
LINE
  5
24D
330
1F
100
AcDbEntity
  8
0
  6
Continuous
 62
     8
370
    25
100
AcDbLine
 10
6597.0667064718
 20
4568.3797173789
 30
0.0
 11
6653.151819231
 21
4568.3797173789
 31
0.0
  0
LINE
  5
24E
330
1F
100
AcDbEntity
  8
0
  6
Continuous
 62
     8
370
    25
100
AcDbLine
 10
6554.3034581828
 20
4582.4672444874
 30
0.0
 11
6553.8407347536
 21
4635.490097626
 31
0.0
  0
LINE
  5
24F
330
1F
100
AcDbEntity
  8
0
  6
Continuous
 62
     8
370
    25
100
AcDbLine
 10
6528.8407347536
 20
4634.6103096582
 30
0.0
 11
6529.2919113867
 21
4582.9105882983
 31
0.0
  0
LINE
  5
250
330
1F
100
AcDbEntity
  8
0
  6
Continuous
 62
     8
370
    25
100
AcDbLine
 10
6527.3276615594
 20
4584.8753693638
 30
0.0
 11
6526.9110742488
 21
4632.6115469521
 31
0.0
  0
LINE
  5
251
330
1F
100
AcDbEntity
  8
0
  6
Continuous
 62
     8
370
    25
100
AcDbLine
 10
6505.3311181588
 20
4631.7683783718
 30
0.0
 11
6505.7362768806
 21
4585.3417873608
 31
0.0
  0
LINE
  5
252
330
1F
100
AcDbEntity
  8
0
  6
Continuous
 62
     8
370
    25
100
AcDbLine
 10
6505.0861369827
 20
4631.5682203555
 30
0.0
 11
6505.4878397772
 21
4585.5376393811
 31
0.0
  0
LINE
  5
253
330
1F
100
AcDbEntity
  8
0
  6
Continuous
 62
     8
370
    25
100
AcDbLine
 10
6506.1689367862
 20
4631.7683783718
 30
0.0
 11
6506.573967904
 21
4585.356409312
 31
0.0
  0
LINE
  5
254
330
1F
100
AcDbEntity
  8
0
  6
Continuous
 62
     8
370
    25
100
AcDbLine
 10
6506.414750513
 20
4631.5639372532
 30
0.0
 11
6506.8161762028
 21
4585.5651093343
 31
0.0
  0
LINE
  5
255
330
1F
100
AcDbEntity
  8
0
  6
Continuous
 62
     8
370
    25
100
AcDbLine
 10
6504.6699445352
 20
4629.5225691207
 30
0.0
 11
6505.036009181
 21
4587.5757154935
 31
0.0
  0
LINE
  5
256
330
1F
100
AcDbEntity
  8
0
  6
Continuous
 62
     8
370
    25
100
AcDbLine
 10
6502.3850690763
 20
4628.5623379307
 30
0.0
 11
6502.7347233747
 21
4588.4959238604
 31
0.0
  0
ARC
  5
257
330
1F
100
AcDbEntity
  8
0
  6
Continuous
 62
     8
370
    25
100
AcDbCircle
 10
6596.8607349013
 20
4563.8864484643
 30
0.0
 40
4.497987308476284
100
AcDbArc
 50
87.3753972298
 51
107.4379694261
  0
LINE
  5
258
330
1F
100
AcDbEntity
  8
0
  6
Continuous
 62
     8
370
    25
100
AcDbLine
 10
6562.0226876806
 20
4622.7645968236
 30
0.0
 11
6561.9678503037
 21
4629.0483378243
 31
0.0
  0
LWPOLYLINE
  5
259
330
1F
100
AcDbEntity
  8
0
  6
Continuous
 62
     8
370
    25
100
AcDbPolyline
 90
        6
 70
   128
 43
0.0
 10
6563.5417050247
 20
4589.1156953246
 10
6563.5476839304
 20
4589.080069818
 10
6563.4854788162
 20
4589.4491389371
 10
6563.3361774501
 20
4590.3041436889
 10
6563.0964597803
 20
4591.5332933332
 10
6562.6642165696
 20
4593.178794663
  0
ARC
  5
25A
330
1F
100
AcDbEntity
  8
0
  6
Continuous
 62
     8
370
    25
100
AcDbCircle
 10
6550.8083825653
 20
4589.4939211628
 30
0.0
 40
14.03982613208187
100
AcDbArc
 50
356.7602233054
 51
11.052987354
  0
ARC
  5
25B
330
1F
100
AcDbEntity
  8
0
  6
Continuous
 62
     7
370
    25
100
AcDbCircle
 10
6200.3110742488
 20
4309.5336538462
 30
0.0
 40
4.399999999999636
100
AcDbArc
 50
90.0
 51
180.0
  0
LINE
  5
25C
330
1F
100
AcDbEntity
  8
0
  6
Continuous
 62
     7
370
    25
100
AcDbLine
 10
7041.5110742488
 20
4313.9336538462
 30
0.0
 11
6200.3110242488
 21
4313.9336538462
 31
0.0
  0
ARC
  5
25D
330
1F
100
AcDbEntity
  8
0
  6
Continuous
 62
     7
370
    25
100
AcDbCircle
 10
7041.5110742488
 20
4309.5336538462
 30
0.0
 40
4.399999999999636
100
AcDbArc
 50
0.0
 51
90.0
  0
LINE
  5
25E
330
1F
100
AcDbEntity
  8
0
  6
Continuous
 62
     7
370
    25
100
AcDbLine
 10
7045.9110742488
 20
4209.5336538462
 30
0.0
 11
7045.9110742488
 21
4309.5336538462
 31
0.0
  0
LINE
  5
25F
330
1F
100
AcDbEntity
  8
0
  6
Continuous
 62
     7
370
    25
100
AcDbLine
 10
6195.9110742488
 20
4309.5336538462
 30
0.0
 11
6195.9110742488
 21
4209.5336538462
 31
0.0
  0
ARC
  5
260
330
1F
100
AcDbEntity
  8
0
  6
Continuous
 62
     7
370
    25
100
AcDbCircle
 10
7041.5110742488
 20
4209.5336538462
 30
0.0
 40
4.399999999999636
100
AcDbArc
 50
270.0
 51
0.0
  0
ARC
  5
261
330
1F
100
AcDbEntity
  8
0
  6
Continuous
 62
     7
370
    25
100
AcDbCircle
 10
6200.3110742488
 20
4209.5336538462
 30
0.0
 40
4.399999999999636
100
AcDbArc
 50
180.0
 51
270.0
  0
LINE
  5
262
330
1F
100
AcDbEntity
  8
0
  6
Continuous
 62
     7
370
    25
100
AcDbLine
 10
6200.3110742488
 20
4205.1336538462
 30
0.0
 11
7041.5110742488
 21
4205.1336538462
 31
0.0
  0
ARC
  5
263
330
1F
100
AcDbEntity
  8
0
  6
Continuous
 62
     7
370
    25
100
AcDbCircle
 10
6620.9110742488
 20
4259.5336538462
 30
0.0
 40
18.15000000000055
100
AcDbArc
 50
90.0
 51
176.8328746966
  0
ARC
  5
264
330
1F
100
AcDbEntity
  8
0
  6
Continuous
 62
     7
370
    25
100
AcDbCircle
 10
6620.9110742488
 20
4259.5336538462
 30
0.0
 40
18.15000000000055
100
AcDbArc
 50
3.1671253034
 51
90.0
  0
ARC
  5
265
330
1F
100
AcDbEntity
  8
0
  6
Continuous
 62
     7
370
    25
100
AcDbCircle
 10
6620.9110742488
 20
4259.5336538462
 30
0.0
 40
20.05000000000015
100
AcDbArc
 50
3.1671253034
 51
176.8328746966
  0
ARC
  5
266
330
1F
100
AcDbEntity
  8
0
  6
Continuous
 62
     7
370
    25
100
AcDbCircle
 10
6602.8387196706
 20
4260.5336538462
 30
0.0
 40
0.0500000000002805
100
AcDbArc
 50
176.8328746962
 51
270.0
  0
ARC
  5
267
330
1F
100
AcDbEntity
  8
0
  6
Continuous
 62
     7
370
    25
100
AcDbCircle
 10
6602.8387196706
 20
4260.5336538462
 30
0.0
 40
1.950000000000195
100
AcDbArc
 50
176.8328746966
 51
270.0
  0
ARC
  5
268
330
1F
100
AcDbEntity
  8
0
  6
Continuous
 62
     7
370
    25
100
AcDbCircle
 10
6638.983428827
 20
4260.5336538462
 30
0.0
 40
0.0499999999993724
100
AcDbArc
 50
270.0
 51
3.1671253038
  0
ARC
  5
269
330
1F
100
AcDbEntity
  8
0
  6
Continuous
 62
     7
370
    25
100
AcDbCircle
 10
6638.983428827
 20
4260.5336538462
 30
0.0
 40
1.949999999999818
100
AcDbArc
 50
270.0
 51
3.1671253034
  0
LINE
  5
26A
330
1F
100
AcDbEntity
  8
0
  6
Continuous
 62
     7
370
    25
100
AcDbLine
 10
6602.8387196706
 20
4258.5836538462
 30
0.0
 11
6603.0110742488
 21
4258.5836538462
 31
0.0
  0
LINE
  5
26B
330
1F
100
AcDbEntity
  8
0
  6
Continuous
 62
     7
370
    25
100
AcDbLine
 10
6607.2110742488
 20
4258.5836538462
 30
0.0
 11
6607.3387196706
 21
4258.5836538462
 31
0.0
  0
LINE
  5
26C
330
1F
100
AcDbEntity
  8
0
  6
Continuous
 62
     7
370
    25
100
AcDbLine
 10
6607.3387196706
 20
4260.4836538462
 30
0.0
 11
6607.2110742488
 21
4260.4836538462
 31
0.0
  0
LINE
  5
26D
330
1F
100
AcDbEntity
  8
0
  6
Continuous
 62
     7
370
    25
100
AcDbLine
 10
6603.0110742488
 20
4260.4836538462
 30
0.0
 11
6602.8387196706
 21
4260.4836538462
 31
0.0
  0
LINE
  5
26E
330
1F
100
AcDbEntity
  8
0
  6
Continuous
 62
     7
370
    25
100
AcDbLine
 10
6634.483428827
 20
4258.5836538462
 30
0.0
 11
6634.6103930202
 21
4258.5836538462
 31
0.0
  0
LINE
  5
26F
330
1F
100
AcDbEntity
  8
0
  6
Continuous
 62
     7
370
    25
100
AcDbLine
 10
6638.8103930202
 20
4258.5836538462
 30
0.0
 11
6638.983428827
 21
4258.5836538462
 31
0.0
  0
LINE
  5
270
330
1F
100
AcDbEntity
  8
0
  6
Continuous
 62
     7
370
    25
100
AcDbLine
 10
6638.983428827
 20
4260.4836538462
 30
0.0
 11
6638.8103930202
 21
4260.4836538462
 31
0.0
  0
LINE
  5
271
330
1F
100
AcDbEntity
  8
0
  6
Continuous
 62
     7
370
    25
100
AcDbLine
 10
6634.6103930202
 20
4260.4836538462
 30
0.0
 11
6634.483428827
 21
4260.4836538462
 31
0.0
  0
LINE
  5
272
330
1F
100
AcDbEntity
  8
0
  6
Continuous
 62
     7
370
    25
100
AcDbLine
 10
6603.2444058406
 20
4269.1200414534
 30
0.0
 11
6603.301313528
 21
4269.1200414534
 31
0.0
  0
LINE
  5
273
330
1F
100
AcDbEntity
  8
0
  6
Continuous
 62
     7
370
    25
100
AcDbLine
 10
6603.4152555299
 20
4249.9472662389
 30
0.0
 11
6603.2444058406
 21
4249.9472662389
 31
0.0
  0
LINE
  5
274
330
1F
100
AcDbEntity
  8
0
  6
Continuous
 62
     7
370
    25
100
AcDbLine
 10
6168.6110742488
 20
4332.2336538462
 30
0.0
 11
7073.2110742488
 21
4332.2336538462
 31
0.0
  0
LINE
  5
275
330
1F
100
AcDbEntity
  8
0
  6
Continuous
 62
     7
370
    25
100
AcDbLine
 10
7073.2110742488
 20
4332.2336538462
 30
0.0
 11
7073.2110742488
 21
4330.7336538462
 31
0.0
  0
LINE
  5
276
330
1F
100
AcDbEntity
  8
0
  6
Continuous
 62
     7
370
    25
100
AcDbLine
 10
6168.6110742488
 20
4330.7336538462
 30
0.0
 11
7073.2110742488
 21
4330.7336538462
 31
0.0
  0
LINE
  5
277
330
1F
100
AcDbEntity
  8
0
  6
Continuous
 62
     7
370
    25
100
AcDbLine
 10
6168.6110742488
 20
4332.2336538462
 30
0.0
 11
6168.6110742488
 21
4330.7336538462
 31
0.0
  0
ARC
  5
278
330
1F
100
AcDbEntity
  8
0
  6
Continuous
 62
     7
370
    25
100
AcDbCircle
 10
6200.3110742488
 20
4309.5336538462
 30
0.0
 40
0.9999999999990905
100
AcDbArc
 50
90.0
 51
180.0
  0
LINE
  5
279
330
1F
100
AcDbEntity
  8
0
  6
Continuous
 62
     7
370
    25
100
AcDbLine
 10
7041.5110742488
 20
4310.5336538462
 30
0.0
 11
6200.3110742488
 21
4310.5336538462
 31
0.0
  0
ARC
  5
27A
330
1F
100
AcDbEntity
  8
0
  6
Continuous
 62
     7
370
    25
100
AcDbCircle
 10
7041.5110742488
 20
4309.5336538462
 30
0.0
 40
0.9999999999990905
100
AcDbArc
 50
0.0
 51
90.0
  0
LINE
  5
27B
330
1F
100
AcDbEntity
  8
0
  6
Continuous
 62
     7
370
    25
100
AcDbLine
 10
7042.5110742488
 20
4309.5336538462
 30
0.0
 11
7042.5110742488
 21
4209.5336538462
 31
0.0
  0
LINE
  5
27C
330
1F
100
AcDbEntity
  8
0
  6
Continuous
 62
     7
370
    25
100
AcDbLine
 10
6199.3110742488
 20
4209.5336538462
 30
0.0
 11
6199.3110742488
 21
4309.5336538462
 31
0.0
  0
ARC
  5
27D
330
1F
100
AcDbEntity
  8
0
  6
Continuous
 62
     7
370
    25
100
AcDbCircle
 10
7041.5110742488
 20
4209.5336538462
 30
0.0
 40
0.9999999999990905
100
AcDbArc
 50
270.0
 51
0.0
  0
ARC
  5
27E
330
1F
100
AcDbEntity
  8
0
  6
Continuous
 62
     7
370
    25
100
AcDbCircle
 10
6200.3110742488
 20
4209.5336538462
 30
0.0
 40
0.9999999999990905
100
AcDbArc
 50
180.0
 51
270.0
  0
LINE
  5
27F
330
1F
100
AcDbEntity
  8
0
  6
Continuous
 62
     7
370
    25
100
AcDbLine
 10
7041.5110742488
 20
4208.5336538462
 30
0.0
 11
6200.3110742488
 21
4208.5336538462
 31
0.0
  0
CIRCLE
  5
280
330
1F
100
AcDbEntity
  8
0
  6
Continuous
 62
     7
370
    25
100
AcDbCircle
 10
6620.9110742488
 20
4259.5336538462
 30
0.0
 40
40.0
  0
CIRCLE
  5
281
330
1F
100
AcDbEntity
  8
0
  6
Continuous
 62
     7
370
    25
100
AcDbCircle
 10
6620.9110742488
 20
4259.5336538462
 30
0.0
 40
35.2010872731571
  0
LINE
  5
282
330
1F
100
AcDbEntity
  8
0
  6
Continuous
 62
     7
370
    25
100
AcDbLine
 10
6168.6110742488
 20
4188.3336538462
 30
0.0
 11
7073.2110742488
 21
4188.3336538462
 31
0.0
  0
CIRCLE
  5
283
330
1F
100
AcDbEntity
  8
0
  6
Continuous
 62
     7
370
    25
100
AcDbCircle
 10
7023.2110742488
 20
4319.0135997317
 30
0.0
 40
4.25
  0
CIRCLE
  5
284
330
1F
100
AcDbEntity
  8
0
  6
Continuous
 62
     7
370
    25
100
AcDbCircle
 10
6218.6110742488
 20
4319.0135997317
 30
0.0
 40
4.25
  0
LINE
  5
285
330
1F
100
AcDbEntity
  8
0
  6
Continuous
 62
     7
370
    25
100
AcDbLine
 10
7073.2110742488
 20
4188.3336538462
 30
0.0
 11
7073.2110742488
 21
4330.7336538462
 31
0.0
  0
LINE
  5
286
330
1F
100
AcDbEntity
  8
0
  6
Continuous
 62
     7
370
    25
100
AcDbLine
 10
6168.6110742488
 20
4330.7336538462
 30
0.0
 11
6168.6110742488
 21
4188.3336538462
 31
0.0
  0
LINE
  5
287
330
1F
100
AcDbEntity
  8
0
  6
Continuous
 62
     7
370
    25
100
AcDbLine
 10
6228.6110742488
 20
4185.5531703948
 30
0.0
 11
6208.6110742488
 21
4185.5531703948
 31
0.0
  0
LINE
  5
288
330
1F
100
AcDbEntity
  8
0
  6
Continuous
 62
     7
370
    25
100
AcDbLine
 10
6208.6110742488
 20
4188.3336538462
 30
0.0
 11
6208.6110742488
 21
4185.5531703948
 31
0.0
  0
LINE
  5
289
330
1F
100
AcDbEntity
  8
0
  6
Continuous
 62
     7
370
    25
100
AcDbLine
 10
6228.6110742488
 20
4188.3336538462
 30
0.0
 11
6228.6110742488
 21
4185.5531703948
 31
0.0
  0
LINE
  5
28A
330
1F
100
AcDbEntity
  8
0
  6
Continuous
 62
     7
370
    25
100
AcDbLine
 10
7013.2110742488
 20
4185.5531703948
 30
0.0
 11
7033.2110742488
 21
4185.5531703948
 31
0.0
  0
LINE
  5
28B
330
1F
100
AcDbEntity
  8
0
  6
Continuous
 62
     7
370
    25
100
AcDbLine
 10
7033.2110742488
 20
4188.3336538462
 30
0.0
 11
7033.2110742488
 21
4185.5531703948
 31
0.0
  0
LINE
  5
28C
330
1F
100
AcDbEntity
  8
0
  6
Continuous
 62
     7
370
    25
100
AcDbLine
 10
7013.2110742488
 20
4188.3336538462
 30
0.0
 11
7013.2110742488
 21
4185.5531703948
 31
0.0
  0
LINE
  5
28D
330
1F
100
AcDbEntity
  8
0
  6
Continuous
 62
     7
370
    25
100
AcDbLine
 10
7023.2110742488
 20
4182.3486084224
 30
0.0
 11
7014.7110742488
 21
4177.4411311343
 31
0.0
  0
LINE
  5
28E
330
1F
100
AcDbEntity
  8
0
  6
Continuous
 62
     7
370
    25
100
AcDbLine
 10
7031.7110742488
 20
4177.4411311343
 30
0.0
 11
7023.2110742488
 21
4182.3486084224
 31
0.0
  0
LINE
  5
28F
330
1F
100
AcDbEntity
  8
0
  6
Continuous
 62
     7
370
    25
100
AcDbLine
 10
7031.7110742488
 20
4167.626176558
 30
0.0
 11
7031.7110742488
 21
4177.4411311343
 31
0.0
  0
LINE
  5
290
330
1F
100
AcDbEntity
  8
0
  6
Continuous
 62
     7
370
    25
100
AcDbLine
 10
7023.2110742488
 20
4162.7186992699
 30
0.0
 11
7031.7110742488
 21
4167.626176558
 31
0.0
  0
LINE
  5
291
330
1F
100
AcDbEntity
  8
0
  6
Continuous
 62
     7
370
    25
100
AcDbLine
 10
7014.7110742488
 20
4167.626176558
 30
0.0
 11
7023.2110742488
 21
4162.7186992699
 31
0.0
  0
LINE
  5
292
330
1F
100
AcDbEntity
  8
0
  6
Continuous
 62
     7
370
    25
100
AcDbLine
 10
7014.7110742488
 20
4177.4411311343
 30
0.0
 11
7014.7110742488
 21
4167.626176558
 31
0.0
  0
LINE
  5
293
330
1F
100
AcDbEntity
  8
0
  6
Continuous
 62
     7
370
    25
100
AcDbLine
 10
6227.1110742488
 20
4167.626176558
 30
0.0
 11
6218.6110742488
 21
4162.7186992699
 31
0.0
  0
LINE
  5
294
330
1F
100
AcDbEntity
  8
0
  6
Continuous
 62
     7
370
    25
100
AcDbLine
 10
6218.6110742488
 20
4162.7186992699
 30
0.0
 11
6210.1110742488
 21
4167.626176558
 31
0.0
  0
LINE
  5
295
330
1F
100
AcDbEntity
  8
0
  6
Continuous
 62
     7
370
    25
100
AcDbLine
 10
6210.1110742488
 20
4167.626176558
 30
0.0
 11
6210.1110742488
 21
4177.4411311343
 31
0.0
  0
LINE
  5
296
330
1F
100
AcDbEntity
  8
0
  6
Continuous
 62
     7
370
    25
100
AcDbLine
 10
6210.1110742488
 20
4177.4411311343
 30
0.0
 11
6218.6110742488
 21
4182.3486084224
 31
0.0
  0
LINE
  5
297
330
1F
100
AcDbEntity
  8
0
  6
Continuous
 62
     7
370
    25
100
AcDbLine
 10
6218.6110742488
 20
4182.3486084224
 30
0.0
 11
6227.1110742488
 21
4177.4411311343
 31
0.0
  0
LINE
  5
298
330
1F
100
AcDbEntity
  8
0
  6
Continuous
 62
     7
370
    25
100
AcDbLine
 10
6227.1110742488
 20
4177.4411311343
 30
0.0
 11
6227.1110742488
 21
4167.626176558
 31
0.0
  0
LINE
  5
299
330
1F
100
AcDbEntity
  8
0
  6
Continuous
 62
     7
370
    25
100
AcDbLine
 10
7013.2110742488
 20
4184.8918618334
 30
0.0
 11
7033.2110742488
 21
4184.8918618334
 31
0.0
  0
LINE
  5
29A
330
1F
100
AcDbEntity
  8
0
  6
Continuous
 62
     7
370
    25
100
AcDbLine
 10
7033.2110742488
 20
4185.5531703948
 30
0.0
 11
7033.2110742488
 21
4184.8918618334
 31
0.0
  0
LINE
  5
29B
330
1F
100
AcDbEntity
  8
0
  6
Continuous
 62
     7
370
    25
100
AcDbLine
 10
7013.2110742488
 20
4185.5531703948
 30
0.0
 11
7013.2110742488
 21
4184.8918618334
 31
0.0
  0
LINE
  5
29C
330
1F
100
AcDbEntity
  8
0
  6
Continuous
 62
     7
370
    25
100
AcDbLine
 10
6228.6110742488
 20
4184.8918618334
 30
0.0
 11
6208.6110742488
 21
4184.8918618334
 31
0.0
  0
LINE
  5
29D
330
1F
100
AcDbEntity
  8
0
  6
Continuous
 62
     7
370
    25
100
AcDbLine
 10
6208.6110742488
 20
4185.5531703948
 30
0.0
 11
6208.6110742488
 21
4184.8918618334
 31
0.0
  0
LINE
  5
29E
330
1F
100
AcDbEntity
  8
0
  6
Continuous
 62
     7
370
    25
100
AcDbLine
 10
6228.6110742488
 20
4185.5531703948
 30
0.0
 11
6228.6110742488
 21
4184.8918618334
 31
0.0
  0
LINE
  5
29F
330
1F
100
AcDbEntity
  8
0
  6
Continuous
 62
     7
370
    25
100
AcDbLine
 10
7025.2430514143
 20
4163.8918618334
 30
0.0
 11
7033.2110742488
 21
4163.8918618334
 31
0.0
  0
LINE
  5
2A0
330
1F
100
AcDbEntity
  8
0
  6
Continuous
 62
     7
370
    25
100
AcDbLine
 10
7013.2110742488
 20
4163.8918618334
 30
0.0
 11
7021.1790970833
 21
4163.8918618334
 31
0.0
  0
LINE
  5
2A1
330
1F
100
AcDbEntity
  8
0
  6
Continuous
 62
     7
370
    25
100
AcDbLine
 10
7033.2110742488
 20
4184.8918618334
 30
0.0
 11
7033.2110742488
 21
4163.8918618334
 31
0.0
  0
LINE
  5
2A2
330
1F
100
AcDbEntity
  8
0
  6
Continuous
 62
     7
370
    25
100
AcDbLine
 10
7013.2110742488
 20
4184.8918618334
 30
0.0
 11
7013.2110742488
 21
4163.8918618334
 31
0.0
  0
LINE
  5
2A3
330
1F
100
AcDbEntity
  8
0
  6
Continuous
 62
     7
370
    25
100
AcDbLine
 10
6228.6110742488
 20
4163.8918618334
 30
0.0
 11
6220.6430514143
 21
4163.8918618334
 31
0.0
  0
LINE
  5
2A4
330
1F
100
AcDbEntity
  8
0
  6
Continuous
 62
     7
370
    25
100
AcDbLine
 10
6216.5790970833
 20
4163.8918618334
 30
0.0
 11
6208.6110742488
 21
4163.8918618334
 31
0.0
  0
LINE
  5
2A5
330
1F
100
AcDbEntity
  8
0
  6
Continuous
 62
     7
370
    25
100
AcDbLine
 10
6208.6110742488
 20
4184.8918618334
 30
0.0
 11
6208.6110742488
 21
4163.8918618334
 31
0.0
  0
LINE
  5
2A6
330
1F
100
AcDbEntity
  8
0
  6
Continuous
 62
     7
370
    25
100
AcDbLine
 10
6228.6110742488
 20
4184.8918618334
 30
0.0
 11
6228.6110742488
 21
4163.8918618334
 31
0.0
  0
LINE
  5
2A7
330
1F
100
AcDbEntity
  8
0
  6
Continuous
 62
     7
370
    25
100
AcDbLine
 10
6634.6103930202
 20
4259.5336538462
 30
0.0
 11
6634.6103930202
 21
4262.3336538462
 31
0.0
  0
ARC
  5
2A8
330
1F
100
AcDbEntity
  8
0
  6
Continuous
 62
     7
370
    25
100
AcDbCircle
 10
6635.3103930202
 20
4262.3336538462
 30
0.0
 40
0.7000000000007276
100
AcDbArc
 50
90.0
 51
180.0
  0
LINE
  5
2A9
330
1F
100
AcDbEntity
  8
0
  6
Continuous
 62
     7
370
    25
100
AcDbLine
 10
6635.3103930202
 20
4263.0336538462
 30
0.0
 11
6635.3103930202
 21
4259.5336538462
 31
0.0
  0
LINE
  5
2AA
330
1F
100
AcDbEntity
  8
0
  6
Continuous
 62
     7
370
    25
100
AcDbLine
 10
6635.3103930202
 20
4259.5336538462
 30
0.0
 11
6634.6103930202
 21
4259.5336538462
 31
0.0
  0
LINE
  5
2AB
330
1F
100
AcDbEntity
  8
0
  6
Continuous
 62
     7
370
    25
100
AcDbLine
 10
6606.5110742488
 20
4259.5336538462
 30
0.0
 11
6606.5110742488
 21
4263.0336538462
 31
0.0
  0
ARC
  5
2AC
330
1F
100
AcDbEntity
  8
0
  6
Continuous
 62
     7
370
    25
100
AcDbCircle
 10
6606.5110742488
 20
4262.3336538462
 30
0.0
 40
0.7000000000007276
100
AcDbArc
 50
0.0
 51
90.0
  0
LINE
  5
2AD
330
1F
100
AcDbEntity
  8
0
  6
Continuous
 62
     7
370
    25
100
AcDbLine
 10
6607.2110742488
 20
4262.3336538462
 30
0.0
 11
6607.2110742488
 21
4259.5336538462
 31
0.0
  0
LINE
  5
2AE
330
1F
100
AcDbEntity
  8
0
  6
Continuous
 62
     7
370
    25
100
AcDbLine
 10
6607.2110742488
 20
4259.5336538462
 30
0.0
 11
6606.5110742488
 21
4259.5336538462
 31
0.0
  0
LINE
  5
2AF
330
1F
100
AcDbEntity
  8
0
  6
Continuous
 62
     7
370
    25
100
AcDbLine
 10
6603.7110742488
 20
4263.0336538462
 30
0.0
 11
6603.7110742488
 21
4259.5336538462
 31
0.0
  0
LINE
  5
2B0
330
1F
100
AcDbEntity
  8
0
  6
Continuous
 62
     7
370
    25
100
AcDbLine
 10
6603.7110742488
 20
4263.0336538462
 30
0.0
 11
6606.5110742488
 21
4263.0336538462
 31
0.0
  0
LINE
  5
2B1
330
1F
100
AcDbEntity
  8
0
  6
Continuous
 62
     7
370
    25
100
AcDbLine
 10
6603.7110742488
 20
4259.5336538462
 30
0.0
 11
6606.5110742488
 21
4259.5336538462
 31
0.0
  0
LINE
  5
2B2
330
1F
100
AcDbEntity
  8
0
  6
Continuous
 62
     7
370
    25
100
AcDbLine
 10
6603.7110742488
 20
4259.5336538462
 30
0.0
 11
6603.0110742488
 21
4259.5336538462
 31
0.0
  0
LINE
  5
2B3
330
1F
100
AcDbEntity
  8
0
  6
Continuous
 62
     7
370
    25
100
AcDbLine
 10
6603.0110742488
 20
4259.5336538462
 30
0.0
 11
6603.0110742488
 21
4262.3336538462
 31
0.0
  0
ARC
  5
2B4
330
1F
100
AcDbEntity
  8
0
  6
Continuous
 62
     7
370
    25
100
AcDbCircle
 10
6603.7110742488
 20
4262.3336538462
 30
0.0
 40
0.7000000000007276
100
AcDbArc
 50
90.0
 51
180.0
  0
LINE
  5
2B5
330
1F
100
AcDbEntity
  8
0
  6
Continuous
 62
     7
370
    25
100
AcDbLine
 10
6638.1103930202
 20
4259.5336538462
 30
0.0
 11
6638.1103930202
 21
4263.0336538462
 31
0.0
  0
ARC
  5
2B6
330
1F
100
AcDbEntity
  8
0
  6
Continuous
 62
     7
370
    25
100
AcDbCircle
 10
6638.1103930202
 20
4262.3336538462
 30
0.0
 40
0.6999999999998181
100
AcDbArc
 50
0.0
 51
90.0
  0
LINE
  5
2B7
330
1F
100
AcDbEntity
  8
0
  6
Continuous
 62
     7
370
    25
100
AcDbLine
 10
6638.8103930202
 20
4262.3336538462
 30
0.0
 11
6638.8103930202
 21
4259.5336538462
 31
0.0
  0
LINE
  5
2B8
330
1F
100
AcDbEntity
  8
0
  6
Continuous
 62
     7
370
    25
100
AcDbLine
 10
6638.1103930202
 20
4259.5336538462
 30
0.0
 11
6638.8103930202
 21
4259.5336538462
 31
0.0
  0
LINE
  5
2B9
330
1F
100
AcDbEntity
  8
0
  6
Continuous
 62
     7
370
    25
100
AcDbLine
 10
6635.3103930202
 20
4259.5336538462
 30
0.0
 11
6638.1103930202
 21
4259.5336538462
 31
0.0
  0
LINE
  5
2BA
330
1F
100
AcDbEntity
  8
0
  6
Continuous
 62
     7
370
    25
100
AcDbLine
 10
6635.3103930202
 20
4263.0336538462
 30
0.0
 11
6638.1103930202
 21
4263.0336538462
 31
0.0
  0
LINE
  5
2BB
330
1F
100
AcDbEntity
  8
0
  6
Continuous
 62
     7
370
    25
100
AcDbLine
 10
6635.3103930202
 20
4259.5336538462
 30
0.0
 11
6635.3103930202
 21
4256.0336538462
 31
0.0
  0
ARC
  5
2BC
330
1F
100
AcDbEntity
  8
0
  6
Continuous
 62
     7
370
    25
100
AcDbCircle
 10
6635.3103930202
 20
4256.7336538462
 30
0.0
 40
0.7000000000007276
100
AcDbArc
 50
180.0
 51
270.0
  0
LINE
  5
2BD
330
1F
100
AcDbEntity
  8
0
  6
Continuous
 62
     7
370
    25
100
AcDbLine
 10
6634.6103930202
 20
4256.7336538462
 30
0.0
 11
6634.6103930202
 21
4259.5336538462
 31
0.0
  0
LINE
  5
2BE
330
1F
100
AcDbEntity
  8
0
  6
Continuous
 62
     7
370
    25
100
AcDbLine
 10
6638.1103930202
 20
4256.0336538462
 30
0.0
 11
6638.1103930202
 21
4259.5336538462
 31
0.0
  0
LINE
  5
2BF
330
1F
100
AcDbEntity
  8
0
  6
Continuous
 62
     7
370
    25
100
AcDbLine
 10
6638.8103930202
 20
4259.5336538462
 30
0.0
 11
6638.8103930202
 21
4256.7336538462
 31
0.0
  0
ARC
  5
2C0
330
1F
100
AcDbEntity
  8
0
  6
Continuous
 62
     7
370
    25
100
AcDbCircle
 10
6638.1103930202
 20
4256.7336538462
 30
0.0
 40
0.7000000000007276
100
AcDbArc
 50
270.0
 51
0.0
  0
LINE
  5
2C1
330
1F
100
AcDbEntity
  8
0
  6
Continuous
 62
     7
370
    25
100
AcDbLine
 10
6603.7110742488
 20
4259.5336538462
 30
0.0
 11
6603.7110742488
 21
4256.0336538462
 31
0.0
  0
ARC
  5
2C2
330
1F
100
AcDbEntity
  8
0
  6
Continuous
 62
     7
370
    25
100
AcDbCircle
 10
6603.7110742488
 20
4256.7336538462
 30
0.0
 40
0.7000000000007276
100
AcDbArc
 50
180.0
 51
270.0
  0
LINE
  5
2C3
330
1F
100
AcDbEntity
  8
0
  6
Continuous
 62
     7
370
    25
100
AcDbLine
 10
6603.0110742488
 20
4256.7336538462
 30
0.0
 11
6603.0110742488
 21
4259.5336538462
 31
0.0
  0
LINE
  5
2C4
330
1F
100
AcDbEntity
  8
0
  6
Continuous
 62
     7
370
    25
100
AcDbLine
 10
6606.5110742488
 20
4256.0336538462
 30
0.0
 11
6606.5110742488
 21
4259.5336538462
 31
0.0
  0
LINE
  5
2C5
330
1F
100
AcDbEntity
  8
0
  6
Continuous
 62
     7
370
    25
100
AcDbLine
 10
6606.5110742488
 20
4256.0336538462
 30
0.0
 11
6603.7110742488
 21
4256.0336538462
 31
0.0
  0
LINE
  5
2C6
330
1F
100
AcDbEntity
  8
0
  6
Continuous
 62
     7
370
    25
100
AcDbLine
 10
6638.1103930202
 20
4256.0336538462
 30
0.0
 11
6635.3103930202
 21
4256.0336538462
 31
0.0
  0
LINE
  5
2C7
330
1F
100
AcDbEntity
  8
0
  6
Continuous
 62
     7
370
    25
100
AcDbLine
 10
6607.2110742488
 20
4259.5336538462
 30
0.0
 11
6607.2110742488
 21
4256.7336538462
 31
0.0
  0
ARC
  5
2C8
330
1F
100
AcDbEntity
  8
0
  6
Continuous
 62
     7
370
    25
100
AcDbCircle
 10
6606.5110742488
 20
4256.7336538462
 30
0.0
 40
0.7000000000007276
100
AcDbArc
 50
270.0
 51
0.0
  0
LINE
  5
2C9
330
1F
100
AcDbEntity
  8
0
  6
Continuous
 62
     7
370
    25
100
AcDbLine
 10
6607.3387196706
 20
4260.4836538462
 30
0.0
 11
6607.3387196706
 21
4258.5836538462
 31
0.0
  0
LINE
  5
2CA
330
1F
100
AcDbEntity
  8
0
  6
Continuous
 62
     7
370
    25
100
AcDbLine
 10
6634.483428827
 20
4260.4836538462
 30
0.0
 11
6634.483428827
 21
4258.5836538462
 31
0.0
  0
LINE
  5
2CB
330
1F
100
AcDbEntity
  8
0
  6
Continuous
 62
     7
370
    25
100
AcDbLine
 10
6603.0110742488
 20
4256.7336538462
 30
0.0
 11
6602.3110742488
 21
4256.7336538462
 31
0.0
  0
LINE
  5
2CC
330
1F
100
AcDbEntity
  8
0
  6
Continuous
 62
     7
370
    25
100
AcDbLine
 10
6638.8103930202
 20
4256.7336538462
 30
0.0
 11
6639.5103930202
 21
4256.7336538462
 31
0.0
  0
LINE
  5
2CD
330
1F
100
AcDbEntity
  8
0
  6
Continuous
 62
     7
370
    25
100
AcDbLine
 10
6638.1103930202
 20
4256.0336538462
 30
0.0
 11
6638.1103930202
 21
4255.3336538462
 31
0.0
  0
LINE
  5
2CE
330
1F
100
AcDbEntity
  8
0
  6
Continuous
 62
     7
370
    25
100
AcDbLine
 10
6638.1103930202
 20
4255.3336538462
 30
0.0
 11
6636.6380580491
 21
4255.3336538462
 31
0.0
  0
ARC
  5
2CF
330
1F
100
AcDbEntity
  8
0
  6
Continuous
 62
     7
370
    25
100
AcDbCircle
 10
6631.850449699
 20
4256.7815982512
 30
0.0
 40
5.00177335690557
100
AcDbArc
 50
343.1728014175
 51
351.3999709404
  0
LINE
  5
2D0
330
1F
100
AcDbEntity
  8
0
  6
Continuous
 62
     7
370
    25
100
AcDbLine
 10
6603.7110742488
 20
4263.0336538462
 30
0.0
 11
6603.7110742488
 21
4263.7336538462
 31
0.0
  0
LINE
  5
2D1
330
1F
100
AcDbEntity
  8
0
  6
Continuous
 62
     7
370
    25
100
AcDbLine
 10
6603.7110742488
 20
4263.7336538462
 30
0.0
 11
6604.7611274956
 21
4263.7336538462
 31
0.0
  0
ARC
  5
2D2
330
1F
100
AcDbEntity
  8
0
  6
Continuous
 62
     7
370
    25
100
AcDbCircle
 10
6619.4365364549
 20
4260.7448694271
 30
0.0
 40
14.97666386167269
100
AcDbArc
 50
168.4886082322
 51
171.209418713
  0
LINE
  5
2D3
330
1F
100
AcDbEntity
  8
0
  6
Continuous
 62
     7
370
    25
100
AcDbLine
 10
6605.0242363075
 20
4255.3336538462
 30
0.0
 11
6603.7110742488
 21
4255.3336538462
 31
0.0
  0
LINE
  5
2D4
330
1F
100
AcDbEntity
  8
0
  6
Continuous
 62
     7
370
    25
100
AcDbLine
 10
6603.7110742488
 20
4256.0336538462
 30
0.0
 11
6603.7110742488
 21
4255.3336538462
 31
0.0
  0
ARC
  5
2D5
330
1F
100
AcDbEntity
  8
0
  6
Continuous
 62
     7
370
    25
100
AcDbCircle
 10
6619.3060787095
 20
4259.4602277535
 30
0.0
 40
14.866056457859
100
AcDbArc
 50
193.3263042336
 51
196.1160409616
  0
LINE
  5
2D6
330
1F
100
AcDbEntity
  8
0
  6
Continuous
 62
     7
370
    25
100
AcDbLine
 10
6636.6380580491
 20
4263.7336538462
 30
0.0
 11
6638.1103930202
 21
4263.7336538462
 31
0.0
  0
LINE
  5
2D7
330
1F
100
AcDbEntity
  8
0
  6
Continuous
 62
     7
370
    25
100
AcDbLine
 10
6638.1103930202
 20
4263.0336538462
 30
0.0
 11
6638.1103930202
 21
4263.7336538462
 31
0.0
  0
ARC
  5
2D8
330
1F
100
AcDbEntity
  8
0
  6
Continuous
 62
     7
370
    25
100
AcDbCircle
 10
6630.5294312644
 20
4261.9876752387
 30
0.0
 40
6.353248184414879
100
AcDbArc
 50
9.4761375319
 51
15.9510901101
  0
ARC
  5
2D9
330
1F
100
AcDbEntity
  8
0
  6
Continuous
 62
     7
370
    25
100
AcDbCircle
 10
6638.1103930202
 20
4256.7336538462
 30
0.0
 40
1.400000000000546
100
AcDbArc
 50
270.0
 51
0.0
  0
ARC
  5
2DA
330
1F
100
AcDbEntity
  8
0
  6
Continuous
 62
     7
370
    25
100
AcDbCircle
 10
6603.7110742488
 20
4256.7336538462
 30
0.0
 40
1.400000000000546
100
AcDbArc
 50
180.0
 51
270.0
  0
ARC
  5
2DB
330
1F
100
AcDbEntity
  8
0
  6
Continuous
 62
     7
370
    25
100
AcDbCircle
 10
6615.1624353227
 20
4272.4777220726
 30
0.0
 40
2.114962488157019
100
AcDbArc
 50
113.9466658893
 51
122.6187463668
  0
ARC
  5
2DC
330
1F
100
AcDbEntity
  8
0
  6
Continuous
 62
     7
370
    25
100
AcDbCircle
 10
6615.1624353227
 20
4246.5895856197
 30
0.0
 40
2.114962488157455
100
AcDbArc
 50
236.8243605215
 51
246.0533341107
  0
ARC
  5
2DD
330
1F
100
AcDbEntity
  8
0
  6
Continuous
 62
     7
370
    25
100
AcDbCircle
 10
6620.9110742488
 20
4259.5336538462
 30
0.0
 40
19.95000000000021
100
AcDbArc
 50
270.0
 51
1.3083677854
  0
ARC
  5
2DE
330
1F
100
AcDbEntity
  8
0
  6
Continuous
 62
     7
370
    25
100
AcDbCircle
 10
6620.9110742488
 20
4259.5336538462
 30
0.0
 40
19.95000000000033
100
AcDbArc
 50
178.6916322146
 51
270.0
  0
ARC
  5
2DF
330
1F
100
AcDbEntity
  8
0
  6
Continuous
 62
     7
370
    25
100
AcDbCircle
 10
6621.301378125
 20
4260.1442349848
 30
0.0
 40
16.97312689633414
100
AcDbArc
 50
196.4646299597
 51
244.5405854637
  0
ARC
  5
2E0
330
1F
100
AcDbEntity
  8
0
  6
Continuous
 62
     7
370
    25
100
AcDbCircle
 10
6619.9864512706
 20
4259.674201071
 30
0.0
 40
15.75720917195076
100
AcDbArc
 50
112.2407026115
 51
165.0708087808
  0
ARC
  5
2E1
330
1F
100
AcDbEntity
  8
0
  6
Continuous
 62
     7
370
    25
100
AcDbCircle
 10
6620.9110742488
 20
4259.5336538462
 30
0.0
 40
16.27814545502523
100
AcDbArc
 50
14.95229104
 51
113.9466658893
  0
ARC
  5
2E2
330
1F
100
AcDbEntity
  8
0
  6
Continuous
 62
     7
370
    25
100
AcDbCircle
 10
6620.9110742488
 20
4259.5336538462
 30
0.0
 40
16.27814545502454
100
AcDbArc
 50
246.0533341107
 51
345.04770896
  0
LINE
  5
2E3
330
1F
100
AcDbEntity
  8
0
  6
Continuous
 62
     7
370
    25
100
AcDbLine
 10
6604.7611274954
 20
4263.7336538455
 30
0.0
 11
6606.0381611034
 21
4263.7336538462
 31
0.0
  0
ARC
  5
2E4
330
1F
100
AcDbEntity
  8
0
  6
Continuous
 62
     7
370
    25
100
AcDbCircle
 10
6606.6518787282
 20
4263.6385277187
 30
0.0
 40
0.621046136024948
100
AcDbArc
 50
171.1892765272
 51
256.8958738101
  0
ARC
  5
2E5
330
1F
100
AcDbEntity
  8
0
  6
Continuous
 62
     7
370
    25
100
AcDbCircle
 10
6606.6518787282
 20
4255.4287799736
 30
0.0
 40
0.6210461360253604
100
AcDbArc
 50
103.10412619
 51
188.8107234728
  0
LINE
  5
2E6
330
1F
100
AcDbEntity
  8
0
  6
Continuous
 62
     7
370
    25
100
AcDbLine
 10
6606.0381611034
 20
4255.3336538462
 30
0.0
 11
6605.0242363075
 21
4255.3336538462
 31
0.0
  0
LINE
  5
2E7
330
1F
100
AcDbEntity
  8
0
  6
Continuous
 62
     7
370
    25
100
AcDbLine
 10
6607.4381611034
 20
4262.3336538462
 30
0.0
 11
6607.4381611034
 21
4256.7336538462
 31
0.0
  0
ARC
  5
2E8
330
1F
100
AcDbEntity
  8
0
  6
Continuous
 62
     7
370
    25
100
AcDbCircle
 10
6606.0381611034
 20
4262.3336538462
 30
0.0
 40
1.399999999999636
100
AcDbArc
 50
0.0
 51
90.0
  0
ELLIPSE
  5
2E9
330
1F
100
AcDbEntity
  8
0
  6
Continuous
 62
     7
370
    25
100
AcDbEllipse
 10
6618.6592576812
 20
4272.4777220726
 30
0.0
 11
7.431956459165121
 21
0.0
 31
0.0
210
0.0
220
0.0
230
1.0
 40
0.9998720779
 41
3.118775151141921
 42
4.18784238573856
  0
ELLIPSE
  5
2EA
330
1F
100
AcDbEntity
  8
0
  6
Continuous
 62
     7
370
    25
100
AcDbEllipse
 10
6611.168671054
 20
4259.5336538462
 30
0.0
 11
7.524669661681401
 21
0.0
 31
0.0
210
0.0
220
0.0
230
1.0
 40
0.9998720779
 41
5.236935575030834
 42
7.329435039328414
  0
ELLIPSE
  5
2EB
330
1F
100
AcDbEntity
  8
0
  6
Continuous
 62
     7
370
    25
100
AcDbEllipse
 10
6618.6592576812
 20
4246.5895856197
 30
0.0
 11
7.431956459165121
 21
0.0
 31
0.0
210
0.0
220
0.0
230
1.0
 40
0.9998720779
 41
2.095342921440987
 42
3.159634691503424
  0
ARC
  5
2EC
330
1F
100
AcDbEntity
  8
0
  6
Continuous
 62
     7
370
    25
100
AcDbCircle
 10
6606.0381611034
 20
4256.7336538462
 30
0.0
 40
1.400000000000546
100
AcDbArc
 50
270.0
 51
0.0
  0
LINE
  5
2ED
330
1F
100
AcDbEntity
  8
0
  6
Continuous
 62
     7
370
    25
100
AcDbLine
 10
6607.4381611034
 20
4262.3336538462
 30
0.0
 11
6607.2110742488
 21
4262.3336538462
 31
0.0
  0
LINE
  5
2EE
330
1F
100
AcDbEntity
  8
0
  6
Continuous
 62
     7
370
    25
100
AcDbLine
 10
6607.4381611034
 20
4256.7336538462
 30
0.0
 11
6607.2110742488
 21
4256.7336538462
 31
0.0
  0
ARC
  5
2EF
330
1F
100
AcDbEntity
  8
0
  6
Continuous
 62
     7
370
    25
100
AcDbCircle
 10
6611.7322806322
 20
4267.6399107364
 30
0.0
 40
3.579462495003629
100
AcDbArc
 50
333.5544399289
 51
50.6354567782
  0
ARC
  5
2F0
330
1F
100
AcDbEntity
  8
0
  6
Continuous
 62
     7
370
    25
100
AcDbCircle
 10
6615.2829784966
 20
4272.4777799019
 30
0.0
 40
2.434420996734877
100
AcDbArc
 50
143.877510115
 51
238.2668902283
  0
ARC
  5
2F1
330
1F
100
AcDbEntity
  8
0
  6
Continuous
 62
     7
370
    25
100
AcDbCircle
 10
6611.7322806322
 20
4251.4273969559
 30
0.0
 40
3.579462495002005
100
AcDbArc
 50
309.3645432217
 51
26.445560071
  0
ARC
  5
2F2
330
1F
100
AcDbEntity
  8
0
  6
Continuous
 62
     7
370
    25
100
AcDbCircle
 10
6615.2830295454
 20
4246.5895177857
 30
0.0
 40
2.43445635596323
100
AcDbArc
 50
121.73400777
 51
216.0920467522
  0
ARC
  5
2F3
330
1F
100
AcDbEntity
  8
0
  6
Continuous
 62
     7
370
    25
100
AcDbCircle
 10
6607.7925464946
 20
4259.5336538462
 30
0.0
 40
12.52198860922701
100
AcDbArc
 50
299.7310219646
 51
60.2689780354
  0
CIRCLE
  5
2F4
330
1F
100
AcDbEntity
  8
0
  6
Continuous
 62
     7
370
    25
100
AcDbCircle
 10
6620.9110742488
 20
4259.5336538462
 30
0.0
 40
20.10000000000036
  0
ARC
  5
2F5
330
1F
100
AcDbEntity
  8
0
  6
Continuous
 62
     7
370
    25
100
AcDbCircle
 10
6620.9110742488
 20
4259.5336538462
 30
0.0
 40
25.55435605731859
100
AcDbArc
 50
4.3156322274
 51
85.6843677726
  0
ARC
  5
2F6
330
1F
100
AcDbEntity
  8
0
  6
Continuous
 62
     7
370
    25
100
AcDbCircle
 10
6647.9110742488
 20
4259.5336538462
 30
0.0
 40
2.450000000001053
100
AcDbArc
 50
128.2893063631
 51
231.7106936369
  0
ARC
  5
2F7
330
1F
100
AcDbEntity
  8
0
  6
Continuous
 62
     7
370
    25
100
AcDbCircle
 10
6620.9110742488
 20
4259.5336538462
 30
0.0
 40
25.55435605731768
100
AcDbArc
 50
274.3156322274
 51
355.6843677726
  0
ARC
  5
2F8
330
1F
100
AcDbEntity
  8
0
  6
Continuous
 62
     7
370
    25
100
AcDbCircle
 10
6620.9110742488
 20
4232.5336538462
 30
0.0
 40
2.450000000002481
100
AcDbArc
 50
38.2893063631
 51
141.7106936369
  0
ARC
  5
2F9
330
1F
100
AcDbEntity
  8
0
  6
Continuous
 62
     7
370
    25
100
AcDbCircle
 10
6620.9110742488
 20
4259.5336538462
 30
0.0
 40
25.55435605731768
100
AcDbArc
 50
184.3156322274
 51
265.6843677726
  0
ARC
  5
2FA
330
1F
100
AcDbEntity
  8
0
  6
Continuous
 62
     7
370
    25
100
AcDbCircle
 10
6593.9110742488
 20
4259.5336538462
 30
0.0
 40
2.449999999999362
100
AcDbArc
 50
308.2893063631
 51
51.7106936369
  0
ARC
  5
2FB
330
1F
100
AcDbEntity
  8
0
  6
Continuous
 62
     7
370
    25
100
AcDbCircle
 10
6620.9110742488
 20
4259.5336538462
 30
0.0
 40
25.55435605731859
100
AcDbArc
 50
94.3156322274
 51
175.6843677726
  0
ARC
  5
2FC
330
1F
100
AcDbEntity
  8
0
  6
Continuous
 62
     7
370
    25
100
AcDbCircle
 10
6620.9110742488
 20
4286.5336538462
 30
0.0
 40
2.450000000004172
100
AcDbArc
 50
218.2893063632
 51
321.7106936368
  0
CIRCLE
  5
2FD
330
1F
100
AcDbEntity
  8
0
  6
Continuous
 62
     7
370
    25
100
AcDbCircle
 10
6620.9110742488
 20
4259.5336538462
 30
0.0
 40
34.90000000000055
  0
ARC
  5
2FE
330
1F
100
AcDbEntity
  8
0
  6
Continuous
 62
     7
370
    25
100
AcDbCircle
 10
6620.9110742488
 20
4232.5336538462
 30
0.0
 40
2.449999999999926
100
AcDbArc
 50
141.7106936369
 51
38.2893063631
  0
ARC
  5
2FF
330
1F
100
AcDbEntity
  8
0
  6
Continuous
 62
     7
370
    25
100
AcDbCircle
 10
6647.9110742488
 20
4259.5336538462
 30
0.0
 40
2.45000000000049
100
AcDbArc
 50
231.7106936369
 51
128.2893063631
  0
ARC
  5
300
330
1F
100
AcDbEntity
  8
0
  6
Continuous
 62
     7
370
    25
100
AcDbCircle
 10
6593.9110742488
 20
4259.5336538462
 30
0.0
 40
2.45000000000049
100
AcDbArc
 50
51.7106936369
 51
308.2893063631
  0
ARC
  5
301
330
1F
100
AcDbEntity
  8
0
  6
Continuous
 62
     7
370
    25
100
AcDbCircle
 10
6620.9110742488
 20
4286.5336538462
 30
0.0
 40
2.449999999999926
100
AcDbArc
 50
321.7106936369
 51
218.2893063631
  0
ELLIPSE
  5
302
330
1F
100
AcDbEntity
  8
0
  6
Continuous
 62
     7
370
    25
100
AcDbEllipse
 10
6552.3286857789
 20
4251.9810278442
 30
0.0
 11
198.0
 21
0.0
 31
0.0
210
0.0
220
0.0
230
1.0
 40
0.0261859216
 41
4.982746857089573
 42
4.983749892018666
  0
LINE
  5
303
330
1F
100
AcDbEntity
  8
0
  6
Continuous
 62
     7
370
    25
100
AcDbLine
 10
6613.0165479994
 20
4271.2959818463
 30
0.0
 11
6614.4299000611
 21
4272.709333908
 31
0.0
  0
ARC
  5
304
330
1F
100
AcDbEntity
  8
0
  6
Continuous
 62
     7
370
    25
100
AcDbCircle
 10
6612.9110742488
 20
4262.8767995967
 30
0.0
 40
8.02662371911963
100
AcDbArc
 50
0.0
 51
45.0
  0
LINE
  5
305
330
1F
100
AcDbEntity
  8
0
  6
Continuous
 62
     7
370
    25
100
AcDbLine
 10
6620.9376979679
 20
4262.8767995967
 30
0.0
 11
6620.9376979679
 21
4256.1905080956
 31
0.0
  0
LINE
  5
306
330
1F
100
AcDbEntity
  8
0
  6
Continuous
 62
     7
370
    25
100
AcDbLine
 10
6614.4299000611
 20
4272.709333908
 30
0.0
 11
6618.5867543106
 21
4268.5524796585
 31
0.0
  0
ARC
  5
307
330
1F
100
AcDbEntity
  8
0
  6
Continuous
 62
     7
370
    25
100
AcDbCircle
 10
6612.9110742488
 20
4256.1905080956
 30
0.0
 40
8.026623719119016
100
AcDbArc
 50
315.0
 51
0.0
  0
LINE
  5
308
330
1F
100
AcDbEntity
  8
0
  6
Continuous
 62
     7
370
    25
100
AcDbLine
 10
6614.4299000611
 20
4246.3579737843
 30
0.0
 11
6613.0165479994
 21
4247.771325846
 31
0.0
  0
LINE
  5
309
330
1F
100
AcDbEntity
  8
0
  6
Continuous
 62
     7
370
    25
100
AcDbLine
 10
6618.5867543106
 20
4250.5148280338
 30
0.0
 11
6614.4299000611
 21
4246.3579737843
 31
0.0
  0
CIRCLE
  5
30A
330
1F
100
AcDbEntity
  8
0
  6
Continuous
 62
     7
370
    25
100
AcDbCircle
 10
7023.2110742488
 20
4172.5336538462
 30
0.0
 40
3.999999999999091
  0
CIRCLE
  5
30B
330
1F
100
AcDbEntity
  8
0
  6
Continuous
 62
     7
370
    25
100
AcDbCircle
 10
7023.2110742488
 20
4172.5336538462
 30
0.0
 40
4.999999999999091
  0
ARC
  5
30C
330
1F
100
AcDbEntity
  8
0
  6
Continuous
 62
     7
370
    25
100
AcDbCircle
 10
6218.6110742488
 20
4319.5336538462
 30
0.0
 40
4.000000000000909
100
AcDbArc
 50
270.0
 51
25.5142086023
  0
ARC
  5
30D
330
1F
100
AcDbEntity
  8
0
  6
Continuous
 62
     7
370
    25
100
AcDbCircle
 10
6218.6110742488
 20
4319.5336538462
 30
0.0
 40
4.000000000000909
100
AcDbArc
 50
154.4857914025
 51
270.0
  0
CIRCLE
  5
30E
330
1F
100
AcDbEntity
  8
0
  6
Continuous
 62
     7
370
    25
100
AcDbCircle
 10
6218.6110742488
 20
4172.5336538462
 30
0.0
 40
4.000000000000909
  0
CIRCLE
  5
30F
330
1F
100
AcDbEntity
  8
0
  6
Continuous
 62
     7
370
    25
100
AcDbCircle
 10
6218.6110742488
 20
4172.5336538462
 30
0.0
 40
5.0
  0
LINE
  5
310
330
1F
100
AcDbEntity
  8
0
  6
Continuous
 62
     7
370
    25
100
AcDbLine
 10
6204.6110742488
 20
4157.5336538462
 30
0.0
 11
6254.6110742488
 21
4157.5336538462
 31
0.0
  0
LINE
  5
311
330
1F
100
AcDbEntity
  8
0
  6
Continuous
 62
     7
370
    25
100
AcDbLine
 10
6204.6110742488
 20
4187.5336538462
 30
0.0
 11
6204.6110742488
 21
4157.5336538462
 31
0.0
  0
LINE
  5
312
330
1F
100
AcDbEntity
  8
0
  6
Continuous
 62
     7
370
    25
100
AcDbLine
 10
6254.6110742488
 20
4187.5336538462
 30
0.0
 11
6228.6110742488
 21
4187.5336538462
 31
0.0
  0
LINE
  5
313
330
1F
100
AcDbEntity
  8
0
  6
Continuous
 62
     7
370
    25
100
AcDbLine
 10
6208.6110742488
 20
4187.5336538462
 30
0.0
 11
6204.6110742488
 21
4187.5336538462
 31
0.0
  0
LINE
  5
314
330
1F
100
AcDbEntity
  8
0
  6
Continuous
 62
     7
370
    25
100
AcDbLine
 10
6254.6110742488
 20
4157.5336538462
 30
0.0
 11
6254.6110742488
 21
4187.5336538462
 31
0.0
  0
CIRCLE
  5
315
330
1F
100
AcDbEntity
  8
0
  6
Continuous
 62
     7
370
    25
100
AcDbCircle
 10
6240.6110742488
 20
4172.5336538462
 30
0.0
 40
2.75
  0
ARC
  5
316
330
1F
100
AcDbEntity
  8
0
  6
Continuous
 62
     7
370
    25
100
AcDbCircle
 10
7023.2110742488
 20
4319.5336538462
 30
0.0
 40
4.000000000000909
100
AcDbArc
 50
270.0
 51
25.5142085975
  0
ARC
  5
317
330
1F
100
AcDbEntity
  8
0
  6
Continuous
 62
     7
370
    25
100
AcDbCircle
 10
7023.2110742488
 20
4319.5336538462
 30
0.0
 40
4.000000000000909
100
AcDbArc
 50
154.4857913977
 51
270.0
  0
LINE
  5
318
330
1F
100
AcDbEntity
  8
0
  6
Continuous
 62
     7
370
    25
100
AcDbLine
 10
7037.2110742488
 20
4334.5336538462
 30
0.0
 11
6987.2110742488
 21
4334.5336538462
 31
0.0
  0
LINE
  5
319
330
1F
100
AcDbEntity
  8
0
  6
Continuous
 62
     7
370
    25
100
AcDbLine
 10
7037.2110742488
 20
4332.2336538462
 30
0.0
 11
7037.2110742488
 21
4334.5336538462
 31
0.0
  0
LINE
  5
31A
330
1F
100
AcDbEntity
  8
0
  6
Continuous
 62
     7
370
    25
100
AcDbLine
 10
6987.2110742488
 20
4334.5336538462
 30
0.0
 11
6987.2110742488
 21
4332.2336538462
 31
0.0
  0
LINE
  5
31B
330
1F
100
AcDbEntity
  8
0
  6
Continuous
 62
     8
370
    25
100
AcDbLine
 10
6200.3110742488
 20
4310.5336538462
 30
0.0
 11
6200.3110742488
 21
4313.9336528622
 31
0.0
  0
LINE
  5
31C
330
1F
100
AcDbEntity
  8
0
  6
Continuous
 62
     8
370
    25
100
AcDbLine
 10
6199.3110742488
 20
4309.5336538462
 30
0.0
 11
6195.9110742488
 21
4309.5336538462
 31
0.0
  0
LINE
  5
31D
330
1F
100
AcDbEntity
  8
0
  6
Continuous
 62
     8
370
    25
100
AcDbLine
 10
7041.5110742488
 20
4310.5336538462
 30
0.0
 11
7041.5110742488
 21
4313.9336538462
 31
0.0
  0
LINE
  5
31E
330
1F
100
AcDbEntity
  8
0
  6
Continuous
 62
     8
370
    25
100
AcDbLine
 10
7042.5110742488
 20
4309.5336538462
 30
0.0
 11
7045.9110742488
 21
4309.5336538462
 31
0.0
  0
LINE
  5
31F
330
1F
100
AcDbEntity
  8
0
  6
Continuous
 62
     8
370
    25
100
AcDbLine
 10
7042.5110742488
 20
4209.5336538462
 30
0.0
 11
7045.9110742488
 21
4209.5336538462
 31
0.0
  0
LINE
  5
320
330
1F
100
AcDbEntity
  8
0
  6
Continuous
 62
     8
370
    25
100
AcDbLine
 10
6199.3110742488
 20
4209.5336538462
 30
0.0
 11
6195.9110742488
 21
4209.5336538462
 31
0.0
  0
LINE
  5
321
330
1F
100
AcDbEntity
  8
0
  6
Continuous
 62
     8
370
    25
100
AcDbLine
 10
7041.5110742488
 20
4208.5336538462
 30
0.0
 11
7041.5110742488
 21
4205.1336538462
 31
0.0
  0
LINE
  5
322
330
1F
100
AcDbEntity
  8
0
  6
Continuous
 62
     8
370
    25
100
AcDbLine
 10
6200.3110742488
 20
4208.5336538462
 30
0.0
 11
6200.3110742488
 21
4205.1336538462
 31
0.0
  0
LINE
  5
323
330
1F
100
AcDbEntity
  8
0
  6
Continuous
 62
     8
370
    25
100
AcDbLine
 10
6602.7887960392
 20
4260.5364162771
 30
0.0
 11
6600.8916980448
 21
4260.6413886528
 31
0.0
  0
LINE
  5
324
330
1F
100
AcDbEntity
  8
0
  6
Continuous
 62
     8
370
    25
100
AcDbLine
 10
6639.0333524584
 20
4260.5364162771
 30
0.0
 11
6640.9304504528
 21
4260.6413886528
 31
0.0
  0
LINE
  5
325
330
1F
100
AcDbEntity
  8
0
  6
Continuous
 62
     8
370
    25
100
AcDbLine
 10
6602.8387196706
 20
4260.4836538462
 30
0.0
 11
6602.8387196706
 21
4258.5836538462
 31
0.0
  0
LINE
  5
326
330
1F
100
AcDbEntity
  8
0
  6
Continuous
 62
     8
370
    25
100
AcDbLine
 10
6638.983428827
 20
4260.4836538462
 30
0.0
 11
6638.983428827
 21
4258.5836538462
 31
0.0
  0
LINE
  5
327
330
1F
100
AcDbEntity
  8
0
  6
Continuous
 62
     8
370
    25
100
AcDbLine
 10
6602.3110742488
 20
4256.7336538462
 30
0.0
 11
6602.3110742488
 21
4258.6563977877
 31
0.0
  0
LINE
  5
328
330
1F
100
AcDbEntity
  8
0
  6
Continuous
 62
     8
370
    25
100
AcDbLine
 10
6603.0110742488
 20
4262.3336538462
 30
0.0
 11
6602.9783527598
 21
4262.3336538462
 31
0.0
  0
LINE
  5
329
330
1F
100
AcDbEntity
  8
0
  6
Continuous
 62
     8
370
    25
100
AcDbLine
 10
6638.8103930202
 20
4262.3336538462
 30
0.0
 11
6638.8437957377
 21
4262.3336538462
 31
0.0
  0
LINE
  5
32A
330
1F
100
AcDbEntity
  8
0
  6
Continuous
 62
     8
370
    25
100
AcDbLine
 10
6639.5103930202
 20
4258.6562064463
 30
0.0
 11
6639.5103930202
 21
4256.7336538462
 31
0.0
  0
LWPOLYLINE
  5
32B
330
1F
100
AcDbEntity
  8
0
  6
Continuous
 62
     8
370
    25
100
AcDbPolyline
 90
        3
 70
   128
 43
0.0
 10
6603.7110742488
 20
4263.7336538462
 10
6603.437947798
 20
4263.7067532387
 10
6603.2339880092
 20
4263.6498562318
  0
LWPOLYLINE
  5
32C
330
1F
100
AcDbEntity
  8
0
  6
Continuous
 62
     8
370
    25
100
AcDbPolyline
 90
        3
 70
   128
 43
0.0
 10
6638.5882233449
 20
4263.6495862839
 10
6638.383519471
 20
4263.7067532387
 10
6638.1103930202
 20
4263.7336538462
  0
LINE
  5
32D
330
1F
100
AcDbEntity
  8
0
  6
Continuous
 62
     8
370
    25
100
AcDbLine
 10
6604.2053568394
 20
4270.6206509977
 30
0.0
 11
6604.1453802828
 21
4270.6206509977
 31
0.0
  0
LINE
  5
32E
330
1F
100
AcDbEntity
  8
0
  6
Continuous
 62
     8
370
    25
100
AcDbLine
 10
6604.1453802828
 20
4248.4466566946
 30
0.0
 11
6604.325508411
 21
4248.4466566946
 31
0.0
  0
LINE
  5
32F
330
1F
100
AcDbEntity
  8
0
  6
Continuous
 62
     8
370
    25
100
AcDbLine
 10
6603.6986576539
 20
4249.4472662389
 30
0.0
 11
6603.5250227984
 21
4249.4472662389
 31
0.0
  0
LINE
  5
330
330
1F
100
AcDbEntity
  8
0
  6
Continuous
 62
     8
370
    25
100
AcDbLine
 10
6603.5250227984
 20
4269.6200414534
 30
0.0
 11
6603.5828520366
 21
4269.6200414534
 31
0.0
  0
LINE
  5
331
330
1F
100
AcDbEntity
  8
0
  6
Continuous
 62
     8
370
    25
100
AcDbLine
 10
6604.486746092
 20
4271.1203464112
 30
0.0
 11
6604.5479738273
 21
4271.1203464112
 31
0.0
  0
LINE
  5
332
330
1F
100
AcDbEntity
  8
0
  6
Continuous
 62
     8
370
    25
100
AcDbLine
 10
6604.6706599868
 20
4247.9469612811
 30
0.0
 11
6604.486746092
 21
4247.9469612811
 31
0.0
  0
LINE
  5
333
330
1F
100
AcDbEntity
  8
0
  6
Continuous
 62
     8
370
    25
100
AcDbLine
 10
6606.1124260314
 20
4273.0614959112
 30
0.0
 11
6606.0447536192
 21
4273.0614959112
 31
0.0
  0
LINE
  5
334
330
1F
100
AcDbEntity
  8
0
  6
Continuous
 62
     8
370
    25
100
AcDbLine
 10
6614.1072013978
 20
4270.2053284479
 30
0.0
 11
6613.0165479994
 21
4271.2959818463
 31
0.0
  0
LINE
  5
335
330
1F
100
AcDbEntity
  8
0
  6
Continuous
 62
     8
370
    25
100
AcDbLine
 10
6613.0165479994
 20
4247.771325846
 30
0.0
 11
6614.0985605158
 21
4248.8533383624
 31
0.0
  0
LINE
  5
336
330
1F
100
AcDbEntity
  8
0
  6
Continuous
 62
     8
370
    25
100
AcDbLine
 10
6606.0447536192
 20
4246.0058117811
 30
0.0
 11
6606.2481963231
 21
4246.0058117811
 31
0.0
  0
LWPOLYLINE
  5
337
330
1F
100
AcDbEntity
  8
0
  6
Continuous
 62
     8
370
    25
100
AcDbPolyline
 90
        3
 70
   128
 43
0.0
 10
6613.2207205308
 20
4273.7027663306
 10
6613.8462561812
 20
4273.2383178862
 10
6614.4299000611
 20
4272.709333908
  0
LINE
  5
338
330
1F
100
AcDbEntity
  8
0
  6
Continuous
 62
     8
370
    25
100
AcDbLine
 10
6608.1465156632
 20
4275.0602775653
 30
0.0
 11
6608.2253950835
 21
4275.0602775653
 31
0.0
  0
LINE
  5
339
330
1F
100
AcDbEntity
  8
0
  6
Continuous
 62
     8
370
    25
100
AcDbLine
 10
6620.9376979679
 20
4262.8767995967
 30
0.0
 11
6619.7992497642
 21
4262.8767995967
 31
0.0
  0
LINE
  5
33A
330
1F
100
AcDbEntity
  8
0
  6
Continuous
 62
     8
370
    25
100
AcDbLine
 10
6617.4614749638
 20
4267.4272003117
 30
0.0
 11
6618.5867543106
 21
4268.5524796585
 31
0.0
  0
LINE
  5
33B
330
1F
100
AcDbEntity
  8
0
  6
Continuous
 62
     8
370
    25
100
AcDbLine
 10
6620.9376979679
 20
4256.1905080956
 30
0.0
 11
6619.7853016305
 21
4256.1905080956
 31
0.0
  0
LINE
  5
33C
330
1F
100
AcDbEntity
  8
0
  6
Continuous
 62
     8
370
    25
100
AcDbLine
 10
6618.5867543106
 20
4250.5148280338
 30
0.0
 11
6617.3811451213
 21
4251.7204372231
 31
0.0
  0
ARC
  5
33D
330
1F
100
AcDbEntity
  8
0
  6
Continuous
 62
     8
370
    25
100
AcDbCircle
 10
6608.7542199993
 20
4252.0336538462
 30
0.0
 40
8.02662371911963
100
AcDbArc
 50
303.715507283
 51
315.0
  0
LINE
  5
33E
330
1F
100
AcDbEntity
  8
0
  6
Continuous
 62
     8
370
    25
100
AcDbLine
 10
6608.3840452361
 20
4244.007030127
 30
0.0
 11
6608.1465156632
 21
4244.007030127
 31
0.0
  0
LINE
  5
33F
330
1F
100
AcDbEntity
  8
0
  6
Continuous
 62
     7
370
    25
100
AcDbLine
 10
7425.2019230769
 20
4665.3629560171
 30
0.0
 11
7325.2019230769
 21
4665.3629560171
 31
0.0
  0
LINE
  5
340
330
1F
100
AcDbEntity
  8
0
  6
Continuous
 62
     7
370
    25
100
AcDbLine
 10
7325.2019230769
 20
4665.3629560171
 30
0.0
 11
7322.5019230769
 21
4665.3629560171
 31
0.0
  0
LINE
  5
341
330
1F
100
AcDbEntity
  8
0
  6
Continuous
 62
     7
370
    25
100
AcDbLine
 10
7427.9019230769
 20
4665.3629560171
 30
0.0
 11
7425.2019230769
 21
4665.3629560171
 31
0.0
  0
LINE
  5
342
330
1F
100
AcDbEntity
  8
0
  6
Continuous
 62
     7
370
    25
100
AcDbLine
 10
7372.2019230769
 20
4641.1629560171
 30
0.0
 11
7372.2019230769
 21
4626.1629560171
 31
0.0
  0
LINE
  5
343
330
1F
100
AcDbEntity
  8
0
  6
Continuous
 62
     7
370
    25
100
AcDbLine
 10
7378.2019230769
 20
4626.1629560171
 30
0.0
 11
7378.2019230769
 21
4641.1629560171
 31
0.0
  0
LINE
  5
344
330
1F
100
AcDbEntity
  8
0
  6
Continuous
 62
     7
370
    25
100
AcDbLine
 10
7343.6619592138
 20
4645.5673197833
 30
0.0
 11
7345.3168629109
 21
4644.5555343217
 31
0.0
  0
LINE
  5
345
330
1F
100
AcDbEntity
  8
0
  6
Continuous
 62
     7
370
    25
100
AcDbLine
 10
7405.086983243
 20
4644.5555343217
 30
0.0
 11
7406.74188694
 21
4645.5673197833
 31
0.0
  0
LINE
  5
346
330
1F
100
AcDbEntity
  8
0
  6
Continuous
 62
     7
370
    25
100
AcDbLine
 10
7341.9519230769
 20
4646.1629560171
 30
0.0
 11
7341.9519230769
 21
4645.5673197833
 31
0.0
  0
LINE
  5
347
330
1F
100
AcDbEntity
  8
0
  6
Continuous
 62
     7
370
    25
100
AcDbLine
 10
7408.4519230769
 20
4645.5673197833
 30
0.0
 11
7408.4519230769
 21
4646.1629560171
 31
0.0
  0
LINE
  5
348
330
1F
100
AcDbEntity
  8
0
  6
Continuous
 62
     7
370
    25
100
AcDbLine
 10
7335.2019230769
 20
4644.0592451694
 30
0.0
 11
7335.2019230769
 21
4643.5629560171
 31
0.0
  0
LINE
  5
349
330
1F
100
AcDbEntity
  8
0
  6
Continuous
 62
     7
370
    25
100
AcDbLine
 10
7415.2019230769
 20
4643.5629560171
 30
0.0
 11
7415.2019230769
 21
4644.0592451694
 31
0.0
  0
ARC
  5
34A
330
1F
100
AcDbEntity
  8
0
  6
Continuous
 62
     7
370
    25
100
AcDbCircle
 10
7335.8522651244
 20
4644.1140147174
 30
0.0
 40
0.0547695479954696
100
AcDbArc
 50
270.0
 51
329.9999999995
  0
ARC
  5
34B
330
1F
100
AcDbEntity
  8
0
  6
Continuous
 62
     7
370
    25
100
AcDbCircle
 10
7414.5515810294
 20
4644.1140147174
 30
0.0
 40
0.0547695479962573
100
AcDbArc
 50
210.0
 51
270.0
  0
LINE
  5
34C
330
1F
100
AcDbEntity
  8
0
  6
Continuous
 62
     7
370
    25
100
AcDbLine
 10
7414.5041492095
 20
4644.0866299434
 30
0.0
 11
7414.2650378243
 21
4644.5007830112
 31
0.0
  0
LINE
  5
34D
330
1F
100
AcDbEntity
  8
0
  6
Continuous
 62
     7
370
    25
100
AcDbLine
 10
7336.1388083295
 20
4644.5007830112
 30
0.0
 11
7335.8996969443
 21
4644.0866299434
 31
0.0
  0
ARC
  5
34E
330
1F
100
AcDbEntity
  8
0
  6
Continuous
 62
     7
370
    25
100
AcDbCircle
 10
7336.233640381
 20
4644.4460317008
 30
0.0
 40
0.1095026209371498
100
AcDbArc
 50
90.0
 51
150.0000000001
  0
ARC
  5
34F
330
1F
100
AcDbEntity
  8
0
  6
Continuous
 62
     7
370
    25
100
AcDbCircle
 10
7414.1702057728
 20
4644.4460317008
 30
0.0
 40
0.1095026209371498
100
AcDbArc
 50
29.9999999999
 51
90.0
  0
LINE
  5
350
330
1F
100
AcDbEntity
  8
0
  6
Continuous
 62
     7
370
    25
100
AcDbLine
 10
7414.1702057728
 20
4644.5555343217
 30
0.0
 11
7380.9754257688
 21
4644.5555343217
 31
0.0
  0
LINE
  5
351
330
1F
100
AcDbEntity
  8
0
  6
Continuous
 62
     7
370
    25
100
AcDbLine
 10
7369.428420385
 20
4644.5555343217
 30
0.0
 11
7336.233640381
 21
4644.5555343217
 31
0.0
  0
LINE
  5
352
330
1F
100
AcDbEntity
  8
0
  6
Continuous
 62
     7
370
    25
100
AcDbLine
 10
7355.2020182729
 20
4608.2555225321
 30
0.0
 11
7355.2020182729
 21
4607.6572839714
 31
0.0
  0
LINE
  5
353
330
1F
100
AcDbEntity
  8
0
  6
Continuous
 62
     7
370
    25
100
AcDbLine
 10
7395.201827881
 20
4607.6572839714
 30
0.0
 11
7395.201827881
 21
4608.2555225321
 31
0.0
  0
ARC
  5
354
330
1F
100
AcDbEntity
  8
0
  6
Continuous
 62
     7
370
    25
100
AcDbCircle
 10
7375.2019230769
 20
4608.4138084656
 30
0.0
 40
26.99999999999911
100
AcDbArc
 50
0.0
 51
83.6206297916
  0
ARC
  5
355
330
1F
100
AcDbEntity
  8
0
  6
Continuous
 62
     7
370
    25
100
AcDbCircle
 10
7375.2019230769
 20
4608.4138084656
 30
0.0
 40
26.99999999999991
100
AcDbArc
 50
96.3793702084
 51
0.0
  0
ARC
  5
356
330
1F
100
AcDbEntity
  8
0
  6
Continuous
 62
     7
370
    25
100
AcDbCircle
 10
7410.826225668
 20
4538.2320075685
 30
0.0
 40
52.7944223475799
100
AcDbArc
 50
98.6113344955
 51
109.5792512048
  0
ARC
  5
357
330
1F
100
AcDbEntity
  8
0
  6
Continuous
 62
     7
370
    25
100
AcDbCircle
 10
7339.850429048
 20
4539.2726635766
 30
0.0
 40
51.72268379399888
100
AcDbArc
 50
70.3260562123
 51
81.523490746
  0
LINE
  5
358
330
1F
100
AcDbEntity
  8
0
  6
Continuous
 62
     7
370
    25
100
AcDbLine
 10
7416.9519230769
 20
4640.5629560171
 30
0.0
 11
7416.9519230769
 21
4643.5629560171
 31
0.0
  0
LINE
  5
359
330
1F
100
AcDbEntity
  8
0
  6
Continuous
 62
     7
370
    25
100
AcDbLine
 10
7333.4519230769
 20
4643.5629560171
 30
0.0
 11
7333.4519230769
 21
4640.5629560171
 31
0.0
  0
LINE
  5
35A
330
1F
100
AcDbEntity
  8
0
  6
Continuous
 62
     7
370
    25
100
AcDbLine
 10
7328.3182190477
 20
4622.2367577142
 30
0.0
 11
7328.4610153773
 21
4605.8739190625
 31
0.0
  0
LINE
  5
35B
330
1F
100
AcDbEntity
  8
0
  6
Continuous
 62
     7
370
    25
100
AcDbLine
 10
7421.9428825558
 20
4605.8798523674
 30
0.0
 11
7422.2019230769
 21
4635.5629560171
 31
0.0
  0
LWPOLYLINE
  5
35C
330
1F
100
AcDbEntity
  8
0
  6
Continuous
 62
     7
370
    25
100
AcDbPolyline
 90
       14
 70
   128
 43
0.0
 10
7328.4973765718
 20
4605.8970421984
 10
7328.5120872287
 20
4604.8868009948
 10
7328.8550324402
 20
4602.9062252646
 10
7329.4974991282
 20
4601.0561668066
 10
7330.4067169214
 20
4599.3558045498
 10
7331.5576253956
 20
4597.8077976889
 10
7332.9448486171
 20
4596.3992372126
 10
7334.5853736399
 20
4595.1129694958
 10
7336.5172964608
 20
4593.9347480153
 10
7338.7811885052
 20
4592.8636362094
 10
7341.3760862813
 20
4591.9186629704
 10
7344.20909263
 20
4591.1299629937
 10
7347.2436063125
 20
4590.4787458656
 10
7347.5129916676
 20
4590.4338251006
  0
LWPOLYLINE
  5
35D
330
1F
100
AcDbEntity
  8
0
  6
Continuous
 62
     7
370
    25
100
AcDbPolyline
 90
       13
 70
   128
 43
0.0
 10
7402.8704466597
 20
4590.4436655707
 10
7404.4320886622
 20
4590.732532041
 10
7407.3095608632
 20
4591.4154213571
 10
7410.0748748295
 20
4592.2736784767
 10
7412.579769515
 20
4593.2947277612
 10
7414.9442125206
 20
4594.5646313246
 10
7416.7703469172
 20
4595.8495017336
 10
7418.2978534003
 20
4597.2423313928
 10
7419.5525803378
 20
4598.7433246156
 10
7420.5475240125
 20
4600.3528056025
 10
7421.3436815223
 20
4602.2490001052
 10
7421.8012894818
 20
4604.1853284219
 10
7421.9231929574
 20
4605.9063046578
  0
ARC
  5
35E
330
1F
100
AcDbEntity
  8
0
  6
Continuous
 62
     7
370
    25
100
AcDbCircle
 10
7328.2019230769
 20
4638.5629560171
 30
0.0
 40
2.000000000000464
100
AcDbArc
 50
120.0010464821
 51
180.0
  0
ARC
  5
35F
330
1F
100
AcDbEntity
  8
0
  6
Continuous
 62
     7
370
    25
100
AcDbCircle
 10
7422.2019230769
 20
4638.5629560171
 30
0.0
 40
2.000000000000909
100
AcDbArc
 50
0.0
 51
90.0
  0
LINE
  5
360
330
1F
100
AcDbEntity
  8
0
  6
Continuous
 62
     7
370
    25
100
AcDbLine
 10
7424.2019230769
 20
4635.5629560171
 30
0.0
 11
7424.2019230769
 21
4638.5629560171
 31
0.0
  0
LINE
  5
361
330
1F
100
AcDbEntity
  8
0
  6
Continuous
 62
     7
370
    25
100
AcDbLine
 10
7326.2019230769
 20
4638.5629560171
 30
0.0
 11
7326.2019230769
 21
4635.5629560171
 31
0.0
  0
LINE
  5
362
330
1F
100
AcDbEntity
  8
0
  6
Continuous
 62
     7
370
    25
100
AcDbLine
 10
7342.3519028903
 20
4591.6469987233
 30
0.0
 11
7342.9611780947
 21
4568.3797173789
 31
0.0
  0
LINE
  5
363
330
1F
100
AcDbEntity
  8
0
  6
Continuous
 62
     7
370
    25
100
AcDbLine
 10
7407.4426680592
 20
4568.3797173789
 30
0.0
 11
7408.0519124349
 21
4591.6458214236
 31
0.0
  0
ARC
  5
364
330
1F
100
AcDbEntity
  8
0
  6
Continuous
 62
     7
370
    25
100
AcDbCircle
 10
7400.4450667844
 20
4568.5629560171
 30
0.0
 40
7.000000000000909
100
AcDbArc
 50
270.0
 51
358.5
  0
ARC
  5
365
330
1F
100
AcDbEntity
  8
0
  6
Continuous
 62
     7
370
    25
100
AcDbCircle
 10
7349.9587793695
 20
4568.5629560171
 30
0.0
 40
7.000000000000909
100
AcDbArc
 50
181.5
 51
270.0
  0
LINE
  5
366
330
1F
100
AcDbEntity
  8
0
  6
Continuous
 62
     7
370
    25
100
AcDbLine
 10
7320.2019230769
 20
4551.3629560171
 30
0.0
 11
7320.2019230769
 21
4621.3629560171
 31
0.0
  0
LINE
  5
367
330
1F
100
AcDbEntity
  8
0
  6
Continuous
 62
     7
370
    25
100
AcDbLine
 10
7310.2019230769
 20
4621.3629560171
 30
0.0
 11
7310.2019230769
 21
4551.3629560171
 31
0.0
  0
LINE
  5
368
330
1F
100
AcDbEntity
  8
0
  6
Continuous
 62
     7
370
    25
100
AcDbLine
 10
7320.2019230769
 20
4630.3629560171
 30
0.0
 11
7319.2019230769
 21
4631.3629560171
 31
0.0
  0
LINE
  5
369
330
1F
100
AcDbEntity
  8
0
  6
Continuous
 62
     7
370
    25
100
AcDbLine
 10
7311.2019230769
 20
4631.3629560171
 30
0.0
 11
7310.2019230769
 21
4630.3629560171
 31
0.0
  0
LINE
  5
36A
330
1F
100
AcDbEntity
  8
0
  6
Continuous
 62
     7
370
    25
100
AcDbLine
 10
7467.2019230769
 20
4546.3629560171
 30
0.0
 11
7467.2019230769
 21
4621.3629560171
 31
0.0
  0
LINE
  5
36B
330
1F
100
AcDbEntity
  8
0
  6
Continuous
 62
     7
370
    25
100
AcDbLine
 10
7457.2019230769
 20
4621.3629560171
 30
0.0
 11
7457.2019230769
 21
4546.3629560171
 31
0.0
  0
LINE
  5
36C
330
1F
100
AcDbEntity
  8
0
  6
Continuous
 62
     7
370
    25
100
AcDbLine
 10
7467.2019230769
 20
4630.3629560171
 30
0.0
 11
7466.2019230769
 21
4631.3629560171
 31
0.0
  0
LINE
  5
36D
330
1F
100
AcDbEntity
  8
0
  6
Continuous
 62
     7
370
    25
100
AcDbLine
 10
7458.2019230769
 20
4631.3629560171
 30
0.0
 11
7457.2019230769
 21
4630.3629560171
 31
0.0
  0
LINE
  5
36E
330
1F
100
AcDbEntity
  8
0
  6
Continuous
 62
     7
370
    25
100
AcDbLine
 10
7302.5019230769
 20
4648.1629560171
 30
0.0
 11
7302.5019230769
 21
4718.1629560171
 31
0.0
  0
LINE
  5
36F
330
1F
100
AcDbEntity
  8
0
  6
Continuous
 62
     7
370
    25
100
AcDbLine
 10
7302.5019230769
 20
4718.1629560171
 30
0.0
 11
7304.0019230769
 21
4718.1629560171
 31
0.0
  0
LINE
  5
370
330
1F
100
AcDbEntity
  8
0
  6
Continuous
 62
     7
370
    25
100
AcDbLine
 10
7304.0019230769
 20
4649.3629560171
 30
0.0
 11
7304.0019230769
 21
4718.1629560171
 31
0.0
  0
LINE
  5
371
330
1F
100
AcDbEntity
  8
0
  6
Continuous
 62
     7
370
    25
100
AcDbLine
 10
7304.0019230769
 20
4649.3629560171
 30
0.0
 11
7446.4019230769
 21
4649.3629560171
 31
0.0
  0
LINE
  5
372
330
1F
100
AcDbEntity
  8
0
  6
Continuous
 62
     7
370
    25
100
AcDbLine
 10
7446.4019230769
 20
4649.3629560171
 30
0.0
 11
7446.4019230769
 21
4648.1629560171
 31
0.0
  0
LINE
  5
373
330
1F
100
AcDbEntity
  8
0
  6
Continuous
 62
     7
370
    25
100
AcDbLine
 10
7302.5019230769
 20
4648.1629560171
 30
0.0
 11
7446.4019230769
 21
4648.1629560171
 31
0.0
  0
LINE
  5
374
330
1F
100
AcDbEntity
  8
0
  6
Continuous
 62
     7
370
    25
100
AcDbLine
 10
7425.2019230769
 20
4663.3114146857
 30
0.0
 11
7325.2019230769
 21
4663.3114146857
 31
0.0
  0
LINE
  5
375
330
1F
100
AcDbEntity
  8
0
  6
Continuous
 62
     7
370
    25
100
AcDbLine
 10
7325.2019230769
 20
4663.3114146857
 30
0.0
 11
7320.8386676268
 21
4663.3114146857
 31
0.0
  0
ARC
  5
376
330
1F
100
AcDbEntity
  8
0
  6
Continuous
 62
     7
370
    25
100
AcDbCircle
 10
7322.483553744
 20
4663.6701910474
 30
0.0
 40
1.683558973214726
100
AcDbArc
 50
89.3750030156
 51
192.3044287047
  0
LINE
  5
377
330
1F
100
AcDbEntity
  8
0
  6
Continuous
 62
     7
370
    25
100
AcDbLine
 10
7429.565178527
 20
4663.3114146857
 30
0.0
 11
7425.2019230769
 21
4663.3114146857
 31
0.0
  0
ARC
  5
378
330
1F
100
AcDbEntity
  8
0
  6
Continuous
 62
     7
370
    25
100
AcDbCircle
 10
7427.9019230769
 20
4663.6629560171
 30
0.0
 40
1.700000000000728
100
AcDbArc
 50
348.0657534268
 51
90.0
  0
LINE
  5
379
330
1F
100
AcDbEntity
  8
0
  6
Continuous
 62
     7
370
    25
100
AcDbLine
 10
7325.2019230769
 20
4659.1043567825
 30
0.0
 11
7321.7278604063
 21
4659.1043567825
 31
0.0
  0
LINE
  5
37A
330
1F
100
AcDbEntity
  8
0
  6
Continuous
 62
     7
370
    25
100
AcDbLine
 10
7320.8386676268
 20
4663.3114146857
 30
0.0
 11
7321.7278604063
 21
4659.1043567825
 31
0.0
  0
LINE
  5
37B
330
1F
100
AcDbEntity
  8
0
  6
Continuous
 62
     7
370
    25
100
AcDbLine
 10
7325.2019230769
 20
4663.3114146857
 30
0.0
 11
7325.2019230769
 21
4659.1043567825
 31
0.0
  0
LINE
  5
37C
330
1F
100
AcDbEntity
  8
0
  6
Continuous
 62
     7
370
    25
100
AcDbLine
 10
7425.2019230769
 20
4659.1043567825
 30
0.0
 11
7325.2019230769
 21
4659.1043567825
 31
0.0
  0
LINE
  5
37D
330
1F
100
AcDbEntity
  8
0
  6
Continuous
 62
     7
370
    25
100
AcDbLine
 10
7425.2019230769
 20
4663.3114146857
 30
0.0
 11
7425.2019230769
 21
4659.1043567825
 31
0.0
  0
LINE
  5
37E
330
1F
100
AcDbEntity
  8
0
  6
Continuous
 62
     7
370
    25
100
AcDbLine
 10
7428.6759857476
 20
4659.1043567825
 30
0.0
 11
7425.2019230769
 21
4659.1043567825
 31
0.0
  0
LINE
  5
37F
330
1F
100
AcDbEntity
  8
0
  6
Continuous
 62
     7
370
    25
100
AcDbLine
 10
7429.565178527
 20
4663.3114146857
 30
0.0
 11
7428.6759857476
 21
4659.1043567825
 31
0.0
  0
LINE
  5
380
330
1F
100
AcDbEntity
  8
0
  6
Continuous
 62
     7
370
    25
100
AcDbLine
 10
7323.0019230769
 20
4659.1043567825
 30
0.0
 11
7323.0019230769
 21
4649.3629560171
 31
0.0
  0
LINE
  5
381
330
1F
100
AcDbEntity
  8
0
  6
Continuous
 62
     7
370
    25
100
AcDbLine
 10
7427.4019230769
 20
4659.1043567825
 30
0.0
 11
7427.4019230769
 21
4649.3629560171
 31
0.0
  0
LINE
  5
382
330
1F
100
AcDbEntity
  8
0
  6
Continuous
 62
     7
370
    25
100
AcDbLine
 10
7305.2017879062
 20
4623.3629560171
 30
0.0
 11
7326.2017879062
 21
4623.3629560171
 31
0.0
  0
ARC
  5
383
330
1F
100
AcDbEntity
  8
0
  6
Continuous
 62
     7
370
    25
100
AcDbCircle
 10
7326.2017879062
 20
4624.3629560171
 30
0.0
 40
1.000000000000197
100
AcDbArc
 50
270.0
 51
359.9996276583
  0
LINE
  5
384
330
1F
100
AcDbEntity
  8
0
  6
Continuous
 62
     7
370
    25
100
AcDbLine
 10
7327.2017879062
 20
4624.3629495185
 30
0.0
 11
7327.201923077
 21
4645.1629755129
 31
0.0
  0
ARC
  5
385
330
1F
100
AcDbEntity
  8
0
  6
Continuous
 62
     7
370
    25
100
AcDbCircle
 10
7330.2019230769
 20
4645.1629560171
 30
0.0
 40
2.999999999999683
100
AcDbArc
 50
90.0
 51
179.9996276583
  0
ARC
  5
386
330
1F
100
AcDbEntity
  8
0
  6
Continuous
 62
     7
370
    25
100
AcDbCircle
 10
7420.2019230769
 20
4645.1629560171
 30
0.0
 40
2.999999999999499
100
AcDbArc
 50
48.6002523617
 51
90.0
  0
LINE
  5
387
330
1F
100
AcDbEntity
  8
0
  6
Continuous
 62
     7
370
    25
100
AcDbLine
 10
7422.1858487612
 20
4647.4132979643
 30
0.0
 11
7449.1824065282
 21
4623.6128420347
 31
0.0
  0
ARC
  5
388
330
1F
100
AcDbEntity
  8
0
  6
Continuous
 62
     7
370
    25
100
AcDbCircle
 10
7449.8437150897
 20
4624.3629560171
 30
0.0
 40
1.0
100
AcDbArc
 50
228.6002523617
 51
270.0
  0
LINE
  5
389
330
1F
100
AcDbEntity
  8
0
  6
Continuous
 62
     7
370
    25
100
AcDbLine
 10
7449.8437150897
 20
4623.3629560171
 30
0.0
 11
7470.8437150897
 21
4623.3629560171
 31
0.0
  0
LINE
  5
38A
330
1F
100
AcDbEntity
  8
0
  6
Continuous
 62
     7
370
    25
100
AcDbLine
 10
7470.8437150897
 20
4623.3629560171
 30
0.0
 11
7470.8437150897
 21
4621.3629560171
 31
0.0
  0
LINE
  5
38B
330
1F
100
AcDbEntity
  8
0
  6
Continuous
 62
     7
370
    25
100
AcDbLine
 10
7470.8437150897
 20
4621.3629560171
 30
0.0
 11
7449.8437150897
 21
4621.3629560171
 31
0.0
  0
ARC
  5
38C
330
1F
100
AcDbEntity
  8
0
  6
Continuous
 62
     7
370
    25
100
AcDbCircle
 10
7449.8437150897
 20
4624.3629560171
 30
0.0
 40
3.0
100
AcDbArc
 50
228.6002523617
 51
270.0
  0
LINE
  5
38D
330
1F
100
AcDbEntity
  8
0
  6
Continuous
 62
     7
370
    25
100
AcDbLine
 10
7447.8597894054
 20
4622.1126140699
 30
0.0
 11
7420.8632316383
 21
4645.9130699995
 31
0.0
  0
ARC
  5
38E
330
1F
100
AcDbEntity
  8
0
  6
Continuous
 62
     7
370
    25
100
AcDbCircle
 10
7420.2019230769
 20
4645.1629560171
 30
0.0
 40
0.9999999999990905
100
AcDbArc
 50
48.6002523617
 51
90.0
  0
LINE
  5
38F
330
1F
100
AcDbEntity
  8
0
  6
Continuous
 62
     7
370
    25
100
AcDbLine
 10
7420.2019230769
 20
4646.1629560171
 30
0.0
 11
7330.2019230769
 21
4646.1629560171
 31
0.0
  0
ARC
  5
390
330
1F
100
AcDbEntity
  8
0
  6
Continuous
 62
     7
370
    25
100
AcDbCircle
 10
7330.2019230769
 20
4645.1629560171
 30
0.0
 40
0.9999999999992879
100
AcDbArc
 50
90.0
 51
179.9996276583
  0
LINE
  5
391
330
1F
100
AcDbEntity
  8
0
  6
Continuous
 62
     7
370
    25
100
AcDbLine
 10
7329.2019230769
 20
4645.1629625157
 30
0.0
 11
7329.2017879061
 21
4624.3629365213
 31
0.0
  0
ARC
  5
392
330
1F
100
AcDbEntity
  8
0
  6
Continuous
 62
     7
370
    25
100
AcDbCircle
 10
7326.2017879062
 20
4624.3629560171
 30
0.0
 40
3.0
100
AcDbArc
 50
270.0
 51
359.9996276583
  0
LINE
  5
393
330
1F
100
AcDbEntity
  8
0
  6
Continuous
 62
     7
370
    25
100
AcDbLine
 10
7326.2017879062
 20
4621.3629560171
 30
0.0
 11
7305.2017879062
 21
4621.3629560171
 31
0.0
  0
LINE
  5
394
330
1F
100
AcDbEntity
  8
0
  6
Continuous
 62
     7
370
    25
100
AcDbLine
 10
7305.2017879062
 20
4621.3629560171
 30
0.0
 11
7305.2017879062
 21
4623.3629560171
 31
0.0
  0
LINE
  5
395
330
1F
100
AcDbEntity
  8
0
  6
Continuous
 62
     7
370
    25
100
AcDbLine
 10
7310.2944457888
 20
4630.3629560171
 30
0.0
 11
7310.2944457888
 21
4623.3629560171
 31
0.0
  0
LINE
  5
396
330
1F
100
AcDbEntity
  8
0
  6
Continuous
 62
     7
370
    25
100
AcDbLine
 10
7320.109400365
 20
4630.3629560171
 30
0.0
 11
7310.2944457888
 21
4630.3629560171
 31
0.0
  0
LINE
  5
397
330
1F
100
AcDbEntity
  8
0
  6
Continuous
 62
     7
370
    25
100
AcDbLine
 10
7320.109400365
 20
4630.3629560171
 30
0.0
 11
7320.109400365
 21
4623.3629560171
 31
0.0
  0
LINE
  5
398
330
1F
100
AcDbEntity
  8
0
  6
Continuous
 62
     7
370
    25
100
AcDbLine
 10
7305.3869685007
 20
4630.3629560171
 30
0.0
 11
7305.3869685007
 21
4623.3629560171
 31
0.0
  0
LINE
  5
399
330
1F
100
AcDbEntity
  8
0
  6
Continuous
 62
     7
370
    25
100
AcDbLine
 10
7310.2944457888
 20
4630.3629560171
 30
0.0
 11
7305.3869685007
 21
4630.3629560171
 31
0.0
  0
LINE
  5
39A
330
1F
100
AcDbEntity
  8
0
  6
Continuous
 62
     7
370
    25
100
AcDbLine
 10
7325.0168776531
 20
4630.3629560171
 30
0.0
 11
7325.0168776531
 21
4623.3629560171
 31
0.0
  0
LINE
  5
39B
330
1F
100
AcDbEntity
  8
0
  6
Continuous
 62
     7
370
    25
100
AcDbLine
 10
7325.0168776531
 20
4630.3629560171
 30
0.0
 11
7320.109400365
 21
4630.3629560171
 31
0.0
  0
LINE
  5
39C
330
1F
100
AcDbEntity
  8
0
  6
Continuous
 62
     7
370
    25
100
AcDbLine
 10
7452.3869685007
 20
4630.3629560171
 30
0.0
 11
7452.3869685007
 21
4623.3629560171
 31
0.0
  0
LINE
  5
39D
330
1F
100
AcDbEntity
  8
0
  6
Continuous
 62
     7
370
    25
100
AcDbLine
 10
7457.2944457888
 20
4630.3629560171
 30
0.0
 11
7457.2944457888
 21
4623.3629560171
 31
0.0
  0
LINE
  5
39E
330
1F
100
AcDbEntity
  8
0
  6
Continuous
 62
     7
370
    25
100
AcDbLine
 10
7457.2944457888
 20
4630.3629560171
 30
0.0
 11
7452.3869685007
 21
4630.3629560171
 31
0.0
  0
LINE
  5
39F
330
1F
100
AcDbEntity
  8
0
  6
Continuous
 62
     7
370
    25
100
AcDbLine
 10
7467.109400365
 20
4630.3629560171
 30
0.0
 11
7467.109400365
 21
4623.3629560171
 31
0.0
  0
LINE
  5
3A0
330
1F
100
AcDbEntity
  8
0
  6
Continuous
 62
     7
370
    25
100
AcDbLine
 10
7472.0168776531
 20
4630.3629560171
 30
0.0
 11
7472.0168776531
 21
4623.3629560171
 31
0.0
  0
LINE
  5
3A1
330
1F
100
AcDbEntity
  8
0
  6
Continuous
 62
     7
370
    25
100
AcDbLine
 10
7472.0168776531
 20
4623.3629560171
 30
0.0
 11
7470.8437150897
 21
4623.3629560171
 31
0.0
  0
LINE
  5
3A2
330
1F
100
AcDbEntity
  8
0
  6
Continuous
 62
     7
370
    25
100
AcDbLine
 10
7472.0168776531
 20
4630.3629560171
 30
0.0
 11
7467.109400365
 21
4630.3629560171
 31
0.0
  0
LINE
  5
3A3
330
1F
100
AcDbEntity
  8
0
  6
Continuous
 62
     7
370
    25
100
AcDbLine
 10
7467.109400365
 20
4630.3629560171
 30
0.0
 11
7457.2944457888
 21
4630.3629560171
 31
0.0
  0
LINE
  5
3A4
330
1F
100
AcDbEntity
  8
0
  6
Continuous
 62
     7
370
    25
100
AcDbLine
 10
7378.0886744229
 20
4641.1629560171
 30
0.0
 11
7378.0886744229
 21
4646.1629560171
 31
0.0
  0
LINE
  5
3A5
330
1F
100
AcDbEntity
  8
0
  6
Continuous
 62
     7
370
    25
100
AcDbLine
 10
7372.315171731
 20
4641.1629560171
 30
0.0
 11
7372.315171731
 21
4646.1629560171
 31
0.0
  0
LINE
  5
3A6
330
1F
100
AcDbEntity
  8
0
  6
Continuous
 62
     7
370
    25
100
AcDbLine
 10
7372.315171731
 20
4641.1629560171
 30
0.0
 11
7378.0886744229
 21
4641.1629560171
 31
0.0
  0
LINE
  5
3A7
330
1F
100
AcDbEntity
  8
0
  6
Continuous
 62
     7
370
    25
100
AcDbLine
 10
7380.9754257688
 20
4641.1629560171
 30
0.0
 11
7380.9754257688
 21
4646.1629560171
 31
0.0
  0
LINE
  5
3A8
330
1F
100
AcDbEntity
  8
0
  6
Continuous
 62
     7
370
    25
100
AcDbLine
 10
7378.0886744229
 20
4641.1629560171
 30
0.0
 11
7380.9754257688
 21
4641.1629560171
 31
0.0
  0
LINE
  5
3A9
330
1F
100
AcDbEntity
  8
0
  6
Continuous
 62
     7
370
    25
100
AcDbLine
 10
7369.428420385
 20
4641.1629560171
 30
0.0
 11
7369.428420385
 21
4646.1629560171
 31
0.0
  0
LINE
  5
3AA
330
1F
100
AcDbEntity
  8
0
  6
Continuous
 62
     7
370
    25
100
AcDbLine
 10
7369.428420385
 20
4641.1629560171
 30
0.0
 11
7372.315171731
 21
4641.1629560171
 31
0.0
  0
LINE
  5
3AB
330
1F
100
AcDbEntity
  8
0
  6
Continuous
 62
     7
370
    25
100
AcDbLine
 10
7372.2019230769
 20
4626.1629560171
 30
0.0
 11
7378.2019230769
 21
4626.1629560171
 31
0.0
  0
LINE
  5
3AC
330
1F
100
AcDbEntity
  8
0
  6
Continuous
 62
     7
370
    25
100
AcDbLine
 10
7408.4519230769
 20
4645.5673197833
 30
0.0
 11
7380.9754257688
 21
4645.5673197833
 31
0.0
  0
LINE
  5
3AD
330
1F
100
AcDbEntity
  8
0
  6
Continuous
 62
     7
370
    25
100
AcDbLine
 10
7369.428420385
 20
4645.5673197833
 30
0.0
 11
7341.9519230769
 21
4645.5673197833
 31
0.0
  0
LINE
  5
3AE
330
1F
100
AcDbEntity
  8
0
  6
Continuous
 62
     7
370
    25
100
AcDbLine
 10
7335.2019230769
 20
4644.0592451694
 30
0.0
 11
7369.428420385
 21
4644.0592451694
 31
0.0
  0
LINE
  5
3AF
330
1F
100
AcDbEntity
  8
0
  6
Continuous
 62
     7
370
    25
100
AcDbLine
 10
7380.9754257688
 20
4644.0592451694
 30
0.0
 11
7415.2019230769
 21
4644.0592451694
 31
0.0
  0
LWPOLYLINE
  5
3B0
330
1F
100
AcDbEntity
  8
0
  6
Continuous
 62
     7
370
    25
100
AcDbPolyline
 90
        8
 70
   128
 43
0.0
 10
7385.2869618869
 20
4621.4927197594
 10
7384.8462101412
 20
4621.4893136647
 10
7381.2754786294
 20
4621.4635346039
 10
7377.5411880039
 20
4621.4382555176
 10
7373.7539230238
 20
4621.4139853817
 10
7370.0227022373
 20
4621.3890109574
 10
7366.4382891859
 20
4621.3633145177
 10
7365.1770213806
 20
4621.3535907602
  0
LINE
  5
3B1
330
1F
100
AcDbEntity
  8
0
  6
Continuous
 62
     7
370
    25
100
AcDbLine
 10
7375.2019230769
 20
4620.0629560171
 30
0.0
 11
7384.8927682205
 21
4620.0629560171
 31
0.0
  0
LINE
  5
3B2
330
1F
100
AcDbEntity
  8
0
  6
Continuous
 62
     7
370
    25
100
AcDbLine
 10
7365.5110779333
 20
4620.0629560171
 30
0.0
 11
7375.2019230769
 21
4620.0629560171
 31
0.0
  0
LWPOLYLINE
  5
3B3
330
1F
100
AcDbEntity
  8
0
  6
Continuous
 62
     7
370
    25
100
AcDbPolyline
 90
        7
 70
   128
 43
0.0
 10
7366.0693850441
 20
4622.4036748116
 10
7366.3236674461
 20
4622.406706013
 10
7370.7193155654
 20
4622.4549583854
 10
7375.2019230769
 20
4622.500456013
 10
7379.6845305885
 20
4622.5459536406
 10
7384.0801787078
 20
4622.594206013
 10
7384.1474041375
 20
4622.5950073812
  0
LWPOLYLINE
  5
3B4
330
1F
100
AcDbEntity
  8
0
  6
Continuous
 62
     7
370
    25
100
AcDbPolyline
 90
        5
 70
   128
 43
0.0
 10
7366.4377345305
 20
4622.5954581663
 10
7370.7193155654
 20
4622.6424583895
 10
7375.2019230769
 20
4622.6879560171
 10
7379.6845305885
 20
4622.7334536447
 10
7383.7426477754
 20
4622.7780008369
  0
LWPOLYLINE
  5
3B5
330
1F
100
AcDbEntity
  8
0
  6
Continuous
 62
     7
370
    25
100
AcDbPolyline
 90
        7
 70
   128
 43
0.0
 10
7365.3100907625
 20
4621.9215973439
 10
7366.6343676704
 20
4621.9379560151
 10
7370.8761872772
 20
4621.9862083875
 10
7375.2019230769
 20
4622.0317060151
 10
7379.5276588766
 20
4622.0772036426
 10
7383.7694784835
 20
4622.1254560151
 10
7384.8882315017
 20
4622.1392758685
  0
LWPOLYLINE
  5
3B6
330
1F
100
AcDbEntity
  8
0
  6
Continuous
 62
     7
370
    25
100
AcDbPolyline
 90
        4
 70
   128
 43
0.0
 10
7368.0876326995
 20
4623.4544874784
 10
7370.8761872772
 20
4623.4862083875
 10
7375.2019230769
 20
4623.5317060151
 10
7378.1730505801
 20
4623.5629560171
  0
LWPOLYLINE
  5
3B7
330
1F
100
AcDbEntity
  8
0
  6
Continuous
 62
     7
370
    25
100
AcDbPolyline
 90
        7
 70
   128
 43
0.0
 10
7365.2984050223
 20
4621.546452991
 10
7366.6343676704
 20
4621.5629560151
 10
7370.8761872772
 20
4621.6112083875
 10
7375.2019230769
 20
4621.6567060151
 10
7379.5276588766
 20
4621.7022036426
 10
7383.7694784835
 20
4621.7504560151
 10
7385.0985658281
 20
4621.7668741091
  0
LWPOLYLINE
  5
3B8
330
1F
100
AcDbEntity
  8
0
  6
Continuous
 62
     7
370
    25
100
AcDbPolyline
 90
        5
 70
   128
 43
0.0
 10
7367.3512998666
 20
4623.0711114018
 10
7370.8761872772
 20
4623.1112083875
 10
7375.2019230769
 20
4623.1567060151
 10
7379.5276588766
 20
4623.2022036426
 10
7382.7239482711
 20
4623.2385626962
  0
CIRCLE
  5
3B9
330
1F
100
AcDbEntity
  8
0
  6
Continuous
 62
     7
370
    25
100
AcDbCircle
 10
7375.2018598578
 20
4607.6262321006
 30
0.0
 40
17.49968043751192
  0
ARC
  5
3BA
330
1F
100
AcDbEntity
  8
0
  6
Continuous
 62
     7
370
    25
100
AcDbCircle
 10
7375.2019230769
 20
4607.626367187
 30
0.0
 40
19.71434232641849
100
AcDbArc
 50
98.7529037444
 51
81.2470962556
  0
ARC
  5
3BB
330
1F
100
AcDbEntity
  8
0
  6
Continuous
 62
     7
370
    25
100
AcDbCircle
 10
7375.2019230769
 20
4607.6568012858
 30
0.0
 40
19.99963762810323
100
AcDbArc
 50
98.6270840614
 51
81.3729159386
  0
ARC
  5
3BC
330
1F
100
AcDbEntity
  8
0
  6
Continuous
 62
     7
370
    25
100
AcDbCircle
 10
7375.2024833319
 20
4608.255251283
 30
0.0
 40
19.99934455094871
100
AcDbArc
 50
0.0007770969
 51
81.3744119802
  0
ARC
  5
3BD
330
1F
100
AcDbEntity
  8
0
  6
Continuous
 62
     7
370
    25
100
AcDbCircle
 10
7375.2014349607
 20
4608.2551892611
 30
0.0
 40
19.99941669060094
100
AcDbArc
 50
98.6257657018
 51
179.9990452211
  0
ARC
  5
3BE
330
1F
100
AcDbEntity
  8
0
  6
Continuous
 62
     7
370
    25
100
AcDbCircle
 10
7372.7623063328
 20
4608.5040275009
 30
0.0
 40
15.04056685106807
100
AcDbArc
 50
177.7865545128
 51
205.5322813903
  0
ARC
  5
3BF
330
1F
100
AcDbEntity
  8
0
  6
Continuous
 62
     7
370
    25
100
AcDbCircle
 10
7375.2019230769
 20
4609.0848687232
 30
0.0
 40
17.50023986067682
100
AcDbArc
 50
203.8052968746
 51
336.1947031254
  0
ARC
  5
3C0
330
1F
100
AcDbEntity
  8
0
  6
Continuous
 62
     7
370
    25
100
AcDbCircle
 10
7376.8556153512
 20
4608.6102605942
 30
0.0
 40
15.79739587783637
100
AcDbArc
 50
335.348694842
 51
1.7302785812
  0
ARC
  5
3C1
330
1F
100
AcDbEntity
  8
0
  6
Continuous
 62
     7
370
    25
100
AcDbCircle
 10
7375.2027772427
 20
4608.9786290567
 30
0.0
 40
26.51138458301075
100
AcDbArc
 50
269.9981539971
 51
83.5044114242
  0
ARC
  5
3C2
330
1F
100
AcDbEntity
  8
0
  6
Continuous
 62
     7
370
    25
100
AcDbCircle
 10
7375.2018652967
 20
4608.9769707994
 30
0.0
 40
26.51312229453437
100
AcDbArc
 50
96.4968931492
 51
120.4798080924
  0
LINE
  5
3C3
330
1F
100
AcDbEntity
  8
0
  6
Continuous
 62
     7
370
    25
100
AcDbLine
 10
7353.1498358443
 20
4640.5629560171
 30
0.0
 11
7358.0686586003
 21
4640.5629560171
 31
0.0
  0
LINE
  5
3C4
330
1F
100
AcDbEntity
  8
0
  6
Continuous
 62
     7
370
    25
100
AcDbLine
 10
7358.0686586003
 20
4640.5629560171
 30
0.0
 11
7358.0686586003
 21
4638.5629560171
 31
0.0
  0
LINE
  5
3C5
330
1F
100
AcDbEntity
  8
0
  6
Continuous
 62
     7
370
    25
100
AcDbLine
 10
7358.0686586003
 20
4638.5629560171
 30
0.0
 11
7351.182306742
 21
4638.5629560171
 31
0.0
  0
ARC
  5
3C6
330
1F
100
AcDbEntity
  8
0
  6
Continuous
 62
     7
370
    25
100
AcDbCircle
 10
7353.1662052631
 20
4638.579059671
 30
0.0
 40
1.983963878169449
100
AcDbArc
 50
90.4727451245
 51
180.4650697254
  0
LINE
  5
3C7
330
1F
100
AcDbEntity
  8
0
  6
Continuous
 62
     7
370
    25
100
AcDbLine
 10
7351.182306742
 20
4638.5629560171
 30
0.0
 11
7351.182306742
 21
4635.5629560171
 31
0.0
  0
LINE
  5
3C8
330
1F
100
AcDbEntity
  8
0
  6
Continuous
 62
     7
370
    25
100
AcDbLine
 10
7358.0686586003
 20
4638.5629560171
 30
0.0
 11
7358.0686586003
 21
4635.5629560171
 31
0.0
  0
LINE
  5
3C9
330
1F
100
AcDbEntity
  8
0
  6
Continuous
 62
     7
370
    25
100
AcDbLine
 10
7351.182306742
 20
4635.5629560171
 30
0.0
 11
7358.0686586003
 21
4635.5629560171
 31
0.0
  0
LINE
  5
3CA
330
1F
100
AcDbEntity
  8
0
  6
Continuous
 62
     7
370
    25
100
AcDbLine
 10
7392.3351875536
 20
4638.5629560171
 30
0.0
 11
7392.3351875536
 21
4635.5629560171
 31
0.0
  0
LINE
  5
3CB
330
1F
100
AcDbEntity
  8
0
  6
Continuous
 62
     7
370
    25
100
AcDbLine
 10
7358.0686586003
 20
4635.5629560171
 30
0.0
 11
7372.2019230769
 21
4635.5629560171
 31
0.0
  0
LINE
  5
3CC
330
1F
100
AcDbEntity
  8
0
  6
Continuous
 62
     7
370
    25
100
AcDbLine
 10
7378.2019230769
 20
4635.5629560171
 30
0.0
 11
7392.3351875536
 21
4635.5629560171
 31
0.0
  0
LINE
  5
3CD
330
1F
100
AcDbEntity
  8
0
  6
Continuous
 62
     7
370
    25
100
AcDbLine
 10
7358.0686586003
 20
4640.5629560171
 30
0.0
 11
7372.2019230769
 21
4640.5629560171
 31
0.0
  0
LINE
  5
3CE
330
1F
100
AcDbEntity
  8
0
  6
Continuous
 62
     7
370
    25
100
AcDbLine
 10
7378.2019230769
 20
4640.5629560171
 30
0.0
 11
7392.3351875536
 21
4640.5629560171
 31
0.0
  0
LINE
  5
3CF
330
1F
100
AcDbEntity
  8
0
  6
Continuous
 62
     7
370
    25
100
AcDbLine
 10
7392.3351875536
 20
4640.5629560171
 30
0.0
 11
7392.3351875536
 21
4638.5629560171
 31
0.0
  0
LINE
  5
3D0
330
1F
100
AcDbEntity
  8
0
  6
Continuous
 62
     7
370
    25
100
AcDbLine
 10
7399.2215394119
 20
4638.5629560171
 30
0.0
 11
7392.3351875536
 21
4638.5629560171
 31
0.0
  0
LINE
  5
3D1
330
1F
100
AcDbEntity
  8
0
  6
Continuous
 62
     7
370
    25
100
AcDbLine
 10
7399.2215394119
 20
4638.5629560171
 30
0.0
 11
7399.2215394119
 21
4635.5629560171
 31
0.0
  0
LINE
  5
3D2
330
1F
100
AcDbEntity
  8
0
  6
Continuous
 62
     7
370
    25
100
AcDbLine
 10
7392.3351875536
 20
4635.5629560171
 30
0.0
 11
7399.2215394119
 21
4635.5629560171
 31
0.0
  0
LINE
  5
3D3
330
1F
100
AcDbEntity
  8
0
  6
Continuous
 62
     7
370
    25
100
AcDbLine
 10
7392.3351875536
 20
4640.5629560171
 30
0.0
 11
7397.2540103095
 21
4640.5629560171
 31
0.0
  0
ARC
  5
3D4
330
1F
100
AcDbEntity
  8
0
  6
Continuous
 62
     7
370
    25
100
AcDbCircle
 10
7397.2376408907
 20
4638.579059671
 30
0.0
 40
1.98396387817129
100
AcDbArc
 50
359.5349302747
 51
89.5272548754
  0
LWPOLYLINE
  5
3D5
330
1F
100
AcDbEntity
  8
0
  6
Continuous
 62
     7
370
    25
100
AcDbPolyline
 90
        3
 70
   128
 43
0.0
 10
7392.9749638804
 20
4587.9643415356
 10
7392.6429684715
 20
4587.7439129143
 10
7392.2669179178
 20
4587.6785099343
  0
LWPOLYLINE
  5
3D6
330
1F
100
AcDbEntity
  8
0
  6
Continuous
 62
     7
370
    25
100
AcDbPolyline
 90
        3
 70
   128
 43
0.0
 10
7357.4288822734
 20
4587.9643415356
 10
7357.7608776824
 20
4587.7439129143
 10
7358.1584191829
 20
4587.6747722135
  0
LINE
  5
3D7
330
1F
100
AcDbEntity
  8
0
  6
Continuous
 62
     7
370
    25
100
AcDbLine
 10
7351.182306742
 20
4638.5629560171
 30
0.0
 11
7341.6577164224
 21
4638.5629560171
 31
0.0
  0
ARC
  5
3D8
330
1F
100
AcDbEntity
  8
0
  6
Continuous
 62
     7
370
    25
100
AcDbCircle
 10
7343.4156507209
 20
4638.8275435989
 30
0.0
 40
1.777734397021832
100
AcDbArc
 50
102.5271579556
 51
188.5593696972
  0
LINE
  5
3D9
330
1F
100
AcDbEntity
  8
0
  6
Continuous
 62
     7
370
    25
100
AcDbLine
 10
7343.030055953
 20
4640.5629560171
 30
0.0
 11
7353.1498358443
 21
4640.5629560171
 31
0.0
  0
LINE
  5
3DA
330
1F
100
AcDbEntity
  8
0
  6
Continuous
 62
     7
370
    25
100
AcDbLine
 10
7341.6577164224
 20
4638.5629560171
 30
0.0
 11
7341.6577164224
 21
4635.5629560171
 31
0.0
  0
LINE
  5
3DB
330
1F
100
AcDbEntity
  8
0
  6
Continuous
 62
     7
370
    25
100
AcDbLine
 10
7341.6577164224
 20
4635.5629560171
 30
0.0
 11
7351.182306742
 21
4635.5629560171
 31
0.0
  0
ARC
  5
3DC
330
1F
100
AcDbEntity
  8
0
  6
Continuous
 62
     7
370
    25
100
AcDbCircle
 10
7406.9851427764
 20
4638.8254489583
 30
0.0
 40
1.780443090940101
100
AcDbArc
 50
351.5219073503
 51
77.3915649969
  0
LINE
  5
3DD
330
1F
100
AcDbEntity
  8
0
  6
Continuous
 62
     7
370
    25
100
AcDbLine
 10
7408.7461297314
 20
4638.5629560171
 30
0.0
 11
7399.2215394119
 21
4638.5629560171
 31
0.0
  0
LINE
  5
3DE
330
1F
100
AcDbEntity
  8
0
  6
Continuous
 62
     7
370
    25
100
AcDbLine
 10
7397.2540103095
 20
4640.5629560171
 30
0.0
 11
7407.3737902009
 21
4640.5629560171
 31
0.0
  0
LINE
  5
3DF
330
1F
100
AcDbEntity
  8
0
  6
Continuous
 62
     7
370
    25
100
AcDbLine
 10
7408.7461297314
 20
4638.5629560171
 30
0.0
 11
7408.7461297314
 21
4635.5629560171
 31
0.0
  0
LINE
  5
3E0
330
1F
100
AcDbEntity
  8
0
  6
Continuous
 62
     7
370
    25
100
AcDbLine
 10
7399.2215394119
 20
4635.5629560171
 30
0.0
 11
7408.7461297314
 21
4635.5629560171
 31
0.0
  0
LINE
  5
3E1
330
1F
100
AcDbEntity
  8
0
  6
Continuous
 62
     7
370
    25
100
AcDbLine
 10
7344.1004333514
 20
4597.2557911319
 30
0.0
 11
7343.8776299436
 21
4635.5629560171
 31
0.0
  0
LINE
  5
3E2
330
1F
100
AcDbEntity
  8
0
  6
Continuous
 62
     7
370
    25
100
AcDbLine
 10
7406.3034128024
 20
4597.2557911319
 30
0.0
 11
7406.5262162102
 21
4635.5629560171
 31
0.0
  0
LINE
  5
3E3
330
1F
100
AcDbEntity
  8
0
  6
Continuous
 62
     7
370
    25
100
AcDbLine
 10
7367.9726600067
 20
4623.5629560171
 30
0.0
 11
7382.4311861472
 21
4623.5629560171
 31
0.0
  0
LINE
  5
3E4
330
1F
100
AcDbEntity
  8
0
  6
Continuous
 62
     7
370
    25
100
AcDbLine
 10
7380.9754257688
 20
4643.5629560171
 30
0.0
 11
7416.9519230769
 21
4643.5629560171
 31
0.0
  0
LINE
  5
3E5
330
1F
100
AcDbEntity
  8
0
  6
Continuous
 62
     7
370
    25
100
AcDbLine
 10
7333.4519230769
 20
4643.5629560171
 30
0.0
 11
7369.428420385
 21
4643.5629560171
 31
0.0
  0
LINE
  5
3E6
330
1F
100
AcDbEntity
  8
0
  6
Continuous
 62
     7
370
    25
100
AcDbLine
 10
7407.3737902009
 20
4640.5629560171
 30
0.0
 11
7422.2019230769
 21
4640.5629560171
 31
0.0
  0
LINE
  5
3E7
330
1F
100
AcDbEntity
  8
0
  6
Continuous
 62
     7
370
    25
100
AcDbLine
 10
7329.2018931834
 20
4640.5629560171
 30
0.0
 11
7343.030055953
 21
4640.5629560171
 31
0.0
  0
LINE
  5
3E8
330
1F
100
AcDbEntity
  8
0
  6
Continuous
 62
     7
370
    25
100
AcDbLine
 10
7408.7461297314
 20
4635.5629560171
 30
0.0
 11
7424.2019230769
 21
4635.5629560171
 31
0.0
  0
LINE
  5
3E9
330
1F
100
AcDbEntity
  8
0
  6
Continuous
 62
     7
370
    25
100
AcDbLine
 10
7326.2019230769
 20
4635.5629560171
 30
0.0
 11
7327.2018606904
 21
4635.5629560171
 31
0.0
  0
LINE
  5
3EA
330
1F
100
AcDbEntity
  8
0
  6
Continuous
 62
     7
370
    25
100
AcDbLine
 10
7329.2019230769
 20
4635.5629560171
 30
0.0
 11
7341.6577164224
 21
4635.5629560171
 31
0.0
  0
LINE
  5
3EB
330
1F
100
AcDbEntity
  8
0
  6
Continuous
 62
     7
370
    25
100
AcDbLine
 10
7363.9426680592
 20
4568.3797173789
 30
0.0
 11
7364.3436710737
 21
4583.6934046777
 31
0.0
  0
ARC
  5
3EC
330
1F
100
AcDbEntity
  8
0
  6
Continuous
 62
     7
370
    25
100
AcDbCircle
 10
7358.7220448529
 20
4616.7910891107
 30
0.0
 40
48.69205088733698
100
AcDbArc
 50
263.8450785085
 51
276.1549214915
  0
ARC
  5
3ED
330
1F
100
AcDbEntity
  8
0
  6
Continuous
 62
     7
370
    25
100
AcDbCircle
 10
7391.681801301
 20
4616.7910890277
 30
0.0
 40
48.69205080479676
100
AcDbArc
 50
263.845078498
 51
276.154921502
  0
LINE
  5
3EE
330
1F
100
AcDbEntity
  8
0
  6
Continuous
 62
     7
370
    25
100
AcDbLine
 10
7386.4611780947
 20
4568.3797173789
 30
0.0
 11
7386.0601750801
 21
4583.6934046777
 31
0.0
  0
LINE
  5
3EF
330
1F
100
AcDbEntity
  8
0
  6
Continuous
 62
     7
370
    25
100
AcDbLine
 10
7364.6404302403
 20
4595.1308681583
 30
0.0
 11
7365.5110779333
 21
4620.0629560171
 31
0.0
  0
LINE
  5
3F0
330
1F
100
AcDbEntity
  8
0
  6
Continuous
 62
     7
370
    25
100
AcDbLine
 10
7385.7634159136
 20
4595.1308681583
 30
0.0
 11
7384.8927682205
 21
4620.0629560171
 31
0.0
  0
LWPOLYLINE
  5
3F1
330
1F
100
AcDbEntity
  8
0
  6
Continuous
 62
     7
370
    25
100
AcDbPolyline
 90
        6
 70
   128
 43
0.0
 10
7356.9450667844
 20
4561.5629560171
 10
7355.6674491619
 20
4562.0555186088
 10
7354.5629295018
 20
4563.4928633398
 10
7353.7989113686
 20
4565.7018506083
 10
7353.5860005723
 20
4567.0055695607
 10
7353.5014216466
 20
4568.3797173789
  0
ARC
  5
3F2
330
1F
100
AcDbEntity
  8
0
  6
Continuous
 62
     7
370
    25
100
AcDbCircle
 10
7356.9450667844
 20
4568.5629560171
 30
0.0
 40
7.000000000002277
100
AcDbArc
 50
270.0
 51
358.5
  0
LWPOLYLINE
  5
3F3
330
1F
100
AcDbEntity
  8
0
  6
Continuous
 62
     7
370
    25
100
AcDbPolyline
 90
        6
 70
   128
 43
0.0
 10
7396.9024245073
 20
4568.3797173789
 10
7396.8178483074
 20
4567.0055878694
 10
7396.6049415915
 20
4565.7018734606
 10
7395.840916652
 20
4563.4928633398
 10
7394.7363969919
 20
4562.0555186088
 10
7393.4587793695
 20
4561.5629560171
  0
ARC
  5
3F4
330
1F
100
AcDbEntity
  8
0
  6
Continuous
 62
     7
370
    25
100
AcDbCircle
 10
7393.4587793695
 20
4568.5629560171
 30
0.0
 40
7.000000000001819
100
AcDbArc
 50
181.5
 51
270.0
  0
LINE
  5
3F5
330
1F
100
AcDbEntity
  8
0
  6
Continuous
 62
     7
370
    25
100
AcDbLine
 10
7356.9450667844
 20
4561.5629560171
 30
0.0
 11
7349.9587793695
 21
4561.5629560171
 31
0.0
  0
LINE
  5
3F6
330
1F
100
AcDbEntity
  8
0
  6
Continuous
 62
     7
370
    25
100
AcDbLine
 10
7400.4450667844
 20
4561.5629560171
 30
0.0
 11
7393.4587793695
 21
4561.5629560171
 31
0.0
  0
LINE
  5
3F7
330
1F
100
AcDbEntity
  8
0
  6
Continuous
 62
     7
370
    25
100
AcDbLine
 10
7363.9426680592
 20
4568.3797173789
 30
0.0
 11
7365.3366215805
 21
4568.3797173789
 31
0.0
  0
LWPOLYLINE
  5
3F8
330
1F
100
AcDbEntity
  8
0
  6
Continuous
 62
     7
370
    25
100
AcDbPolyline
 90
        9
 70
   128
 43
0.0
 10
7360.388570267
 20
4561.5629560171
 10
7361.3383261817
 20
4561.6930268031
 10
7362.2527862398
 20
4562.07840533
 10
7363.0979662872
 20
4562.7047697439
 10
7363.842456829
 20
4563.5488424131
 10
7364.4585903022
 20
4564.5792549959
 10
7364.9234692882
 20
4565.7577141854
 10
7365.2198174513
 20
4567.0404248063
 10
7365.3366215805
 20
4568.3797173789
  0
LINE
  5
3F9
330
1F
100
AcDbEntity
  8
0
  6
Continuous
 62
     7
370
    25
100
AcDbLine
 10
7360.388570267
 20
4561.5629560171
 30
0.0
 11
7356.9450667844
 21
4561.5629560171
 31
0.0
  0
LINE
  5
3FA
330
1F
100
AcDbEntity
  8
0
  6
Continuous
 62
     7
370
    25
100
AcDbLine
 10
7385.0672245734
 20
4568.3797173789
 30
0.0
 11
7386.4611780947
 21
4568.3797173789
 31
0.0
  0
LWPOLYLINE
  5
3FB
330
1F
100
AcDbEntity
  8
0
  6
Continuous
 62
     7
370
    25
100
AcDbPolyline
 90
        9
 70
   128
 43
0.0
 10
7385.0672245734
 20
4568.3797173789
 10
7385.1840287025
 20
4567.0404248063
 10
7385.4803768656
 20
4565.7577141854
 10
7385.9452558516
 20
4564.5792549959
 10
7386.5613893248
 20
4563.5488424131
 10
7387.3058798666
 20
4562.7047697439
 10
7388.1510599141
 20
4562.07840533
 10
7389.0655199721
 20
4561.6930268031
 10
7390.0152758868
 20
4561.5629560171
  0
LINE
  5
3FC
330
1F
100
AcDbEntity
  8
0
  6
Continuous
 62
     7
370
    25
100
AcDbLine
 10
7393.4587793695
 20
4561.5629560171
 30
0.0
 11
7390.0152758868
 21
4561.5629560171
 31
0.0
  0
LINE
  5
3FD
330
1F
100
AcDbEntity
  8
0
  6
Continuous
 62
     7
370
    25
100
AcDbLine
 10
7365.3366215805
 20
4568.3797173789
 30
0.0
 11
7369.0792622676
 21
4568.3797173789
 31
0.0
  0
LINE
  5
3FE
330
1F
100
AcDbEntity
  8
0
  6
Continuous
 62
     7
370
    25
100
AcDbLine
 10
7381.3245838862
 20
4568.3797173789
 30
0.0
 11
7385.0672245734
 21
4568.3797173789
 31
0.0
  0
LWPOLYLINE
  5
3FF
330
1F
100
AcDbEntity
  8
0
  6
Continuous
 62
     7
370
    25
100
AcDbPolyline
 90
        9
 70
   128
 43
0.0
 10
7364.1312109541
 20
4561.5629560171
 10
7365.0809668688
 20
4561.6930268031
 10
7365.9954269269
 20
4562.07840533
 10
7366.8406069744
 20
4562.7047697439
 10
7367.5850975161
 20
4563.5488424131
 10
7368.2012309893
 20
4564.5792549959
 10
7368.6661099754
 20
4565.7577141854
 10
7368.9624581384
 20
4567.0404248063
 10
7369.0792622676
 20
4568.3797173789
  0
LINE
  5
400
330
1F
100
AcDbEntity
  8
0
  6
Continuous
 62
     7
370
    25
100
AcDbLine
 10
7364.1312109541
 20
4561.5629560171
 30
0.0
 11
7360.388570267
 21
4561.5629560171
 31
0.0
  0
LWPOLYLINE
  5
401
330
1F
100
AcDbEntity
  8
0
  6
Continuous
 62
     7
370
    25
100
AcDbPolyline
 90
        9
 70
   128
 43
0.0
 10
7381.3245838862
 20
4568.3797173789
 10
7381.4413880154
 20
4567.0404248063
 10
7381.7377361785
 20
4565.7577141854
 10
7382.2026151645
 20
4564.5792549959
 10
7382.8187486377
 20
4563.5488424131
 10
7383.5632391795
 20
4562.7047697439
 10
7384.408419227
 20
4562.07840533
 10
7385.322879285
 20
4561.6930268031
 10
7386.2726351997
 20
4561.5629560171
  0
LINE
  5
402
330
1F
100
AcDbEntity
  8
0
  6
Continuous
 62
     7
370
    25
100
AcDbLine
 10
7390.0152758868
 20
4561.5629560171
 30
0.0
 11
7386.2726351997
 21
4561.5629560171
 31
0.0
  0
LINE
  5
403
330
1F
100
AcDbEntity
  8
0
  6
Continuous
 62
     7
370
    25
100
AcDbLine
 10
7369.0792622676
 20
4568.3797173789
 30
0.0
 11
7372.444563764
 21
4568.3797173789
 31
0.0
  0
LINE
  5
404
330
1F
100
AcDbEntity
  8
0
  6
Continuous
 62
     7
370
    25
100
AcDbLine
 10
7377.9592823898
 20
4568.3797173789
 30
0.0
 11
7381.3245838862
 21
4568.3797173789
 31
0.0
  0
LINE
  5
405
330
1F
100
AcDbEntity
  8
0
  6
Continuous
 62
     7
370
    25
100
AcDbLine
 10
7372.444563764
 20
4561.5629560171
 30
0.0
 11
7372.444563764
 21
4568.3797173789
 31
0.0
  0
LINE
  5
406
330
1F
100
AcDbEntity
  8
0
  6
Continuous
 62
     7
370
    25
100
AcDbLine
 10
7372.444563764
 20
4561.5629560171
 30
0.0
 11
7364.1312109541
 21
4561.5629560171
 31
0.0
  0
LINE
  5
407
330
1F
100
AcDbEntity
  8
0
  6
Continuous
 62
     7
370
    25
100
AcDbLine
 10
7377.9592823898
 20
4568.3797173789
 30
0.0
 11
7377.9592823898
 21
4561.5629560171
 31
0.0
  0
LINE
  5
408
330
1F
100
AcDbEntity
  8
0
  6
Continuous
 62
     7
370
    25
100
AcDbLine
 10
7386.2726351997
 20
4561.5629560171
 30
0.0
 11
7377.9592823898
 21
4561.5629560171
 31
0.0
  0
LINE
  5
409
330
1F
100
AcDbEntity
  8
0
  6
Continuous
 62
     7
370
    25
100
AcDbLine
 10
7372.444563764
 20
4568.3797173789
 30
0.0
 11
7377.9592823898
 21
4568.3797173789
 31
0.0
  0
LINE
  5
40A
330
1F
100
AcDbEntity
  8
0
  6
Continuous
 62
     7
370
    25
100
AcDbLine
 10
7377.9592823898
 20
4561.5629560171
 30
0.0
 11
7372.444563764
 21
4561.5629560171
 31
0.0
  0
LINE
  5
40B
330
1F
100
AcDbEntity
  8
0
  6
Continuous
 62
     7
370
    25
100
AcDbLine
 10
7452.3869685007
 20
4551.3629560171
 30
0.0
 11
7452.3869685007
 21
4546.3629560171
 31
0.0
  0
LINE
  5
40C
330
1F
100
AcDbEntity
  8
0
  6
Continuous
 62
     7
370
    25
100
AcDbLine
 10
7452.3869685007
 20
4551.3629560171
 30
0.0
 11
7457.2019230769
 21
4551.3629560171
 31
0.0
  0
LINE
  5
40D
330
1F
100
AcDbEntity
  8
0
  6
Continuous
 62
     7
370
    25
100
AcDbLine
 10
7472.0168776531
 20
4551.3629560171
 30
0.0
 11
7472.0168776531
 21
4546.3629560171
 31
0.0
  0
LINE
  5
40E
330
1F
100
AcDbEntity
  8
0
  6
Continuous
 62
     7
370
    25
100
AcDbLine
 10
7467.2019230769
 20
4551.3629560171
 30
0.0
 11
7472.0168776531
 21
4551.3629560171
 31
0.0
  0
LINE
  5
40F
330
1F
100
AcDbEntity
  8
0
  6
Continuous
 62
     7
370
    25
100
AcDbLine
 10
7305.3869685007
 20
4551.3629560171
 30
0.0
 11
7305.3869685007
 21
4544.3629560171
 31
0.0
  0
LINE
  5
410
330
1F
100
AcDbEntity
  8
0
  6
Continuous
 62
     7
370
    25
100
AcDbLine
 10
7305.3869685007
 20
4551.3629560171
 30
0.0
 11
7310.2944457888
 21
4551.3629560171
 31
0.0
  0
LINE
  5
411
330
1F
100
AcDbEntity
  8
0
  6
Continuous
 62
     7
370
    25
100
AcDbLine
 10
7310.2944457888
 20
4551.3629560171
 30
0.0
 11
7310.2944457888
 21
4544.3629560171
 31
0.0
  0
LINE
  5
412
330
1F
100
AcDbEntity
  8
0
  6
Continuous
 62
     7
370
    25
100
AcDbLine
 10
7305.3869685007
 20
4544.3629560171
 30
0.0
 11
7310.2944457888
 21
4544.3629560171
 31
0.0
  0
LINE
  5
413
330
1F
100
AcDbEntity
  8
0
  6
Continuous
 62
     7
370
    25
100
AcDbLine
 10
7310.2944457888
 20
4551.3629560171
 30
0.0
 11
7320.109400365
 21
4551.3629560171
 31
0.0
  0
LINE
  5
414
330
1F
100
AcDbEntity
  8
0
  6
Continuous
 62
     7
370
    25
100
AcDbLine
 10
7320.109400365
 20
4551.3629560171
 30
0.0
 11
7320.109400365
 21
4544.3629560171
 31
0.0
  0
LINE
  5
415
330
1F
100
AcDbEntity
  8
0
  6
Continuous
 62
     7
370
    25
100
AcDbLine
 10
7310.2944457888
 20
4544.3629560171
 30
0.0
 11
7320.109400365
 21
4544.3629560171
 31
0.0
  0
LINE
  5
416
330
1F
100
AcDbEntity
  8
0
  6
Continuous
 62
     7
370
    25
100
AcDbLine
 10
7325.0168776531
 20
4551.3629560171
 30
0.0
 11
7325.0168776531
 21
4544.3629560171
 31
0.0
  0
LINE
  5
417
330
1F
100
AcDbEntity
  8
0
  6
Continuous
 62
     7
370
    25
100
AcDbLine
 10
7320.109400365
 20
4551.3629560171
 30
0.0
 11
7325.0168776531
 21
4551.3629560171
 31
0.0
  0
LINE
  5
418
330
1F
100
AcDbEntity
  8
0
  6
Continuous
 62
     7
370
    25
100
AcDbLine
 10
7320.109400365
 20
4544.3629560171
 30
0.0
 11
7325.0168776531
 21
4544.3629560171
 31
0.0
  0
LINE
  5
419
330
1F
100
AcDbEntity
  8
0
  6
Continuous
 62
     7
370
    25
100
AcDbLine
 10
7311.2019230769
 20
4631.3629560171
 30
0.0
 11
7319.2019230769
 21
4631.3629560171
 31
0.0
  0
LINE
  5
41A
330
1F
100
AcDbEntity
  8
0
  6
Continuous
 62
     7
370
    25
100
AcDbLine
 10
7477.2019230769
 20
4546.3629560171
 30
0.0
 11
7477.2019230769
 21
4544.3629560171
 31
0.0
  0
LINE
  5
41B
330
1F
100
AcDbEntity
  8
0
  6
Continuous
 62
     7
370
    25
100
AcDbLine
 10
7447.2019230769
 20
4544.3629560171
 30
0.0
 11
7477.2019230769
 21
4544.3629560171
 31
0.0
  0
LINE
  5
41C
330
1F
100
AcDbEntity
  8
0
  6
Continuous
 62
     7
370
    25
100
AcDbLine
 10
7447.2019230769
 20
4546.3629560171
 30
0.0
 11
7477.2019230769
 21
4546.3629560171
 31
0.0
  0
LINE
  5
41D
330
1F
100
AcDbEntity
  8
0
  6
Continuous
 62
     7
370
    25
100
AcDbLine
 10
7447.2019230769
 20
4546.3629560171
 30
0.0
 11
7447.2019230769
 21
4544.3629560171
 31
0.0
  0
LINE
  5
41E
330
1F
100
AcDbEntity
  8
0
  6
Continuous
 62
     7
370
    25
100
AcDbLine
 10
7458.2019230769
 20
4631.3629560171
 30
0.0
 11
7466.2019230769
 21
4631.3629560171
 31
0.0
  0
LINE
  5
41F
330
1F
100
AcDbEntity
  8
0
  6
Continuous
 62
     7
370
    25
100
AcDbLine
 10
7300.2019230769
 20
4546.3629560171
 30
0.0
 11
7300.2019230769
 21
4544.3629560171
 31
0.0
  0
LINE
  5
420
330
1F
100
AcDbEntity
  8
0
  6
Continuous
 62
     7
370
    25
100
AcDbLine
 10
7330.2019230769
 20
4546.3629560171
 30
0.0
 11
7330.2019230769
 21
4544.3629560171
 31
0.0
  0
LINE
  5
421
330
1F
100
AcDbEntity
  8
0
  6
Continuous
 62
     7
370
    25
100
AcDbLine
 10
7300.2019230769
 20
4544.3629560171
 30
0.0
 11
7305.3869685007
 21
4544.3629560171
 31
0.0
  0
LINE
  5
422
330
1F
100
AcDbEntity
  8
0
  6
Continuous
 62
     7
370
    25
100
AcDbLine
 10
7325.0168776532
 20
4544.3629560171
 30
0.0
 11
7330.2019230769
 21
4544.3629560171
 31
0.0
  0
LINE
  5
423
330
1F
100
AcDbEntity
  8
0
  6
Continuous
 62
     7
370
    25
100
AcDbLine
 10
7300.2019230769
 20
4546.3629560171
 30
0.0
 11
7305.3869685007
 21
4546.3629560171
 31
0.0
  0
LINE
  5
424
330
1F
100
AcDbEntity
  8
0
  6
Continuous
 62
     7
370
    25
100
AcDbLine
 10
7325.0168776532
 20
4546.3629560171
 30
0.0
 11
7330.2019230769
 21
4546.3629560171
 31
0.0
  0
LINE
  5
425
330
1F
100
AcDbEntity
  8
0
  6
Continuous
 62
     8
370
    25
100
AcDbLine
 10
7325.2019230769
 20
4665.3629560171
 30
0.0
 11
7325.2019230769
 21
4663.3114146857
 31
0.0
  0
LINE
  5
426
330
1F
100
AcDbEntity
  8
0
  6
Continuous
 62
     8
370
    25
100
AcDbLine
 10
7425.2019230769
 20
4665.3629560171
 30
0.0
 11
7425.2019230769
 21
4663.3114146857
 31
0.0
  0
LINE
  5
427
330
1F
100
AcDbEntity
  8
0
  6
Continuous
 62
     8
370
    25
100
AcDbLine
 10
7325.2019230769
 20
4659.1043567825
 30
0.0
 11
7325.2019230769
 21
4649.3629560171
 31
0.0
  0
LINE
  5
428
330
1F
100
AcDbEntity
  8
0
  6
Continuous
 62
     8
370
    25
100
AcDbLine
 10
7425.2019230769
 20
4659.1043567825
 30
0.0
 11
7425.2019230769
 21
4649.3629560171
 31
0.0
  0
LINE
  5
429
330
1F
100
AcDbEntity
  8
0
  6
Continuous
 62
     8
370
    25
100
AcDbLine
 10
7335.8996969443
 20
4644.0866299434
 30
0.0
 11
7369.428420385
 21
4644.0866299434
 31
0.0
  0
LINE
  5
42A
330
1F
100
AcDbEntity
  8
0
  6
Continuous
 62
     8
370
    25
100
AcDbLine
 10
7380.9754257688
 20
4644.0866299434
 30
0.0
 11
7414.5041492095
 21
4644.0866299434
 31
0.0
  0
LINE
  5
42B
330
1F
100
AcDbEntity
  8
0
  6
Continuous
 62
     8
370
    25
100
AcDbLine
 10
7336.1388083295
 20
4644.5007830112
 30
0.0
 11
7369.428420385
 21
4644.5007830112
 31
0.0
  0
LINE
  5
42C
330
1F
100
AcDbEntity
  8
0
  6
Continuous
 62
     8
370
    25
100
AcDbLine
 10
7380.9754257688
 20
4644.5007830112
 30
0.0
 11
7414.2650378243
 21
4644.5007830112
 31
0.0
  0
ARC
  5
42D
330
1F
100
AcDbEntity
  8
0
  6
Continuous
 62
     8
370
    25
100
AcDbCircle
 10
7375.2022562438
 20
4608.5694730901
 30
0.0
 40
17.49966683632498
100
AcDbArc
 50
269.9989091761
 51
359.9989091346
  0
ARC
  5
42E
330
1F
100
AcDbEntity
  8
0
  6
Continuous
 62
     8
370
    25
100
AcDbCircle
 10
7375.2015890051
 20
4608.5694712706
 30
0.0
 40
17.49966501687541
100
AcDbArc
 50
180.0011153103
 51
270.0010937871
  0
LINE
  5
42F
330
1F
100
AcDbEntity
  8
0
  6
Continuous
 62
     8
370
    25
100
AcDbLine
 10
7392.3351875536
 20
4638.5629560171
 30
0.0
 11
7378.2019230769
 21
4638.5629560171
 31
0.0
  0
LINE
  5
430
330
1F
100
AcDbEntity
  8
0
  6
Continuous
 62
     8
370
    25
100
AcDbLine
 10
7372.2019230769
 20
4638.5629560171
 30
0.0
 11
7358.0686586003
 21
4638.5629560171
 31
0.0
  0
LINE
  5
431
330
1F
100
AcDbEntity
  8
0
  6
Continuous
 62
     8
370
    25
100
AcDbLine
 10
7397.0299216441
 20
4624.3052677614
 30
0.0
 11
7397.1267490768
 21
4635.5629560171
 31
0.0
  0
LINE
  5
432
330
1F
100
AcDbEntity
  8
0
  6
Continuous
 62
     8
370
    25
100
AcDbLine
 10
7391.2132837787
 20
4630.1540092116
 30
0.0
 11
7391.2132837787
 21
4635.5629560171
 31
0.0
  0
LINE
  5
433
330
1F
100
AcDbEntity
  8
0
  6
Continuous
 62
     8
370
    25
100
AcDbLine
 10
7353.3739245097
 20
4624.3052677614
 30
0.0
 11
7353.277097077
 21
4635.5629560171
 31
0.0
  0
LINE
  5
434
330
1F
100
AcDbEntity
  8
0
  6
Continuous
 62
     8
370
    25
100
AcDbLine
 10
7359.1905623751
 20
4630.1540092116
 30
0.0
 11
7359.1905623751
 21
4635.5629560171
 31
0.0
  0
ARC
  5
435
330
1F
100
AcDbEntity
  8
0
  6
Continuous
 62
     8
370
    25
100
AcDbCircle
 10
7390.7623159822
 20
4593.3645042877
 30
0.0
 40
5.835886262664104
100
AcDbArc
 50
292.2807405457
 51
346.2292893368
  0
ARC
  5
436
330
1F
100
AcDbEntity
  8
0
  6
Continuous
 62
     8
370
    25
100
AcDbCircle
 10
7359.6431297332
 20
4593.3661020337
 30
0.0
 40
5.837971247903674
100
AcDbArc
 50
193.7452696728
 51
247.7106782336
  0
ARC
  5
437
330
1F
100
AcDbEntity
  8
0
  6
Continuous
 62
     8
370
    25
100
AcDbCircle
 10
7416.3488555777
 20
4549.4418973653
 30
0.0
 40
48.85774613796143
100
AcDbArc
 50
101.8649724379
 51
111.5369123433
  0
LWPOLYLINE
  5
438
330
1F
100
AcDbEntity
  8
0
  6
Continuous
 62
     8
370
    25
100
AcDbPolyline
 90
        8
 70
   128
 43
0.0
 10
7406.3034128024
 20
4597.2557911319
 10
7406.3392041139
 20
4595.7832809107
 10
7406.1601778135
 20
4594.3808511095
 10
7405.7745148291
 20
4593.1125882749
 10
7405.1998387231
 20
4592.0364479532
 10
7404.4624103514
 20
4591.2016063075
 10
7403.5959278268
 20
4590.646212925
 10
7402.9186835566
 20
4590.4349946067
  0
ARC
  5
439
330
1F
100
AcDbEntity
  8
0
  6
Continuous
 62
     8
370
    25
100
AcDbCircle
 10
7334.1374989378
 20
4549.7164361308
 30
0.0
 40
48.57211479909968
100
AcDbArc
 50
68.5846849951
 51
78.1636904354
  0
LWPOLYLINE
  5
43A
330
1F
100
AcDbEntity
  8
0
  6
Continuous
 62
     8
370
    25
100
AcDbPolyline
 90
        8
 70
   128
 43
0.0
 10
7344.1004333514
 20
4597.2557911319
 10
7344.0646420399
 20
4595.7832809107
 10
7344.2436683404
 20
4594.3808511095
 10
7344.6293313247
 20
4593.1125882749
 10
7345.2040074307
 20
4592.0364479532
 10
7345.9414358024
 20
4591.2016063075
 10
7346.807918327
 20
4590.646212925
 10
7347.4769048076
 20
4590.4365643046
  0
LWPOLYLINE
  5
43B
330
1F
100
AcDbEntity
  8
0
  6
Continuous
 62
     8
370
    25
100
AcDbPolyline
 90
        7
 70
   128
 43
0.0
 10
7406.3034128024
 20
4597.2557911319
 10
7411.6145722863
 20
4598.2988996423
 10
7416.0225425669
 20
4599.6808977157
 10
7419.1561468072
 20
4601.3246157408
 10
7421.1667721816
 20
4603.3249651568
 10
7421.9332172367
 20
4605.6039291769
 10
7421.8825035805
 20
4605.8803792867
  0
LWPOLYLINE
  5
43C
330
1F
100
AcDbEntity
  8
0
  6
Continuous
 62
     8
370
    25
100
AcDbPolyline
 90
       11
 70
   128
 43
0.0
 10
7328.4877241767
 20
4605.8741521467
 10
7328.4684267341
 20
4605.6474531509
 10
7328.7407954736
 20
4604.3152330661
 10
7329.4423410748
 20
4603.0293485385
 10
7330.570308828
 20
4601.8446262582
 10
7331.95147517
 20
4600.8688255602
 10
7333.6709018132
 20
4599.982070498
 10
7335.7944499071
 20
4599.1605846547
 10
7338.2547476949
 20
4598.4338606933
 10
7341.0168386096
 20
4597.8032800696
 10
7344.1004333514
 20
4597.2557911319
  0
LINE
  5
43D
330
1F
100
AcDbEntity
  8
0
  6
Continuous
 62
     8
370
    25
100
AcDbLine
 10
7341.6577164224
 20
4638.5629560171
 30
0.0
 11
7329.2018801862
 21
4638.5629560171
 31
0.0
  0
LINE
  5
43E
330
1F
100
AcDbEntity
  8
0
  6
Continuous
 62
     8
370
    25
100
AcDbLine
 10
7327.2018801862
 20
4638.5629560171
 30
0.0
 11
7326.2019230769
 21
4638.5629560171
 31
0.0
  0
LINE
  5
43F
330
1F
100
AcDbEntity
  8
0
  6
Continuous
 62
     8
370
    25
100
AcDbLine
 10
7424.2019230769
 20
4638.5629560171
 30
0.0
 11
7408.7461297314
 21
4638.5629560171
 31
0.0
  0
LINE
  5
440
330
1F
100
AcDbEntity
  8
0
  6
Continuous
 62
     8
370
    25
100
AcDbLine
 10
7353.5014216466
 20
4568.3797173789
 30
0.0
 11
7353.1341595338
 21
4589.2171191111
 31
0.0
  0
LINE
  5
441
330
1F
100
AcDbEntity
  8
0
  6
Continuous
 62
     8
370
    25
100
AcDbLine
 10
7396.9024245073
 20
4568.3797173789
 30
0.0
 11
7407.4426680592
 21
4568.3797173789
 31
0.0
  0
LINE
  5
442
330
1F
100
AcDbEntity
  8
0
  6
Continuous
 62
     8
370
    25
100
AcDbLine
 10
7342.9611780947
 20
4568.3797173789
 30
0.0
 11
7353.5014216466
 21
4568.3797173789
 31
0.0
  0
LINE
  5
443
330
1F
100
AcDbEntity
  8
0
  6
Continuous
 62
     8
370
    25
100
AcDbLine
 10
7396.9024245073
 20
4568.379717379
 30
0.0
 11
7397.2697697933
 21
4589.2218381278
 31
0.0
  0
LINE
  5
444
330
1F
100
AcDbEntity
  8
0
  6
Continuous
 62
     8
370
    25
100
AcDbLine
 10
7365.3366215805
 20
4568.3797173789
 30
0.0
 11
7365.6105714984
 21
4583.1748311706
 31
0.0
  0
LINE
  5
445
330
1F
100
AcDbEntity
  8
0
  6
Continuous
 62
     8
370
    25
100
AcDbLine
 10
7385.0672245734
 20
4568.3797173789
 30
0.0
 11
7384.7932746554
 21
4583.1748311706
 31
0.0
  0
LINE
  5
446
330
1F
100
AcDbEntity
  8
0
  6
Continuous
 62
     8
370
    25
100
AcDbLine
 10
7365.521683811
 20
4594.5057071786
 30
0.0
 11
7366.1527616193
 21
4620.0629560171
 31
0.0
  0
LINE
  5
447
330
1F
100
AcDbEntity
  8
0
  6
Continuous
 62
     8
370
    25
100
AcDbLine
 10
7384.8821623429
 20
4594.5057071786
 30
0.0
 11
7384.2510845345
 21
4620.0629560171
 31
0.0
  0
LINE
  5
448
330
1F
100
AcDbEntity
  8
0
  6
Continuous
 62
     8
370
    25
100
AcDbLine
 10
7369.6289065346
 20
4592.4957406734
 30
0.0
 11
7370.3096158688
 21
4620.0629560171
 31
0.0
  0
LINE
  5
449
330
1F
100
AcDbEntity
  8
0
  6
Continuous
 62
     8
370
    25
100
AcDbLine
 10
7380.7749396193
 20
4592.4957406734
 30
0.0
 11
7380.094230285
 21
4620.0629560171
 31
0.0
  0
LINE
  5
44A
330
1F
100
AcDbEntity
  8
0
  6
Continuous
 62
     8
370
    25
100
AcDbLine
 10
7369.0792622676
 20
4568.3797173789
 30
0.0
 11
7369.3325600904
 21
4582.0594809627
 31
0.0
  0
LINE
  5
44B
330
1F
100
AcDbEntity
  8
0
  6
Continuous
 62
     8
370
    25
100
AcDbLine
 10
7381.3245838862
 20
4568.3797173789
 30
0.0
 11
7381.0712860635
 21
4582.0594809627
 31
0.0
  0
LINE
  5
44C
330
1F
100
AcDbEntity
  8
0
  6
Continuous
 62
     8
370
    25
100
AcDbLine
 10
7371.8587773264
 20
4591.9069596024
 30
0.0
 11
7371.8587773264
 21
4620.0629560171
 31
0.0
  0
LINE
  5
44D
330
1F
100
AcDbEntity
  8
0
  6
Continuous
 62
     8
370
    25
100
AcDbLine
 10
7378.5450688274
 20
4591.9069596024
 30
0.0
 11
7378.5450688274
 21
4620.0629560171
 31
0.0
  0
LINE
  5
44E
330
1F
100
AcDbEntity
  8
0
  6
Continuous
 62
     8
370
    25
100
AcDbLine
 10
7372.444563764
 20
4568.3797173789
 30
0.0
 11
7372.444563764
 21
4581.554974358
 31
0.0
  0
LINE
  5
44F
330
1F
100
AcDbEntity
  8
0
  6
Continuous
 62
     8
370
    25
100
AcDbLine
 10
7377.9592823898
 20
4568.3797173789
 30
0.0
 11
7377.9592823898
 21
4581.554974358
 31
0.0
  0
ENDSEC
  0
SECTION
  2
OBJECTS
  0
DICTIONARY
  5
C
330
0
100
AcDbDictionary
281
     1
  3
ACAD_GROUP
350
D
  3
ACAD_LAYOUT
350
1A
  3
ACAD_MLINESTYLE
350
17
  3
ACAD_PLOTSETTINGS
350
19
  3
ACAD_PLOTSTYLENAME
350
E
  3
ACAD_SCALELIST
350
47
  3
DWGPROPS
350
450
  0
DICTIONARY
  5
D
102
{ACAD_REACTORS
330
C
102
}
330
C
100
AcDbDictionary
281
     1
  0
DICTIONARY
  5
1A
102
{ACAD_REACTORS
330
C
102
}
330
C
100
AcDbDictionary
281
     1
  3
Layout1
350
1E
  3
Layout2
350
26
  3
Model
350
22
  0
DICTIONARY
  5
17
102
{ACAD_REACTORS
330
C
102
}
330
C
100
AcDbDictionary
281
     1
  3
Standard
350
18
  0
DICTIONARY
  5
19
102
{ACAD_REACTORS
330
C
102
}
330
C
100
AcDbDictionary
281
     1
  0
ACDBDICTIONARYWDFLT
  5
E
102
{ACAD_REACTORS
330
C
102
}
330
C
100
AcDbDictionary
281
     1
  3
Normal
350
F
100
AcDbDictionaryWithDefault
340
F
  0
DICTIONARY
  5
47
102
{ACAD_REACTORS
330
C
102
}
330
C
100
AcDbDictionary
281
     1
  3
A0
350
48
  3
A1
350
49
  3
A2
350
4A
  3
A3
350
4B
  3
A4
350
4C
  3
A5
350
4D
  3
A6
350
4E
  3
A7
350
4F
  3
A8
350
50
  3
A9
350
51
  3
B0
350
52
  3
B1
350
53
  3
B2
350
54
  3
B3
350
55
  3
B4
350
56
  3
B5
350
57
  3
B6
350
58
  3
B7
350
59
  3
B8
350
5A
  3
B9
350
5B
  3
C0
350
5C
  3
C1
350
5D
  3
C2
350
5E
  3
C3
350
5F
  3
C4
350
60
  3
C5
350
61
  3
C6
350
62
  3
C7
350
63
  3
C8
350
64
  3
C9
350
65
  3
D0
350
66
  3
D1
350
67
  3
D2
350
68
  0
XRECORD
  5
450
102
{ACAD_REACTORS
330
C
102
}
330
C
100
AcDbXrecord
280
     1
  1
DWGPROPS COOKIE
  2

  3

  4

  6

  7

  8
radek.stransky
  9

300
=
301
=
302
=
303
=
304
=
305
=
306
=
307
=
308
=
309
=
 40
0.0
 41
2459157.420939398
 42
2459157.420939757
  1

 90
        0
  0
LAYOUT
  5
1E
102
{ACAD_REACTORS
330
1A
102
}
330
1A
100
AcDbPlotSettings
  1

  2
none_device
  4

  6

 40
0.0
 41
0.0
 42
0.0
 43
0.0
 44
0.0
 45
0.0
 46
0.0
 47
0.0
 48
0.0
 49
0.0
140
0.0
141
0.0
142
1.0
143
1.0
 70
   688
 72
     1
 73
     0
 74
     5
  7

 75
    16
147
1.0
148
0.0
149
0.0
100
AcDbLayout
  1
Layout1
 70
     1
 71
     1
 10
0.0
 20
0.0
 11
420.0
 21
297.0
 12
0.0
 22
0.0
 32
0.0
 14
1.0000000000E+20
 24
1.0000000000E+20
 34
1.0000000000E+20
 15
-1.0000000000E+20
 25
-1.0000000000E+20
 35
-1.0000000000E+20
146
0.0
 13
0.0
 23
0.0
 33
0.0
 16
1.0
 26
0.0
 36
0.0
 17
0.0
 27
1.0
 37
0.0
 76
     0
330
1B
  0
LAYOUT
  5
26
102
{ACAD_REACTORS
330
1A
102
}
330
1A
100
AcDbPlotSettings
  1

  2
none_device
  4

  6

 40
0.0
 41
0.0
 42
0.0
 43
0.0
 44
0.0
 45
0.0
 46
0.0
 47
0.0
 48
0.0
 49
0.0
140
0.0
141
0.0
142
1.0
143
1.0
 70
   688
 72
     1
 73
     0
 74
     5
  7

 75
    16
147
1.0
148
0.0
149
0.0
100
AcDbLayout
  1
Layout2
 70
     1
 71
     2
 10
0.0
 20
0.0
 11
0.0
 21
0.0
 12
0.0
 22
0.0
 32
0.0
 14
0.0
 24
0.0
 34
0.0
 15
0.0
 25
0.0
 35
0.0
146
0.0
 13
0.0
 23
0.0
 33
0.0
 16
1.0
 26
0.0
 36
0.0
 17
0.0
 27
1.0
 37
0.0
 76
     0
330
23
  0
LAYOUT
  5
22
102
{ACAD_REACTORS
330
1A
102
}
330
1A
100
AcDbPlotSettings
  1

  2
none_device
  4
Letter_(8.50_x_11.00_Inches)
  6

 40
6.35
 41
6.35
 42
6.35000508
 43
6.35000508
 44
215.9
 45
279.4
 46
0.0
 47
0.0
 48
0.0
 49
0.0
140
0.0
141
0.0
142
1.0
143
1.0
 70
  1712
 72
     1
 73
     0
 74
     0
  7

 75
     0
147
1.0
148
0.0
149
0.0
100
AcDbLayout
  1
Model
 70
     1
 71
     0
 10
0.0
 20
0.0
 11
20000.0
 21
10000.0
 12
0.0
 22
0.0
 32
0.0
 14
0.0
 24
0.0
 34
0.0
 15
20000.0
 25
10000.0
 35
0.0
146
0.0
 13
0.0
 23
0.0
 33
0.0
 16
1.0
 26
0.0
 36
0.0
 17
0.0
 27
1.0
 37
0.0
 76
     0
330
1F
331
29
  0
MLINESTYLE
  5
18
102
{ACAD_REACTORS
330
17
102
}
330
17
100
AcDbMlineStyle
  2
Standard
 70
     0
  3

 62
   256
 51
90.0
 52
90.0
 71
     2
 49
0.5
 62
   256
  6
BYLAYER
 49
-0.5
 62
   256
  6
BYLAYER
  0
ACDBPLACEHOLDER
  5
F
102
{ACAD_REACTORS
330
E
102
}
330
E
  0
SCALE
  5
48
102
{ACAD_REACTORS
330
47
102
}
330
47
100
AcDbScale
 70
     0
300
1:1
140
1.0
141
1.0
290
     1
  0
SCALE
  5
49
102
{ACAD_REACTORS
330
47
102
}
330
47
100
AcDbScale
 70
     0
300
1:2
140
1.0
141
2.0
290
     0
  0
SCALE
  5
4A
102
{ACAD_REACTORS
330
47
102
}
330
47
100
AcDbScale
 70
     0
300
1:4
140
1.0
141
4.0
290
     0
  0
SCALE
  5
4B
102
{ACAD_REACTORS
330
47
102
}
330
47
100
AcDbScale
 70
     0
300
1:5
140
1.0
141
5.0
290
     0
  0
SCALE
  5
4C
102
{ACAD_REACTORS
330
47
102
}
330
47
100
AcDbScale
 70
     0
300
1:8
140
1.0
141
8.0
290
     0
  0
SCALE
  5
4D
102
{ACAD_REACTORS
330
47
102
}
330
47
100
AcDbScale
 70
     0
300
1:10
140
1.0
141
10.0
290
     0
  0
SCALE
  5
4E
102
{ACAD_REACTORS
330
47
102
}
330
47
100
AcDbScale
 70
     0
300
1:16
140
1.0
141
16.0
290
     0
  0
SCALE
  5
4F
102
{ACAD_REACTORS
330
47
102
}
330
47
100
AcDbScale
 70
     0
300
1:20
140
1.0
141
20.0
290
     0
  0
SCALE
  5
50
102
{ACAD_REACTORS
330
47
102
}
330
47
100
AcDbScale
 70
     0
300
1:30
140
1.0
141
30.0
290
     0
  0
SCALE
  5
51
102
{ACAD_REACTORS
330
47
102
}
330
47
100
AcDbScale
 70
     0
300
1:40
140
1.0
141
40.0
290
     0
  0
SCALE
  5
52
102
{ACAD_REACTORS
330
47
102
}
330
47
100
AcDbScale
 70
     0
300
1:50
140
1.0
141
50.0
290
     0
  0
SCALE
  5
53
102
{ACAD_REACTORS
330
47
102
}
330
47
100
AcDbScale
 70
     0
300
1:100
140
1.0
141
100.0
290
     0
  0
SCALE
  5
54
102
{ACAD_REACTORS
330
47
102
}
330
47
100
AcDbScale
 70
     0
300
2:1
140
2.0
141
1.0
290
     0
  0
SCALE
  5
55
102
{ACAD_REACTORS
330
47
102
}
330
47
100
AcDbScale
 70
     0
300
4:1
140
4.0
141
1.0
290
     0
  0
SCALE
  5
56
102
{ACAD_REACTORS
330
47
102
}
330
47
100
AcDbScale
 70
     0
300
8:1
140
8.0
141
1.0
290
     0
  0
SCALE
  5
57
102
{ACAD_REACTORS
330
47
102
}
330
47
100
AcDbScale
 70
     0
300
10:1
140
10.0
141
1.0
290
     0
  0
SCALE
  5
58
102
{ACAD_REACTORS
330
47
102
}
330
47
100
AcDbScale
 70
     0
300
100:1
140
100.0
141
1.0
290
     0
  0
SCALE
  5
59
102
{ACAD_REACTORS
330
47
102
}
330
47
100
AcDbScale
 70
     0
300
1/128" = 1'-0"
140
0.0078125
141
12.0
290
     0
  0
SCALE
  5
5A
102
{ACAD_REACTORS
330
47
102
}
330
47
100
AcDbScale
 70
     0
300
1/64" = 1'-0"
140
0.015625
141
12.0
290
     0
  0
SCALE
  5
5B
102
{ACAD_REACTORS
330
47
102
}
330
47
100
AcDbScale
 70
     0
300
1/32" = 1'-0"
140
0.03125
141
12.0
290
     0
  0
SCALE
  5
5C
102
{ACAD_REACTORS
330
47
102
}
330
47
100
AcDbScale
 70
     0
300
1/16" = 1'-0"
140
0.0625
141
12.0
290
     0
  0
SCALE
  5
5D
102
{ACAD_REACTORS
330
47
102
}
330
47
100
AcDbScale
 70
     0
300
3/32" = 1'-0"
140
0.09375
141
12.0
290
     0
  0
SCALE
  5
5E
102
{ACAD_REACTORS
330
47
102
}
330
47
100
AcDbScale
 70
     0
300
1/8" = 1'-0"
140
0.125
141
12.0
290
     0
  0
SCALE
  5
5F
102
{ACAD_REACTORS
330
47
102
}
330
47
100
AcDbScale
 70
     0
300
3/16" = 1'-0"
140
0.1875
141
12.0
290
     0
  0
SCALE
  5
60
102
{ACAD_REACTORS
330
47
102
}
330
47
100
AcDbScale
 70
     0
300
1/4" = 1'-0"
140
0.25
141
12.0
290
     0
  0
SCALE
  5
61
102
{ACAD_REACTORS
330
47
102
}
330
47
100
AcDbScale
 70
     0
300
3/8" = 1'-0"
140
0.375
141
12.0
290
     0
  0
SCALE
  5
62
102
{ACAD_REACTORS
330
47
102
}
330
47
100
AcDbScale
 70
     0
300
1/2" = 1'-0"
140
0.5
141
12.0
290
     0
  0
SCALE
  5
63
102
{ACAD_REACTORS
330
47
102
}
330
47
100
AcDbScale
 70
     0
300
3/4" = 1'-0"
140
0.75
141
12.0
290
     0
  0
SCALE
  5
64
102
{ACAD_REACTORS
330
47
102
}
330
47
100
AcDbScale
 70
     0
300
1" = 1'-0"
140
1.0
141
12.0
290
     0
  0
SCALE
  5
65
102
{ACAD_REACTORS
330
47
102
}
330
47
100
AcDbScale
 70
     0
300
1-1/2" = 1'-0"
140
1.5
141
12.0
290
     0
  0
SCALE
  5
66
102
{ACAD_REACTORS
330
47
102
}
330
47
100
AcDbScale
 70
     0
300
3" = 1'-0"
140
3.0
141
12.0
290
     0
  0
SCALE
  5
67
102
{ACAD_REACTORS
330
47
102
}
330
47
100
AcDbScale
 70
     0
300
6" = 1'-0"
140
6.0
141
12.0
290
     0
  0
SCALE
  5
68
102
{ACAD_REACTORS
330
47
102
}
330
47
100
AcDbScale
 70
     0
300
1'-0" = 1'-0"
140
12.0
141
12.0
290
     0
  0
ENDSEC
  0
EOF
