  0
SECTION
  2
HEADER
  9
$ACADVER
  1
AC1015
  9
$ACADMAINTVER
 70
     6
  9
$DWGCODEPAGE
  3
ANSI_1250
  9
$INSBASE
 10
0.0
 20
0.0
 30
0.0
  9
$EXTMIN
 10
0.0
 20
0.0
 30
0.0
  9
$EXTMAX
 10
20000.0
 20
10000.0
 30
0.0
  9
$LIMMIN
 10
0.0
 20
0.0
  9
$LIMMAX
 10
20000.0
 20
10000.0
  9
$ORTHOMODE
 70
     0
  9
$REGENMODE
 70
     1
  9
$FILLMODE
 70
     1
  9
$QTEXTMODE
 70
     0
  9
$MIRRTEXT
 70
     1
  9
$LTSCALE
 40
1.0
  9
$ATTMODE
 70
     1
  9
$TEXTSIZE
 40
2.0
  9
$TRACEWID
 40
1.0
  9
$TEXTSTYLE
  7
Standard
  9
$CLAYER
  8
0
  9
$CELTYPE
  6
ByLayer
  9
$CECOLOR
 62
   256
  9
$CELTSCALE
 40
1.0
  9
$DISPSILH
 70
     0
  9
$DIMSCALE
 40
1.0
  9
$DIMASZ
 40
2.0
  9
$DIMEXO
 40
1.0
  9
$DIMDLI
 40
3.75
  9
$DIMRND
 40
0.0
  9
$DIMDLE
 40
0.0
  9
$DIMEXE
 40
1.0
  9
$DIMTP
 40
0.0
  9
$DIMTM
 40
0.0
  9
$DIMTXT
 40
2.0
  9
$DIMCEN
 40
2.5
  9
$DIMTSZ
 40
0.0
  9
$DIMTOL
 70
     0
  9
$DIMLIM
 70
     0
  9
$DIMTIH
 70
     1
  9
$DIMTOH
 70
     1
  9
$DIMSE1
 70
     0
  9
$DIMSE2
 70
     0
  9
$DIMTAD
 70
     1
  9
$DIMZIN
 70
     0
  9
$DIMBLK
  1

  9
$DIMASO
 70
     1
  9
$DIMSHO
 70
     1
  9
$DIMPOST
  1

  9
$DIMAPOST
  1

  9
$DIMALT
 70
     0
  9
$DIMALTD
 70
     3
  9
$DIMALTF
 40
0.0393700787
  9
$DIMLFAC
 40
1.0
  9
$DIMTOFL
 70
     1
  9
$DIMTVP
 40
0.0
  9
$DIMTIX
 70
     0
  9
$DIMSOXD
 70
     0
  9
$DIMSAH
 70
     0
  9
$DIMBLK1
  1

  9
$DIMBLK2
  1

  9
$DIMSTYLE
  2
ISO-25
  9
$DIMCLRD
 70
     0
  9
$DIMCLRE
 70
     0
  9
$DIMCLRT
 70
     0
  9
$DIMTFAC
 40
1.0
  9
$DIMGAP
 40
1.524
  9
$DIMJUST
 70
     0
  9
$DIMSD1
 70
     0
  9
$DIMSD2
 70
     0
  9
$DIMTOLJ
 70
     0
  9
$DIMTZIN
 70
     0
  9
$DIMALTZ
 70
     0
  9
$DIMALTTZ
 70
     0
  9
$DIMUPT
 70
     0
  9
$DIMDEC
 70
     2
  9
$DIMTDEC
 70
     0
  9
$DIMALTU
 70
     2
  9
$DIMALTTD
 70
     3
  9
$DIMTXSTY
  7
Standard
  9
$DIMAUNIT
 70
     0
  9
$DIMADEC
 70
     2
  9
$DIMALTRND
 40
0.0
  9
$DIMAZIN
 70
     0
  9
$DIMDSEP
 70
    44
  9
$DIMATFIT
 70
     3
  9
$DIMFRAC
 70
     0
  9
$DIMLDRBLK
  1

  9
$DIMLUNIT
 70
     2
  9
$DIMLWD
 70
    -2
  9
$DIMLWE
 70
    -2
  9
$DIMTMOVE
 70
     0
  9
$LUNITS
 70
     2
  9
$LUPREC
 70
     3
  9
$SKETCHINC
 40
1.0
  9
$FILLETRAD
 40
10.0
  9
$AUNITS
 70
     0
  9
$AUPREC
 70
     2
  9
$MENU
  1
.
  9
$ELEVATION
 40
0.0
  9
$PELEVATION
 40
0.0
  9
$THICKNESS
 40
0.0
  9
$LIMCHECK
 70
     0
  9
$CHAMFERA
 40
0.0
  9
$CHAMFERB
 40
0.0
  9
$CHAMFERC
 40
0.0
  9
$CHAMFERD
 40
0.0
  9
$SKPOLY
 70
     0
  9
$TDCREATE
 40
2459146.446565336
  9
$TDUCREATE
 40
2459146.363232002
  9
$TDUPDATE
 40
2459146.446565579
  9
$TDUUPDATE
 40
2459146.363232245
  9
$TDINDWG
 40
0.0000000116
  9
$TDUSRTIMER
 40
0.0000000116
  9
$USRTIMER
 70
     1
  9
$ANGBASE
 50
0.0
  9
$ANGDIR
 70
     0
  9
$PDMODE
 70
     0
  9
$PDSIZE
 40
-1.0
  9
$PLINEWID
 40
0.0
  9
$SPLFRAME
 70
     0
  9
$SPLINETYPE
 70
     6
  9
$SPLINESEGS
 70
     8
  9
$HANDSEED
  5
2F5
  9
$SURFTAB1
 70
     6
  9
$SURFTAB2
 70
     6
  9
$SURFTYPE
 70
     6
  9
$SURFU
 70
     6
  9
$SURFV
 70
     6
  9
$UCSBASE
  2

  9
$UCSNAME
  2

  9
$UCSORG
 10
0.0
 20
0.0
 30
0.0
  9
$UCSXDIR
 10
1.0
 20
0.0
 30
0.0
  9
$UCSYDIR
 10
0.0
 20
1.0
 30
0.0
  9
$UCSORTHOREF
  2

  9
$UCSORTHOVIEW
 70
     0
  9
$UCSORGTOP
 10
0.0
 20
0.0
 30
0.0
  9
$UCSORGBOTTOM
 10
0.0
 20
0.0
 30
0.0
  9
$UCSORGLEFT
 10
0.0
 20
0.0
 30
0.0
  9
$UCSORGRIGHT
 10
0.0
 20
0.0
 30
0.0
  9
$UCSORGFRONT
 10
0.0
 20
0.0
 30
0.0
  9
$UCSORGBACK
 10
0.0
 20
0.0
 30
0.0
  9
$PUCSBASE
  2

  9
$PUCSNAME
  2

  9
$PUCSORG
 10
0.0
 20
0.0
 30
0.0
  9
$PUCSXDIR
 10
1.0
 20
0.0
 30
0.0
  9
$PUCSYDIR
 10
0.0
 20
1.0
 30
0.0
  9
$PUCSORTHOREF
  2

  9
$PUCSORTHOVIEW
 70
     0
  9
$PUCSORGTOP
 10
0.0
 20
0.0
 30
0.0
  9
$PUCSORGBOTTOM
 10
0.0
 20
0.0
 30
0.0
  9
$PUCSORGLEFT
 10
0.0
 20
0.0
 30
0.0
  9
$PUCSORGRIGHT
 10
0.0
 20
0.0
 30
0.0
  9
$PUCSORGFRONT
 10
0.0
 20
0.0
 30
0.0
  9
$PUCSORGBACK
 10
0.0
 20
0.0
 30
0.0
  9
$USERI1
 70
     0
  9
$USERI2
 70
     0
  9
$USERI3
 70
     0
  9
$USERI4
 70
     0
  9
$USERI5
 70
     0
  9
$USERR1
 40
0.0
  9
$USERR2
 40
0.0
  9
$USERR3
 40
0.0
  9
$USERR4
 40
0.0
  9
$USERR5
 40
0.0
  9
$WORLDVIEW
 70
     1
  9
$SHADEDGE
 70
     3
  9
$SHADEDIF
 70
    70
  9
$TILEMODE
 70
     1
  9
$MAXACTVP
 70
    64
  9
$PINSBASE
 10
0.0
 20
0.0
 30
0.0
  9
$PLIMCHECK
 70
     0
  9
$PEXTMIN
 10
1.0000000000E+20
 20
1.0000000000E+20
 30
1.0000000000E+20
  9
$PEXTMAX
 10
-1.0000000000E+20
 20
-1.0000000000E+20
 30
-1.0000000000E+20
  9
$PLIMMIN
 10
0.0
 20
0.0
  9
$PLIMMAX
 10
420.0
 20
297.0
  9
$UNITMODE
 70
     0
  9
$VISRETAIN
 70
     1
  9
$PLINEGEN
 70
     0
  9
$PSLTSCALE
 70
     1
  9
$TREEDEPTH
 70
  3020
  9
$CMLSTYLE
  2
Standard
  9
$CMLJUST
 70
     0
  9
$CMLSCALE
 40
20.0
  9
$PROXYGRAPHICS
 70
     1
  9
$MEASUREMENT
 70
     1
  9
$CELWEIGHT
370
    -1
  9
$ENDCAPS
280
     0
  9
$JOINSTYLE
280
     0
  9
$LWDISPLAY
290
     1
  9
$INSUNITS
 70
     4
  9
$HYPERLINKBASE
  1

  9
$STYLESHEET
  1

  9
$XEDIT
290
     1
  9
$CEPSNTYPE
380
     0
  9
$PSTYLEMODE
290
     1
  9
$FINGERPRINTGUID
  2
{7fcae96c-edd8-451a-9693-d683b8ccbb72}
  9
$VERSIONGUID
  2
{FAEB1C32-E019-11D5-929B-00C0DF256EC4}
  9
$EXTNAMES
290
     1
  9
$PSVPSCALE
 40
0.0
  9
$OLESTARTUP
290
     0
  0
ENDSEC
  0
SECTION
  2
CLASSES
  0
CLASS
  1
ACDBDICTIONARYWDFLT
  2
AcDbDictionaryWithDefault
  3
ObjectDBX Classes
 90
        0
280
     0
281
     0
  0
CLASS
  1
VISUALSTYLE
  2
AcDbVisualStyle
  3
ObjectDBX Classes
 90
     4095
280
     0
281
     0
  0
CLASS
  1
MATERIAL
  2
AcDbMaterial
  3
ObjectDBX Classes
 90
     1153
280
     0
281
     0
  0
CLASS
  1
SCALE
  2
AcDbScale
  3
ObjectDBX Classes
 90
     1153
280
     0
281
     0
  0
CLASS
  1
TABLESTYLE
  2
AcDbTableStyle
  3
ObjectDBX Classes
 90
     4095
280
     0
281
     0
  0
CLASS
  1
MLEADERSTYLE
  2
AcDbMLeaderStyle
  3
ACDB_MLEADERSTYLE_CLASS
 90
     4095
280
     0
281
     0
  0
CLASS
  1
SUN
  2
AcDbSun
  3
SCENEOE
 90
     1153
280
     0
281
     0
  0
CLASS
  1
ACDBPLACEHOLDER
  2
AcDbPlaceHolder
  3
ObjectDBX Classes
 90
        0
280
     0
281
     0
  0
CLASS
  1
LAYOUT
  2
AcDbLayout
  3
ObjectDBX Classes
 90
        0
280
     0
281
     0
  0
ENDSEC
  0
SECTION
  2
TABLES
  0
TABLE
  2
VPORT
  5
8
330
0
100
AcDbSymbolTable
 70
     1
  0
VPORT
  5
29
330
8
100
AcDbSymbolTableRecord
100
AcDbViewportTableRecord
  2
*Active
 70
     0
 10
0.0
 20
0.0
 11
1.0
 21
1.0
 12
10000.0
 22
5000.0
 13
0.0
 23
0.0
 14
10.0
 24
10.0
 15
10.0
 25
10.0
 16
0.0
 26
0.0
 36
1.0
 17
0.0
 27
0.0
 37
0.0
 40
10000.0
 41
2.0
 42
50.0
 43
0.0
 44
0.0
 50
0.0
 51
0.0
 71
     0
 72
  2000
 73
     1
 74
     3
 75
     0
 76
     0
 77
     0
 78
     0
281
     0
 65
     1
110
0.0
120
0.0
130
0.0
111
1.0
121
0.0
131
0.0
112
0.0
122
1.0
132
0.0
 79
     0
146
0.0
  0
ENDTAB
  0
TABLE
  2
LTYPE
  5
5
330
0
100
AcDbSymbolTable
 70
     6
  0
LTYPE
  5
14
330
5
100
AcDbSymbolTableRecord
100
AcDbLinetypeTableRecord
  2
ByBlock
 70
     0
  3

 72
    65
 73
     0
 40
0.0
  0
LTYPE
  5
15
330
5
100
AcDbSymbolTableRecord
100
AcDbLinetypeTableRecord
  2
ByLayer
 70
     0
  3

 72
    65
 73
     0
 40
0.0
  0
LTYPE
  5
16
330
5
100
AcDbSymbolTableRecord
100
AcDbLinetypeTableRecord
  2
Continuous
 70
     0
  3
Solid line
 72
    65
 73
     0
 40
0.0
  0
LTYPE
  5
6E
330
5
100
AcDbSymbolTableRecord
100
AcDbLinetypeTableRecord
  2
HIDDEN
 70
     0
  3
Hidden __ __ __ __ __ __ __ __ __ __ __ __ __ __
 72
    65
 73
     2
 40
1.905
 49
1.27
 74
     0
 49
-0.635
 74
     0
  0
LTYPE
  5
6F
330
5
100
AcDbSymbolTableRecord
100
AcDbLinetypeTableRecord
  2
PHANTOM
 70
     0
  3
Phantom ______  __  __  ______  __  __  ______
 72
    65
 73
     6
 40
12.7
 49
6.35
 74
     0
 49
-1.27
 74
     0
 49
1.27
 74
     0
 49
-1.27
 74
     0
 49
1.27
 74
     0
 49
-1.27
 74
     0
  0
LTYPE
  5
70
330
5
100
AcDbSymbolTableRecord
100
AcDbLinetypeTableRecord
  2
CENTER
 70
     0
  3
Center ____ _ ____ _ ____ _ ____ _ ____ _ ____
 72
    65
 73
     4
 40
10.16
 49
6.35
 74
     0
 49
-1.27
 74
     0
 49
1.27
 74
     0
 49
-1.27
 74
     0
  0
LTYPE
  5
71
330
5
100
AcDbSymbolTableRecord
100
AcDbLinetypeTableRecord
  2
CENTERX2
 70
     0
  3
Center (2x) ________  __  ________  __  _____
 72
    65
 73
     4
 40
20.32
 49
12.7
 74
     0
 49
-2.54
 74
     0
 49
2.54
 74
     0
 49
-2.54
 74
     0
  0
LTYPE
  5
72
330
5
100
AcDbSymbolTableRecord
100
AcDbLinetypeTableRecord
  2
DOT2
 70
     0
  3
Dot (.5x) ........................................
 72
    65
 73
     2
 40
0.635
 49
0.0
 74
     0
 49
-0.635
 74
     0
  0
ENDTAB
  0
TABLE
  2
LAYER
  5
2
330
0
100
AcDbSymbolTable
 70
    13
  0
LAYER
  5
10
330
2
100
AcDbSymbolTableRecord
100
AcDbLayerTableRecord
  2
0
 70
     0
 62
     7
  6
Continuous
370
    -3
390
F
  0
LAYER
  5
73
330
2
100
AcDbSymbolTableRecord
100
AcDbLayerTableRecord
  2
FORMAT
 70
     0
 62
     7
  6
Continuous
370
    -3
390
F
  0
LAYER
  5
74
330
2
100
AcDbSymbolTableRecord
100
AcDbLayerTableRecord
  2
OSA
 70
     0
 62
     7
  6
CENTER
370
    -3
390
F
  0
LAYER
  5
75
330
2
100
AcDbSymbolTableRecord
100
AcDbLayerTableRecord
  2
0_35
 70
     0
 62
     7
  6
Continuous
370
    35
390
F
  0
LAYER
  5
76
330
2
100
AcDbSymbolTableRecord
100
AcDbLayerTableRecord
  2
0_5
 70
     0
 62
     7
  6
Continuous
370
    50
390
F
  0
LAYER
  5
77
330
2
100
AcDbSymbolTableRecord
100
AcDbLayerTableRecord
  2
0_25
 70
     0
 62
     7
  6
Continuous
370
    25
390
F
  0
LAYER
  5
78
330
2
100
AcDbSymbolTableRecord
100
AcDbLayerTableRecord
  2
0_18
 70
     0
 62
     7
  6
Continuous
370
    -3
390
F
  0
LAYER
  5
79
330
2
100
AcDbSymbolTableRecord
100
AcDbLayerTableRecord
  2
SLD-0
 70
     0
 62
   179
  6
Continuous
370
    -3
390
F
  0
LAYER
  5
7A
330
2
100
AcDbSymbolTableRecord
100
AcDbLayerTableRecord
  2
KOTY
 70
     0
 62
     7
  6
Continuous
370
    -3
390
F
  0
LAYER
  5
7B
330
2
100
AcDbSymbolTableRecord
100
AcDbLayerTableRecord
  2
SILNA
 70
     0
 62
   179
  6
Continuous
370
    -3
390
F
  0
LAYER
  5
7C
330
2
100
AcDbSymbolTableRecord
100
AcDbLayerTableRecord
  2
0_18_1
 70
     0
 62
   179
  6
Continuous
370
    -3
390
F
  0
LAYER
  5
7D
330
2
100
AcDbSymbolTableRecord
100
AcDbLayerTableRecord
  2
0_35_1
 70
     0
 62
   179
  6
Continuous
370
    35
390
F
  0
LAYER
  5
7E
330
2
100
AcDbSymbolTableRecord
100
AcDbLayerTableRecord
  2
0_5_1
 70
     0
 62
   179
  6
Continuous
370
    50
390
F
  0
ENDTAB
  0
TABLE
  2
STYLE
  5
3
330
0
100
AcDbSymbolTable
 70
     1
  0
STYLE
  5
11
330
3
100
AcDbSymbolTableRecord
100
AcDbTextStyleTableRecord
  2
Standard
 70
     0
 40
0.0
 41
1.0
 50
0.0
 71
     0
 42
2.0
  3
txt
  4

  0
ENDTAB
  0
TABLE
  2
VIEW
  5
6
330
0
100
AcDbSymbolTable
 70
     0
  0
ENDTAB
  0
TABLE
  2
UCS
  5
7
330
0
100
AcDbSymbolTable
 70
     0
  0
ENDTAB
  0
TABLE
  2
APPID
  5
9
330
0
100
AcDbSymbolTable
 70
     1
  0
APPID
  5
12
330
9
100
AcDbSymbolTableRecord
100
AcDbRegAppTableRecord
  2
ACAD
 70
     0
  0
ENDTAB
  0
TABLE
  2
DIMSTYLE
  5
A
330
0
100
AcDbSymbolTable
 70
     1
100
AcDbDimStyleTable
  0
DIMSTYLE
105
27
330
A
100
AcDbSymbolTableRecord
100
AcDbDimStyleTableRecord
  2
ISO-25
 70
     0
 41
2.5
 42
0.625
 43
3.75
 44
1.25
 73
     0
 74
     0
 77
     1
 78
     8
140
2.5
141
2.5
143
0.0393700787
147
0.625
171
     3
172
     1
178
     0
271
     2
272
     2
274
     3
278
    44
283
     0
284
     8
340
11
  0
ENDTAB
  0
TABLE
  2
BLOCK_RECORD
  5
1
330
0
100
AcDbSymbolTable
 70
     1
  0
BLOCK_RECORD
  5
1F
330
1
100
AcDbSymbolTableRecord
100
AcDbBlockTableRecord
  2
*Model_Space
340
22
  0
BLOCK_RECORD
  5
1B
330
1
100
AcDbSymbolTableRecord
100
AcDbBlockTableRecord
  2
*Paper_Space
340
1E
  0
BLOCK_RECORD
  5
23
330
1
100
AcDbSymbolTableRecord
100
AcDbBlockTableRecord
  2
*Paper_Space0
340
26
  0
ENDTAB
  0
ENDSEC
  0
SECTION
  2
BLOCKS
  0
BLOCK
  5
20
330
1F
100
AcDbEntity
  8
0
100
AcDbBlockBegin
  2
*Model_Space
 70
     0
 10
0.0
 20
0.0
 30
0.0
  3
*Model_Space
  1

  0
ENDBLK
  5
21
330
1F
100
AcDbEntity
  8
0
100
AcDbBlockEnd
  0
BLOCK
  5
1C
330
1B
100
AcDbEntity
 67
     1
  8
0
100
AcDbBlockBegin
  2
*Paper_Space
 70
     0
 10
0.0
 20
0.0
 30
0.0
  3
*Paper_Space
  1

  0
ENDBLK
  5
1D
330
1B
100
AcDbEntity
 67
     1
  8
0
100
AcDbBlockEnd
  0
BLOCK
  5
24
330
23
100
AcDbEntity
  8
0
100
AcDbBlockBegin
  2
*Paper_Space0
 70
     0
 10
0.0
 20
0.0
 30
0.0
  3
*Paper_Space0
  1

  0
ENDBLK
  5
25
330
23
100
AcDbEntity
  8
0
100
AcDbBlockEnd
  0
ENDSEC
  0
SECTION
  2
ENTITIES
  0
LWPOLYLINE
  5
7F
330
1F
100
AcDbEntity
  8
0
  6
Continuous
 62
     7
370
    25
100
AcDbPolyline
 90
       28
 70
   128
 43
0.0
 10
6394.0034137837
 20
4894.0447431507
 10
6394.2811801556
 20
4894.3584331746
 10
6394.7015725723
 20
4894.7420317303
 10
6395.2664503159
 20
4895.1690384358
 10
6395.9638788313
 20
4895.6108822193
 10
6396.8294554166
 20
4896.0612552578
 10
6397.7705896439
 20
4896.4539650591
 10
6398.7669476796
 20
4896.7756207073
 10
6399.6747079556
 20
4896.9912872873
 10
6400.5150361026
 20
4897.1269463602
 10
6401.3537438913
 20
4897.195117176
 10
6402.3312492949
 20
4897.2210053416
 10
6403.7252815723
 20
4897.2227898412
 10
6406.5075718933
 20
4897.2227898412
 10
6410.1270885758
 20
4897.2227898412
 10
6411.7807177967
 20
4897.2290667307
 10
6412.8595971952
 20
4897.2186703882
 10
6413.7828780886
 20
4897.1619770926
 10
6414.6846398273
 20
4897.036446987
 10
6415.6169869808
 20
4896.8335539843
 10
6416.5273706185
 20
4896.5614495882
 10
6417.4138360001
 20
4896.2212741184
 10
6418.2521478406
 20
4895.8226103338
 10
6419.0148600819
 20
4895.3813767476
 10
6419.690595198
 20
4894.9125788944
 10
6420.1936714743
 20
4894.4896164961
 10
6420.5435140027
 20
4894.1250653991
 10
6420.5957857928
 20
4894.0545163246
  0
LINE
  5
80
330
1F
100
AcDbEntity
  8
0
  6
Continuous
 62
     7
370
    25
100
AcDbLine
 10
6382.2155933331
 20
4892.3543671062
 30
0.0
 11
6382.7181836238
 21
4892.3226834878
 31
0.0
  0
LINE
  5
81
330
1F
100
AcDbEntity
  8
0
  6
Continuous
 62
     7
370
    25
100
AcDbLine
 10
6431.8817461789
 20
4892.3226834878
 30
0.0
 11
6432.3843364695
 21
4892.3543671062
 31
0.0
  0
LINE
  5
82
330
1F
100
AcDbEntity
  8
0
  6
Continuous
 62
     7
370
    25
100
AcDbLine
 10
6404.3001150152
 20
4897.0865023842
 30
0.0
 11
6411.3001150152
 21
4897.0865023842
 31
0.0
  0
LINE
  5
83
330
1F
100
AcDbEntity
  8
0
  6
Continuous
 62
     7
370
    25
100
AcDbLine
 10
6404.3001150152
 20
4897.2227898412
 30
0.0
 11
6404.3001150152
 21
4897.0865023842
 31
0.0
  0
LINE
  5
84
330
1F
100
AcDbEntity
  8
0
  6
Continuous
 62
     7
370
    25
100
AcDbLine
 10
6411.3001150152
 20
4897.0865023842
 30
0.0
 11
6411.3001150152
 21
4897.2272424459
 31
0.0
  0
LINE
  5
85
330
1F
100
AcDbEntity
  8
0
  6
Continuous
 62
     7
370
    25
100
AcDbLine
 10
6404.5501150152
 20
4983.7115023842
 30
0.0
 11
6404.5501150152
 21
4951.9515023842
 31
0.0
  0
LINE
  5
86
330
1F
100
AcDbEntity
  8
0
  6
Continuous
 62
     7
370
    25
100
AcDbLine
 10
6411.0501150152
 20
4983.7115023842
 30
0.0
 11
6404.5501150152
 21
4983.7115023842
 31
0.0
  0
LINE
  5
87
330
1F
100
AcDbEntity
  8
0
  6
Continuous
 62
     7
370
    25
100
AcDbLine
 10
6411.0501150152
 20
4951.9515023842
 30
0.0
 11
6411.0501150152
 21
4983.7115023842
 31
0.0
  0
ARC
  5
88
330
1F
100
AcDbEntity
  8
0
  6
Continuous
 62
     7
370
    25
100
AcDbCircle
 10
6407.8023618599
 20
4951.9592555395
 30
0.0
 40
3.247762409608159
100
AcDbArc
 50
270.136778324
 51
359.863221676
  0
ARC
  5
89
330
1F
100
AcDbEntity
  8
0
  6
Continuous
 62
     7
370
    25
100
AcDbCircle
 10
6407.7978681705
 20
4951.9592555395
 30
0.0
 40
3.247762409605427
100
AcDbArc
 50
180.136778324
 51
269.863221676
  0
LINE
  5
8A
330
1F
100
AcDbEntity
  8
0
  6
Continuous
 62
     7
370
    25
100
AcDbLine
 10
6405.0501150152
 20
4984.7115023842
 30
0.0
 11
6410.5501150152
 21
4984.7115023842
 31
0.0
  0
LWPOLYLINE
  5
8B
330
1F
100
AcDbEntity
  8
0
  6
Continuous
 62
     7
370
    25
100
AcDbPolyline
 90
        7
 70
   128
 43
0.0
 10
6410.5501150152
 20
4984.7115023842
 10
6410.6751150152
 20
4984.6763937643
 10
6410.7376150152
 20
4984.6067843662
 10
6410.8001150152
 20
4984.4918324701
 10
6410.8626150152
 20
4984.3311626792
 10
6410.9251150152
 20
4984.1349849773
 10
6411.0501150152
 20
4983.7115023842
  0
LWPOLYLINE
  5
8C
330
1F
100
AcDbEntity
  8
0
  6
Continuous
 62
     7
370
    25
100
AcDbPolyline
 90
        7
 70
   128
 43
0.0
 10
6405.0501150152
 20
4984.7115023842
 10
6404.9251150152
 20
4984.6763937643
 10
6404.8626150152
 20
4984.6067843662
 10
6404.8001150152
 20
4984.4918324701
 10
6404.7376150152
 20
4984.3311626792
 10
6404.6751150152
 20
4984.1349849773
 10
6404.5501150152
 20
4983.7115023842
  0
LINE
  5
8D
330
1F
100
AcDbEntity
  8
0
  6
Continuous
 62
     7
370
    25
100
AcDbLine
 10
6404.5501150152
 20
4951.9515023842
 30
0.0
 11
6403.5501150152
 21
4951.9515023842
 31
0.0
  0
LINE
  5
8E
330
1F
100
AcDbEntity
  8
0
  6
Continuous
 62
     7
370
    25
100
AcDbLine
 10
6403.5501150152
 20
4951.9515023842
 30
0.0
 11
6403.5501150152
 21
4983.2115023842
 31
0.0
  0
LWPOLYLINE
  5
8F
330
1F
100
AcDbEntity
  8
0
  6
Continuous
 62
     7
370
    25
100
AcDbPolyline
 90
        7
 70
   128
 43
0.0
 10
6404.5501150152
 20
4983.7115023842
 10
6404.1266324222
 20
4983.5865023842
 10
6403.9304547203
 20
4983.5240023842
 10
6403.7697849293
 20
4983.4615023842
 10
6403.6548330333
 20
4983.3990023842
 10
6403.5852236351
 20
4983.3365023842
 10
6403.5501150152
 20
4983.2115023842
  0
LINE
  5
90
330
1F
100
AcDbEntity
  8
0
  6
Continuous
 62
     7
370
    25
100
AcDbLine
 10
6412.0501150152
 20
4983.2115023842
 30
0.0
 11
6412.0501150152
 21
4951.9515023842
 31
0.0
  0
LINE
  5
91
330
1F
100
AcDbEntity
  8
0
  6
Continuous
 62
     7
370
    25
100
AcDbLine
 10
6412.0501150152
 20
4951.9515023842
 30
0.0
 11
6411.0501150152
 21
4951.9515023842
 31
0.0
  0
LWPOLYLINE
  5
92
330
1F
100
AcDbEntity
  8
0
  6
Continuous
 62
     7
370
    25
100
AcDbPolyline
 90
        7
 70
   128
 43
0.0
 10
6412.0501150152
 20
4983.2115023842
 10
6412.0150063953
 20
4983.3365023842
 10
6411.9453969972
 20
4983.3990023842
 10
6411.8304451011
 20
4983.4615023842
 10
6411.6697753102
 20
4983.5240023842
 10
6411.4735976083
 20
4983.5865023842
 10
6411.0501150152
 20
4983.7115023842
  0
ARC
  5
93
330
1F
100
AcDbEntity
  8
0
  6
Continuous
 62
     7
370
    25
100
AcDbCircle
 10
6407.8101150152
 20
4951.9515023842
 30
0.0
 40
4.240000000001601
100
AcDbArc
 50
270.0
 51
360.0
  0
LINE
  5
94
330
1F
100
AcDbEntity
  8
0
  6
Continuous
 62
     7
370
    25
100
AcDbLine
 10
6407.8101150152
 20
4948.7115023842
 30
0.0
 11
6407.8101150152
 21
4947.7115023842
 31
0.0
  0
ARC
  5
95
330
1F
100
AcDbEntity
  8
0
  6
Continuous
 62
     7
370
    25
100
AcDbCircle
 10
6407.7901150152
 20
4951.9515023842
 30
0.0
 40
4.240000000001601
100
AcDbArc
 50
180.0
 51
270.0
  0
ARC
  5
96
330
1F
100
AcDbEntity
  8
0
  6
Continuous
 62
     7
370
    25
100
AcDbCircle
 10
6404.8109135585
 20
4983.4507038409
 30
0.0
 40
1.283288861892373
100
AcDbArc
 50
79.2573966733
 51
190.7426033266
  0
ARC
  5
97
330
1F
100
AcDbEntity
  8
0
  6
Continuous
 62
     7
370
    25
100
AcDbCircle
 10
6410.7893164719
 20
4983.4507038409
 30
0.0
 40
1.283288861891141
100
AcDbArc
 50
349.2573966733
 51
100.7426033266
  0
LINE
  5
98
330
1F
100
AcDbEntity
  8
0
  6
Continuous
 62
     7
370
    25
100
AcDbLine
 10
6402.5501150152
 20
4951.9515023842
 30
0.0
 11
6402.5501150152
 21
4983.2115023842
 31
0.0
  0
LINE
  5
99
330
1F
100
AcDbEntity
  8
0
  6
Continuous
 62
     7
370
    25
100
AcDbLine
 10
6402.5501150152
 20
4983.2115023842
 30
0.0
 11
6403.5501150152
 21
4983.2115023842
 31
0.0
  0
LINE
  5
9A
330
1F
100
AcDbEntity
  8
0
  6
Continuous
 62
     7
370
    25
100
AcDbLine
 10
6402.5501150152
 20
4951.9515023842
 30
0.0
 11
6403.5501150152
 21
4951.9515023842
 31
0.0
  0
LINE
  5
9B
330
1F
100
AcDbEntity
  8
0
  6
Continuous
 62
     7
370
    25
100
AcDbLine
 10
6405.0501150152
 20
4984.7115023842
 30
0.0
 11
6405.0501150152
 21
4985.7115023842
 31
0.0
  0
LINE
  5
9C
330
1F
100
AcDbEntity
  8
0
  6
Continuous
 62
     7
370
    25
100
AcDbLine
 10
6405.0501150152
 20
4985.7115023842
 30
0.0
 11
6410.5501150152
 21
4985.7115023842
 31
0.0
  0
LINE
  5
9D
330
1F
100
AcDbEntity
  8
0
  6
Continuous
 62
     7
370
    25
100
AcDbLine
 10
6410.5501150152
 20
4984.7115023842
 30
0.0
 11
6410.5501150152
 21
4985.7115023842
 31
0.0
  0
ARC
  5
9E
330
1F
100
AcDbEntity
  8
0
  6
Continuous
 62
     7
370
    25
100
AcDbCircle
 10
6407.7901150152
 20
4951.9515023842
 30
0.0
 40
5.240000000000691
100
AcDbArc
 50
180.0
 51
270.0
  0
LINE
  5
9F
330
1F
100
AcDbEntity
  8
0
  6
Continuous
 62
     7
370
    25
100
AcDbLine
 10
6407.7901150152
 20
4946.7115023842
 30
0.0
 11
6407.7901150152
 21
4947.7115023842
 31
0.0
  0
ARC
  5
A0
330
1F
100
AcDbEntity
  8
0
  6
Continuous
 62
     7
370
    25
100
AcDbCircle
 10
6404.7774789473
 20
4983.4841384521
 30
0.0
 40
2.243987636255048
100
AcDbArc
 50
83.0215371016
 51
186.9784628985
  0
LINE
  5
A1
330
1F
100
AcDbEntity
  8
0
  6
Continuous
 62
     7
370
    25
100
AcDbLine
 10
6405.8918762076
 20
4948.2115023842
 30
0.0
 11
6409.7118402939
 21
4948.2115023842
 31
0.0
  0
LINE
  5
A2
330
1F
100
AcDbEntity
  8
0
  6
Continuous
 62
     7
370
    25
100
AcDbLine
 10
6385.2999649013
 20
4892.2115023842
 30
0.0
 11
6429.2999649013
 21
4892.2115023842
 31
0.0
  0
LINE
  5
A3
330
1F
100
AcDbEntity
  8
0
  6
Continuous
 62
     7
370
    25
100
AcDbLine
 10
6429.2999649013
 20
4892.3177274253
 30
0.0
 11
6429.2999649013
 21
4892.2115023842
 31
0.0
  0
LINE
  5
A4
330
1F
100
AcDbEntity
  8
0
  6
Continuous
 62
     7
370
    25
100
AcDbLine
 10
6385.2999649013
 20
4892.2115023842
 30
0.0
 11
6385.2999649013
 21
4892.3177274253
 31
0.0
  0
LINE
  5
A5
330
1F
100
AcDbEntity
  8
0
  6
Continuous
 62
     7
370
    25
100
AcDbLine
 10
6462.2999649013
 20
4917.3067200128
 30
0.0
 11
6462.2999649013
 21
4917.2115023842
 31
0.0
  0
LINE
  5
A6
330
1F
100
AcDbEntity
  8
0
  6
Continuous
 62
     7
370
    25
100
AcDbLine
 10
6437.2999649013
 20
4892.2115023842
 30
0.0
 11
6437.2999649013
 21
4892.3067200128
 31
0.0
  0
ARC
  5
A7
330
1F
100
AcDbEntity
  8
0
  6
Continuous
 62
     7
370
    25
100
AcDbCircle
 10
6437.2999649013
 20
4917.2115023842
 30
0.0
 40
25.00000000000091
100
AcDbArc
 50
270.0
 51
0.0
  0
ARC
  5
A8
330
1F
100
AcDbEntity
  8
0
  6
Continuous
 62
     7
370
    25
100
AcDbCircle
 10
6377.2999649013
 20
4917.2115023842
 30
0.0
 40
25.00000000000091
100
AcDbArc
 50
180.0
 51
270.0
  0
LINE
  5
A9
330
1F
100
AcDbEntity
  8
0
  6
Continuous
 62
     7
370
    25
100
AcDbLine
 10
6377.2999649013
 20
4892.3067200128
 30
0.0
 11
6377.2999649013
 21
4892.2115023842
 31
0.0
  0
LINE
  5
AA
330
1F
100
AcDbEntity
  8
0
  6
Continuous
 62
     7
370
    25
100
AcDbLine
 10
6352.2999649013
 20
4917.3067200128
 30
0.0
 11
6352.2999649013
 21
4917.2115023842
 31
0.0
  0
LINE
  5
AB
330
1F
100
AcDbEntity
  8
0
  6
Continuous
 62
     7
370
    25
100
AcDbLine
 10
6429.2999649013
 20
4892.2115023842
 30
0.0
 11
6437.2999649013
 21
4892.2115023842
 31
0.0
  0
LINE
  5
AC
330
1F
100
AcDbEntity
  8
0
  6
Continuous
 62
     7
370
    25
100
AcDbLine
 10
6377.2999649013
 20
4892.2115023842
 30
0.0
 11
6385.2999649013
 21
4892.2115023842
 31
0.0
  0
LINE
  5
AD
330
1F
100
AcDbEntity
  8
0
  6
Continuous
 62
     7
370
    25
100
AcDbLine
 10
6404.3944755451
 20
5021.5485521417
 30
0.0
 11
6405.9456665891
 21
5020.2954878537
 31
0.0
  0
LINE
  5
AE
330
1F
100
AcDbEntity
  8
0
  6
Continuous
 62
     7
370
    25
100
AcDbLine
 10
6405.9456665891
 20
5020.2954878537
 30
0.0
 11
6405.9456665891
 21
5021.4867147777
 31
0.0
  0
LINE
  5
AF
330
1F
100
AcDbEntity
  8
0
  6
Continuous
 62
     7
370
    25
100
AcDbLine
 10
6405.9456665891
 20
5021.4867147777
 30
0.0
 11
6406.4835987451
 21
5021.4867830497
 31
0.0
  0
LINE
  5
B0
330
1F
100
AcDbEntity
  8
0
  6
Continuous
 62
     7
370
    25
100
AcDbLine
 10
6406.4835987451
 20
5021.4867830497
 30
0.0
 11
6406.4835987451
 21
5020.0645066097
 31
0.0
  0
LINE
  5
B1
330
1F
100
AcDbEntity
  8
0
  6
Continuous
 62
     7
370
    25
100
AcDbLine
 10
6406.4835987451
 20
5020.0645066097
 30
0.0
 11
6406.8878713931
 21
5020.0645066097
 31
0.0
  0
LINE
  5
B2
330
1F
100
AcDbEntity
  8
0
  6
Continuous
 62
     7
370
    25
100
AcDbLine
 10
6406.8878713931
 20
5020.0645066097
 30
0.0
 11
6406.8878713931
 21
5021.4867830497
 31
0.0
  0
LINE
  5
B3
330
1F
100
AcDbEntity
  8
0
  6
Continuous
 62
     7
370
    25
100
AcDbLine
 10
6406.8878713931
 20
5021.4867830497
 30
0.0
 11
6408.2213942331
 21
5021.4867830497
 31
0.0
  0
LINE
  5
B4
330
1F
100
AcDbEntity
  8
0
  6
Continuous
 62
     7
370
    25
100
AcDbLine
 10
6408.2213942331
 20
5021.4867830497
 30
0.0
 11
6408.2213942331
 21
5021.0694533817
 31
0.0
  0
LINE
  5
B5
330
1F
100
AcDbEntity
  8
0
  6
Continuous
 62
     7
370
    25
100
AcDbLine
 10
6408.2213942331
 20
5021.0694533817
 30
0.0
 11
6407.3237539771
 21
5021.0694533817
 31
0.0
  0
LINE
  5
B6
330
1F
100
AcDbEntity
  8
0
  6
Continuous
 62
     7
370
    25
100
AcDbLine
 10
6407.3237539771
 20
5021.0694533817
 30
0.0
 11
6407.3237539771
 21
5020.0645066097
 31
0.0
  0
LINE
  5
B7
330
1F
100
AcDbEntity
  8
0
  6
Continuous
 62
     7
370
    25
100
AcDbLine
 10
6407.3237539771
 20
5020.0645066097
 30
0.0
 11
6408.2282726371
 21
5020.0645066097
 31
0.0
  0
LINE
  5
B8
330
1F
100
AcDbEntity
  8
0
  6
Continuous
 62
     7
370
    25
100
AcDbLine
 10
6408.2282726371
 20
5020.0645066097
 30
0.0
 11
6408.3926374771
 21
5019.5664282337
 31
0.0
  0
LINE
  5
B9
330
1F
100
AcDbEntity
  8
0
  6
Continuous
 62
     7
370
    25
100
AcDbLine
 10
6408.3926374771
 20
5019.5664282337
 30
0.0
 11
6407.3235832971
 21
5019.5664282337
 31
0.0
  0
LINE
  5
BA
330
1F
100
AcDbEntity
  8
0
  6
Continuous
 62
     7
370
    25
100
AcDbLine
 10
6407.3235832971
 20
5019.5664282337
 30
0.0
 11
6407.3237539771
 21
5018.4466138217
 31
0.0
  0
LINE
  5
BB
330
1F
100
AcDbEntity
  8
0
  6
Continuous
 62
     7
370
    25
100
AcDbLine
 10
6407.3237539771
 20
5018.4466138217
 30
0.0
 11
6408.2213942331
 21
5018.4466138217
 31
0.0
  0
LINE
  5
BC
330
1F
100
AcDbEntity
  8
0
  6
Continuous
 62
     7
370
    25
100
AcDbLine
 10
6408.2213942331
 20
5018.4466138217
 30
0.0
 11
6408.2213942331
 21
5017.9976059457
 31
0.0
  0
LINE
  5
BD
330
1F
100
AcDbEntity
  8
0
  6
Continuous
 62
     7
370
    25
100
AcDbLine
 10
6408.2213942331
 20
5017.9976059457
 30
0.0
 11
6406.8878713931
 21
5017.9976059457
 31
0.0
  0
LINE
  5
BE
330
1F
100
AcDbEntity
  8
0
  6
Continuous
 62
     7
370
    25
100
AcDbLine
 10
6406.8878713931
 20
5017.9976059457
 30
0.0
 11
6406.8879225971
 21
5019.5664282337
 31
0.0
  0
LINE
  5
BF
330
1F
100
AcDbEntity
  8
0
  6
Continuous
 62
     7
370
    25
100
AcDbLine
 10
6406.8879225971
 20
5019.5664282337
 30
0.0
 11
6406.4835987451
 21
5019.5664282337
 31
0.0
  0
LINE
  5
C0
330
1F
100
AcDbEntity
  8
0
  6
Continuous
 62
     7
370
    25
100
AcDbLine
 10
6406.4835987451
 20
5019.5664282337
 30
0.0
 11
6406.4835987451
 21
5017.9976059457
 31
0.0
  0
LINE
  5
C1
330
1F
100
AcDbEntity
  8
0
  6
Continuous
 62
     7
370
    25
100
AcDbLine
 10
6406.4835987451
 20
5017.9976059457
 30
0.0
 11
6405.9456665891
 21
5017.9976059457
 31
0.0
  0
LINE
  5
C2
330
1F
100
AcDbEntity
  8
0
  6
Continuous
 62
     7
370
    25
100
AcDbLine
 10
6405.9456665891
 20
5017.9976059457
 30
0.0
 11
6405.9456665891
 21
5019.5664282337
 31
0.0
  0
LINE
  5
C3
330
1F
100
AcDbEntity
  8
0
  6
Continuous
 62
     7
370
    25
100
AcDbLine
 10
6405.9456665891
 20
5019.5664282337
 30
0.0
 11
6404.8920760171
 21
5020.3665931417
 31
0.0
  0
LINE
  5
C4
330
1F
100
AcDbEntity
  8
0
  6
Continuous
 62
     7
370
    25
100
AcDbLine
 10
6404.8920760171
 20
5020.3665931417
 30
0.0
 11
6404.8922637651
 21
5017.9976059457
 31
0.0
  0
LINE
  5
C5
330
1F
100
AcDbEntity
  8
0
  6
Continuous
 62
     7
370
    25
100
AcDbLine
 10
6404.8922637651
 20
5017.9976059457
 30
0.0
 11
6404.3944243411
 21
5017.9976059457
 31
0.0
  0
LINE
  5
C6
330
1F
100
AcDbEntity
  8
0
  6
Continuous
 62
     7
370
    25
100
AcDbLine
 10
6404.3944243411
 20
5017.9976059457
 30
0.0
 11
6404.3944755451
 21
5021.5485521417
 31
0.0
  0
ARC
  5
C7
330
1F
100
AcDbEntity
  8
0
  6
Continuous
 62
     7
370
    25
100
AcDbCircle
 10
6414.6799236879
 20
5021.4083875458
 30
0.0
 40
0.040625300444926
100
AcDbArc
 50
359.4734873866
 51
90.4549078156
  0
ARC
  5
C8
330
1F
100
AcDbEntity
  8
0
  6
Continuous
 62
     7
370
    25
100
AcDbCircle
 10
6414.6801214403
 20
5021.407409221
 30
0.0
 40
0.0403956781106822
100
AcDbArc
 50
179.1418451931
 51
269.2620058532
  0
ARC
  5
C9
330
1F
100
AcDbEntity
  8
0
  6
Continuous
 62
     7
370
    25
100
AcDbCircle
 10
6414.6798924009
 20
5021.4076721617
 30
0.0
 40
0.0406563112421105
100
AcDbArc
 50
269.5895323545
 51
0.4820724398
  0
ARC
  5
CA
330
1F
100
AcDbEntity
  8
0
  6
Continuous
 62
     7
370
    25
100
AcDbCircle
 10
6414.6801824818
 20
5021.4085598743
 30
0.0
 40
0.0404558685527792
100
AcDbArc
 50
90.8233543699
 51
180.7727945881
  0
LINE
  5
CB
330
1F
100
AcDbEntity
  8
0
  6
Continuous
 62
     7
370
    25
100
AcDbLine
 10
6411.3619403691
 20
5021.5485521417
 30
0.0
 11
6411.5458822051
 21
5021.5485521417
 31
0.0
  0
LINE
  5
CC
330
1F
100
AcDbEntity
  8
0
  6
Continuous
 62
     7
370
    25
100
AcDbLine
 10
6411.0741226851
 20
5019.5664282337
 30
0.0
 11
6411.0739520051
 21
5017.9976059457
 31
0.0
  0
LINE
  5
CD
330
1F
100
AcDbEntity
  8
0
  6
Continuous
 62
     7
370
    25
100
AcDbLine
 10
6411.0739520051
 20
5017.9976059457
 30
0.0
 11
6410.6074835651
 21
5017.9976059457
 31
0.0
  0
LINE
  5
CE
330
1F
100
AcDbEntity
  8
0
  6
Continuous
 62
     7
370
    25
100
AcDbLine
 10
6410.6074835651
 20
5017.9976059457
 30
0.0
 11
6410.6074835651
 21
5019.5664282337
 31
0.0
  0
LINE
  5
CF
330
1F
100
AcDbEntity
  8
0
  6
Continuous
 62
     7
370
    25
100
AcDbLine
 10
6410.6074835651
 20
5019.5664282337
 30
0.0
 11
6410.4031796051
 21
5019.5664282337
 31
0.0
  0
LINE
  5
D0
330
1F
100
AcDbEntity
  8
0
  6
Continuous
 62
     7
370
    25
100
AcDbLine
 10
6410.4031796051
 20
5019.5664282337
 30
0.0
 11
6410.2385075411
 21
5020.0643871337
 31
0.0
  0
LINE
  5
D1
330
1F
100
AcDbEntity
  8
0
  6
Continuous
 62
     7
370
    25
100
AcDbLine
 10
6410.2385075411
 20
5020.0643871337
 30
0.0
 11
6410.6074835651
 21
5020.0643871337
 31
0.0
  0
LINE
  5
D2
330
1F
100
AcDbEntity
  8
0
  6
Continuous
 62
     7
370
    25
100
AcDbLine
 10
6411.0739520051
 20
5020.2465880337
 30
0.0
 11
6411.0739520051
 21
5020.0645066097
 31
0.0
  0
LINE
  5
D3
330
1F
100
AcDbEntity
  8
0
  6
Continuous
 62
     7
370
    25
100
AcDbLine
 10
6411.0739520051
 20
5020.0645066097
 30
0.0
 11
6411.8342289971
 21
5020.0645066097
 31
0.0
  0
LINE
  5
D4
330
1F
100
AcDbEntity
  8
0
  6
Continuous
 62
     7
370
    25
100
AcDbLine
 10
6411.5458822051
 20
5021.0694533817
 30
0.0
 11
6411.3619403691
 21
5021.0694533817
 31
0.0
  0
LWPOLYLINE
  5
D5
330
1F
100
AcDbEntity
  8
0
  6
Continuous
 62
     7
370
    25
100
AcDbPolyline
 90
        6
 70
   128
 43
0.0
 10
6411.3619403691
 20
5021.0694533817
 10
6411.2668817098
 20
5021.0510498107
 10
6411.1954470961
 20
5020.999008412
 10
6411.1442616642
 20
5020.9180831569
 10
6411.1099505506
 20
5020.8130280167
 10
6411.0739520051
 20
5020.2465880337
  0
ARC
  5
D6
330
1F
100
AcDbEntity
  8
0
  6
Continuous
 62
     7
370
    25
100
AcDbCircle
 10
6411.489431281
 20
5020.7276413014
 30
0.0
 40
0.8228495091328616
100
AcDbArc
 50
355.7646137428
 51
86.0661795539
  0
LINE
  5
D7
330
1F
100
AcDbEntity
  8
0
  6
Continuous
 62
     7
370
    25
100
AcDbLine
 10
6410.6074835651
 20
5020.0643871337
 30
0.0
 11
6410.6074835651
 21
5020.6733051017
 31
0.0
  0
ARC
  5
D8
330
1F
100
AcDbEntity
  8
0
  6
Continuous
 62
     7
370
    25
100
AcDbCircle
 10
6411.4069349793
 20
5020.7469753493
 30
0.0
 40
0.8028386320802562
100
AcDbArc
 50
93.2127910273
 51
185.2649938918
  0
LINE
  5
D9
330
1F
100
AcDbEntity
  8
0
  6
Continuous
 62
     7
370
    25
100
AcDbLine
 10
6412.3100336331
 20
5020.6668704657
 30
0.0
 11
6412.3100336331
 21
5017.9976059457
 31
0.0
  0
LINE
  5
DA
330
1F
100
AcDbEntity
  8
0
  6
Continuous
 62
     7
370
    25
100
AcDbLine
 10
6412.3100336331
 20
5017.9976059457
 30
0.0
 11
6411.8342289971
 21
5017.9976059457
 31
0.0
  0
LWPOLYLINE
  5
DB
330
1F
100
AcDbEntity
  8
0
  6
Continuous
 62
     7
370
    25
100
AcDbPolyline
 90
        6
 70
   128
 43
0.0
 10
6411.8342289971
 20
5020.2510427817
 10
6411.7981856481
 20
5020.8154986097
 10
6411.763831831
 20
5020.9197776892
 10
6411.7125826942
 20
5020.9999780877
 10
6411.6410591735
 20
5021.0514274402
 10
6411.5458822051
 20
5021.0694533817
  0
LINE
  5
DC
330
1F
100
AcDbEntity
  8
0
  6
Continuous
 62
     7
370
    25
100
AcDbLine
 10
6411.8342289971
 20
5019.5664282337
 30
0.0
 11
6411.0741226851
 21
5019.5664282337
 31
0.0
  0
LINE
  5
DD
330
1F
100
AcDbEntity
  8
0
  6
Continuous
 62
     7
370
    25
100
AcDbLine
 10
6411.8342289971
 20
5020.0645066097
 30
0.0
 11
6411.8342289971
 21
5020.2510427817
 31
0.0
  0
LINE
  5
DE
330
1F
100
AcDbEntity
  8
0
  6
Continuous
 62
     7
370
    25
100
AcDbLine
 10
6411.8342289971
 20
5017.9976059457
 30
0.0
 11
6411.8342289971
 21
5019.5664282337
 31
0.0
  0
LINE
  5
DF
330
1F
100
AcDbEntity
  8
0
  6
Continuous
 62
     7
370
    25
100
AcDbLine
 10
6416.4001067451
 20
5022.6480556337
 30
0.0
 11
6416.4575405651
 21
5022.6480556337
 31
0.0
  0
LWPOLYLINE
  5
E0
330
1F
100
AcDbEntity
  8
0
  6
Continuous
 62
     7
370
    25
100
AcDbPolyline
 90
        3
 70
   128
 43
0.0
 10
6416.5947843531
 20
5022.4875993657
 10
6416.6110460269
 20
5022.5261709594
 10
6416.6148904571
 20
5022.5605821337
  0
LINE
  5
E1
330
1F
100
AcDbEntity
  8
0
  6
Continuous
 62
     7
370
    25
100
AcDbLine
 10
6416.5977883211
 20
5022.2325351737
 30
0.0
 11
6416.6609911251
 21
5022.2325351737
 31
0.0
  0
LINE
  5
E2
330
1F
100
AcDbEntity
  8
0
  6
Continuous
 62
     7
370
    25
100
AcDbLine
 10
6416.4879045371
 20
5022.4210683017
 30
0.0
 11
6416.5977883211
 21
5022.2325351737
 31
0.0
  0
ARC
  5
E3
330
1F
100
AcDbEntity
  8
0
  6
Continuous
 62
     7
370
    25
100
AcDbCircle
 10
6416.4923039168
 20
5022.568632716
 30
0.0
 40
0.1228506073095153
100
AcDbArc
 50
356.2426301914
 51
48.4586055758
  0
LINE
  5
E4
330
1F
100
AcDbEntity
  8
0
  6
Continuous
 62
     7
370
    25
100
AcDbLine
 10
6416.4586329171
 20
5022.4627995617
 30
0.0
 11
6416.4001067451
 21
5022.4627995617
 31
0.0
  0
LWPOLYLINE
  5
E5
330
1F
100
AcDbEntity
  8
0
  6
Continuous
 62
     7
370
    25
100
AcDbPolyline
 90
        3
 70
   128
 43
0.0
 10
6416.5334248931
 20
5022.4870531897
 10
6416.4966359961
 20
5022.4674858119
 10
6416.4586329171
 20
5022.4627995617
  0
LWPOLYLINE
  5
E6
330
1F
100
AcDbEntity
  8
0
  6
Continuous
 62
     7
370
    25
100
AcDbPolyline
 90
        3
 70
   128
 43
0.0
 10
6416.5605118091
 20
5022.5581072737
 10
6416.5520668095
 20
5022.5128176345
 10
6416.5334248931
 20
5022.4870531897
  0
ARC
  5
E7
330
1F
100
AcDbEntity
  8
0
  6
Continuous
 62
     7
370
    25
100
AcDbCircle
 10
6416.4723955159
 20
5022.5611473287
 30
0.0
 40
0.0881687192678784
100
AcDbArc
 50
358.0240515102
 51
99.6996426863
  0
LINE
  5
E8
330
1F
100
AcDbEntity
  8
0
  6
Continuous
 62
     7
370
    25
100
AcDbLine
 10
6416.4001067451
 20
5022.4210683017
 30
0.0
 11
6416.4879045371
 21
5022.4210683017
 31
0.0
  0
LINE
  5
E9
330
1F
100
AcDbEntity
  8
0
  6
Continuous
 62
     7
370
    25
100
AcDbLine
 10
6416.6609911251
 20
5022.2325351737
 30
0.0
 11
6416.5371457171
 21
5022.4381704377
 31
0.0
  0
LINE
  5
EA
330
1F
100
AcDbEntity
  8
0
  6
Continuous
 62
     7
370
    25
100
AcDbLine
 10
6416.4001067451
 20
5022.2325351737
 30
0.0
 11
6416.4001067451
 21
5022.4210683017
 31
0.0
  0
LINE
  5
EB
330
1F
100
AcDbEntity
  8
0
  6
Continuous
 62
     7
370
    25
100
AcDbLine
 10
6416.3473154211
 20
5022.2325351737
 30
0.0
 11
6416.4001067451
 21
5022.2325351737
 31
0.0
  0
LWPOLYLINE
  5
EC
330
1F
100
AcDbEntity
  8
0
  6
Continuous
 62
     7
370
    25
100
AcDbPolyline
 90
        3
 70
   128
 43
0.0
 10
6416.5737736451
 20
5022.6605835457
 10
6416.5169016162
 20
5022.6867564286
 10
6416.4575405651
 20
5022.6930468817
  0
LINE
  5
ED
330
1F
100
AcDbEntity
  8
0
  6
Continuous
 62
     7
370
    25
100
AcDbLine
 10
6416.4001067451
 20
5022.4627995617
 30
0.0
 11
6416.4001067451
 21
5022.6480556337
 31
0.0
  0
LWPOLYLINE
  5
EE
330
1F
100
AcDbEntity
  8
0
  6
Continuous
 62
     7
370
    25
100
AcDbPolyline
 90
        3
 70
   128
 43
0.0
 10
6416.5371457171
 20
5022.4381704377
 10
6416.5737226082
 20
5022.4624612964
 10
6416.5947843531
 20
5022.4875993657
  0
LINE
  5
EF
330
1F
100
AcDbEntity
  8
0
  6
Continuous
 62
     7
370
    25
100
AcDbLine
 10
6416.3473154211
 20
5022.6930468817
 30
0.0
 11
6416.3473154211
 21
5022.2325351737
 31
0.0
  0
LINE
  5
F0
330
1F
100
AcDbEntity
  8
0
  6
Continuous
 62
     7
370
    25
100
AcDbLine
 10
6416.4575405651
 20
5022.6930468817
 30
0.0
 11
6416.3473154211
 21
5022.6930468817
 31
0.0
  0
LINE
  5
F1
330
1F
100
AcDbEntity
  8
0
  6
Continuous
 62
     7
370
    25
100
AcDbLine
 10
6408.6255303371
 20
5021.4867830497
 30
0.0
 11
6409.1320232371
 21
5021.4867830497
 31
0.0
  0
LINE
  5
F2
330
1F
100
AcDbEntity
  8
0
  6
Continuous
 62
     7
370
    25
100
AcDbLine
 10
6409.1320232371
 20
5021.4867830497
 30
0.0
 11
6409.1320232371
 21
5018.4466138217
 31
0.0
  0
LINE
  5
F3
330
1F
100
AcDbEntity
  8
0
  6
Continuous
 62
     7
370
    25
100
AcDbLine
 10
6410.2031426451
 20
5018.4466138217
 30
0.0
 11
6410.2031426451
 21
5017.9976059457
 31
0.0
  0
LINE
  5
F4
330
1F
100
AcDbEntity
  8
0
  6
Continuous
 62
     7
370
    25
100
AcDbLine
 10
6410.2031426451
 20
5017.9976059457
 30
0.0
 11
6408.6255303371
 21
5017.9976059457
 31
0.0
  0
LINE
  5
F5
330
1F
100
AcDbEntity
  8
0
  6
Continuous
 62
     7
370
    25
100
AcDbLine
 10
6408.6255303371
 20
5017.9976059457
 30
0.0
 11
6408.6255303371
 21
5021.4867830497
 31
0.0
  0
LINE
  5
F6
330
1F
100
AcDbEntity
  8
0
  6
Continuous
 62
     7
370
    25
100
AcDbLine
 10
6409.1320232371
 20
5018.4466138217
 30
0.0
 11
6410.2031426451
 21
5018.4466138217
 31
0.0
  0
ARC
  5
F7
330
1F
100
AcDbEntity
  8
0
  6
Continuous
 62
     7
370
    25
100
AcDbCircle
 10
6401.2529766144
 20
5021.2270426319
 30
0.0
 40
1.20583958006587
100
AcDbArc
 50
172.9248131026
 51
227.0791497103
  0
ARC
  5
F8
330
1F
100
AcDbEntity
  8
0
  6
Continuous
 62
     7
370
    25
100
AcDbCircle
 10
6401.1002844048
 20
5021.3062511113
 30
0.0
 40
1.046264059108959
100
AcDbArc
 50
85.2726859794
 51
176.2012705158
  0
LINE
  5
F9
330
1F
100
AcDbEntity
  8
0
  6
Continuous
 62
     7
370
    25
100
AcDbLine
 10
6412.3100507011
 20
5022.3490072057
 30
0.0
 11
6401.1865108091
 21
5022.3489560017
 31
0.0
  0
LINE
  5
FA
330
1F
100
AcDbEntity
  8
0
  6
Continuous
 62
     7
370
    25
100
AcDbLine
 10
6412.3100507011
 20
5021.8288428377
 30
0.0
 11
6412.3100507011
 21
5022.3490072057
 31
0.0
  0
LINE
  5
FB
330
1F
100
AcDbEntity
  8
0
  6
Continuous
 62
     7
370
    25
100
AcDbLine
 10
6401.2208857611
 20
5021.8288428377
 30
0.0
 11
6412.3100507011
 21
5021.8288428377
 31
0.0
  0
ARC
  5
FC
330
1F
100
AcDbEntity
  8
0
  6
Continuous
 62
     7
370
    25
100
AcDbCircle
 10
6401.1338281774
 20
5021.3040245785
 30
0.0
 40
0.531989875908697
100
AcDbArc
 50
80.58146023
 51
176.1189601507
  0
ARC
  5
FD
330
1F
100
AcDbEntity
  8
0
  6
Continuous
 62
     7
370
    25
100
AcDbCircle
 10
6401.742357565
 20
5021.3334052729
 30
0.0
 40
1.13931854219643
100
AcDbArc
 50
179.6667238132
 51
236.0046512682
  0
LINE
  5
FE
330
1F
100
AcDbEntity
  8
0
  6
Continuous
 62
     7
370
    25
100
AcDbLine
 10
6401.5763268611
 20
5019.8510029977
 30
0.0
 11
6401.1053354011
 21
5020.3888156777
 31
0.0
  0
ARC
  5
FF
330
1F
100
AcDbEntity
  8
0
  6
Continuous
 62
     7
370
    25
100
AcDbCircle
 10
6400.711456594
 20
5019.0163334651
 30
0.0
 40
1.201945842196313
100
AcDbArc
 50
350.3765819411
 51
43.9819641062
  0
ARC
  5
100
330
1F
100
AcDbEntity
  8
0
  6
Continuous
 62
     7
370
    25
100
AcDbCircle
 10
6401.0236659564
 20
5018.8676214159
 30
0.0
 40
0.874383144902486
100
AcDbArc
 50
264.2708151754
 51
356.5761829376
  0
LINE
  5
101
330
1F
100
AcDbEntity
  8
0
  6
Continuous
 62
     7
370
    25
100
AcDbLine
 10
6399.8741181531
 20
5017.9976059457
 30
0.0
 11
6400.9363792691
 21
5017.9976059457
 31
0.0
  0
LINE
  5
102
330
1F
100
AcDbEntity
  8
0
  6
Continuous
 62
     7
370
    25
100
AcDbLine
 10
6399.8741181531
 20
5018.5265091297
 30
0.0
 11
6399.8741181531
 21
5017.9976059457
 31
0.0
  0
LINE
  5
103
330
1F
100
AcDbEntity
  8
0
  6
Continuous
 62
     7
370
    25
100
AcDbLine
 10
6400.8919512651
 20
5018.5265091297
 30
0.0
 11
6399.8741181531
 21
5018.5265091297
 31
0.0
  0
ARC
  5
104
330
1F
100
AcDbEntity
  8
0
  6
Continuous
 62
     7
370
    25
100
AcDbCircle
 10
6400.9439177676
 20
5018.932631753
 30
0.0
 40
0.4094338805494615
100
AcDbArc
 50
262.7081902206
 51
358.0377469164
  0
ARC
  5
105
330
1F
100
AcDbEntity
  8
0
  6
Continuous
 62
     7
370
    25
100
AcDbCircle
 10
6400.6398237963
 20
5019.0388028617
 30
0.0
 40
0.7233430737312695
100
AcDbArc
 50
350.4353815616
 51
53.1167566778
  0
LINE
  5
106
330
1F
100
AcDbEntity
  8
0
  6
Continuous
 62
     7
370
    25
100
AcDbLine
 10
6400.4318150531
 20
5020.3440121777
 30
0.0
 11
6401.0739644171
 21
5019.6173762137
 31
0.0
  0
LINE
  5
107
330
1F
100
AcDbEntity
  8
0
  6
Continuous
 62
     7
370
    25
100
AcDbLine
 10
6403.0419901571
 20
5021.5485521417
 30
0.0
 11
6403.2259490611
 21
5021.5485521417
 31
0.0
  0
ARC
  5
108
330
1F
100
AcDbEntity
  8
0
  6
Continuous
 62
     7
370
    25
100
AcDbCircle
 10
6403.1694868827
 20
5020.7276950879
 30
0.0
 40
0.8227966215204697
100
AcDbArc
 50
355.760585288
 51
86.0651407502
  0
LINE
  5
109
330
1F
100
AcDbEntity
  8
0
  6
Continuous
 62
     7
370
    25
100
AcDbLine
 10
6403.9900322171
 20
5020.6668704657
 30
0.0
 11
6403.9900322171
 21
5017.9976059457
 31
0.0
  0
LINE
  5
10A
330
1F
100
AcDbEntity
  8
0
  6
Continuous
 62
     7
370
    25
100
AcDbLine
 10
6403.9900322171
 20
5017.9976059457
 30
0.0
 11
6403.5142958531
 21
5017.9976059457
 31
0.0
  0
LINE
  5
10B
330
1F
100
AcDbEntity
  8
0
  6
Continuous
 62
     7
370
    25
100
AcDbLine
 10
6403.5142958531
 20
5017.9976059457
 30
0.0
 11
6403.5142958531
 21
5019.5664282337
 31
0.0
  0
LINE
  5
10C
330
1F
100
AcDbEntity
  8
0
  6
Continuous
 62
     7
370
    25
100
AcDbLine
 10
6403.5142958531
 20
5019.5664282337
 30
0.0
 11
6402.7541724731
 21
5019.5664282337
 31
0.0
  0
LINE
  5
10D
330
1F
100
AcDbEntity
  8
0
  6
Continuous
 62
     7
370
    25
100
AcDbLine
 10
6402.7541724731
 20
5019.5664282337
 30
0.0
 11
6402.7540017931
 21
5017.9976059457
 31
0.0
  0
LINE
  5
10E
330
1F
100
AcDbEntity
  8
0
  6
Continuous
 62
     7
370
    25
100
AcDbLine
 10
6402.7540017931
 20
5017.9976059457
 30
0.0
 11
6402.2875333531
 21
5017.9976059457
 31
0.0
  0
LINE
  5
10F
330
1F
100
AcDbEntity
  8
0
  6
Continuous
 62
     7
370
    25
100
AcDbLine
 10
6402.2875333531
 20
5017.9976059457
 30
0.0
 11
6402.2875333531
 21
5019.5664282337
 31
0.0
  0
LINE
  5
110
330
1F
100
AcDbEntity
  8
0
  6
Continuous
 62
     7
370
    25
100
AcDbLine
 10
6402.2875333531
 20
5019.5664282337
 30
0.0
 11
6402.0831781891
 21
5019.5664282337
 31
0.0
  0
LINE
  5
111
330
1F
100
AcDbEntity
  8
0
  6
Continuous
 62
     7
370
    25
100
AcDbLine
 10
6402.0831781891
 20
5019.5664282337
 30
0.0
 11
6401.9184890571
 21
5020.0643871337
 31
0.0
  0
LINE
  5
112
330
1F
100
AcDbEntity
  8
0
  6
Continuous
 62
     7
370
    25
100
AcDbLine
 10
6401.9184890571
 20
5020.0643871337
 30
0.0
 11
6402.2875333531
 21
5020.0643871337
 31
0.0
  0
LINE
  5
113
330
1F
100
AcDbEntity
  8
0
  6
Continuous
 62
     7
370
    25
100
AcDbLine
 10
6402.7540017931
 20
5020.2465880337
 30
0.0
 11
6402.7540017931
 21
5020.0645066097
 31
0.0
  0
LINE
  5
114
330
1F
100
AcDbEntity
  8
0
  6
Continuous
 62
     7
370
    25
100
AcDbLine
 10
6403.5142958531
 20
5020.0645066097
 30
0.0
 11
6403.5142958531
 21
5020.2510427817
 31
0.0
  0
LINE
  5
115
330
1F
100
AcDbEntity
  8
0
  6
Continuous
 62
     7
370
    25
100
AcDbLine
 10
6403.2259490611
 20
5021.0694533817
 30
0.0
 11
6403.0419901571
 21
5021.0694533817
 31
0.0
  0
LWPOLYLINE
  5
116
330
1F
100
AcDbEntity
  8
0
  6
Continuous
 62
     7
370
    25
100
AcDbPolyline
 90
        6
 70
   128
 43
0.0
 10
6403.0419901571
 20
5021.0694533817
 10
6402.9469314978
 20
5021.0510498107
 10
6402.8754968841
 20
5020.999008412
 10
6402.8243114522
 20
5020.9180831569
 10
6402.7900003386
 20
5020.8130280167
 10
6402.7540017931
 20
5020.2465880337
  0
LINE
  5
117
330
1F
100
AcDbEntity
  8
0
  6
Continuous
 62
     7
370
    25
100
AcDbLine
 10
6402.2875333531
 20
5020.0643871337
 30
0.0
 11
6402.2875333531
 21
5020.6733051017
 31
0.0
  0
ARC
  5
118
330
1F
100
AcDbEntity
  8
0
  6
Continuous
 62
     7
370
    25
100
AcDbCircle
 10
6403.0869555387
 20
5020.7470005442
 30
0.0
 40
0.8028118391612535
100
AcDbArc
 50
93.210809065
 51
185.2669758543
  0
LINE
  5
119
330
1F
100
AcDbEntity
  8
0
  6
Continuous
 62
     7
370
    25
100
AcDbLine
 10
6402.7540017931
 20
5020.0645066097
 30
0.0
 11
6403.5142958531
 21
5020.0645066097
 31
0.0
  0
LWPOLYLINE
  5
11A
330
1F
100
AcDbEntity
  8
0
  6
Continuous
 62
     7
370
    25
100
AcDbPolyline
 90
        6
 70
   128
 43
0.0
 10
6403.5142958531
 20
5020.2510427817
 10
6403.4782525041
 20
5020.8154986097
 10
6403.443898687
 20
5020.9197776892
 10
6403.3926495502
 20
5020.9999780877
 10
6403.3211260295
 20
5021.0514274402
 10
6403.2259490611
 20
5021.0694533817
  0
LWPOLYLINE
  5
11B
330
1F
100
AcDbEntity
  8
0
  6
Continuous
 62
     7
370
    25
100
AcDbPolyline
 90
        3
 70
   128
 43
0.0
 10
6413.6351760851
 20
5021.0279952097
 10
6413.2931198221
 20
5021.1721610456
 10
6413.0199941611
 20
5021.2210513577
  0
ARC
  5
11C
330
1F
100
AcDbEntity
  8
0
  6
Continuous
 62
     7
370
    25
100
AcDbCircle
 10
6414.4566825613
 20
5020.9246659175
 30
0.0
 40
0.0414237949234861
100
AcDbArc
 50
268.3853714855
 51
352.7562080617
  0
LINE
  5
11D
330
1F
100
AcDbEntity
  8
0
  6
Continuous
 62
     7
370
    25
100
AcDbLine
 10
6414.3861510171
 20
5020.8832585697
 30
0.0
 11
6414.4555153691
 21
5020.8832585697
 31
0.0
  0
ARC
  5
11E
330
1F
100
AcDbEntity
  8
0
  6
Continuous
 62
     7
370
    25
100
AcDbCircle
 10
6414.4228035445
 20
5021.1645658688
 30
0.0
 40
0.3958942559824836
100
AcDbArc
 50
262.9261599314
 51
310.8567745661
  0
LWPOLYLINE
  5
11F
330
1F
100
AcDbEntity
  8
0
  6
Continuous
 62
     7
370
    25
100
AcDbPolyline
 90
        3
 70
   128
 43
0.0
 10
6413.7889758331
 20
5022.2796257857
 10
6413.4749851057
 20
5022.5745233843
 10
6413.1616756291
 20
5022.7410933017
  0
LWPOLYLINE
  5
120
330
1F
100
AcDbEntity
  8
0
  6
Continuous
 62
     7
370
    25
100
AcDbPolyline
 90
        3
 70
   128
 43
0.0
 10
6414.9075272131
 20
5020.4619520577
 10
6415.1094369887
 20
5020.4596037675
 10
6415.2659040091
 20
5020.4949445017
  0
LWPOLYLINE
  5
121
330
1F
100
AcDbEntity
  8
0
  6
Continuous
 62
     7
370
    25
100
AcDbPolyline
 90
        3
 70
   128
 43
0.0
 10
6414.8137044171
 20
5020.1483104897
 10
6414.8633801904
 20
5020.3271564196
 10
6414.9075272131
 20
5020.4619520577
  0
LWPOLYLINE
  5
122
330
1F
100
AcDbEntity
  8
0
  6
Continuous
 62
     7
370
    25
100
AcDbPolyline
 90
        3
 70
   128
 43
0.0
 10
6415.4649510251
 20
5020.2026208657
 10
6415.0922867619
 20
5020.1132756195
 10
6414.8137044171
 20
5020.1483104897
  0
LWPOLYLINE
  5
123
330
1F
100
AcDbEntity
  8
0
  6
Continuous
 62
     7
370
    25
100
AcDbPolyline
 90
        3
 70
   128
 43
0.0
 10
6414.7328874371
 20
5019.7449083097
 10
6415.262841881
 20
5019.684728023
 10
6415.6507020691
 20
5019.7816898497
  0
LWPOLYLINE
  5
124
330
1F
100
AcDbEntity
  8
0
  6
Continuous
 62
     7
370
    25
100
AcDbPolyline
 90
        3
 70
   128
 43
0.0
 10
6414.6891080171
 20
5019.3673129457
 10
6414.7105980065
 20
5019.581779714
 10
6414.7328874371
 20
5019.7449083097
  0
LWPOLYLINE
  5
125
330
1F
100
AcDbEntity
  8
0
  6
Continuous
 62
     7
370
    25
100
AcDbPolyline
 90
        3
 70
   128
 43
0.0
 10
6415.7319286811
 20
5019.3933245777
 10
6415.1193834643
 20
5019.2798085835
 10
6414.6891080171
 20
5019.3673129457
  0
ARC
  5
126
330
1F
100
AcDbEntity
  8
0
  6
Continuous
 62
     7
370
    25
100
AcDbCircle
 10
6414.8871555358
 20
5021.2148848252
 30
0.0
 40
0.7530310384763189
100
AcDbArc
 50
353.6708779483
 51
43.2382063454
  0
LWPOLYLINE
  5
127
330
1F
100
AcDbEntity
  8
0
  6
Continuous
 62
     7
370
    25
100
AcDbPolyline
 90
        3
 70
   128
 43
0.0
 10
6415.5443342931
 20
5021.1788421937
 10
6415.0190595004
 20
5021.0598589319
 10
6414.6817858451
 20
5020.8651323537
  0
LWPOLYLINE
  5
128
330
1F
100
AcDbEntity
  8
0
  6
Continuous
 62
     7
370
    25
100
AcDbPolyline
 90
        7
 70
   128
 43
0.0
 10
6415.6079296611
 20
5021.1717419057
 10
6415.6122673332
 20
5021.2400012332
 10
6415.5883789782
 20
5021.310100408
 10
6415.5408340196
 20
5021.3808945112
 10
6415.3019537586
 20
5021.5859972002
 10
6415.0146633157
 20
5021.7561371581
 10
6414.8023371291
 20
5021.8604015697
  0
LWPOLYLINE
  5
129
330
1F
100
AcDbEntity
  8
0
  6
Continuous
 62
     7
370
    25
100
AcDbPolyline
 90
        3
 70
   128
 43
0.0
 10
6414.7600938291
 20
5022.2736178497
 10
6414.809347747
 20
5022.2522699775
 10
6414.8536094011
 20
5022.2313574817
  0
LINE
  5
12A
330
1F
100
AcDbEntity
  8
0
  6
Continuous
 62
     7
370
    25
100
AcDbLine
 10
6413.1496426891
 20
5021.7669201337
 30
0.0
 11
6413.1858268491
 21
5021.8182265417
 31
0.0
  0
ARC
  5
12B
330
1F
100
AcDbEntity
  8
0
  6
Continuous
 62
     7
370
    25
100
AcDbCircle
 10
6414.6794351483
 20
5021.4072585505
 30
0.0
 40
0.1017747304494007
100
AcDbArc
 50
269.5649649027
 51
0.4350350979
  0
LWPOLYLINE
  5
12C
330
1F
100
AcDbEntity
  8
0
  6
Continuous
 62
     7
370
    25
100
AcDbPolyline
 90
        3
 70
   128
 43
0.0
 10
6414.0000899251
 20
5017.6652749177
 10
6413.9933359563
 20
5019.3742780803
 10
6413.7829678971
 20
5020.7053246697
  0
ARC
  5
12D
330
1F
100
AcDbEntity
  8
0
  6
Continuous
 62
     7
370
    25
100
AcDbCircle
 10
6408.8222863673
 20
5018.753455311
 30
0.0
 40
5.342999785146583
100
AcDbArc
 50
348.1488095401
 51
24.1278438672
  0
LWPOLYLINE
  5
12E
330
1F
100
AcDbEntity
  8
0
  6
Continuous
 62
     7
370
    25
100
AcDbPolyline
 90
        3
 70
   128
 43
0.0
 10
6414.8455362371
 20
5020.8004275657
 10
6414.714039751
 20
5020.5813710839
 10
6414.6515242811
 20
5020.3886279297
  0
ARC
  5
12F
330
1F
100
AcDbEntity
  8
0
  6
Continuous
 62
     7
370
    25
100
AcDbCircle
 10
6415.580370596
 20
5020.1515730385
 30
0.0
 40
0.9818524073883311
100
AcDbArc
 50
86.7755801911
 51
136.2625112917
  0
LWPOLYLINE
  5
130
330
1F
100
AcDbEntity
  8
0
  6
Continuous
 62
     7
370
    25
100
AcDbPolyline
 90
        3
 70
   128
 43
0.0
 10
6415.6507020691
 20
5019.7816898497
 10
6415.7060254289
 20
5019.5660458166
 10
6415.7319286811
 20
5019.3933245777
  0
LWPOLYLINE
  5
131
330
1F
100
AcDbEntity
  8
0
  6
Continuous
 62
     7
370
    25
100
AcDbPolyline
 90
        3
 70
   128
 43
0.0
 10
6415.2659040091
 20
5020.4949445017
 10
6415.3830382489
 20
5020.3348279126
 10
6415.4649510251
 20
5020.2026208657
  0
ARC
  5
132
330
1F
100
AcDbEntity
  8
0
  6
Continuous
 62
     7
370
    25
100
AcDbCircle
 10
6412.5481167449
 20
5020.464077619
 30
0.0
 40
2.358231312581699
100
AcDbArc
 50
52.458028159
 51
74.9194014301
  0
ARC
  5
133
330
1F
100
AcDbEntity
  8
0
  6
Continuous
 62
     7
370
    25
100
AcDbCircle
 10
6414.3043656233
 20
5021.0380483171
 30
0.0
 40
1.281080829493277
100
AcDbArc
 50
19.6266224935
 51
91.2002874462
  0
LWPOLYLINE
  5
134
330
1F
100
AcDbEntity
  8
0
  6
Continuous
 62
     7
370
    25
100
AcDbPolyline
 90
        3
 70
   128
 43
0.0
 10
6414.5520007731
 20
5022.3399782337
 10
6414.9475542368
 20
5022.5976641011
 10
6415.2637705091
 20
5022.7049262097
  0
LWPOLYLINE
  5
135
330
1F
100
AcDbEntity
  8
0
  6
Continuous
 62
     7
370
    25
100
AcDbPolyline
 90
       13
 70
   128
 43
0.0
 10
6414.8023371291
 20
5021.8604015697
 10
6414.6116420322
 20
5021.7353702024
 10
6414.4305688869
 20
5021.6792002145
 10
6414.2640992825
 20
5021.6759159579
 10
6414.1172148081
 20
5021.7095417847
 10
6413.9445074413
 20
5021.7942402013
 10
6413.8438880561
 20
5021.8721232854
 10
6413.8258653763
 20
5021.8916597616
 10
6413.8251699473
 20
5021.8929664512
 10
6413.8250786778
 20
5021.8933816805
 10
6413.8250865467
 20
5021.8934838509
 10
6413.8251136368
 20
5021.8935676608
 10
6413.8251599931
 20
5021.8936329657
  0
ARC
  5
136
330
1F
100
AcDbEntity
  8
0
  6
Continuous
 62
     7
370
    25
100
AcDbCircle
 10
6414.4345658598
 20
5020.2204997519
 30
0.0
 40
1.780660063492049
100
AcDbArc
 50
110.0131581637
 51
145.3941089211
  0
LWPOLYLINE
  5
137
330
1F
100
AcDbEntity
  8
0
  6
Continuous
 62
     7
370
    25
100
AcDbPolyline
 90
        3
 70
   128
 43
0.0
 10
6412.9689437731
 20
5021.2317871297
 10
6413.6691395349
 20
5021.5216345906
 10
6414.3167354611
 20
5021.5890203697
  0
ARC
  5
138
330
1F
100
AcDbEntity
  8
0
  6
Continuous
 62
     7
370
    25
100
AcDbCircle
 10
6414.4186747926
 20
5019.6981285943
 30
0.0
 40
1.893637593017291
100
AcDbArc
 50
51.0953182637
 51
93.0858693192
  0
LWPOLYLINE
  5
139
330
1F
100
AcDbEntity
  8
0
  6
Continuous
 62
     7
370
    25
100
AcDbPolyline
 90
        3
 70
   128
 43
0.0
 10
6414.8536094011
 20
5022.2313574817
 10
6415.26605684
 20
5022.5465067096
 10
6415.6347946931
 20
5022.6898039617
  0
LWPOLYLINE
  5
13A
330
1F
100
AcDbEntity
  8
0
  6
Continuous
 62
     7
370
    25
100
AcDbPolyline
 90
        3
 70
   128
 43
0.0
 10
6415.3482400411
 20
5021.8755067497
 10
6415.3851119939
 20
5021.8251154815
 10
6415.4085071491
 20
5021.7849951457
  0
LWPOLYLINE
  5
13B
330
1F
100
AcDbEntity
  8
0
  6
Continuous
 62
     7
370
    25
100
AcDbPolyline
 90
        3
 70
   128
 43
0.0
 10
6415.4085071491
 20
5021.7849951457
 10
6415.6744896134
 20
5022.3628293309
 10
6415.7402920011
 20
5022.8013774777
  0
LWPOLYLINE
  5
13C
330
1F
100
AcDbEntity
  8
0
  6
Continuous
 62
     7
370
    25
100
AcDbPolyline
 90
        3
 70
   128
 43
0.0
 10
6415.7402920011
 20
5022.8013774777
 10
6415.1410879677
 20
5022.5778914146
 10
6414.7600938291
 20
5022.2736178497
  0
LWPOLYLINE
  5
13D
330
1F
100
AcDbEntity
  8
0
  6
Continuous
 62
     7
370
    25
100
AcDbPolyline
 90
        3
 70
   128
 43
0.0
 10
6413.1858268491
 20
5021.8182265417
 10
6412.9965287535
 20
5022.3045868122
 10
6412.9535825731
 20
5022.7079131097
  0
LWPOLYLINE
  5
13E
330
1F
100
AcDbEntity
  8
0
  6
Continuous
 62
     7
370
    25
100
AcDbPolyline
 90
        3
 70
   128
 43
0.0
 10
6412.9535825731
 20
5022.7079131097
 10
6413.3699816129
 20
5022.47568018
 10
6413.6592590331
 20
5022.2192904057
  0
LWPOLYLINE
  5
13F
330
1F
100
AcDbEntity
  8
0
  6
Continuous
 62
     7
370
    25
100
AcDbPolyline
 90
        3
 70
   128
 43
0.0
 10
6413.6592590331
 20
5022.2192904057
 10
6413.7140529824
 20
5022.2459242939
 10
6413.7587996091
 20
5022.2645718097
  0
LWPOLYLINE
  5
140
330
1F
100
AcDbEntity
  8
0
  6
Continuous
 62
     7
370
    25
100
AcDbPolyline
 90
        3
 70
   128
 43
0.0
 10
6413.7587996091
 20
5022.2645718097
 10
6413.2838456149
 20
5022.651871145
 10
6412.8751380451
 20
5022.7923314377
  0
LWPOLYLINE
  5
141
330
1F
100
AcDbEntity
  8
0
  6
Continuous
 62
     7
370
    25
100
AcDbPolyline
 90
        3
 70
   128
 43
0.0
 10
6412.8751380451
 20
5022.7923314377
 10
6412.9500519057
 20
5022.2331038369
 10
6413.1496426891
 20
5021.7669201337
  0
ARC
  5
142
330
1F
100
AcDbEntity
  8
0
  6
Continuous
 62
     7
370
    25
100
AcDbCircle
 10
6414.6794387884
 20
5021.4087907449
 30
0.0
 40
0.1017709902901895
100
AcDbArc
 50
359.5724368734
 51
90.4371005011
  0
ARC
  5
143
330
1F
100
AcDbEntity
  8
0
  6
Continuous
 62
     7
370
    25
100
AcDbCircle
 10
6414.680231567
 20
5021.4094680682
 30
0.0
 40
0.1011028834273779
100
AcDbArc
 50
90.8892940892
 51
180.8142562229
  0
ARC
  5
144
330
1F
100
AcDbEntity
  8
0
  6
Continuous
 62
     7
370
    25
100
AcDbCircle
 10
6414.6799986136
 20
5021.4063516095
 30
0.0
 40
0.1008737061009182
100
AcDbArc
 50
179.0459010451
 51
269.2410155056
  0
ARC
  5
145
330
1F
100
AcDbEntity
  8
0
  6
Continuous
 62
     7
370
    25
100
AcDbCircle
 10
6413.9968997678
 20
5021.4048077687
 30
0.0
 40
0.1027471762576868
100
AcDbArc
 50
1.7978588787
 51
89.905691434
  0
ARC
  5
146
330
1F
100
AcDbEntity
  8
0
  6
Continuous
 62
     7
370
    25
100
AcDbCircle
 10
6413.9969757518
 20
5021.4050603744
 30
0.0
 40
0.1024944736579997
100
AcDbArc
 50
89.947935026
 51
178.3389815252
  0
ARC
  5
147
330
1F
100
AcDbEntity
  8
0
  6
Continuous
 62
     7
370
    25
100
AcDbCircle
 10
6413.9995576972
 20
5021.4105201059
 30
0.0
 40
0.1050628347172672
100
AcDbArc
 50
181.3573928956
 51
268.6426071044
  0
LWPOLYLINE
  5
148
330
1F
100
AcDbEntity
  8
0
  6
Continuous
 62
     7
370
    25
100
AcDbPolyline
 90
        3
 70
   128
 43
0.0
 10
6413.7829678971
 20
5020.7053246697
 10
6413.7542709776
 20
5020.501280873
 10
6413.6562721331
 20
5020.2589623337
  0
LWPOLYLINE
  5
149
330
1F
100
AcDbEntity
  8
0
  6
Continuous
 62
     7
370
    25
100
AcDbPolyline
 90
        3
 70
   128
 43
0.0
 10
6414.0513963331
 20
5017.6561606057
 10
6414.1736322325
 20
5017.637088
 10
6414.2625616291
 20
5017.6320776577
  0
LWPOLYLINE
  5
14A
330
1F
100
AcDbEntity
  8
0
  6
Continuous
 62
     7
370
    25
100
AcDbPolyline
 90
        3
 70
   128
 43
0.0
 10
6414.2625616291
 20
5017.6320776577
 10
6414.2407856007
 20
5018.3421302011
 10
6414.2865933731
 20
5018.8505280417
  0
LWPOLYLINE
  5
14B
330
1F
100
AcDbEntity
  8
0
  6
Continuous
 62
     7
370
    25
100
AcDbPolyline
 90
        3
 70
   128
 43
0.0
 10
6414.2865933731
 20
5018.8505280417
 10
6414.2979733913
 20
5018.1690293677
 10
6414.3137485611
 20
5017.6290736897
  0
LWPOLYLINE
  5
14C
330
1F
100
AcDbEntity
  8
0
  6
Continuous
 62
     7
370
    25
100
AcDbPolyline
 90
        3
 70
   128
 43
0.0
 10
6414.3137485611
 20
5017.6290736897
 10
6414.4497188862
 20
5017.6380478246
 10
6414.5308705891
 20
5017.6532078417
  0
LWPOLYLINE
  5
14D
330
1F
100
AcDbEntity
  8
0
  6
Continuous
 62
     7
370
    25
100
AcDbPolyline
 90
        6
 70
   128
 43
0.0
 10
6414.5308705891
 20
5017.6532078417
 10
6414.4792412053
 20
5018.983923738
 10
6414.5298247057
 20
5019.9987254847
 10
6414.6061781135
 20
5020.4000722675
 10
6414.7218646239
 20
5020.7095880209
 10
6414.8807645891
 20
5020.9255018697
  0
ARC
  5
14E
330
1F
100
AcDbEntity
  8
0
  6
Continuous
 62
     7
370
    25
100
AcDbCircle
 10
6413.9945955447
 20
5021.4104871638
 30
0.0
 40
0.1050295365633523
100
AcDbArc
 50
271.3493851142
 51
358.660152261
  0
ARC
  5
14F
330
1F
100
AcDbEntity
  8
0
  6
Continuous
 62
     7
370
    25
100
AcDbCircle
 10
6414.8655589686
 20
5022.5423153135
 30
0.0
 40
1.9842759177138
100
AcDbArc
 50
233.9738523729
 51
253.582059062
  0
LWPOLYLINE
  5
150
330
1F
100
AcDbEntity
  8
0
  6
Continuous
 62
     7
370
    25
100
AcDbPolyline
 90
        3
 70
   128
 43
0.0
 10
6414.6515242811
 20
5020.3886279297
 10
6414.5261340623
 20
5018.8658694003
 10
6414.5699904451
 20
5017.6623392217
  0
LWPOLYLINE
  5
151
330
1F
100
AcDbEntity
  8
0
  6
Continuous
 62
     7
370
    25
100
AcDbPolyline
 90
        3
 70
   128
 43
0.0
 10
6414.5699904451
 20
5017.6623392217
 10
6414.5799455142
 20
5017.6633242851
 10
6414.5888505851
 20
5017.6643361777
  0
ARC
  5
152
330
1F
100
AcDbEntity
  8
0
  6
Continuous
 62
     7
370
    25
100
AcDbCircle
 10
6414.2167172351
 20
5019.134452895
 30
0.0
 40
1.516484880441883
100
AcDbArc
 50
284.205004477
 51
352.346001513
  0
LWPOLYLINE
  5
153
330
1F
100
AcDbEntity
  8
0
  6
Continuous
 62
     7
370
    25
100
AcDbPolyline
 90
        3
 70
   128
 43
0.0
 10
6415.7196909251
 20
5018.9324715097
 10
6415.1161275966
 20
5018.8453016366
 10
6414.6693603411
 20
5018.9239204417
  0
LWPOLYLINE
  5
154
330
1F
100
AcDbEntity
  8
0
  6
Continuous
 62
     7
370
    25
100
AcDbPolyline
 90
        3
 70
   128
 43
0.0
 10
6414.6693603411
 20
5018.9239204417
 10
6414.6914975425
 20
5018.3554652411
 10
6414.7087874211
 20
5018.0422899697
  0
ARC
  5
155
330
1F
100
AcDbEntity
  8
0
  6
Continuous
 62
     7
370
    25
100
AcDbCircle
 10
6419.1338933256
 20
5019.0121375342
 30
0.0
 40
4.530139795327136
100
AcDbArc
 50
157.8482519865
 51
192.3620147793
  0
LWPOLYLINE
  5
156
330
1F
100
AcDbEntity
  8
0
  6
Continuous
 62
     7
370
    25
100
AcDbPolyline
 90
        3
 70
   128
 43
0.0
 10
6414.9381301371
 20
5020.7202762377
 10
6414.8898374714
 20
5020.7614738871
 10
6414.8455362371
 20
5020.8004275657
  0
LWPOLYLINE
  5
157
330
1F
100
AcDbEntity
  8
0
  6
Continuous
 62
     7
370
    25
100
AcDbPolyline
 90
        3
 70
   128
 43
0.0
 10
6414.8709675571
 20
5020.8303819057
 10
6414.9230605765
 20
5020.7844734993
 10
6414.9572462971
 20
5020.7551290937
  0
LWPOLYLINE
  5
158
330
1F
100
AcDbEntity
  8
0
  6
Continuous
 62
     7
370
    25
100
AcDbPolyline
 90
        3
 70
   128
 43
0.0
 10
6414.9572462971
 20
5020.7551290937
 10
6414.9899808094
 20
5020.8101043713
 10
6415.0164893251
 20
5020.8500783777
  0
ARC
  5
159
330
1F
100
AcDbEntity
  8
0
  6
Continuous
 62
     7
370
    25
100
AcDbCircle
 10
6413.7030984212
 20
5019.205324081
 30
0.0
 40
2.104806965768475
100
AcDbArc
 50
354.8366235852
 51
51.3914733794
  0
ARC
  5
15A
330
1F
100
AcDbEntity
  8
0
  6
Continuous
 62
     7
370
    25
100
AcDbCircle
 10
6414.2880798894
 20
5019.0853927181
 30
0.0
 40
1.512881347200166
100
AcDbArc
 50
271.0866005507
 51
357.3672442627
  0
ARC
  5
15B
330
1F
100
AcDbEntity
  8
0
  6
Continuous
 62
     7
370
    25
100
AcDbCircle
 10
6414.267761629
 20
5018.773378661
 30
0.0
 40
1.201595064869684
100
AcDbArc
 50
163.886413234
 51
272.3375002894
  0
ARC
  5
15C
330
1F
100
AcDbEntity
  8
0
  6
Continuous
 62
     7
370
    25
100
AcDbCircle
 10
6420.3987235474
 20
5016.9153673167
 30
0.0
 40
7.607826501909036
100
AcDbArc
 50
152.0155810338
 51
163.2581964951
  0
LWPOLYLINE
  5
15D
330
1F
100
AcDbEntity
  8
0
  6
Continuous
 62
     7
370
    25
100
AcDbPolyline
 90
        6
 70
   128
 43
0.0
 10
6413.6804404211
 20
5020.4851986737
 10
6413.7158211183
 20
5020.6601531077
 10
6413.6923928214
 20
5020.8060266698
 10
6413.6209871766
 20
5020.9252913533
 10
6413.5124358301
 20
5021.0204191512
 10
6412.9234063491
 20
5021.2090013497
  0
LWPOLYLINE
  5
15E
330
1F
100
AcDbEntity
  8
0
  6
Continuous
 62
     7
370
    25
100
AcDbPolyline
 90
        3
 70
   128
 43
0.0
 10
6412.9234063491
 20
5021.2090013497
 10
6413.0150957718
 20
5021.5015959863
 10
6413.1224704331
 20
5021.7277320057
  0
LWPOLYLINE
  5
15F
330
1F
100
AcDbEntity
  8
0
  6
Continuous
 62
     7
370
    25
100
AcDbPolyline
 90
        3
 70
   128
 43
0.0
 10
6413.1224704331
 20
5021.7277320057
 10
6412.8829091169
 20
5022.2819837313
 10
6412.8209130091
 20
5022.8496628497
  0
LWPOLYLINE
  5
160
330
1F
100
AcDbEntity
  8
0
  6
Continuous
 62
     7
370
    25
100
AcDbPolyline
 90
        3
 70
   128
 43
0.0
 10
6412.8209130091
 20
5022.8496628497
 10
6413.5130077705
 20
5022.6478660888
 10
6414.0211859731
 20
5022.3459861697
  0
ARC
  5
161
330
1F
100
AcDbEntity
  8
0
  6
Continuous
 62
     7
370
    25
100
AcDbCircle
 10
6414.2681073886
 20
5021.2100295366
 30
0.0
 40
1.162483401122006
100
AcDbArc
 50
78.4542056673
 51
102.26353698
  0
ARC
  5
162
330
1F
100
AcDbEntity
  8
0
  6
Continuous
 62
     7
370
    25
100
AcDbCircle
 10
6415.8787834321
 20
5020.7394995081
 30
0.0
 40
2.118809656036309
100
AcDbArc
 50
92.8503334545
 51
130.5692723874
  0
LWPOLYLINE
  5
163
330
1F
100
AcDbEntity
  8
0
  6
Continuous
 62
     7
370
    25
100
AcDbPolyline
 90
        3
 70
   128
 43
0.0
 10
6415.7734209891
 20
5022.8556878537
 10
6415.6663357934
 20
5022.2104718502
 10
6415.4357476771
 20
5021.7307359737
  0
ARC
  5
164
330
1F
100
AcDbEntity
  8
0
  6
Continuous
 62
     7
370
    25
100
AcDbCircle
 10
6414.4907397784
 20
5022.2263814916
 30
0.0
 40
1.472453365585727
100
AcDbArc
 50
234.4758270776
 51
260.36722308
  0
LWPOLYLINE
  5
165
330
1F
100
AcDbEntity
  8
0
  6
Continuous
 62
     7
370
    25
100
AcDbPolyline
 90
       11
 70
   128
 43
0.0
 10
6414.2443500731
 20
5020.8832585697
 10
6414.2517696527
 20
5020.8820392828
 10
6414.258199955
 20
5020.878593472
 10
6414.2680927278
 20
5020.8662945779
 10
6414.2740283915
 20
5020.8489064862
 10
6414.2760069461
 20
5020.8289737957
 10
6414.2740283915
 20
5020.8090411053
 10
6414.2680927278
 20
5020.7916530136
 10
6414.258199955
 20
5020.7793541195
 10
6414.2517696527
 20
5020.7759083087
 10
6414.2443500731
 20
5020.7746890217
  0
LINE
  5
166
330
1F
100
AcDbEntity
  8
0
  6
Continuous
 62
     7
370
    25
100
AcDbLine
 10
6414.1779896891
 20
5020.8832585697
 30
0.0
 11
6414.2443500731
 21
5020.8832585697
 31
0.0
  0
ARC
  5
167
330
1F
100
AcDbEntity
  8
0
  6
Continuous
 62
     7
370
    25
100
AcDbCircle
 10
6414.1744728602
 20
5020.9218669297
 30
0.0
 40
0.0387682027791502
100
AcDbArc
 50
183.5850798893
 51
275.2046992663
  0
ARC
  5
168
330
1F
100
AcDbEntity
  8
0
  6
Continuous
 62
     7
370
    25
100
AcDbCircle
 10
6414.1804728967
 20
5020.9100194306
 30
0.0
 40
0.0456750111884273
100
AcDbArc
 50
93.1165290479
 51
168.0936917953
  0
LINE
  5
169
330
1F
100
AcDbEntity
  8
0
  6
Continuous
 62
     7
370
    25
100
AcDbLine
 10
6414.4555153691
 20
5020.9556268897
 30
0.0
 11
6414.1779896891
 21
5020.9556268897
 31
0.0
  0
LWPOLYLINE
  5
16A
330
1F
100
AcDbEntity
  8
0
  6
Continuous
 62
     7
370
    25
100
AcDbPolyline
 90
        3
 70
   128
 43
0.0
 10
6413.9850871531
 20
5022.3339361617
 10
6413.8698759836
 20
5022.3079780528
 10
6413.7889758331
 20
5022.2796257857
  0
ARC
  5
16B
330
1F
100
AcDbEntity
  8
0
  6
Continuous
 62
     7
370
    25
100
AcDbCircle
 10
6414.2475157237
 20
5021.0515934223
 30
0.0
 40
1.267610020311435
100
AcDbArc
 50
88.6432205121
 51
164.5183477847
  0
LWPOLYLINE
  5
16C
330
1F
100
AcDbEntity
  8
0
  6
Continuous
 62
     7
370
    25
100
AcDbPolyline
 90
        3
 70
   128
 43
0.0
 10
6413.8432179371
 20
5021.9448711017
 10
6413.4098724061
 20
5021.6988387666
 10
6413.0258996891
 20
5021.3899562857
  0
ARC
  5
16D
330
1F
100
AcDbEntity
  8
0
  6
Continuous
 62
     7
370
    25
100
AcDbCircle
 10
6414.333351314
 20
5022.3599332494
 30
0.0
 40
0.642267322514274
100
AcDbArc
 50
220.2590974971
 51
316.1158490348
  0
ARC
  5
16E
330
1F
100
AcDbEntity
  8
0
  6
Continuous
 62
     7
370
    25
100
AcDbCircle
 10
6414.1489125376
 20
5020.0826695022
 30
0.0
 40
1.943049007262447
100
AcDbArc
 50
45.4915667868
 51
70.5392446639
  0
LWPOLYLINE
  5
16F
330
1F
100
AcDbEntity
  8
0
  6
Continuous
 62
     7
370
    25
100
AcDbPolyline
 90
        3
 70
   128
 43
0.0
 10
6414.7239096691
 20
5022.2887400977
 10
6414.6289018492
 20
5022.3185452345
 10
6414.5520007731
 20
5022.3399782337
  0
LWPOLYLINE
  5
170
330
1F
100
AcDbEntity
  8
0
  6
Continuous
 62
     7
370
    25
100
AcDbPolyline
 90
        3
 70
   128
 43
0.0
 10
6415.2637705091
 20
5022.7049262097
 10
6414.9303125266
 20
5022.4884135383
 10
6414.7239096691
 20
5022.2887400977
  0
LWPOLYLINE
  5
171
330
1F
100
AcDbEntity
  8
0
  6
Continuous
 62
     7
370
    25
100
AcDbPolyline
 90
        3
 70
   128
 43
0.0
 10
6414.7299005371
 20
5021.0581714337
 10
6415.1713602203
 20
5021.1957372548
 10
6415.5443342931
 20
5021.1788421937
  0
LWPOLYLINE
  5
172
330
1F
100
AcDbEntity
  8
0
  6
Continuous
 62
     7
370
    25
100
AcDbPolyline
 90
        8
 70
   128
 43
0.0
 10
6413.9246664331
 20
5021.0219872737
 10
6414.0291772973
 20
5021.1671673817
 10
6414.1323714587
 20
5021.2655836366
 10
6414.2343563257
 20
5021.3205240951
 10
6414.3352393066
 20
5021.3352768142
 10
6414.4682215468
 20
5021.2981159063
 10
6414.5996904244
 20
5021.2031494753
 10
6414.7299005371
 20
5021.0581714337
  0
ARC
  5
173
330
1F
100
AcDbEntity
  8
0
  6
Continuous
 62
     7
370
    25
100
AcDbCircle
 10
6413.1851857319
 20
5019.8165539953
 30
0.0
 40
1.414178594129988
100
AcDbArc
 50
58.4727012888
 51
96.708089968
  0
ARC
  5
174
330
1F
100
AcDbEntity
  8
0
  6
Continuous
 62
     7
370
    25
100
AcDbCircle
 10
6414.4560940456
 20
5020.9135322001
 30
0.0
 40
0.0420986670247153
100
AcDbArc
 50
8.0708238586
 51
90.7875965956
  0
LWPOLYLINE
  5
175
330
1F
100
AcDbEntity
  8
0
  6
Continuous
 62
     7
370
    25
100
AcDbPolyline
 90
       12
 70
   128
 43
0.0
 10
6414.3740498051
 20
5020.7716850537
 10
6414.3681625493
 20
5020.7729380766
 10
6414.3629537716
 20
5020.7764792283
 10
6414.3584679003
 20
5020.7819816331
 10
6414.354749364
 20
5020.7891184156
 10
6414.3497920101
 20
5020.8069876115
 10
6414.3484371376
 20
5020.8274718117
 10
6414.3510401742
 20
5020.847956012
 10
6414.3579565479
 20
5020.8658252079
 10
6414.3695416862
 20
5020.8784643952
 10
6414.3771961133
 20
5020.8820055469
 10
6414.3861510171
 20
5020.8832585697
  0
LWPOLYLINE
  5
176
330
1F
100
AcDbEntity
  8
0
  6
Continuous
 62
     7
370
    25
100
AcDbPolyline
 90
        3
 70
   128
 43
0.0
 10
6415.6347946931
 20
5022.6898039617
 10
6415.5334134843
 20
5022.2302199413
 10
6415.3482400411
 20
5021.8755067497
  0
LWPOLYLINE
  5
177
330
1F
100
AcDbEntity
  8
0
  6
Continuous
 62
     7
370
    25
100
AcDbPolyline
 90
        9
 70
   128
 43
0.0
 10
6413.6562721331
 20
5020.2589623337
 10
6413.5549164157
 20
5020.0653461662
 10
6413.3942180855
 20
5019.741632936
 10
6413.1733458741
 20
5019.0751962592
 10
6413.1451305366
 20
5018.6661594057
 10
6413.2436174969
 20
5018.2740912778
 10
6413.4018127488
 20
5018.037499314
 10
6413.6495408023
 20
5017.8314885837
 10
6414.0000899251
 20
5017.6652749177
  0
ARC
  5
178
330
1F
100
AcDbEntity
  8
0
  6
Continuous
 62
     7
370
    25
100
AcDbCircle
 10
6414.0929646988
 20
5021.7868994453
 30
0.0
 40
1.167319343781127
100
AcDbArc
 50
280.4514742551
 51
312.4447930695
  0
CIRCLE
  5
179
330
1F
100
AcDbEntity
  8
0
  6
Continuous
 62
     7
370
    25
100
AcDbCircle
 10
6416.4748645851
 20
5022.4627824937
 30
0.0
 40
0.3953802200003338
  0
CIRCLE
  5
17A
330
1F
100
AcDbEntity
  8
0
  6
Continuous
 62
     7
370
    25
100
AcDbCircle
 10
6416.4748645851
 20
5022.4627824937
 30
0.0
 40
0.3434252279994325
  0
ARC
  5
17B
330
1F
100
AcDbEntity
  8
0
  6
Continuous
 62
     7
370
    25
100
AcDbCircle
 10
6413.996994604
 20
5021.4057669799
 30
0.0
 40
0.0411623568305482
100
AcDbArc
 50
1.8929926073
 51
89.8965991961
  0
ARC
  5
17C
330
1F
100
AcDbEntity
  8
0
  6
Continuous
 62
     7
370
    25
100
AcDbCircle
 10
6413.9961185518
 20
5021.4081469424
 30
0.0
 40
0.0420283304783372
100
AcDbArc
 50
271.295672565
 51
358.6089933813
  0
ARC
  5
17D
330
1F
100
AcDbEntity
  8
0
  6
Continuous
 62
     7
370
    25
100
AcDbCircle
 10
6413.9980238873
 20
5021.4080991612
 30
0.0
 40
0.0419806672136436
100
AcDbArc
 50
181.3273553276
 51
268.6964930679
  0
ARC
  5
17E
330
1F
100
AcDbEntity
  8
0
  6
Continuous
 62
     7
370
    25
100
AcDbCircle
 10
6413.9970315869
 20
5021.405934856
 30
0.0
 40
0.0409944307176298
100
AcDbArc
 50
89.9478646627
 51
178.3339957373
  0
LINE
  5
17F
330
1F
100
AcDbEntity
  8
0
  6
Continuous
 62
     7
370
    25
100
AcDbLine
 10
6429.5499649013
 20
5011.3067200128
 30
0.0
 11
6429.5499649013
 21
5030.8067200128
 31
0.0
  0
LINE
  5
180
330
1F
100
AcDbEntity
  8
0
  6
Continuous
 62
     7
370
    25
100
AcDbLine
 10
6389.7999649013
 20
5006.5567200128
 30
0.0
 11
6424.7999649013
 21
5006.5567200128
 31
0.0
  0
ARC
  5
181
330
1F
100
AcDbEntity
  8
0
  6
Continuous
 62
     7
370
    25
100
AcDbCircle
 10
6424.7999649013
 20
5011.3067200128
 30
0.0
 40
4.750000000000909
100
AcDbArc
 50
270.0
 51
0.0
  0
LINE
  5
182
330
1F
100
AcDbEntity
  8
0
  6
Continuous
 62
     7
370
    25
100
AcDbLine
 10
6427.2999649013
 20
5033.0567200128
 30
0.0
 11
6387.2999649013
 21
5033.0567200128
 31
0.0
  0
ARC
  5
183
330
1F
100
AcDbEntity
  8
0
  6
Continuous
 62
     7
370
    25
100
AcDbCircle
 10
6389.7999649013
 20
5011.3067200128
 30
0.0
 40
4.750000000000909
100
AcDbArc
 50
180.0
 51
270.0
  0
ARC
  5
184
330
1F
100
AcDbEntity
  8
0
  6
Continuous
 62
     7
370
    25
100
AcDbCircle
 10
6387.2999649013
 20
5030.8067200128
 30
0.0
 40
2.25
100
AcDbArc
 50
90.0
 51
180.0
  0
LINE
  5
185
330
1F
100
AcDbEntity
  8
0
  6
Continuous
 62
     7
370
    25
100
AcDbLine
 10
6385.0499649013
 20
5030.8067200128
 30
0.0
 11
6385.0499649013
 21
5011.3067200128
 31
0.0
  0
ARC
  5
186
330
1F
100
AcDbEntity
  8
0
  6
Continuous
 62
     7
370
    25
100
AcDbCircle
 10
6427.2999649013
 20
5030.8067200128
 30
0.0
 40
2.250000000000909
100
AcDbArc
 50
0.0
 51
90.0
  0
LINE
  5
187
330
1F
100
AcDbEntity
  8
0
  6
Continuous
 62
     7
370
    25
100
AcDbLine
 10
6431.5783922538
 20
4933.7340448413
 30
0.0
 11
6383.0215375488
 21
4933.7340448413
 31
0.0
  0
LINE
  5
188
330
1F
100
AcDbEntity
  8
0
  6
Continuous
 62
     7
370
    25
100
AcDbLine
 10
6383.0215375488
 20
4933.7340448413
 30
0.0
 11
6383.0215375488
 21
4936.3067200128
 31
0.0
  0
LINE
  5
189
330
1F
100
AcDbEntity
  8
0
  6
Continuous
 62
     7
370
    25
100
AcDbLine
 10
6383.0215375488
 20
4936.3067200128
 30
0.0
 11
6431.5783922538
 21
4936.3067200128
 31
0.0
  0
LINE
  5
18A
330
1F
100
AcDbEntity
  8
0
  6
Continuous
 62
     7
370
    25
100
AcDbLine
 10
6431.5783922538
 20
4933.7340448413
 30
0.0
 11
6431.5783922538
 21
4936.3067200128
 31
0.0
  0
ARC
  5
18B
330
1F
100
AcDbEntity
  8
0
  6
Continuous
 62
     7
370
    25
100
AcDbCircle
 10
6382.4136380158
 20
4955.8543322899
 30
0.0
 40
22.12863887925959
100
AcDbArc
 50
265.0953649156
 51
271.5741799633
  0
ARC
  5
18C
330
1F
100
AcDbEntity
  8
0
  6
Continuous
 62
     7
370
    25
100
AcDbCircle
 10
6383.0216158603
 20
4933.8067983194
 30
0.0
 40
2.49992169459935
100
AcDbArc
 50
90.0017948244
 51
180.001794712
  0
ARC
  5
18D
330
1F
100
AcDbEntity
  8
0
  6
Continuous
 62
     7
370
    25
100
AcDbCircle
 10
6431.5783139423
 20
4933.8067983194
 30
0.0
 40
2.499921694598594
100
AcDbArc
 50
359.998205288
 51
89.9982051756
  0
ARC
  5
18E
330
1F
100
AcDbEntity
  8
0
  6
Continuous
 62
     7
370
    25
100
AcDbCircle
 10
6432.1862917869
 20
4955.8543322901
 30
0.0
 40
22.12863887948572
100
AcDbArc
 50
268.4258200367
 51
274.9046350843
  0
ELLIPSE
  5
18F
330
1F
100
AcDbEntity
  8
0
  6
Continuous
 62
     7
370
    25
100
AcDbEllipse
 10
6433.3796491827
 20
4938.4864289475
 30
0.0
 11
0.0
 21
163.4803197518504
 31
0.0
210
0.0
220
0.0
230
1.0
 40
0.0110228467
 41
1.59987049129825
 42
1.819117331011579
  0
ELLIPSE
  5
190
330
1F
100
AcDbEntity
  8
0
  6
Continuous
 62
     7
370
    25
100
AcDbEllipse
 10
6435.8794925646
 20
4938.4864289475
 30
0.0
 11
0.0
 21
160.9803197518513
 31
0.0
210
0.0
220
0.0
230
1.0
 40
0.0111940299
 41
1.59987049129825
 42
1.813238153416216
  0
LWPOLYLINE
  5
191
330
1F
100
AcDbEntity
  8
0
  6
Continuous
 62
     7
370
    25
100
AcDbPolyline
 90
        7
 70
   128
 43
0.0
 10
6431.6329049899
 20
4898.3067572275
 10
6432.4212690693
 20
4898.3898439847
 10
6433.11958167
 20
4898.616108745
 10
6433.673158458
 20
4898.9663338194
 10
6434.0307028254
 20
4899.4239897118
 10
6434.130037274
 20
4899.8322794637
 10
6434.1301747199
 20
4899.8392792094
  0
ELLIPSE
  5
192
330
1F
100
AcDbEntity
  8
0
  6
Continuous
 62
     7
370
    25
100
AcDbEllipse
 10
6381.2202806199
 20
4938.4864289475
 30
0.0
 11
0.0
 21
163.4803197518504
 31
0.0
210
0.0
220
0.0
230
1.0
 40
0.0110228467
 41
4.464067976168084
 42
4.683314815881337
  0
LWPOLYLINE
  5
193
330
1F
100
AcDbEntity
  8
0
  6
Continuous
 62
     7
370
    25
100
AcDbPolyline
 90
        7
 70
   128
 43
0.0
 10
6382.9670248127
 20
4898.3067572275
 10
6382.1786607333
 20
4898.3898439847
 10
6381.4803481327
 20
4898.616108745
 10
6380.9267713446
 20
4898.9663338194
 10
6380.5692269772
 20
4899.4239897118
 10
6380.4698925286
 20
4899.8322794637
 10
6380.4697550827
 20
4899.8392792094
  0
ELLIPSE
  5
194
330
1F
100
AcDbEntity
  8
0
  6
Continuous
 62
     7
370
    25
100
AcDbEllipse
 10
6378.7204372381
 20
4938.4864289475
 30
0.0
 11
0.0
 21
160.9803197518513
 31
0.0
210
0.0
220
0.0
230
1.0
 40
0.0111940299
 41
4.469947153763561
 42
4.683314815881337
  0
LINE
  5
195
330
1F
100
AcDbEntity
  8
0
  6
Continuous
 62
     7
370
    25
100
AcDbLine
 10
6431.621660784
 20
4898.3067200128
 30
0.0
 11
6431.6329049899
 21
4898.3067572275
 31
0.0
  0
LINE
  5
196
330
1F
100
AcDbEntity
  8
0
  6
Continuous
 62
     7
370
    25
100
AcDbLine
 10
6382.9782690186
 20
4898.3067200128
 30
0.0
 11
6431.621660784
 21
4898.3067200128
 31
0.0
  0
LINE
  5
197
330
1F
100
AcDbEntity
  8
0
  6
Continuous
 62
     7
370
    25
100
AcDbLine
 10
6382.9670248127
 20
4898.3067572275
 30
0.0
 11
6382.9782690186
 21
4898.3067200128
 31
0.0
  0
ELLIPSE
  5
198
330
1F
100
AcDbEntity
  8
0
  6
Continuous
 62
     7
370
    25
100
AcDbEllipse
 10
6434.5399494212
 20
4954.5963516964
 30
0.0
 11
0.0
 21
65.86634767979194
 31
0.0
210
0.0
220
0.0
230
1.0
 40
0.0111940299
 41
2.552303755320903
 42
2.708253676024057
  0
LINE
  5
199
330
1F
100
AcDbEntity
  8
0
  6
Continuous
 62
     7
370
    25
100
AcDbLine
 10
6434.2738314728
 20
4924.8067200128
 30
0.0
 11
6434.2738314728
 21
4928.8067200128
 31
0.0
  0
LINE
  5
19A
330
1F
100
AcDbEntity
  8
0
  6
Continuous
 62
     7
370
    25
100
AcDbLine
 10
6434.2738314728
 20
4910.8067200128
 30
0.0
 11
6434.2738314728
 21
4914.8067200128
 31
0.0
  0
LINE
  5
19B
330
1F
100
AcDbEntity
  8
0
  6
Continuous
 62
     7
370
    25
100
AcDbLine
 10
6431.5783922538
 20
4936.3067200128
 30
0.0
 11
6431.7568978256
 21
4936.3067200128
 31
0.0
  0
ELLIPSE
  5
19C
330
1F
100
AcDbEntity
  8
0
  6
Continuous
 62
     7
370
    25
100
AcDbEllipse
 10
6432.2718231987
 20
4933.8067200128
 30
0.0
 11
-2.50015662797432
 21
0.0
 31
0.0
210
0.0
220
0.0
230
1.0
 40
0.9999373527
 41
3.766177665568574
 42
4.712388980384704
  0
LINE
  5
19D
330
1F
100
AcDbEntity
  8
0
  6
Continuous
 62
     7
370
    25
100
AcDbLine
 10
6382.8430319771
 20
4936.3067200128
 30
0.0
 11
6383.0215375488
 21
4936.3067200128
 31
0.0
  0
ELLIPSE
  5
19E
330
1F
100
AcDbEntity
  8
0
  6
Continuous
 62
     7
370
    25
100
AcDbEllipse
 10
6382.3281066039
 20
4933.8067200128
 30
0.0
 11
2.50015662797432
 21
0.0
 31
0.0
210
0.0
220
0.0
230
1.0
 40
0.9999373527
 41
1.570796326794897
 42
2.517007641612204
  0
LINE
  5
19F
330
1F
100
AcDbEntity
  8
0
  6
Continuous
 62
     7
370
    25
100
AcDbLine
 10
6380.3260983298
 20
4914.8067200128
 30
0.0
 11
6380.3260983298
 21
4910.8067200128
 31
0.0
  0
LINE
  5
1A0
330
1F
100
AcDbEntity
  8
0
  6
Continuous
 62
     7
370
    25
100
AcDbLine
 10
6380.3260983298
 20
4928.8067200128
 30
0.0
 11
6380.3260983298
 21
4924.8067200128
 31
0.0
  0
ELLIPSE
  5
1A1
330
1F
100
AcDbEntity
  8
0
  6
Continuous
 62
     7
370
    25
100
AcDbEllipse
 10
6380.0599803815
 20
4954.5963516964
 30
0.0
 11
0.0
 21
65.86634767979194
 31
0.0
210
0.0
220
0.0
230
1.0
 40
0.0111940299
 41
3.574931631156087
 42
3.73088155185999
  0
ELLIPSE
  5
1A2
330
1F
100
AcDbEntity
  8
0
  6
Continuous
 62
     7
370
    25
100
AcDbEllipse
 10
6432.0401060393
 20
4954.5963516964
 30
0.0
 11
0.0
 21
68.36634767979194
 31
0.0
210
0.0
220
0.0
230
1.0
 40
0.0107846899
 41
2.53809018742299
 42
2.716387186625633
  0
ARC
  5
1A3
330
1F
100
AcDbEntity
  8
0
  6
Continuous
 62
     7
370
    25
100
AcDbCircle
 10
6431.7233676831
 20
4894.8247139478
 30
0.0
 40
2.506991447191777
100
AcDbArc
 50
270.2877876281
 51
359.8491163737
  0
ELLIPSE
  5
1A4
330
1F
100
AcDbEntity
  8
0
  6
Continuous
 62
     7
370
    25
100
AcDbEllipse
 10
6382.5598237633
 20
4954.5963516964
 30
0.0
 11
0.0
 21
68.36634767979194
 31
0.0
210
0.0
220
0.0
230
1.0
 40
0.0107846899
 41
3.566798120554861
 42
3.745095119758628
  0
ARC
  5
1A5
330
1F
100
AcDbEntity
  8
0
  6
Continuous
 62
     7
370
    25
100
AcDbCircle
 10
6382.8765621195
 20
4894.8247139478
 30
0.0
 40
2.506991447190867
100
AcDbArc
 50
180.1508836263
 51
269.7122123719
  0
LINE
  5
1A6
330
1F
100
AcDbEntity
  8
0
  6
Continuous
 62
     7
370
    25
100
AcDbLine
 10
6382.8639699514
 20
4892.3177541249
 30
0.0
 11
6382.875533106
 21
4892.3177274253
 31
0.0
  0
LINE
  5
1A7
330
1F
100
AcDbEntity
  8
0
  6
Continuous
 62
     7
370
    25
100
AcDbLine
 10
6431.7243966967
 20
4892.3177274253
 30
0.0
 11
6431.7359598512
 21
4892.3177541249
 31
0.0
  0
LINE
  5
1A8
330
1F
100
AcDbEntity
  8
0
  6
Continuous
 62
     7
370
    25
100
AcDbLine
 10
6423.1416602756
 20
4892.3177274253
 30
0.0
 11
6431.7243966967
 21
4892.3177274253
 31
0.0
  0
LWPOLYLINE
  5
1A9
330
1F
100
AcDbEntity
  8
0
  6
Continuous
 62
     7
370
    25
100
AcDbPolyline
 90
       23
 70
   128
 43
0.0
 10
6391.4582695271
 20
4892.3177274253
 10
6391.4709661342
 20
4892.3504181067
 10
6391.9736956775
 20
4893.2458118199
 10
6392.7716687853
 20
4894.1545249498
 10
6393.9731928498
 20
4895.13800539
 10
6395.4978061723
 20
4896.0546564416
 10
6396.8604255901
 20
4896.6650870358
 10
6398.3918871743
 20
4897.163092064
 10
6399.7395276879
 20
4897.451646423
 10
6401.1557877762
 20
4897.6131554758
 10
6404.2105909925
 20
4897.7043519255
 10
6407.2782077224
 20
4897.6751759001
 10
6410.3458530211
 20
4897.6400281659
 10
6411.8035437093
 20
4897.6458584005
 10
6413.2590956834
 20
4897.6162725494
 10
6414.6818587909
 20
4897.48065578
 10
6416.2692925426
 20
4897.1460838027
 10
6417.7254124158
 20
4896.670945975
 10
6419.2995245427
 20
4895.9517579381
 10
6420.6289862558
 20
4895.1368483519
 10
6421.7251632723
 20
4894.2529519963
 10
6422.5494051556
 20
4893.3508347956
 10
6423.1416602756
 20
4892.3177274253
  0
LINE
  5
1AA
330
1F
100
AcDbEntity
  8
0
  6
Continuous
 62
     7
370
    25
100
AcDbLine
 10
6382.875533106
 20
4892.3177274253
 30
0.0
 11
6391.4582695271
 21
4892.3177274253
 31
0.0
  0
LINE
  5
1AB
330
1F
100
AcDbEntity
  8
0
  6
Continuous
 62
     7
370
    25
100
AcDbLine
 10
6394.0149229319
 20
4894.0395030327
 30
0.0
 11
6393.9803667794
 21
4893.9876432298
 31
0.0
  0
ARC
  5
1AC
330
1F
100
AcDbEntity
  8
0
  6
Continuous
 62
     7
370
    25
100
AcDbCircle
 10
6391.4792332398
 20
4894.9395863316
 30
0.0
 40
2.621907857372426
100
AcDbArc
 50
270.3517551681
 51
320.6901144017
  0
LINE
  5
1AD
330
1F
100
AcDbEntity
  8
0
  6
Continuous
 62
     7
370
    25
100
AcDbLine
 10
6391.4953297805
 20
4892.3177278851
 30
0.0
 11
6391.4582695271
 21
4892.3177274253
 31
0.0
  0
LINE
  5
1AE
330
1F
100
AcDbEntity
  8
0
  6
Continuous
 62
     7
370
    25
100
AcDbLine
 10
6423.1416602756
 20
4892.3177274253
 30
0.0
 11
6423.1046000221
 21
4892.3177278851
 31
0.0
  0
ARC
  5
1AF
330
1F
100
AcDbEntity
  8
0
  6
Continuous
 62
     7
370
    25
100
AcDbCircle
 10
6423.1206942792
 20
4894.9395815484
 30
0.0
 40
2.621903060203337
100
AcDbArc
 50
219.3098363372
 51
269.6482940929
  0
LWPOLYLINE
  5
1B0
330
1F
100
AcDbEntity
  8
0
  6
Continuous
 62
     7
370
    25
100
AcDbPolyline
 90
       21
 70
   128
 43
0.0
 10
6393.5078844107
 20
4893.2785700044
 10
6393.5647438351
 20
4893.2732398515
 10
6393.9190984532
 20
4893.254596249
 10
6394.5162403076
 20
4893.2376808897
 10
6395.3093352807
 20
4893.224710355
 10
6396.3171082268
 20
4893.2143031359
 10
6397.4546290773
 20
4893.2081468645
 10
6398.7539558382
 20
4893.2054764215
 10
6400.1033067076
 20
4893.2066511004
 10
6401.543389646
 20
4893.2111344506
 10
6407.0372777132
 20
4893.2124193602
 10
6410.8521930411
 20
4893.2124193602
 10
6412.7718882484
 20
4893.2102330386
 10
6414.667108369
 20
4893.2063092604
 10
6416.0071883263
 20
4893.2056064216
 10
6417.2916285149
 20
4893.2086972218
 10
6418.4076435261
 20
4893.2153091745
 10
6419.3904259536
 20
4893.2260423051
 10
6420.1589647605
 20
4893.2393090759
 10
6420.7317249032
 20
4893.2566114018
 10
6421.0920453919
 20
4893.2785700044
  0
LWPOLYLINE
  5
1B1
330
1F
100
AcDbEntity
  8
0
  6
Continuous
 62
     7
370
    25
100
AcDbPolyline
 90
       22
 70
   128
 43
0.0
 10
6423.1046000221
 20
4892.3177278851
 10
6422.5779316538
 20
4892.3194864639
 10
6421.8687240279
 20
4892.3206189271
 10
6420.9008247897
 20
4892.3216517717
 10
6419.7051562971
 20
4892.3225509098
 10
6418.3140609596
 20
4892.3232970098
 10
6416.7627655048
 20
4892.3238677831
 10
6415.0986192073
 20
4892.3242484105
 10
6412.4421665995
 20
4892.3244884956
 10
6409.7402219211
 20
4892.3244846007
 10
6407.0372777132
 20
4892.3244384703
 10
6404.2553146124
 20
4892.3244538416
 10
6401.4742618104
 20
4892.3244337096
 10
6399.735467301
 20
4892.3242841522
 10
6398.056584823
 20
4892.3239315933
 10
6396.4865659644
 20
4892.3233839902
 10
6395.067502636
 20
4892.3226597768
 10
6393.8398316376
 20
4892.3217739537
 10
6392.8386968589
 20
4892.320755928
 10
6392.0973008685
 20
4892.3196335506
 10
6391.6323142711
 20
4892.3184393263
 10
6391.4953297805
 20
4892.3177278851
  0
ELLIPSE
  5
1B2
330
1F
100
AcDbEntity
  8
0
  6
Continuous
 62
     7
370
    25
100
AcDbEllipse
 10
6382.3728827233
 20
4894.8494142095
 30
0.0
 11
2.495204042185833
 21
-0.1572992837054699
 31
0.0
210
0.0
220
0.0
230
1.0
 40
0.9999371038
 41
3.797819181933982
 42
4.712388980384764
  0
ELLIPSE
  5
1B3
330
1F
100
AcDbEntity
  8
0
  6
Continuous
 62
     7
370
    25
100
AcDbEllipse
 10
6432.2270470793
 20
4894.8494142095
 30
0.0
 11
-2.495204042185833
 21
-0.1572992837054699
 31
0.0
210
0.0
220
0.0
230
1.0
 40
0.9999371038
 41
1.570796326794836
 42
2.485366125243988
  0
LINE
  5
1B4
330
1F
100
AcDbEntity
  8
0
  6
Continuous
 62
     7
370
    25
100
AcDbLine
 10
6434.2999649013
 20
4910.8067200128
 30
0.0
 11
6434.2738314728
 21
4910.8067200128
 31
0.0
  0
LINE
  5
1B5
330
1F
100
AcDbEntity
  8
0
  6
Continuous
 62
     7
370
    25
100
AcDbLine
 10
6434.2738314728
 20
4914.8067200128
 30
0.0
 11
6434.2999649013
 21
4914.8067200128
 31
0.0
  0
LINE
  5
1B6
330
1F
100
AcDbEntity
  8
0
  6
Continuous
 62
     7
370
    25
100
AcDbLine
 10
6380.2999649013
 20
4914.8067200128
 30
0.0
 11
6380.3260983298
 21
4914.8067200128
 31
0.0
  0
LINE
  5
1B7
330
1F
100
AcDbEntity
  8
0
  6
Continuous
 62
     7
370
    25
100
AcDbLine
 10
6380.3260983298
 20
4910.8067200128
 30
0.0
 11
6380.2999649013
 21
4910.8067200128
 31
0.0
  0
LINE
  5
1B8
330
1F
100
AcDbEntity
  8
0
  6
Continuous
 62
     7
370
    25
100
AcDbLine
 10
6380.2999649013
 20
4928.8067200128
 30
0.0
 11
6380.3260983298
 21
4928.8067200128
 31
0.0
  0
LINE
  5
1B9
330
1F
100
AcDbEntity
  8
0
  6
Continuous
 62
     7
370
    25
100
AcDbLine
 10
6380.3260983298
 20
4924.8067200128
 30
0.0
 11
6380.2999649013
 21
4924.8067200128
 31
0.0
  0
LINE
  5
1BA
330
1F
100
AcDbEntity
  8
0
  6
Continuous
 62
     7
370
    25
100
AcDbLine
 10
6434.2999649013
 20
4924.8067200128
 30
0.0
 11
6434.2738314728
 21
4924.8067200128
 31
0.0
  0
LINE
  5
1BB
330
1F
100
AcDbEntity
  8
0
  6
Continuous
 62
     7
370
    25
100
AcDbLine
 10
6434.2738314728
 20
4928.8067200128
 30
0.0
 11
6434.2999649013
 21
4928.8067200128
 31
0.0
  0
LINE
  5
1BC
330
1F
100
AcDbEntity
  8
0
  6
Continuous
 62
     7
370
    25
100
AcDbLine
 10
6434.2999649013
 20
4902.3099225035
 30
0.0
 11
6434.2999649013
 21
4908.0567669187
 31
0.0
  0
LINE
  5
1BD
330
1F
100
AcDbEntity
  8
0
  6
Continuous
 62
     7
370
    25
100
AcDbLine
 10
6447.8857513389
 20
4908.0567669187
 30
0.0
 11
6434.2999649013
 21
4908.0567669187
 31
0.0
  0
LWPOLYLINE
  5
1BE
330
1F
100
AcDbEntity
  8
0
  6
Continuous
 62
     7
370
    25
100
AcDbPolyline
 90
        6
 70
   128
 43
0.0
 10
6448.59285812
 20
4907.443463031
 10
6448.3451433587
 20
4907.8619238996
 10
6448.2495502459
 20
4907.9552961426
 10
6448.1464432606
 20
4908.0168546874
 10
6448.0345240438
 20
4908.0467854138
 10
6447.8857513389
 20
4908.0567669187
  0
ARC
  5
1BF
330
1F
100
AcDbEntity
  8
0
  6
Continuous
 62
     7
370
    25
100
AcDbCircle
 10
6468.2259752798
 20
4917.1961664568
 30
0.0
 40
21.92200979659931
100
AcDbArc
 50
206.4157773362
 51
218.3280314261
  0
ARC
  5
1C0
330
1F
100
AcDbEntity
  8
0
  6
Continuous
 62
     7
370
    25
100
AcDbCircle
 10
6429.7601770087
 20
4925.1811020042
 30
0.0
 40
30.29942506717748
100
AcDbArc
 50
284.4090341434
 51
314.5833730644
  0
LINE
  5
1C1
330
1F
100
AcDbEntity
  8
0
  6
Continuous
 62
     7
370
    25
100
AcDbLine
 10
6447.8857513389
 20
4908.0567669186
 30
0.0
 11
6447.8857513389
 21
5043.0567669187
 31
0.0
  0
LINE
  5
1C2
330
1F
100
AcDbEntity
  8
0
  6
Continuous
 62
     7
370
    25
100
AcDbLine
 10
6448.5928581201
 20
5043.0567669187
 30
0.0
 11
6447.8857513389
 21
5043.0567669187
 31
0.0
  0
LINE
  5
1C3
330
1F
100
AcDbEntity
  8
0
  6
Continuous
 62
     7
370
    25
100
AcDbLine
 10
6448.5928581201
 20
5043.0567669187
 30
0.0
 11
6448.5928581201
 21
4907.4434630311
 31
0.0
  0
LINE
  5
1C4
330
1F
100
AcDbEntity
  8
0
  6
Continuous
 62
     7
370
    25
100
AcDbLine
 10
6434.2999649013
 20
4908.0567669187
 30
0.0
 11
6434.2999649013
 21
4935.8067200128
 31
0.0
  0
ARC
  5
1C5
330
1F
100
AcDbEntity
  8
0
  6
Continuous
 62
     7
370
    25
100
AcDbCircle
 10
6432.7999649013
 20
4933.8067200128
 30
0.0
 40
2.500000000000909
100
AcDbArc
 50
53.1301023542
 51
90.0
  0
LINE
  5
1C6
330
1F
100
AcDbEntity
  8
0
  6
Continuous
 62
     7
370
    25
100
AcDbLine
 10
6432.7999649013
 20
4936.3067200128
 30
0.0
 11
6431.7568978256
 21
4936.3067200128
 31
0.0
  0
LINE
  5
1C7
330
1F
100
AcDbEntity
  8
0
  6
Continuous
 62
     7
370
    25
100
AcDbLine
 10
6382.8430319771
 20
4936.3067200128
 30
0.0
 11
6381.7999649013
 21
4936.3067200128
 31
0.0
  0
ARC
  5
1C8
330
1F
100
AcDbEntity
  8
0
  6
Continuous
 62
     7
370
    25
100
AcDbCircle
 10
6381.7999649013
 20
4933.8067200128
 30
0.0
 40
2.500000000000909
100
AcDbArc
 50
90.0
 51
126.8698976458
  0
LINE
  5
1C9
330
1F
100
AcDbEntity
  8
0
  6
Continuous
 62
     7
370
    25
100
AcDbLine
 10
6380.2999649013
 20
4935.8067200128
 30
0.0
 11
6380.2999649013
 21
4908.0567669187
 31
0.0
  0
LINE
  5
1CA
330
1F
100
AcDbEntity
  8
0
  6
Continuous
 62
     7
370
    25
100
AcDbLine
 10
6380.2999649013
 20
4908.0567669187
 30
0.0
 11
6366.2999649013
 21
4908.0567669187
 31
0.0
  0
LINE
  5
1CB
330
1F
100
AcDbEntity
  8
0
  6
Continuous
 62
     7
370
    25
100
AcDbLine
 10
6366.2999649013
 20
5043.0567669187
 30
0.0
 11
6366.2999649013
 21
4908.0567669187
 31
0.0
  0
LINE
  5
1CC
330
1F
100
AcDbEntity
  8
0
  6
Continuous
 62
     7
370
    25
100
AcDbLine
 10
6447.8857513389
 20
5043.0567669187
 30
0.0
 11
6366.2999649013
 21
5043.0567669187
 31
0.0
  0
LINE
  5
1CD
330
1F
100
AcDbEntity
  8
0
  6
Continuous
 62
     7
370
    25
100
AcDbLine
 10
6399.2999649013
 20
4948.8067200128
 30
0.0
 11
6399.2999649013
 21
4986.3067200128
 31
0.0
  0
ARC
  5
1CE
330
1F
100
AcDbEntity
  8
0
  6
Continuous
 62
     7
370
    25
100
AcDbCircle
 10
6404.7999649013
 20
4948.8067200128
 30
0.0
 40
5.500000000000909
100
AcDbArc
 50
180.0
 51
270.0
  0
LINE
  5
1CF
330
1F
100
AcDbEntity
  8
0
  6
Continuous
 62
     7
370
    25
100
AcDbLine
 10
6409.7999649013
 20
4943.3067200128
 30
0.0
 11
6404.7999649013
 21
4943.3067200128
 31
0.0
  0
ARC
  5
1D0
330
1F
100
AcDbEntity
  8
0
  6
Continuous
 62
     7
370
    25
100
AcDbCircle
 10
6409.7999649013
 20
4948.8067200128
 30
0.0
 40
5.500000000000909
100
AcDbArc
 50
270.0
 51
0.0
  0
LINE
  5
1D1
330
1F
100
AcDbEntity
  8
0
  6
Continuous
 62
     7
370
    25
100
AcDbLine
 10
6415.2999649013
 20
4986.3067200128
 30
0.0
 11
6415.2999649013
 21
4948.8067200128
 31
0.0
  0
LINE
  5
1D2
330
1F
100
AcDbEntity
  8
0
  6
Continuous
 62
     7
370
    25
100
AcDbLine
 10
6415.2999649013
 20
4986.3067200128
 30
0.0
 11
6399.2999649013
 21
4986.3067200128
 31
0.0
  0
ARC
  5
1D3
330
1F
100
AcDbEntity
  8
0
  6
Continuous
 62
     7
370
    25
100
AcDbCircle
 10
6387.2999649013
 20
5030.8067200128
 30
0.0
 40
2.499999999999091
100
AcDbArc
 50
90.0
 51
180.0
  0
LINE
  5
1D4
330
1F
100
AcDbEntity
  8
0
  6
Continuous
 62
     7
370
    25
100
AcDbLine
 10
6384.7999649013
 20
5030.8067200128
 30
0.0
 11
6384.7999649013
 21
5011.3067200128
 31
0.0
  0
ARC
  5
1D5
330
1F
100
AcDbEntity
  8
0
  6
Continuous
 62
     7
370
    25
100
AcDbCircle
 10
6389.7999649013
 20
5011.3067200128
 30
0.0
 40
5.000000000000909
100
AcDbArc
 50
180.0
 51
270.0
  0
LINE
  5
1D6
330
1F
100
AcDbEntity
  8
0
  6
Continuous
 62
     7
370
    25
100
AcDbLine
 10
6389.7999649013
 20
5006.3067200128
 30
0.0
 11
6424.7999649013
 21
5006.3067200128
 31
0.0
  0
ARC
  5
1D7
330
1F
100
AcDbEntity
  8
0
  6
Continuous
 62
     7
370
    25
100
AcDbCircle
 10
6424.7999649013
 20
5011.3067200128
 30
0.0
 40
5.000000000000909
100
AcDbArc
 50
270.0
 51
0.0
  0
LINE
  5
1D8
330
1F
100
AcDbEntity
  8
0
  6
Continuous
 62
     7
370
    25
100
AcDbLine
 10
6429.7999649013
 20
5011.3067200128
 30
0.0
 11
6429.7999649013
 21
5030.8067200128
 31
0.0
  0
ARC
  5
1D9
330
1F
100
AcDbEntity
  8
0
  6
Continuous
 62
     7
370
    25
100
AcDbCircle
 10
6427.2999649013
 20
5030.8067200128
 30
0.0
 40
2.500000000000909
100
AcDbArc
 50
0.0
 51
90.0
  0
LINE
  5
1DA
330
1F
100
AcDbEntity
  8
0
  6
Continuous
 62
     7
370
    25
100
AcDbLine
 10
6427.2999649013
 20
5033.3067200128
 30
0.0
 11
6387.2999649013
 21
5033.3067200128
 31
0.0
  0
LINE
  5
1DB
330
1F
100
AcDbEntity
  8
0
  6
Continuous
 62
     7
370
    25
100
AcDbLine
 10
6366.2999649013
 20
5058.3067200128
 30
0.0
 11
6366.2999649013
 21
5043.0567669187
 31
0.0
  0
LINE
  5
1DC
330
1F
100
AcDbEntity
  8
0
  6
Continuous
 62
     7
370
    25
100
AcDbLine
 10
6447.8857513389
 20
5058.3067200128
 30
0.0
 11
6366.2999649013
 21
5058.3067200128
 31
0.0
  0
LINE
  5
1DD
330
1F
100
AcDbEntity
  8
0
  6
Continuous
 62
     7
370
    25
100
AcDbLine
 10
6447.8857513389
 20
5043.0567669187
 30
0.0
 11
6447.8857513389
 21
5058.3067200128
 31
0.0
  0
LINE
  5
1DE
330
1F
100
AcDbEntity
  8
0
  6
Continuous
 62
     7
370
    25
100
AcDbLine
 10
6448.5928581201
 20
5058.1209669764
 30
0.0
 11
6448.5928581201
 21
5043.0567669187
 31
0.0
  0
ARC
  5
1DF
330
1F
100
AcDbEntity
  8
0
  6
Continuous
 62
     7
370
    25
100
AcDbCircle
 10
6447.9733176519
 20
5057.2013094871
 30
0.0
 40
1.108873432539411
100
AcDbArc
 50
56.0332557932
 51
94.5292900608
  0
LINE
  5
1E0
330
1F
100
AcDbEntity
  8
0
  6
Continuous
 62
     7
370
    25
100
AcDbLine
 10
6366.2999649013
 20
5043.0567669187
 30
0.0
 11
6352.2999649013
 21
5043.0567669187
 31
0.0
  0
LINE
  5
1E1
330
1F
100
AcDbEntity
  8
0
  6
Continuous
 62
     7
370
    25
100
AcDbLine
 10
6352.2999649013
 20
5043.0567669187
 30
0.0
 11
6352.2999649013
 21
5049.4279125074
 31
0.0
  0
LINE
  5
1E2
330
1F
100
AcDbEntity
  8
0
  6
Continuous
 62
     7
370
    25
100
AcDbLine
 10
6366.2999649013
 20
5058.3067200128
 30
0.0
 11
6352.2999649013
 21
5049.4279125074
 31
0.0
  0
ARC
  5
1E3
330
1F
100
AcDbEntity
  8
0
  6
Continuous
 62
     7
370
    25
100
AcDbCircle
 10
6409.7999649013
 20
4948.8067200128
 30
0.0
 40
2.500000000000909
100
AcDbArc
 50
270.0
 51
0.0
  0
LINE
  5
1E4
330
1F
100
AcDbEntity
  8
0
  6
Continuous
 62
     7
370
    25
100
AcDbLine
 10
6412.2999649013
 20
4948.8067200128
 30
0.0
 11
6415.2999649013
 21
4948.8067200128
 31
0.0
  0
LINE
  5
1E5
330
1F
100
AcDbEntity
  8
0
  6
Continuous
 62
     7
370
    25
100
AcDbLine
 10
6409.7999649013
 20
4946.3067200128
 30
0.0
 11
6409.7999649013
 21
4943.3067200128
 31
0.0
  0
ARC
  5
1E6
330
1F
100
AcDbEntity
  8
0
  6
Continuous
 62
     7
370
    25
100
AcDbCircle
 10
6346.3739545228
 20
4917.1961664568
 30
0.0
 40
21.92200979659931
100
AcDbArc
 50
321.6719685739
 51
335.360647552
  0
LWPOLYLINE
  5
1E7
330
1F
100
AcDbEntity
  8
0
  6
Continuous
 62
     7
370
    25
100
AcDbPolyline
 90
       10
 70
   128
 43
0.0
 10
6352.2999649013
 20
4921.9341642106
 10
6352.4698638312
 20
4918.9686298787
 10
6352.9838045224
 20
4916.085235343
 10
6353.8489006707
 20
4913.3681144354
 10
6355.0289392257
 20
4910.8983275934
 10
6356.441358005
 20
4908.7897921787
 10
6358.059308179
 20
4906.9979676929
 10
6359.794535547
 20
4905.5650571558
 10
6361.6470897722
 20
4904.434215495
 10
6363.5711805309
 20
4903.6009492408
  0
LINE
  5
1E8
330
1F
100
AcDbEntity
  8
0
  6
Continuous
 62
     7
370
    25
100
AcDbLine
 10
6352.2999649013
 20
4921.9341642106
 30
0.0
 11
6352.2999649013
 21
5043.0567669187
 31
0.0
  0
LINE
  5
1E9
330
1F
100
AcDbEntity
  8
0
  6
Continuous
 62
     7
370
    25
100
AcDbLine
 10
6412.2999649013
 20
4948.8067200128
 30
0.0
 11
6412.2999649013
 21
4986.3067200128
 31
0.0
  0
ARC
  5
1EA
330
1F
100
AcDbEntity
  8
0
  6
Continuous
 62
     7
370
    25
100
AcDbCircle
 10
6384.440087948
 20
4924.4745875565
 30
0.0
 40
29.51643734119719
100
AcDbArc
 50
225.006493627
 51
256.0010991652
  0
LINE
  5
1EB
330
1F
100
AcDbEntity
  8
0
  6
Continuous
 62
     7
370
    25
100
AcDbLine
 10
6380.2999649013
 20
4908.0567669187
 30
0.0
 11
6380.2999649013
 21
4902.3099225032
 31
0.0
  0
LINE
  5
1EC
330
1F
100
AcDbEntity
  8
0
  6
Continuous
 62
     7
370
    25
100
AcDbLine
 10
6402.2999649013
 20
4986.3067200128
 30
0.0
 11
6402.2999649013
 21
4948.8067200128
 31
0.0
  0
LINE
  5
1ED
330
1F
100
AcDbEntity
  8
0
  6
Continuous
 62
     7
370
    25
100
AcDbLine
 10
6402.2999649013
 20
4948.8067200128
 30
0.0
 11
6399.2999649013
 21
4948.8067200128
 31
0.0
  0
LINE
  5
1EE
330
1F
100
AcDbEntity
  8
0
  6
Continuous
 62
     7
370
    25
100
AcDbLine
 10
6404.7999649013
 20
4946.3067200128
 30
0.0
 11
6409.7999649013
 21
4946.3067200128
 31
0.0
  0
LINE
  5
1EF
330
1F
100
AcDbEntity
  8
0
  6
Continuous
 62
     7
370
    25
100
AcDbLine
 10
6404.7999649013
 20
4946.3067200128
 30
0.0
 11
6404.7999649013
 21
4943.3067200128
 31
0.0
  0
ARC
  5
1F0
330
1F
100
AcDbEntity
  8
0
  6
Continuous
 62
     7
370
    25
100
AcDbCircle
 10
6404.7999649013
 20
4948.8067200128
 30
0.0
 40
2.500000000000909
100
AcDbArc
 50
180.0
 51
270.0
  0
LINE
  5
1F1
330
1F
100
AcDbEntity
  8
0
  6
Continuous
 62
     7
370
    25
100
AcDbLine
 10
6462.0070716825
 20
5043.0567669187
 30
0.0
 11
6448.5928581204
 21
5043.0567669187
 31
0.0
  0
LINE
  5
1F2
330
1F
100
AcDbEntity
  8
0
  6
Continuous
 62
     7
370
    25
100
AcDbLine
 10
6462.0070716825
 20
4918.0450940766
 30
0.0
 11
6462.0070716825
 21
5043.0567669187
 31
0.0
  0
ARC
  5
1F3
330
1F
100
AcDbEntity
  8
0
  6
Continuous
 62
     7
370
    25
100
AcDbCircle
 10
6444.4519558058
 20
4919.9937923814
 30
0.0
 40
17.66294195560778
100
AcDbArc
 50
291.8606106782
 51
353.6658375421
  0
LINE
  5
1F4
330
1F
100
AcDbEntity
  8
0
  6
Continuous
 62
     7
370
    25
100
AcDbLine
 10
6462.0070716825
 20
5049.6136655438
 30
0.0
 11
6448.5928581182
 21
5058.1209669776
 31
0.0
  0
LINE
  5
1F5
330
1F
100
AcDbEntity
  8
0
  6
Continuous
 62
     7
370
    25
100
AcDbLine
 10
6462.0070716825
 20
5043.0567669187
 30
0.0
 11
6462.0070716825
 21
5049.6136655438
 31
0.0
  0
ARC
  5
1F6
330
1F
100
AcDbEntity
  8
0
  6
Continuous
 62
     7
370
    25
100
AcDbCircle
 10
6437.6881886058
 20
4921.8308288948
 30
0.0
 40
24.61178299539921
100
AcDbArc
 50
351.1517504163
 51
359.9577234683
  0
LINE
  5
1F7
330
1F
100
AcDbEntity
  8
0
  6
Continuous
 62
     7
370
    25
100
AcDbLine
 10
6462.2999649013
 20
4921.8126687312
 30
0.0
 11
6462.2999649013
 21
4917.3067200128
 31
0.0
  0
ARC
  5
1F8
330
1F
100
AcDbEntity
  8
0
  6
Continuous
 62
     7
370
    25
100
AcDbCircle
 10
6437.2999649013
 20
4917.3067200128
 30
0.0
 40
25.00000000000091
100
AcDbArc
 50
270.0
 51
0.0
  0
LINE
  5
1F9
330
1F
100
AcDbEntity
  8
0
  6
Continuous
 62
     7
370
    25
100
AcDbLine
 10
6437.2999649013
 20
4892.3067200128
 30
0.0
 11
6437.2999649013
 21
4895.8347775676
 31
0.0
  0
LINE
  5
1FA
330
1F
100
AcDbEntity
  8
0
  6
Continuous
 62
     7
370
    25
100
AcDbLine
 10
6377.2999649013
 20
4895.8347775676
 30
0.0
 11
6377.2999649013
 21
4892.3067200128
 31
0.0
  0
ARC
  5
1FB
330
1F
100
AcDbEntity
  8
0
  6
Continuous
 62
     7
370
    25
100
AcDbCircle
 10
6377.2999649013
 20
4917.3067200128
 30
0.0
 40
25.00000000000091
100
AcDbArc
 50
180.0
 51
270.0
  0
LINE
  5
1FC
330
1F
100
AcDbEntity
  8
0
  6
Continuous
 62
     7
370
    25
100
AcDbLine
 10
6352.2999649013
 20
4917.3067200128
 30
0.0
 11
6352.2999649013
 21
4921.9341642106
 31
0.0
  0
LINE
  5
1FD
330
1F
100
AcDbEntity
  8
0
  6
Continuous
 62
     7
370
    25
100
AcDbLine
 10
6366.2999649013
 20
5098.3067200128
 30
0.0
 11
6366.2999649013
 21
5058.3067200128
 31
0.0
  0
LINE
  5
1FE
330
1F
100
AcDbEntity
  8
0
  6
Continuous
 62
     7
370
    25
100
AcDbLine
 10
6447.8857513389
 20
5098.3067200128
 30
0.0
 11
6366.2999649013
 21
5098.3067200128
 31
0.0
  0
LINE
  5
1FF
330
1F
100
AcDbEntity
  8
0
  6
Continuous
 62
     7
370
    25
100
AcDbLine
 10
6447.8857513389
 20
5058.3067200128
 30
0.0
 11
6447.8857513389
 21
5098.3067200128
 31
0.0
  0
LINE
  5
200
330
1F
100
AcDbEntity
  8
0
  6
Continuous
 62
     7
370
    25
100
AcDbLine
 10
6389.7999649013
 20
5098.0627797502
 30
0.0
 11
6389.7999649013
 21
5097.6681816978
 31
0.0
  0
LINE
  5
201
330
1F
100
AcDbEntity
  8
0
  6
Continuous
 62
     7
370
    25
100
AcDbLine
 10
6389.7999649013
 20
5097.6681816978
 30
0.0
 11
6400.2999649013
 21
5097.6681816978
 31
0.0
  0
LINE
  5
202
330
1F
100
AcDbEntity
  8
0
  6
Continuous
 62
     7
370
    25
100
AcDbLine
 10
6400.2999649013
 20
5097.6681816978
 30
0.0
 11
6400.2999649013
 21
5098.0627797502
 31
0.0
  0
LINE
  5
203
330
1F
100
AcDbEntity
  8
0
  6
Continuous
 62
     7
370
    25
100
AcDbLine
 10
6400.2999649013
 20
5098.0627797502
 30
0.0
 11
6389.7999649013
 21
5098.0627797502
 31
0.0
  0
LINE
  5
204
330
1F
100
AcDbEntity
  8
0
  6
Continuous
 62
     7
370
    25
100
AcDbLine
 10
6414.2999649013
 20
5098.0627797502
 30
0.0
 11
6414.2999649013
 21
5097.6681816978
 31
0.0
  0
LINE
  5
205
330
1F
100
AcDbEntity
  8
0
  6
Continuous
 62
     7
370
    25
100
AcDbLine
 10
6414.2999649013
 20
5097.6681816978
 30
0.0
 11
6424.7999649013
 21
5097.6681816978
 31
0.0
  0
LINE
  5
206
330
1F
100
AcDbEntity
  8
0
  6
Continuous
 62
     7
370
    25
100
AcDbLine
 10
6424.7999649013
 20
5097.6681816978
 30
0.0
 11
6424.7999649013
 21
5098.0627797502
 31
0.0
  0
LINE
  5
207
330
1F
100
AcDbEntity
  8
0
  6
Continuous
 62
     7
370
    25
100
AcDbLine
 10
6424.7999649013
 20
5098.0627797502
 30
0.0
 11
6414.2999649013
 21
5098.0627797502
 31
0.0
  0
LWPOLYLINE
  5
208
330
1F
100
AcDbEntity
  8
0
  6
Continuous
 62
     7
370
    25
100
AcDbPolyline
 90
       13
 70
   128
 43
0.0
 10
6448.593015352
 20
5098.013669562
 10
6448.5930022494
 20
5097.718022662
 10
6448.5929891467
 20
5096.8326587209
 10
6448.5929760441
 20
5095.3623781686
 10
6448.5929629414
 20
5093.3151529382
 10
6448.5929498387
 20
5090.7020832422
 10
6448.5929367361
 20
5087.5373373866
 10
6448.5929236334
 20
5083.8380749483
 10
6448.5929105308
 20
5079.6243537349
 10
6448.5928974281
 20
5074.9190210283
 10
6448.5928843254
 20
5069.7475897049
 10
6448.5928712228
 20
5064.1380999011
 10
6448.5928581201
 20
5058.1209669764
  0
LWPOLYLINE
  5
209
330
1F
100
AcDbEntity
  8
0
  6
Continuous
 62
     7
370
    25
100
AcDbPolyline
 90
        3
 70
   128
 43
0.0
 10
6447.8857513389
 20
5098.3064047045
 10
6448.2762621777
 20
5098.2493373493
 10
6448.5928581202
 20
5098.0135123302
  0
LINE
  5
20A
330
1F
100
AcDbEntity
  8
0
  6
Continuous
 62
     7
370
    25
100
AcDbLine
 10
6352.2999649013
 20
5049.4279125074
 30
0.0
 11
6352.2999649013
 21
5084.3067200128
 31
0.0
  0
LINE
  5
20B
330
1F
100
AcDbEntity
  8
0
  6
Continuous
 62
     7
370
    25
100
AcDbLine
 10
6352.2999649013
 20
5084.3067200128
 30
0.0
 11
6366.2999649013
 21
5098.3067200128
 31
0.0
  0
LINE
  5
20C
330
1F
100
AcDbEntity
  8
0
  6
Continuous
 62
     7
370
    25
100
AcDbLine
 10
6448.593015352
 20
5098.013669562
 30
0.0
 11
6462.0072095745
 21
5084.5994753396
 31
0.0
  0
LWPOLYLINE
  5
20D
330
1F
100
AcDbEntity
  8
0
  6
Continuous
 62
     7
370
    25
100
AcDbPolyline
 90
       13
 70
   128
 43
0.0
 10
6462.0070716825
 20
5049.6136655438
 10
6462.0070831735
 20
5054.8906774877
 10
6462.0070946645
 20
5059.8101873381
 10
6462.0071061555
 20
5064.3455208935
 10
6462.0071176465
 20
5068.4720870178
 10
6462.0071291375
 20
5072.1675109764
 10
6462.0071406285
 20
5075.4117557545
 10
6462.0071521195
 20
5078.1872307006
 10
6462.0071636105
 20
5080.4788869043
 10
6462.0071751015
 20
5082.2742987937
 10
6462.0071865925
 20
5083.5637315073
 10
6462.0071980835
 20
5084.3401936779
 10
6462.0072095745
 20
5084.5994753396
  0
LINE
  5
20E
330
1F
100
AcDbEntity
  8
0
  6
Continuous
 62
     7
370
    25
100
AcDbLine
 10
6462.2999649013
 20
5043.0567669187
 30
0.0
 11
6462.0070716825
 21
5043.0567669187
 31
0.0
  0
LINE
  5
20F
330
1F
100
AcDbEntity
  8
0
  6
Continuous
 62
     7
370
    25
100
AcDbLine
 10
6462.2999649013
 20
5043.0567669187
 30
0.0
 11
6462.2999649013
 21
4921.8126687312
 31
0.0
  0
LINE
  5
210
330
1F
100
AcDbEntity
  8
0
  6
Continuous
 62
     7
370
    25
100
AcDbLine
 10
6462.2999649013
 20
5049.1652180441
 30
0.0
 11
6462.2999649013
 21
5043.0567669187
 31
0.0
  0
ARC
  5
211
330
1F
100
AcDbEntity
  8
0
  6
Continuous
 62
     7
370
    25
100
AcDbCircle
 10
6461.8319253747
 20
5049.1794007418
 30
0.0
 40
0.4682543618707086
100
AcDbArc
 50
358.264334336
 51
68.034949713
  0
LINE
  5
212
330
1F
100
AcDbEntity
  8
0
  6
Continuous
 62
     7
370
    25
100
AcDbLine
 10
6435.2999649013
 20
4892.3067200128
 30
0.0
 11
6436.7999649013
 21
4892.3067200128
 31
0.0
  0
LINE
  5
213
330
1F
100
AcDbEntity
  8
0
  6
Continuous
 62
     7
370
    25
100
AcDbLine
 10
6435.2999649013
 20
4892.3067200128
 30
0.0
 11
6434.2999649013
 21
4892.3067200128
 31
0.0
  0
LINE
  5
214
330
1F
100
AcDbEntity
  8
0
  6
Continuous
 62
     7
370
    25
100
AcDbLine
 10
6437.2999649013
 20
4892.3067200128
 30
0.0
 11
6436.7999649013
 21
4892.3067200128
 31
0.0
  0
LINE
  5
215
330
1F
100
AcDbEntity
  8
0
  6
Continuous
 62
     7
370
    25
100
AcDbLine
 10
6434.2999649013
 20
4892.3067200128
 30
0.0
 11
6434.2999649013
 21
4893.7501595421
 31
0.0
  0
LINE
  5
216
330
1F
100
AcDbEntity
  8
0
  6
Continuous
 62
     7
370
    25
100
AcDbLine
 10
6380.2999649013
 20
4892.3067200128
 30
0.0
 11
6379.2999649013
 21
4892.3067200128
 31
0.0
  0
LINE
  5
217
330
1F
100
AcDbEntity
  8
0
  6
Continuous
 62
     7
370
    25
100
AcDbLine
 10
6379.2999649013
 20
4892.3067200128
 30
0.0
 11
6377.7999649013
 21
4892.3067200128
 31
0.0
  0
LINE
  5
218
330
1F
100
AcDbEntity
  8
0
  6
Continuous
 62
     7
370
    25
100
AcDbLine
 10
6377.7999649013
 20
4892.3067200128
 30
0.0
 11
6377.2999649013
 21
4892.3067200128
 31
0.0
  0
LINE
  5
219
330
1F
100
AcDbEntity
  8
0
  6
Continuous
 62
     7
370
    25
100
AcDbLine
 10
6380.2999649013
 20
4893.7501595421
 30
0.0
 11
6380.2999649013
 21
4892.3067200128
 31
0.0
  0
LWPOLYLINE
  5
21A
330
1F
100
AcDbEntity
  8
0
  6
Continuous
 62
     7
370
    25
100
AcDbPolyline
 90
        3
 70
   128
 43
0.0
 10
6462.0070716825
 20
5084.5993374476
 10
6462.2428517202
 20
5084.2828526541
 10
6462.2999649013
 20
5083.8922327053
  0
LINE
  5
21B
330
1F
100
AcDbEntity
  8
0
  6
Continuous
 62
     7
370
    25
100
AcDbLine
 10
6462.2999649013
 20
5083.8922327053
 30
0.0
 11
6462.2999649013
 21
5049.1652180441
 31
0.0
  0
LINE
  5
21C
330
1F
100
AcDbEntity
  8
0
  6
Continuous
 62
     8
370
    25
100
AcDbLine
 10
6412.0501150152
 20
4983.2115023842
 30
0.0
 11
6412.2999649013
 21
4983.2115023842
 31
0.0
  0
LINE
  5
21D
330
1F
100
AcDbEntity
  8
0
  6
Continuous
 62
     8
370
    25
100
AcDbLine
 10
6412.0501150152
 20
4951.9515023842
 30
0.0
 11
6412.2999649013
 21
4951.9515023842
 31
0.0
  0
ARC
  5
21E
330
1F
100
AcDbEntity
  8
0
  6
Continuous
 62
     8
370
    25
100
AcDbCircle
 10
6407.9307385828
 20
4951.7020825902
 30
0.0
 40
4.992037743933844
100
AcDbArc
 50
268.6154163101
 51
331.0732784672
  0
ARC
  5
21F
330
1F
100
AcDbEntity
  8
0
  6
Continuous
 62
     8
370
    25
100
AcDbCircle
 10
6410.826011583
 20
4983.450967691
 30
0.0
 40
2.277308941568299
100
AcDbArc
 50
49.6665685809
 51
96.9584919258
  0
LINE
  5
220
330
1F
100
AcDbEntity
  8
0
  6
Continuous
 62
     8
370
    25
100
AcDbLine
 10
6434.2303504374
 20
4894.8181120039
 30
0.0
 11
6434.4777555184
 21
4894.8337085809
 31
0.0
  0
LINE
  5
221
330
1F
100
AcDbEntity
  8
0
  6
Continuous
 62
     8
370
    25
100
AcDbLine
 10
6434.2999649013
 20
4933.8067200128
 30
0.0
 11
6434.0782356357
 21
4933.8067200128
 31
0.0
  0
LINE
  5
222
330
1F
100
AcDbEntity
  8
0
  6
Continuous
 62
     8
370
    25
100
AcDbLine
 10
6380.5216941669
 20
4933.8067200128
 30
0.0
 11
6380.2999649013
 21
4933.8067200128
 31
0.0
  0
LINE
  5
223
330
1F
100
AcDbEntity
  8
0
  6
Continuous
 62
     8
370
    25
100
AcDbLine
 10
6380.1221742842
 20
4894.8337085809
 30
0.0
 11
6380.3695793652
 21
4894.8181120039
 31
0.0
  0
LINE
  5
224
330
1F
100
AcDbEntity
  8
0
  6
Continuous
 62
     8
370
    25
100
AcDbLine
 10
6393.9803667794
 20
4893.9876432298
 30
0.0
 11
6393.5078844107
 21
4893.2785700044
 31
0.0
  0
LINE
  5
225
330
1F
100
AcDbEntity
  8
0
  6
Continuous
 62
     8
370
    25
100
AcDbLine
 10
6421.0920453919
 20
4893.2785700044
 30
0.0
 11
6420.5812424958
 21
4894.0455292003
 31
0.0
  0
LINE
  5
226
330
1F
100
AcDbEntity
  8
0
  6
Continuous
 62
     8
370
    25
100
AcDbLine
 10
6437.2999649013
 20
4895.8347775676
 30
0.0
 11
6434.4249649013
 21
4895.8347775676
 31
0.0
  0
LINE
  5
227
330
1F
100
AcDbEntity
  8
0
  6
Continuous
 62
     8
370
    25
100
AcDbLine
 10
6380.1749649013
 20
4895.8347775676
 30
0.0
 11
6377.2999649013
 21
4895.8347775676
 31
0.0
  0
LINE
  5
228
330
1F
100
AcDbEntity
  8
0
  6
Continuous
 62
     7
370
    25
100
AcDbLine
 10
6600.1513449824
 20
4917.2115023842
 30
0.0
 11
6644.1513449824
 21
4917.2115023842
 31
0.0
  0
LINE
  5
229
330
1F
100
AcDbEntity
  8
0
  6
Continuous
 62
     7
370
    25
100
AcDbLine
 10
6600.1513449824
 20
5057.2115023842
 30
0.0
 11
6600.1513449824
 21
4917.2115023842
 31
0.0
  0
ARC
  5
22A
330
1F
100
AcDbEntity
  8
0
  6
Continuous
 62
     7
370
    25
100
AcDbCircle
 10
6641.6513449824
 20
5044.646636302
 30
0.0
 40
2.5
100
AcDbArc
 50
0.0
 51
62.7349005198
  0
LINE
  5
22B
330
1F
100
AcDbEntity
  8
0
  6
Continuous
 62
     7
370
    25
100
AcDbLine
 10
6644.1513449824
 20
5044.646636302
 30
0.0
 11
6644.1513449824
 21
4917.2115023842
 31
0.0
  0
ARC
  5
22C
330
1F
100
AcDbEntity
  8
0
  6
Continuous
 62
     7
370
    25
100
AcDbCircle
 10
6600.1513449824
 20
4964.1215474676
 30
0.0
 40
93.08995491661881
100
AcDbArc
 50
62.7349005198
 51
90.0
  0
LINE
  5
22D
330
1F
100
AcDbEntity
  8
0
  6
Continuous
 62
     7
370
    25
100
AcDbLine
 10
6629.1513449824
 20
4892.2115023842
 30
0.0
 11
6600.1513449824
 21
4892.2115023842
 31
0.0
  0
LINE
  5
22E
330
1F
100
AcDbEntity
  8
0
  6
Continuous
 62
     7
370
    25
100
AcDbLine
 10
6644.1513449824
 20
4917.2115023842
 30
0.0
 11
6644.1513449824
 21
4892.2115023842
 31
0.0
  0
LINE
  5
22F
330
1F
100
AcDbEntity
  8
0
  6
Continuous
 62
     7
370
    25
100
AcDbLine
 10
6644.1513449824
 20
4892.2115023842
 30
0.0
 11
6629.1513449824
 21
4892.2115023842
 31
0.0
  0
LINE
  5
230
330
1F
100
AcDbEntity
  8
0
  6
Continuous
 62
     7
370
    25
100
AcDbLine
 10
6600.1513449824
 20
4892.2115023842
 30
0.0
 11
6600.1513449824
 21
4917.2115023842
 31
0.0
  0
LINE
  5
231
330
1F
100
AcDbEntity
  8
0
  6
Continuous
 62
     7
370
    25
100
AcDbLine
 10
6644.4013449824
 20
4948.7693143104
 30
0.0
 11
6644.1513449824
 21
4948.7693143104
 31
0.0
  0
LINE
  5
232
330
1F
100
AcDbEntity
  8
0
  6
Continuous
 62
     7
370
    25
100
AcDbLine
 10
6600.1513449824
 20
5063.2115023842
 30
0.0
 11
6600.4013449824
 21
5063.2111870137
 31
0.0
  0
LINE
  5
233
330
1F
100
AcDbEntity
  8
0
  6
Continuous
 62
     7
370
    25
100
AcDbLine
 10
6600.1513449824
 20
5063.2115023842
 30
0.0
 11
6600.1513449824
 21
5057.2115023842
 31
0.0
  0
LINE
  5
234
330
1F
100
AcDbEntity
  8
0
  6
Continuous
 62
     7
370
    25
100
AcDbLine
 10
6600.1513449824
 20
5082.0134537083
 30
0.0
 11
6600.4013449824
 21
5081.9906880651
 31
0.0
  0
LINE
  5
235
330
1F
100
AcDbEntity
  8
0
  6
Continuous
 62
     7
370
    25
100
AcDbLine
 10
6600.1513449824
 20
5082.0134537083
 30
0.0
 11
6600.1513449824
 21
5083.9437354313
 31
0.0
  0
LINE
  5
236
330
1F
100
AcDbEntity
  8
0
  6
Continuous
 62
     7
370
    25
100
AcDbLine
 10
6600.1513449824
 20
5081.9096191702
 30
0.0
 11
6600.1513449824
 21
5082.0134537083
 31
0.0
  0
LINE
  5
237
330
1F
100
AcDbEntity
  8
0
  6
Continuous
 62
     7
370
    25
100
AcDbLine
 10
6600.1513449824
 20
5081.9096191702
 30
0.0
 11
6600.1513449824
 21
5063.2115023842
 31
0.0
  0
LINE
  5
238
330
1F
100
AcDbEntity
  8
0
  6
Continuous
 62
     7
370
    25
100
AcDbLine
 10
6600.1513449824
 20
5094.4792693372
 30
0.0
 11
6600.1513449824
 21
5083.9437354313
 31
0.0
  0
LINE
  5
239
330
1F
100
AcDbEntity
  8
0
  6
Continuous
 62
     7
370
    25
100
AcDbLine
 10
6644.4013449824
 20
4942.7115023842
 30
0.0
 11
6644.1513449824
 21
4942.7115023842
 31
0.0
  0
LINE
  5
23A
330
1F
100
AcDbEntity
  8
0
  6
Continuous
 62
     7
370
    25
100
AcDbLine
 10
6600.1513449824
 20
5095.2115023842
 30
0.0
 11
6600.4013449824
 21
5095.2115023842
 31
0.0
  0
LINE
  5
23B
330
1F
100
AcDbEntity
  8
0
  6
Continuous
 62
     7
370
    25
100
AcDbLine
 10
6600.1513449824
 20
5094.4792693372
 30
0.0
 11
6600.1513449824
 21
5095.2115023842
 31
0.0
  0
LINE
  5
23C
330
1F
100
AcDbEntity
  8
0
  6
Continuous
 62
     7
370
    25
100
AcDbLine
 10
6651.1513449824
 20
4892.2115023842
 30
0.0
 11
6651.1513449824
 21
4892.34747297
 31
0.0
  0
LINE
  5
23D
330
1F
100
AcDbEntity
  8
0
  6
Continuous
 62
     7
370
    25
100
AcDbLine
 10
6644.1513449824
 20
4892.2115023842
 30
0.0
 11
6651.1513449824
 21
4892.2115023842
 31
0.0
  0
LINE
  5
23E
330
1F
100
AcDbEntity
  8
0
  6
Continuous
 62
     7
370
    25
100
AcDbLine
 10
6690.4268449824
 20
5018.5265091297
 30
0.0
 11
6690.4098449824
 21
5018.5265091297
 31
0.0
  0
LINE
  5
23F
330
1F
100
AcDbEntity
  8
0
  6
Continuous
 62
     7
370
    25
100
AcDbLine
 10
6690.4268449824
 20
5018.5265091297
 30
0.0
 11
6690.4268449824
 21
5017.9976059457
 31
0.0
  0
LINE
  5
240
330
1F
100
AcDbEntity
  8
0
  6
Continuous
 62
     7
370
    25
100
AcDbLine
 10
6690.4268449824
 20
5017.9976059457
 30
0.0
 11
6690.4098449824
 21
5017.9976059457
 31
0.0
  0
LINE
  5
241
330
1F
100
AcDbEntity
  8
0
  6
Continuous
 62
     7
370
    25
100
AcDbLine
 10
6690.4098449824
 20
5018.5265091297
 30
0.0
 11
6690.4098449824
 21
5017.9976059457
 31
0.0
  0
LINE
  5
242
330
1F
100
AcDbEntity
  8
0
  6
Continuous
 62
     7
370
    25
100
AcDbLine
 10
6690.4268449824
 20
5021.3755679617
 30
0.0
 11
6690.4098449824
 21
5021.3755679617
 31
0.0
  0
LINE
  5
243
330
1F
100
AcDbEntity
  8
0
  6
Continuous
 62
     7
370
    25
100
AcDbLine
 10
6690.4268449824
 20
5020.3440121777
 30
0.0
 11
6690.4098449824
 21
5020.3440121777
 31
0.0
  0
LINE
  5
244
330
1F
100
AcDbEntity
  8
0
  6
Continuous
 62
     7
370
    25
100
AcDbLine
 10
6690.4268449824
 20
5022.3489560017
 30
0.0
 11
6690.4098449824
 21
5022.3489560017
 31
0.0
  0
LINE
  5
245
330
1F
100
AcDbEntity
  8
0
  6
Continuous
 62
     7
370
    25
100
AcDbLine
 10
6690.4268449824
 20
5019.6173762137
 30
0.0
 11
6690.4098449824
 21
5019.6173762137
 31
0.0
  0
LINE
  5
246
330
1F
100
AcDbEntity
  8
0
  6
Continuous
 62
     7
370
    25
100
AcDbLine
 10
6690.4098449824
 20
5020.3440121777
 30
0.0
 11
6690.4098449824
 21
5019.6173762137
 31
0.0
  0
LINE
  5
247
330
1F
100
AcDbEntity
  8
0
  6
Continuous
 62
     7
370
    25
100
AcDbLine
 10
6690.4268449824
 20
5020.3440121777
 30
0.0
 11
6690.4268449824
 21
5019.6173762137
 31
0.0
  0
LINE
  5
248
330
1F
100
AcDbEntity
  8
0
  6
Continuous
 62
     7
370
    25
100
AcDbLine
 10
6690.4268449824
 20
5018.9186122937
 30
0.0
 11
6690.4098449824
 21
5018.9186122937
 31
0.0
  0
LINE
  5
249
330
1F
100
AcDbEntity
  8
0
  6
Continuous
 62
     7
370
    25
100
AcDbLine
 10
6690.4268449824
 20
5022.3490072057
 30
0.0
 11
6690.4098449824
 21
5022.3490072057
 31
0.0
  0
LINE
  5
24A
330
1F
100
AcDbEntity
  8
0
  6
Continuous
 62
     7
370
    25
100
AcDbLine
 10
6690.4268449824
 20
5019.5664282337
 30
0.0
 11
6690.4268449824
 21
5019.6173762137
 31
0.0
  0
LINE
  5
24B
330
1F
100
AcDbEntity
  8
0
  6
Continuous
 62
     7
370
    25
100
AcDbLine
 10
6690.4098449824
 20
5019.5664282337
 30
0.0
 11
6690.4098449824
 21
5019.6173762137
 31
0.0
  0
LINE
  5
24C
330
1F
100
AcDbEntity
  8
0
  6
Continuous
 62
     7
370
    25
100
AcDbLine
 10
6690.4268449824
 20
5020.3440121777
 30
0.0
 11
6690.4268449824
 21
5020.6733051017
 31
0.0
  0
LINE
  5
24D
330
1F
100
AcDbEntity
  8
0
  6
Continuous
 62
     7
370
    25
100
AcDbLine
 10
6690.4098449824
 20
5020.3440121777
 30
0.0
 11
6690.4098449824
 21
5020.6733051017
 31
0.0
  0
LINE
  5
24E
330
1F
100
AcDbEntity
  8
0
  6
Continuous
 62
     7
370
    25
100
AcDbLine
 10
6690.4268449824
 20
5022.8496628497
 30
0.0
 11
6690.4098449824
 21
5022.8496628497
 31
0.0
  0
LINE
  5
24F
330
1F
100
AcDbEntity
  8
0
  6
Continuous
 62
     7
370
    25
100
AcDbLine
 10
6690.4268449824
 20
5022.8556878537
 30
0.0
 11
6690.4098449824
 21
5022.8556878537
 31
0.0
  0
LINE
  5
250
330
1F
100
AcDbEntity
  8
0
  6
Continuous
 62
     7
370
    25
100
AcDbLine
 10
6644.1513449824
 20
4914.8067200128
 30
0.0
 11
6644.4013449824
 21
4914.8067200128
 31
0.0
  0
LINE
  5
251
330
1F
100
AcDbEntity
  8
0
  6
Continuous
 62
     7
370
    25
100
AcDbLine
 10
6644.4013449824
 20
4910.8067200128
 30
0.0
 11
6644.1513449824
 21
4910.8067200128
 31
0.0
  0
LINE
  5
252
330
1F
100
AcDbEntity
  8
0
  6
Continuous
 62
     7
370
    25
100
AcDbLine
 10
6644.1513449824
 20
4928.8067200128
 30
0.0
 11
6644.4013449824
 21
4928.8067200128
 31
0.0
  0
LINE
  5
253
330
1F
100
AcDbEntity
  8
0
  6
Continuous
 62
     7
370
    25
100
AcDbLine
 10
6644.4013449824
 20
4924.8067200128
 30
0.0
 11
6644.1513449824
 21
4924.8067200128
 31
0.0
  0
LINE
  5
254
330
1F
100
AcDbEntity
  8
0
  6
Continuous
 62
     7
370
    25
100
AcDbLine
 10
6644.4013449824
 20
4922.3067200128
 30
0.0
 11
6644.1513449824
 21
4922.3067200128
 31
0.0
  0
LINE
  5
255
330
1F
100
AcDbEntity
  8
0
  6
Continuous
 62
     7
370
    25
100
AcDbLine
 10
6644.1513449824
 20
4937.8067200128
 30
0.0
 11
6644.4013449824
 21
4937.8067200128
 31
0.0
  0
ARC
  5
256
330
1F
100
AcDbEntity
  8
0
  6
Continuous
 62
     7
370
    25
100
AcDbCircle
 10
6545.4635403997
 20
4938.4864289475
 30
0.0
 40
160.9803197518515
100
AcDbArc
 50
346.1091065572
 51
358.3341730811
  0
ARC
  5
257
330
1F
100
AcDbEntity
  8
0
  6
Continuous
 62
     7
370
    25
100
AcDbCircle
 10
6665.1293945411
 20
4954.5963516964
 30
0.0
 40
65.8663476797931
100
AcDbArc
 50
294.8284945131
 51
303.7637667848
  0
LINE
  5
258
330
1F
100
AcDbEntity
  8
0
  6
Continuous
 62
     7
370
    25
100
AcDbLine
 10
6690.4013449824
 20
4936.3067200128
 30
0.0
 11
6706.3478427239
 21
4936.3067200128
 31
0.0
  0
ARC
  5
259
330
1F
100
AcDbEntity
  8
0
  6
Continuous
 62
     7
370
    25
100
AcDbCircle
 10
6650.5180071974
 20
4934.4316417061
 30
0.0
 40
55.86131446324933
100
AcDbArc
 50
359.3590175459
 51
1.9235898619
  0
ARC
  5
25A
330
1F
100
AcDbEntity
  8
0
  6
Continuous
 62
     7
370
    25
100
AcDbCircle
 10
6630.5677596188
 20
4880.6702264756
 30
0.0
 40
63.80740209416389
100
AcDbArc
 50
10.517856387
 51
12.8105450895
  0
LINE
  5
25B
330
1F
100
AcDbEntity
  8
0
  6
Continuous
 62
     7
370
    25
100
AcDbLine
 10
6693.3030739295
 20
4892.3177541249
 30
0.0
 11
6693.303014968
 21
4892.3177274253
 31
0.0
  0
LINE
  5
25C
330
1F
100
AcDbEntity
  8
0
  6
Continuous
 62
     7
370
    25
100
AcDbLine
 10
6693.303014968
 20
4892.3177274253
 30
0.0
 11
6648.4013449824
 21
4892.349413587
 31
0.0
  0
LINE
  5
25D
330
1F
100
AcDbEntity
  8
0
  6
Continuous
 62
     7
370
    25
100
AcDbLine
 10
6648.4013449824
 20
4892.349413587
 30
0.0
 11
6648.4013449824
 21
4892.3647208886
 31
0.0
  0
LINE
  5
25E
330
1F
100
AcDbEntity
  8
0
  6
Continuous
 62
     7
370
    25
100
AcDbLine
 10
6703.9013544184
 20
4898.3067572275
 30
0.0
 11
6703.9013449824
 21
4898.3067200128
 31
0.0
  0
ARC
  5
25F
330
1F
100
AcDbEntity
  8
0
  6
Continuous
 62
     7
370
    25
100
AcDbCircle
 10
6665.1014112196
 20
4954.5963516964
 30
0.0
 40
68.36634767979206
100
AcDbArc
 50
294.3624786829
 51
304.5781442372
  0
ARC
  5
260
330
1F
100
AcDbEntity
  8
0
  6
Continuous
 62
     7
370
    25
100
AcDbCircle
 10
6594.4088259661
 20
4745.8923260127
 30
0.0
 40
187.6666529498704
100
AcDbArc
 50
54.3070291074
 51
55.1169703155
  0
ARC
  5
261
330
1F
100
AcDbEntity
  8
0
  6
Continuous
 62
     7
370
    25
100
AcDbCircle
 10
6545.4355570782
 20
4938.4864289475
 30
0.0
 40
163.48031975185
100
AcDbArc
 50
345.7722544939
 51
358.3341730811
  0
LWPOLYLINE
  5
262
330
1F
100
AcDbEntity
  8
0
  6
Continuous
 62
     7
370
    25
100
AcDbPolyline
 90
        9
 70
   128
 43
0.0
 10
6708.8467861645
 20
4933.7340448413
 10
6708.7994536979
 20
4933.7355790431
 10
6708.6592403567
 20
4933.7398084667
 10
6708.4314582146
 20
4933.7465728778
 10
6708.1247369458
 20
4933.7556160021
 10
6707.750696885
 20
4933.7665952351
 10
6707.3235087829
 20
4933.7790946213
 10
6706.8593569383
 20
4933.7926406134
 10
6706.3758260453
 20
4933.8067200128
  0
ARC
  5
263
330
1F
100
AcDbEntity
  8
0
  6
Continuous
 62
     7
370
    25
100
AcDbCircle
 10
6706.3478427239
 20
4933.8067200128
 30
0.0
 40
2.500000000000909
100
AcDbArc
 50
358.3341730811
 51
90.0
  0
ARC
  5
264
330
1F
100
AcDbEntity
  8
0
  6
Continuous
 62
     7
370
    25
100
AcDbCircle
 10
6670.475334604
 20
4917.1961664566
 30
0.0
 40
21.92200979641589
100
AcDbArc
 50
282.9855992176
 51
321.6719685741
  0
ARC
  5
265
330
1F
100
AcDbEntity
  8
0
  6
Continuous
 62
     7
370
    25
100
AcDbCircle
 10
6644.4013449824
 20
5030.2646720826
 30
0.0
 40
137.9579520698635
100
AcDbArc
 50
270.0
 51
282.9855992178
  0
LINE
  5
266
330
1F
100
AcDbEntity
  8
0
  6
Continuous
 62
     7
370
    25
100
AcDbLine
 10
6644.4013449824
 20
4892.3067200128
 30
0.0
 11
6644.4013449824
 21
4917.3067200128
 31
0.0
  0
ARC
  5
267
330
1F
100
AcDbEntity
  8
0
  6
Continuous
 62
     7
370
    25
100
AcDbCircle
 10
6644.4013449824
 20
5030.2646720826
 30
0.0
 40
112.9579520698635
100
AcDbArc
 50
270.0
 51
286.4567357145
  0
LWPOLYLINE
  5
268
330
1F
100
AcDbEntity
  8
0
  6
Continuous
 62
     7
370
    25
100
AcDbPolyline
 90
       10
 70
   128
 43
0.0
 10
6676.4013449824
 20
4921.9341642106
 10
6676.5712439123
 20
4918.9686298787
 10
6677.0851846035
 20
4916.085235343
 10
6677.9502807517
 20
4913.3681144354
 10
6679.1303193068
 20
4910.8983275934
 10
6680.542738086
 20
4908.7897921787
 10
6682.16068826
 20
4906.9979676929
 10
6683.8959156281
 20
4905.5650571558
 10
6685.7484698533
 20
4904.434215495
 10
6687.6725606119
 20
4903.6009492408
  0
LINE
  5
269
330
1F
100
AcDbEntity
  8
0
  6
Continuous
 62
     7
370
    25
100
AcDbLine
 10
6690.4013449824
 20
5043.0567669187
 30
0.0
 11
6676.4013449824
 21
5043.0567669187
 31
0.0
  0
LINE
  5
26A
330
1F
100
AcDbEntity
  8
0
  6
Continuous
 62
     7
370
    25
100
AcDbLine
 10
6690.4013449824
 20
5043.0567669187
 30
0.0
 11
6690.4013449824
 21
4908.0567669187
 31
0.0
  0
ARC
  5
26B
330
1F
100
AcDbEntity
  8
0
  6
Continuous
 62
     7
370
    25
100
AcDbCircle
 10
6670.4753346039
 20
4917.1961664568
 30
0.0
 40
21.92200979659931
100
AcDbArc
 50
321.6719685739
 51
335.360647552
  0
LINE
  5
26C
330
1F
100
AcDbEntity
  8
0
  6
Continuous
 62
     7
370
    25
100
AcDbLine
 10
6676.4013449824
 20
4921.9341642106
 30
0.0
 11
6676.4013449824
 21
5043.0567669187
 31
0.0
  0
ARC
  5
26D
330
1F
100
AcDbEntity
  8
0
  6
Continuous
 62
     7
370
    25
100
AcDbCircle
 10
6600.4013449824
 20
4988.9571885152
 30
0.0
 40
109.3495314975662
100
AcDbArc
 50
39.3607149135
 51
90.0
  0
LINE
  5
26E
330
1F
100
AcDbEntity
  8
0
  6
Continuous
 62
     7
370
    25
100
AcDbLine
 10
6684.9469688775
 20
5058.3067200128
 30
0.0
 11
6674.1226085138
 21
5049.4279125074
 31
0.0
  0
ARC
  5
26F
330
1F
100
AcDbEntity
  8
0
  6
Continuous
 62
     7
370
    25
100
AcDbCircle
 10
6600.4013449824
 20
4988.9571885152
 30
0.0
 40
95.3495314975653
100
AcDbArc
 50
39.3607149135
 51
90.0
  0
LINE
  5
270
330
1F
100
AcDbEntity
  8
0
  6
Continuous
 62
     7
370
    25
100
AcDbLine
 10
6600.4013449824
 20
5084.3067200128
 30
0.0
 11
6600.4013449824
 21
5098.3067200128
 31
0.0
  0
ARC
  5
271
330
1F
100
AcDbEntity
  8
0
  6
Continuous
 62
     7
370
    25
100
AcDbCircle
 10
6641.90001631
 20
5044.5889557066
 30
0.0
 40
2.501328672355305
100
AcDbArc
 50
0.0
 51
62.6977967247
  0
ARC
  5
272
330
1F
100
AcDbEntity
  8
0
  6
Continuous
 62
     7
370
    25
100
AcDbCircle
 10
6600.4054102616
 20
4964.2022140723
 30
0.0
 40
92.96585521017668
100
AcDbArc
 50
62.6977967247
 51
90.0025054719
  0
LINE
  5
273
330
1F
100
AcDbEntity
  8
0
  6
Continuous
 62
     7
370
    25
100
AcDbLine
 10
6600.4013449824
 20
5057.1680691935
 30
0.0
 11
6600.4013449824
 21
5084.3067200128
 31
0.0
  0
ARC
  5
274
330
1F
100
AcDbEntity
  8
0
  6
Continuous
 62
     7
370
    25
100
AcDbCircle
 10
6666.3553970114
 20
5043.0567669187
 30
0.0
 40
10.04594797096888
100
AcDbArc
 50
0.0
 51
39.3607149135
  0
LINE
  5
275
330
1F
100
AcDbEntity
  8
0
  6
Continuous
 62
     7
370
    25
100
AcDbLine
 10
6644.4013449824
 20
4917.3067200128
 30
0.0
 11
6644.4013449824
 21
5044.5889557066
 31
0.0
  0
ARC
  5
276
330
1F
100
AcDbEntity
  8
0
  6
Continuous
 62
     7
370
    25
100
AcDbCircle
 10
6666.3553970114
 20
5043.0567669187
 30
0.0
 40
24.04594797096888
100
AcDbArc
 50
0.0
 51
39.3607149135
  0
LINE
  5
277
330
1F
100
AcDbEntity
  8
0
  6
Continuous
 62
     7
370
    25
100
AcDbLine
 10
6644.4013449824
 20
4892.3067200128
 30
0.0
 11
6644.1513449824
 21
4892.3067200128
 31
0.0
  0
LINE
  5
278
330
1F
100
AcDbEntity
  8
0
  6
Continuous
 62
     7
370
    25
100
AcDbLine
 10
6644.1513449824
 20
4909.3067200128
 30
0.0
 11
6644.4013449824
 21
4909.3067200128
 31
0.0
  0
LINE
  5
279
330
1F
100
AcDbEntity
  8
0
  6
Continuous
 62
     8
370
    25
100
AcDbLine
 10
6600.1513449824
 20
5083.9437354313
 30
0.0
 11
6600.4013449824
 21
5083.9437354313
 31
0.0
  0
LINE
  5
27A
330
1F
100
AcDbEntity
  8
0
  6
Continuous
 62
     8
370
    25
100
AcDbLine
 10
6600.4013449824
 20
5081.8723851276
 30
0.0
 11
6600.1513449824
 21
5081.9096191702
 31
0.0
  0
LINE
  5
27B
330
1F
100
AcDbEntity
  8
0
  6
Continuous
 62
     8
370
    25
100
AcDbLine
 10
6600.4013449824
 20
5094.4792693372
 30
0.0
 11
6600.1513449824
 21
5094.4792693372
 31
0.0
  0
LINE
  5
27C
330
1F
100
AcDbEntity
  8
0
  6
Continuous
 62
     8
370
    25
100
AcDbLine
 10
6644.1513449824
 20
4945.2115023842
 30
0.0
 11
6644.4013449824
 21
4945.2115023842
 31
0.0
  0
LINE
  5
27D
330
1F
100
AcDbEntity
  8
0
  6
Continuous
 62
     8
370
    25
100
AcDbLine
 10
6644.4013449824
 20
4935.3067200128
 30
0.0
 11
6644.1513449824
 21
4935.3067200128
 31
0.0
  0
LINE
  5
27E
330
1F
100
AcDbEntity
  8
0
  6
Continuous
 62
     8
370
    25
100
AcDbLine
 10
6706.3758260453
 20
4933.8067200128
 30
0.0
 11
6690.4013449824
 21
4933.8067200128
 31
0.0
  0
LINE
  5
27F
330
1F
100
AcDbEntity
  8
0
  6
Continuous
 62
     8
370
    25
100
AcDbLine
 10
6670.6853831862
 20
4894.8337085809
 30
0.0
 11
6692.7869037553
 21
4894.8181120039
 31
0.0
  0
LINE
  5
280
330
1F
100
AcDbEntity
  8
0
  6
Continuous
 62
     7
370
    25
100
AcDbLine
 10
6355.2999649013
 20
4782.1327538908
 30
0.0
 11
6355.2999649013
 21
4781.8827538908
 31
0.0
  0
LINE
  5
281
330
1F
100
AcDbEntity
  8
0
  6
Continuous
 62
     7
370
    25
100
AcDbLine
 10
6459.2999649013
 20
4781.8827538908
 30
0.0
 11
6459.2999649013
 21
4782.1327538908
 31
0.0
  0
ARC
  5
282
330
1F
100
AcDbEntity
  8
0
  6
Continuous
 62
     7
370
    25
100
AcDbCircle
 10
6383.0215375488
 20
4675.9362561494
 30
0.0
 40
2.500000000000909
100
AcDbArc
 50
180.641343879
 51
270.0
  0
ARC
  5
283
330
1F
100
AcDbEntity
  8
0
  6
Continuous
 62
     7
370
    25
100
AcDbCircle
 10
6431.5783922538
 20
4675.9362561494
 30
0.0
 40
2.500000000000909
100
AcDbArc
 50
270.0
 51
359.358656121
  0
LINE
  5
284
330
1F
100
AcDbEntity
  8
0
  6
Continuous
 62
     7
370
    25
100
AcDbLine
 10
6383.0215375488
 20
4673.4362561494
 30
0.0
 11
6431.5783922538
 21
4673.4362561494
 31
0.0
  0
LINE
  5
285
330
1F
100
AcDbEntity
  8
0
  6
Continuous
 62
     7
370
    25
100
AcDbLine
 10
6386.2994309954
 20
4782.1327538908
 30
0.0
 11
6368.3354988072
 21
4782.1327538908
 31
0.0
  0
LINE
  5
286
330
1F
100
AcDbEntity
  8
0
  6
Continuous
 62
     7
370
    25
100
AcDbLine
 10
6386.2994309954
 20
4782.1327538908
 30
0.0
 11
6386.2994309954
 21
4781.8827538908
 31
0.0
  0
LINE
  5
287
330
1F
100
AcDbEntity
  8
0
  6
Continuous
 62
     7
370
    25
100
AcDbLine
 10
6366.5677318543
 20
4782.1327538908
 30
0.0
 11
6368.3354988072
 21
4782.1327538908
 31
0.0
  0
LINE
  5
288
330
1F
100
AcDbEntity
  8
0
  6
Continuous
 62
     7
370
    25
100
AcDbLine
 10
6428.2994309954
 20
4782.1327538908
 30
0.0
 11
6428.2994309954
 21
4781.8827538908
 31
0.0
  0
LINE
  5
289
330
1F
100
AcDbEntity
  8
0
  6
Continuous
 62
     7
370
    25
100
AcDbLine
 10
6446.2644309954
 20
4782.1327538908
 30
0.0
 11
6428.2994309954
 21
4782.1327538908
 31
0.0
  0
LINE
  5
28A
330
1F
100
AcDbEntity
  8
0
  6
Continuous
 62
     7
370
    25
100
AcDbLine
 10
6446.2644309954
 20
4782.1327538908
 30
0.0
 11
6448.0321979483
 21
4782.1327538908
 31
0.0
  0
LINE
  5
28B
330
1F
100
AcDbEntity
  8
0
  6
Continuous
 62
     7
370
    25
100
AcDbLine
 10
6400.2999649013
 20
4772.575429112
 30
0.0
 11
6389.7999649013
 21
4772.575429112
 31
0.0
  0
LINE
  5
28C
330
1F
100
AcDbEntity
  8
0
  6
Continuous
 62
     7
370
    25
100
AcDbLine
 10
6424.7999649013
 20
4772.575429112
 30
0.0
 11
6414.2999649013
 21
4772.575429112
 31
0.0
  0
LINE
  5
28D
330
1F
100
AcDbEntity
  8
0
  6
Continuous
 62
     7
370
    25
100
AcDbLine
 10
6366.5677318543
 20
4782.1327538908
 30
0.0
 11
6356.0321979483
 21
4782.1327538908
 31
0.0
  0
LINE
  5
28E
330
1F
100
AcDbEntity
  8
0
  6
Continuous
 62
     7
370
    25
100
AcDbLine
 10
6458.5677318543
 20
4782.1327538908
 30
0.0
 11
6448.0321979483
 21
4782.1327538908
 31
0.0
  0
LINE
  5
28F
330
1F
100
AcDbEntity
  8
0
  6
Continuous
 62
     7
370
    25
100
AcDbLine
 10
6355.2999649013
 20
4782.1327538908
 30
0.0
 11
6356.0321979483
 21
4782.1327538908
 31
0.0
  0
LINE
  5
290
330
1F
100
AcDbEntity
  8
0
  6
Continuous
 62
     7
370
    25
100
AcDbLine
 10
6458.5677318543
 20
4782.1327538908
 30
0.0
 11
6459.2999649013
 21
4782.1327538908
 31
0.0
  0
LINE
  5
291
330
1F
100
AcDbEntity
  8
0
  6
Continuous
 62
     7
370
    25
100
AcDbLine
 10
6402.2999649013
 20
4782.1327538908
 30
0.0
 11
6402.2999649013
 21
4781.8827538908
 31
0.0
  0
LINE
  5
292
330
1F
100
AcDbEntity
  8
0
  6
Continuous
 62
     7
370
    25
100
AcDbLine
 10
6402.2999649013
 20
4782.1327538908
 30
0.0
 11
6412.2999649013
 21
4782.1327538908
 31
0.0
  0
LINE
  5
293
330
1F
100
AcDbEntity
  8
0
  6
Continuous
 62
     7
370
    25
100
AcDbLine
 10
6412.2999649013
 20
4782.1327538908
 30
0.0
 11
6412.2999649013
 21
4781.8827538908
 31
0.0
  0
LINE
  5
294
330
1F
100
AcDbEntity
  8
0
  6
Continuous
 62
     7
370
    25
100
AcDbLine
 10
6354.2999649013
 20
4782.1327538908
 30
0.0
 11
6354.2999649013
 21
4781.8827538908
 31
0.0
  0
LINE
  5
295
330
1F
100
AcDbEntity
  8
0
  6
Continuous
 62
     7
370
    25
100
AcDbLine
 10
6355.2999649013
 20
4782.1327538908
 30
0.0
 11
6354.2999649013
 21
4782.1327538908
 31
0.0
  0
LINE
  5
296
330
1F
100
AcDbEntity
  8
0
  6
Continuous
 62
     7
370
    25
100
AcDbLine
 10
6460.2999649013
 20
4781.8827538908
 30
0.0
 11
6460.2999649013
 21
4782.1327538908
 31
0.0
  0
LINE
  5
297
330
1F
100
AcDbEntity
  8
0
  6
Continuous
 62
     7
370
    25
100
AcDbLine
 10
6460.2999649013
 20
4782.1327538908
 30
0.0
 11
6459.2999649013
 21
4782.1327538908
 31
0.0
  0
LINE
  5
298
330
1F
100
AcDbEntity
  8
0
  6
Continuous
 62
     7
370
    25
100
AcDbLine
 10
6352.2999649013
 20
4782.1327538908
 30
0.0
 11
6352.2999649013
 21
4781.8827538908
 31
0.0
  0
LINE
  5
299
330
1F
100
AcDbEntity
  8
0
  6
Continuous
 62
     7
370
    25
100
AcDbLine
 10
6354.2999649013
 20
4782.1327538908
 30
0.0
 11
6352.2999649013
 21
4782.1327538908
 31
0.0
  0
LINE
  5
29A
330
1F
100
AcDbEntity
  8
0
  6
Continuous
 62
     7
370
    25
100
AcDbLine
 10
6462.2999649013
 20
4782.1327538908
 30
0.0
 11
6460.2999649013
 21
4782.1327538908
 31
0.0
  0
LINE
  5
29B
330
1F
100
AcDbEntity
  8
0
  6
Continuous
 62
     7
370
    25
100
AcDbLine
 10
6425.2999649013
 20
4782.1327538908
 30
0.0
 11
6428.2994309954
 21
4782.1327538908
 31
0.0
  0
LINE
  5
29C
330
1F
100
AcDbEntity
  8
0
  6
Continuous
 62
     7
370
    25
100
AcDbLine
 10
6386.2994309954
 20
4782.1327538908
 30
0.0
 11
6389.2999649013
 21
4782.1327538908
 31
0.0
  0
LINE
  5
29D
330
1F
100
AcDbEntity
  8
0
  6
Continuous
 62
     7
370
    25
100
AcDbLine
 10
6422.7999649013
 20
4781.8827538908
 30
0.0
 11
6422.7999649013
 21
4782.1327538908
 31
0.0
  0
LINE
  5
29E
330
1F
100
AcDbEntity
  8
0
  6
Continuous
 62
     7
370
    25
100
AcDbLine
 10
6422.7999649013
 20
4782.1327538908
 30
0.0
 11
6425.2999649013
 21
4782.1327538908
 31
0.0
  0
LINE
  5
29F
330
1F
100
AcDbEntity
  8
0
  6
Continuous
 62
     7
370
    25
100
AcDbLine
 10
6391.7999649013
 20
4781.8827538908
 30
0.0
 11
6391.7999649013
 21
4782.1327538908
 31
0.0
  0
LINE
  5
2A0
330
1F
100
AcDbEntity
  8
0
  6
Continuous
 62
     7
370
    25
100
AcDbLine
 10
6391.7999649013
 20
4782.1327538908
 30
0.0
 11
6389.2999649013
 21
4782.1327538908
 31
0.0
  0
LINE
  5
2A1
330
1F
100
AcDbEntity
  8
0
  6
Continuous
 62
     7
370
    25
100
AcDbLine
 10
6391.7999649013
 20
4782.1327538908
 30
0.0
 11
6402.2999649013
 21
4782.1327538908
 31
0.0
  0
LINE
  5
2A2
330
1F
100
AcDbEntity
  8
0
  6
Continuous
 62
     7
370
    25
100
AcDbLine
 10
6412.2999649013
 20
4782.1327538908
 30
0.0
 11
6422.7999649013
 21
4782.1327538908
 31
0.0
  0
LINE
  5
2A3
330
1F
100
AcDbEntity
  8
0
  6
Continuous
 62
     7
370
    25
100
AcDbLine
 10
6416.5737736451
 20
4691.8572538908
 30
0.0
 11
6416.5737736451
 21
4691.8742538908
 31
0.0
  0
LINE
  5
2A4
330
1F
100
AcDbEntity
  8
0
  6
Continuous
 62
     7
370
    25
100
AcDbLine
 10
6416.5737736451
 20
4691.8572538908
 30
0.0
 11
6416.4575405651
 21
4691.8572538908
 31
0.0
  0
LINE
  5
2A5
330
1F
100
AcDbEntity
  8
0
  6
Continuous
 62
     7
370
    25
100
AcDbLine
 10
6416.4575405651
 20
4691.8572538908
 30
0.0
 11
6416.4575405651
 21
4691.8742538908
 31
0.0
  0
LINE
  5
2A6
330
1F
100
AcDbEntity
  8
0
  6
Continuous
 62
     7
370
    25
100
AcDbLine
 10
6416.5737736451
 20
4691.8742538908
 30
0.0
 11
6416.4575405651
 21
4691.8742538908
 31
0.0
  0
LINE
  5
2A7
330
1F
100
AcDbEntity
  8
0
  6
Continuous
 62
     7
370
    25
100
AcDbLine
 10
6416.3473154211
 20
4691.8572538908
 30
0.0
 11
6416.3473154211
 21
4691.8742538908
 31
0.0
  0
LINE
  5
2A8
330
1F
100
AcDbEntity
  8
0
  6
Continuous
 62
     7
370
    25
100
AcDbLine
 10
6416.4575405651
 20
4691.8742538908
 30
0.0
 11
6416.3473154211
 21
4691.8742538908
 31
0.0
  0
LINE
  5
2A9
330
1F
100
AcDbEntity
  8
0
  6
Continuous
 62
     7
370
    25
100
AcDbLine
 10
6416.6148904571
 20
4691.8572538908
 30
0.0
 11
6416.6148904571
 21
4691.8742538908
 31
0.0
  0
LINE
  5
2AA
330
1F
100
AcDbEntity
  8
0
  6
Continuous
 62
     7
370
    25
100
AcDbLine
 10
6416.6148904571
 20
4691.8572538908
 30
0.0
 11
6416.5737736451
 21
4691.8572538908
 31
0.0
  0
LINE
  5
2AB
330
1F
100
AcDbEntity
  8
0
  6
Continuous
 62
     7
370
    25
100
AcDbLine
 10
6416.6148904571
 20
4691.8742538908
 30
0.0
 11
6416.5737736451
 21
4691.8742538908
 31
0.0
  0
LINE
  5
2AC
330
1F
100
AcDbEntity
  8
0
  6
Continuous
 62
     7
370
    25
100
AcDbLine
 10
6416.6609911251
 20
4691.8572538908
 30
0.0
 11
6416.6609911251
 21
4691.8742538908
 31
0.0
  0
LINE
  5
2AD
330
1F
100
AcDbEntity
  8
0
  6
Continuous
 62
     7
370
    25
100
AcDbLine
 10
6416.6609911251
 20
4691.8742538908
 30
0.0
 11
6416.6217217491
 21
4691.8742538908
 31
0.0
  0
LINE
  5
2AE
330
1F
100
AcDbEntity
  8
0
  6
Continuous
 62
     7
370
    25
100
AcDbLine
 10
6401.1865108091
 20
4691.8572538908
 30
0.0
 11
6401.1865108091
 21
4691.8742538908
 31
0.0
  0
LINE
  5
2AF
330
1F
100
AcDbEntity
  8
0
  6
Continuous
 62
     7
370
    25
100
AcDbLine
 10
6412.3100507011
 20
4691.8572538908
 30
0.0
 11
6401.1865108091
 21
4691.8572538908
 31
0.0
  0
LINE
  5
2B0
330
1F
100
AcDbEntity
  8
0
  6
Continuous
 62
     7
370
    25
100
AcDbLine
 10
6412.3100507011
 20
4691.8742538908
 30
0.0
 11
6401.1865108091
 21
4691.8742538908
 31
0.0
  0
LINE
  5
2B1
330
1F
100
AcDbEntity
  8
0
  6
Continuous
 62
     7
370
    25
100
AcDbLine
 10
6412.3100507011
 20
4691.8572538908
 30
0.0
 11
6412.3100507011
 21
4691.8742538908
 31
0.0
  0
LINE
  5
2B2
330
1F
100
AcDbEntity
  8
0
  6
Continuous
 62
     7
370
    25
100
AcDbLine
 10
6400.0563190531
 20
4691.8572538908
 30
0.0
 11
6400.0563190531
 21
4691.8742538908
 31
0.0
  0
LINE
  5
2B3
330
1F
100
AcDbEntity
  8
0
  6
Continuous
 62
     7
370
    25
100
AcDbLine
 10
6399.8741181531
 20
4691.8572538908
 30
0.0
 11
6399.8741181531
 21
4691.8742538908
 31
0.0
  0
LINE
  5
2B4
330
1F
100
AcDbEntity
  8
0
  6
Continuous
 62
     7
370
    25
100
AcDbLine
 10
6399.9675575206
 20
4691.8572538908
 30
0.0
 11
6399.8741181531
 21
4691.8572538908
 31
0.0
  0
LINE
  5
2B5
330
1F
100
AcDbEntity
  8
0
  6
Continuous
 62
     7
370
    25
100
AcDbLine
 10
6399.9675575206
 20
4691.8742538908
 30
0.0
 11
6399.8741181531
 21
4691.8742538908
 31
0.0
  0
LINE
  5
2B6
330
1F
100
AcDbEntity
  8
0
  6
Continuous
 62
     7
370
    25
100
AcDbLine
 10
6415.7734209891
 20
4691.8572538908
 30
0.0
 11
6415.7734209891
 21
4691.8742538908
 31
0.0
  0
LINE
  5
2B7
330
1F
100
AcDbEntity
  8
0
  6
Continuous
 62
     7
370
    25
100
AcDbLine
 10
6414.5007797051
 20
4691.8572538908
 30
0.0
 11
6414.5007797051
 21
4691.8742538908
 31
0.0
  0
LINE
  5
2B8
330
1F
100
AcDbEntity
  8
0
  6
Continuous
 62
     7
370
    25
100
AcDbLine
 10
6412.8209130091
 20
4691.8572538908
 30
0.0
 11
6412.8209130091
 21
4691.8742538908
 31
0.0
  0
LINE
  5
2B9
330
1F
100
AcDbEntity
  8
0
  6
Continuous
 62
     7
370
    25
100
AcDbLine
 10
6414.0211859731
 20
4691.8572538908
 30
0.0
 11
6414.0211859731
 21
4691.8742538908
 31
0.0
  0
LINE
  5
2BA
330
1F
100
AcDbEntity
  8
0
  6
Continuous
 62
     7
370
    25
100
AcDbLine
 10
6414.0211859731
 20
4691.8572538908
 30
0.0
 11
6414.5007797051
 21
4691.8572538908
 31
0.0
  0
LINE
  5
2BB
330
1F
100
AcDbEntity
  8
0
  6
Continuous
 62
     7
370
    25
100
AcDbLine
 10
6416.4748645851
 20
4691.8572538908
 30
0.0
 11
6416.0794843651
 21
4691.8572538908
 31
0.0
  0
LINE
  5
2BC
330
1F
100
AcDbEntity
  8
0
  6
Continuous
 62
     7
370
    25
100
AcDbLine
 10
6416.4748645851
 20
4691.8572538908
 30
0.0
 11
6416.8702448051
 21
4691.8572538908
 31
0.0
  0
LINE
  5
2BD
330
1F
100
AcDbEntity
  8
0
  6
Continuous
 62
     7
370
    25
100
AcDbLine
 10
6416.8621795612
 20
4691.8742538908
 30
0.0
 11
6416.8702448051
 21
4691.8742538908
 31
0.0
  0
LINE
  5
2BE
330
1F
100
AcDbEntity
  8
0
  6
Continuous
 62
     7
370
    25
100
AcDbLine
 10
6383.0215375488
 20
4675.9362561494
 30
0.0
 11
6431.5783922538
 21
4675.9362561494
 31
0.0
  0
LINE
  5
2BF
330
1F
100
AcDbEntity
  8
0
  6
Continuous
 62
     7
370
    25
100
AcDbLine
 10
6383.0215375488
 20
4675.9362561494
 30
0.0
 11
6380.5216941669
 21
4675.9082728279
 31
0.0
  0
LINE
  5
2C0
330
1F
100
AcDbEntity
  8
0
  6
Continuous
 62
     7
370
    25
100
AcDbLine
 10
6380.5216941669
 20
4675.9082728279
 30
0.0
 11
6380.3428753491
 21
4691.8827538908
 31
0.0
  0
LINE
  5
2C1
330
1F
100
AcDbEntity
  8
0
  6
Continuous
 62
     7
370
    25
100
AcDbLine
 10
6434.2570544536
 20
4691.8827538908
 30
0.0
 11
6434.0782356357
 21
4675.9082728279
 31
0.0
  0
LINE
  5
2C2
330
1F
100
AcDbEntity
  8
0
  6
Continuous
 62
     7
370
    25
100
AcDbLine
 10
6434.0782356357
 20
4675.9082728279
 30
0.0
 11
6431.5783922538
 21
4675.9362561494
 31
0.0
  0
LINE
  5
2C3
330
1F
100
AcDbEntity
  8
0
  6
Continuous
 62
     7
370
    25
100
AcDbLine
 10
6383.0215375488
 20
4673.4373127087
 30
0.0
 11
6383.0215375488
 21
4673.4362561494
 31
0.0
  0
LINE
  5
2C4
330
1F
100
AcDbEntity
  8
0
  6
Continuous
 62
     7
370
    25
100
AcDbLine
 10
6431.5783922538
 20
4673.4373127087
 30
0.0
 11
6431.5783922538
 21
4673.4362561494
 31
0.0
  0
LINE
  5
2C5
330
1F
100
AcDbEntity
  8
0
  6
Continuous
 62
     7
370
    25
100
AcDbLine
 10
6366.2999649013
 20
4781.8827538908
 30
0.0
 11
6366.2999649013
 21
4697.3371299957
 31
0.0
  0
LINE
  5
2C6
330
1F
100
AcDbEntity
  8
0
  6
Continuous
 62
     7
370
    25
100
AcDbLine
 10
6447.8857513389
 20
4781.8827538908
 30
0.0
 11
6366.2999649013
 21
4781.8827538908
 31
0.0
  0
LINE
  5
2C7
330
1F
100
AcDbEntity
  8
0
  6
Continuous
 62
     7
370
    25
100
AcDbLine
 10
6447.8857513389
 20
4697.3371299957
 30
0.0
 11
6447.8857513389
 21
4781.8827539223
 31
0.0
  0
LINE
  5
2C8
330
1F
100
AcDbEntity
  8
0
  6
Continuous
 62
     7
370
    25
100
AcDbLine
 10
6447.8857513389
 20
4697.3371299957
 30
0.0
 11
6366.2999649013
 21
4697.3371299957
 31
0.0
  0
LINE
  5
2C9
330
1F
100
AcDbEntity
  8
0
  6
Continuous
 62
     7
370
    25
100
AcDbLine
 10
6389.7999649013
 20
4774.5827538908
 30
0.0
 11
6389.7999649013
 21
4770.0827538908
 31
0.0
  0
LINE
  5
2CA
330
1F
100
AcDbEntity
  8
0
  6
Continuous
 62
     7
370
    25
100
AcDbLine
 10
6389.7999649013
 20
4770.0827538908
 30
0.0
 11
6400.2999649013
 21
4770.0827538908
 31
0.0
  0
LINE
  5
2CB
330
1F
100
AcDbEntity
  8
0
  6
Continuous
 62
     7
370
    25
100
AcDbLine
 10
6400.2999649013
 20
4770.0827538908
 30
0.0
 11
6400.2999649013
 21
4774.5827538908
 31
0.0
  0
LINE
  5
2CC
330
1F
100
AcDbEntity
  8
0
  6
Continuous
 62
     7
370
    25
100
AcDbLine
 10
6400.2999649013
 20
4774.5827538908
 30
0.0
 11
6389.7999649013
 21
4774.5827538908
 31
0.0
  0
LINE
  5
2CD
330
1F
100
AcDbEntity
  8
0
  6
Continuous
 62
     7
370
    25
100
AcDbLine
 10
6414.2999649013
 20
4774.5827538908
 30
0.0
 11
6414.2999649013
 21
4770.0827538908
 31
0.0
  0
LINE
  5
2CE
330
1F
100
AcDbEntity
  8
0
  6
Continuous
 62
     7
370
    25
100
AcDbLine
 10
6414.2999649013
 20
4770.0827538908
 30
0.0
 11
6424.7999649013
 21
4770.0827538908
 31
0.0
  0
LINE
  5
2CF
330
1F
100
AcDbEntity
  8
0
  6
Continuous
 62
     7
370
    25
100
AcDbLine
 10
6424.7999649013
 20
4770.0827538908
 30
0.0
 11
6424.7999649013
 21
4774.5827538908
 31
0.0
  0
LINE
  5
2D0
330
1F
100
AcDbEntity
  8
0
  6
Continuous
 62
     7
370
    25
100
AcDbLine
 10
6424.7999649013
 20
4774.5827538908
 30
0.0
 11
6414.2999649013
 21
4774.5827538908
 31
0.0
  0
LWPOLYLINE
  5
2D1
330
1F
100
AcDbEntity
  8
0
  6
Continuous
 62
     7
370
    25
100
AcDbPolyline
 90
       13
 70
   128
 43
0.0
 10
6448.593015352
 20
4781.8827539222
 10
6448.5930022494
 20
4773.8578008141
 10
6448.5929891467
 20
4765.8763582337
 10
6448.5929760441
 20
4757.9817027272
 10
6448.5929629414
 20
4750.2166402793
 10
6448.5929498387
 20
4742.6232742126
 10
6448.5929367361
 20
4735.242776897
 10
6448.5929236334
 20
4728.1151665076
 10
6448.5929105308
 20
4721.2790900392
 10
6448.5928974281
 20
4714.771613757
 10
6448.5928843254
 20
4708.6280222174
 10
6448.5928712228
 20
4702.8816269495
 10
6448.5928581201
 20
4697.5635858349
  0
ARC
  5
2D2
330
1F
100
AcDbEntity
  8
0
  6
Continuous
 62
     7
370
    25
100
AcDbCircle
 10
6447.9671986079
 20
4698.3000073857
 30
0.0
 40
0.9663159553956536
100
AcDbArc
 50
265.1650100948
 51
310.3510372174
  0
LINE
  5
2D3
330
1F
100
AcDbEntity
  8
0
  6
Continuous
 62
     7
370
    25
100
AcDbLine
 10
6447.8857513389
 20
4781.8827538908
 30
0.0
 11
6448.5928581202
 21
4781.8827538908
 31
0.0
  0
LINE
  5
2D4
330
1F
100
AcDbEntity
  8
0
  6
Continuous
 62
     7
370
    25
100
AcDbLine
 10
6366.2999649013
 20
4697.3371299957
 30
0.0
 11
6352.2999649013
 21
4708.1614903594
 31
0.0
  0
LINE
  5
2D5
330
1F
100
AcDbEntity
  8
0
  6
Continuous
 62
     7
370
    25
100
AcDbLine
 10
6352.2999649013
 20
4708.1614903594
 30
0.0
 11
6352.2999649013
 21
4781.8827538908
 31
0.0
  0
LINE
  5
2D6
330
1F
100
AcDbEntity
  8
0
  6
Continuous
 62
     7
370
    25
100
AcDbLine
 10
6352.2999649013
 20
4781.8827538908
 30
0.0
 11
6366.2999649013
 21
4781.8827538908
 31
0.0
  0
LWPOLYLINE
  5
2D7
330
1F
100
AcDbEntity
  8
0
  6
Continuous
 62
     7
370
    25
100
AcDbPolyline
 90
       13
 70
   128
 43
0.0
 10
6462.0070716825
 20
4707.9350345203
 10
6462.0070831735
 20
4712.5989445304
 10
6462.0070946645
 20
4717.6385201626
 10
6462.0071061555
 20
4723.0264360253
 10
6462.0071176465
 20
4728.7334779829
 10
6462.0071291375
 20
4734.7287015594
 10
6462.0071406285
 20
4740.9795997243
 10
6462.0071521195
 20
4747.4522791504
 10
6462.0071636105
 20
4754.1116439891
 10
6462.0071751015
 20
4760.9215861652
 10
6462.0071865925
 20
4767.84518116
 10
6462.0071980835
 20
4774.844888222
 10
6462.0072095745
 20
4781.8827539183
  0
LINE
  5
2D8
330
1F
100
AcDbEntity
  8
0
  6
Continuous
 62
     7
370
    25
100
AcDbLine
 10
6462.0070716825
 20
4707.9350345203
 30
0.0
 11
6448.5928581182
 21
4697.5635858335
 31
0.0
  0
LINE
  5
2D9
330
1F
100
AcDbEntity
  8
0
  6
Continuous
 62
     7
370
    25
100
AcDbLine
 10
6448.593015352
 20
4781.8827538908
 30
0.0
 11
6462.0072095745
 21
4781.8827538908
 31
0.0
  0
LINE
  5
2DA
330
1F
100
AcDbEntity
  8
0
  6
Continuous
 62
     7
370
    25
100
AcDbLine
 10
6462.2999649013
 20
4781.8827538904
 30
0.0
 11
6462.2999649013
 21
4708.4817472785
 31
0.0
  0
ARC
  5
2DB
330
1F
100
AcDbEntity
  8
0
  6
Continuous
 62
     7
370
    25
100
AcDbCircle
 10
6461.7122758888
 20
4708.4447799461
 30
0.0
 40
0.588850540585218
100
AcDbArc
 50
300.0416383758
 51
3.5993273975
  0
LINE
  5
2DC
330
1F
100
AcDbEntity
  8
0
  6
Continuous
 62
     7
370
    25
100
AcDbLine
 10
6462.0070716825
 20
4781.8827538908
 30
0.0
 11
6462.2999649013
 21
4781.8827538908
 31
0.0
  0
LINE
  5
2DD
330
1F
100
AcDbEntity
  8
0
  6
Continuous
 62
     7
370
    25
100
AcDbLine
 10
6366.2999649013
 20
4697.3371299957
 30
0.0
 11
6366.2999649013
 21
4691.8827538908
 31
0.0
  0
LINE
  5
2DE
330
1F
100
AcDbEntity
  8
0
  6
Continuous
 62
     7
370
    25
100
AcDbLine
 10
6447.8857513389
 20
4691.8827538908
 30
0.0
 11
6447.8857513389
 21
4697.3371299957
 31
0.0
  0
LINE
  5
2DF
330
1F
100
AcDbEntity
  8
0
  6
Continuous
 62
     7
370
    25
100
AcDbLine
 10
6447.8857513389
 20
4691.8827538908
 30
0.0
 11
6366.2999649013
 21
4691.8827538908
 31
0.0
  0
LINE
  5
2E0
330
1F
100
AcDbEntity
  8
0
  6
Continuous
 62
     7
370
    25
100
AcDbLine
 10
6448.5928581201
 20
4697.5635858349
 30
0.0
 11
6448.5928581201
 21
4692.1756471096
 31
0.0
  0
ARC
  5
2E1
330
1F
100
AcDbEntity
  8
0
  6
Continuous
 62
     7
370
    25
100
AcDbCircle
 10
6447.9546147512
 20
4692.7165029069
 30
0.0
 40
0.8365880655158784
100
AcDbArc
 50
265.2783784902
 51
319.7216215098
  0
LINE
  5
2E2
330
1F
100
AcDbEntity
  8
0
  6
Continuous
 62
     7
370
    25
100
AcDbLine
 10
6366.2999649013
 20
4691.8827538908
 30
0.0
 11
6352.2999649013
 21
4705.8827538908
 31
0.0
  0
LINE
  5
2E3
330
1F
100
AcDbEntity
  8
0
  6
Continuous
 62
     7
370
    25
100
AcDbLine
 10
6352.2999649013
 20
4705.8827538908
 30
0.0
 11
6352.2999649013
 21
4708.1614903594
 31
0.0
  0
LINE
  5
2E4
330
1F
100
AcDbEntity
  8
0
  6
Continuous
 62
     7
370
    25
100
AcDbLine
 10
6462.0070716825
 20
4705.589860672
 30
0.0
 11
6462.0070716825
 21
4707.9350345203
 31
0.0
  0
LINE
  5
2E5
330
1F
100
AcDbEntity
  8
0
  6
Continuous
 62
     7
370
    25
100
AcDbLine
 10
6462.0070716825
 20
4705.589860672
 30
0.0
 11
6448.5928581204
 21
4692.1756471099
 31
0.0
  0
ARC
  5
2E6
330
1F
100
AcDbEntity
  8
0
  6
Continuous
 62
     7
370
    25
100
AcDbCircle
 10
6461.4662158852
 20
4706.2281040409
 30
0.0
 40
0.8365880655116567
100
AcDbArc
 50
310.2783784899
 51
4.7216215098
  0
LINE
  5
2E7
330
1F
100
AcDbEntity
  8
0
  6
Continuous
 62
     7
370
    25
100
AcDbLine
 10
6462.2999649013
 20
4708.4817472785
 30
0.0
 11
6462.2999649013
 21
4706.2969674532
 31
0.0
  0
LINE
  5
2E8
330
1F
100
AcDbEntity
  8
0
  6
Continuous
 62
     8
370
    25
100
AcDbLine
 10
6368.3354988072
 20
4782.1327538908
 30
0.0
 11
6368.3354988072
 21
4781.8827538908
 31
0.0
  0
LINE
  5
2E9
330
1F
100
AcDbEntity
  8
0
  6
Continuous
 62
     8
370
    25
100
AcDbLine
 10
6366.5677318543
 20
4781.8827538908
 30
0.0
 11
6366.5677318543
 21
4782.1327538908
 31
0.0
  0
LINE
  5
2EA
330
1F
100
AcDbEntity
  8
0
  6
Continuous
 62
     8
370
    25
100
AcDbLine
 10
6446.2644309954
 20
4781.8827538908
 30
0.0
 11
6446.2644309954
 21
4782.1327538908
 31
0.0
  0
LINE
  5
2EB
330
1F
100
AcDbEntity
  8
0
  6
Continuous
 62
     8
370
    25
100
AcDbLine
 10
6448.0321979483
 20
4782.1327538908
 30
0.0
 11
6448.0321979483
 21
4781.8827538908
 31
0.0
  0
LINE
  5
2EC
330
1F
100
AcDbEntity
  8
0
  6
Continuous
 62
     8
370
    25
100
AcDbLine
 10
6356.0321979483
 20
4782.1327538908
 30
0.0
 11
6356.0321979483
 21
4781.8827538908
 31
0.0
  0
LINE
  5
2ED
330
1F
100
AcDbEntity
  8
0
  6
Continuous
 62
     8
370
    25
100
AcDbLine
 10
6458.5677318543
 20
4781.8827538908
 30
0.0
 11
6458.5677318543
 21
4782.1327538908
 31
0.0
  0
LINE
  5
2EE
330
1F
100
AcDbEntity
  8
0
  6
Continuous
 62
     8
370
    25
100
AcDbLine
 10
6425.2999649013
 20
4781.8827538908
 30
0.0
 11
6425.2999649013
 21
4782.1327538908
 31
0.0
  0
LINE
  5
2EF
330
1F
100
AcDbEntity
  8
0
  6
Continuous
 62
     8
370
    25
100
AcDbLine
 10
6389.2999649013
 20
4781.8827538908
 30
0.0
 11
6389.2999649013
 21
4782.1327538908
 31
0.0
  0
LINE
  5
2F0
330
1F
100
AcDbEntity
  8
0
  6
Continuous
 62
     8
370
    25
100
AcDbLine
 10
6431.5783922538
 20
4675.9362561494
 30
0.0
 11
6431.7568978256
 21
4691.8827538908
 31
0.0
  0
LINE
  5
2F1
330
1F
100
AcDbEntity
  8
0
  6
Continuous
 62
     8
370
    25
100
AcDbLine
 10
6382.8430319771
 20
4691.8827538908
 30
0.0
 11
6383.0215375488
 21
4675.9362561494
 31
0.0
  0
LINE
  5
2F2
330
1F
100
AcDbEntity
  8
0
  6
Continuous
 62
     8
370
    25
100
AcDbLine
 10
6383.0215375488
 20
4673.4362561494
 30
0.0
 11
6383.0215375488
 21
4675.9362561494
 31
0.0
  0
LINE
  5
2F3
330
1F
100
AcDbEntity
  8
0
  6
Continuous
 62
     8
370
    25
100
AcDbLine
 10
6431.5783922538
 20
4673.4362561494
 30
0.0
 11
6431.5783922538
 21
4675.9362561494
 31
0.0
  0
ENDSEC
  0
SECTION
  2
OBJECTS
  0
DICTIONARY
  5
C
330
0
100
AcDbDictionary
281
     1
  3
ACAD_GROUP
350
D
  3
ACAD_LAYOUT
350
1A
  3
ACAD_MLINESTYLE
350
17
  3
ACAD_PLOTSETTINGS
350
19
  3
ACAD_PLOTSTYLENAME
350
E
  3
ACAD_SCALELIST
350
47
  3
DWGPROPS
350
2F4
  0
DICTIONARY
  5
D
102
{ACAD_REACTORS
330
C
102
}
330
C
100
AcDbDictionary
281
     1
  0
DICTIONARY
  5
1A
102
{ACAD_REACTORS
330
C
102
}
330
C
100
AcDbDictionary
281
     1
  3
Layout1
350
1E
  3
Layout2
350
26
  3
Model
350
22
  0
DICTIONARY
  5
17
102
{ACAD_REACTORS
330
C
102
}
330
C
100
AcDbDictionary
281
     1
  3
Standard
350
18
  0
DICTIONARY
  5
19
102
{ACAD_REACTORS
330
C
102
}
330
C
100
AcDbDictionary
281
     1
  0
ACDBDICTIONARYWDFLT
  5
E
102
{ACAD_REACTORS
330
C
102
}
330
C
100
AcDbDictionary
281
     1
  3
Normal
350
F
100
AcDbDictionaryWithDefault
340
F
  0
DICTIONARY
  5
47
102
{ACAD_REACTORS
330
C
102
}
330
C
100
AcDbDictionary
281
     1
  3
A0
350
48
  3
A1
350
49
  3
A2
350
4A
  3
A3
350
4B
  3
A4
350
4C
  3
A5
350
4D
  3
A6
350
4E
  3
A7
350
4F
  3
A8
350
50
  3
A9
350
51
  3
B0
350
52
  3
B1
350
53
  3
B2
350
54
  3
B3
350
55
  3
B4
350
56
  3
B5
350
57
  3
B6
350
58
  3
B7
350
59
  3
B8
350
5A
  3
B9
350
5B
  3
C0
350
5C
  3
C1
350
5D
  3
C2
350
5E
  3
C3
350
5F
  3
C4
350
60
  3
C5
350
61
  3
C6
350
62
  3
C7
350
63
  3
C8
350
64
  3
C9
350
65
  3
D0
350
66
  3
D1
350
67
  3
D2
350
68
  0
XRECORD
  5
2F4
102
{ACAD_REACTORS
330
C
102
}
330
C
100
AcDbXrecord
280
     1
  1
DWGPROPS COOKIE
  2

  3

  4

  6

  7

  8
radek.stransky
  9

300
=
301
=
302
=
303
=
304
=
305
=
306
=
307
=
308
=
309
=
 40
0.0
 41
2459146.363232002
 42
2459146.363232245
  1

 90
        0
  0
LAYOUT
  5
1E
102
{ACAD_REACTORS
330
1A
102
}
330
1A
100
AcDbPlotSettings
  1

  2
none_device
  4

  6

 40
0.0
 41
0.0
 42
0.0
 43
0.0
 44
0.0
 45
0.0
 46
0.0
 47
0.0
 48
0.0
 49
0.0
140
0.0
141
0.0
142
1.0
143
1.0
 70
   688
 72
     1
 73
     0
 74
     5
  7

 75
    16
147
1.0
148
0.0
149
0.0
100
AcDbLayout
  1
Layout1
 70
     1
 71
     1
 10
0.0
 20
0.0
 11
420.0
 21
297.0
 12
0.0
 22
0.0
 32
0.0
 14
1.0000000000E+20
 24
1.0000000000E+20
 34
1.0000000000E+20
 15
-1.0000000000E+20
 25
-1.0000000000E+20
 35
-1.0000000000E+20
146
0.0
 13
0.0
 23
0.0
 33
0.0
 16
1.0
 26
0.0
 36
0.0
 17
0.0
 27
1.0
 37
0.0
 76
     0
330
1B
  0
LAYOUT
  5
26
102
{ACAD_REACTORS
330
1A
102
}
330
1A
100
AcDbPlotSettings
  1

  2
none_device
  4

  6

 40
0.0
 41
0.0
 42
0.0
 43
0.0
 44
0.0
 45
0.0
 46
0.0
 47
0.0
 48
0.0
 49
0.0
140
0.0
141
0.0
142
1.0
143
1.0
 70
   688
 72
     1
 73
     0
 74
     5
  7

 75
    16
147
1.0
148
0.0
149
0.0
100
AcDbLayout
  1
Layout2
 70
     1
 71
     2
 10
0.0
 20
0.0
 11
0.0
 21
0.0
 12
0.0
 22
0.0
 32
0.0
 14
0.0
 24
0.0
 34
0.0
 15
0.0
 25
0.0
 35
0.0
146
0.0
 13
0.0
 23
0.0
 33
0.0
 16
1.0
 26
0.0
 36
0.0
 17
0.0
 27
1.0
 37
0.0
 76
     0
330
23
  0
LAYOUT
  5
22
102
{ACAD_REACTORS
330
1A
102
}
330
1A
100
AcDbPlotSettings
  1

  2
none_device
  4
Letter_(8.50_x_11.00_Inches)
  6

 40
6.35
 41
6.35
 42
6.35000508
 43
6.35000508
 44
215.9
 45
279.4
 46
0.0
 47
0.0
 48
0.0
 49
0.0
140
0.0
141
0.0
142
1.0
143
1.0
 70
  1712
 72
     1
 73
     0
 74
     0
  7

 75
     0
147
1.0
148
0.0
149
0.0
100
AcDbLayout
  1
Model
 70
     1
 71
     0
 10
0.0
 20
0.0
 11
20000.0
 21
10000.0
 12
0.0
 22
0.0
 32
0.0
 14
0.0
 24
0.0
 34
0.0
 15
20000.0
 25
10000.0
 35
0.0
146
0.0
 13
0.0
 23
0.0
 33
0.0
 16
1.0
 26
0.0
 36
0.0
 17
0.0
 27
1.0
 37
0.0
 76
     0
330
1F
331
29
  0
MLINESTYLE
  5
18
102
{ACAD_REACTORS
330
17
102
}
330
17
100
AcDbMlineStyle
  2
Standard
 70
     0
  3

 62
   256
 51
90.0
 52
90.0
 71
     2
 49
0.5
 62
   256
  6
BYLAYER
 49
-0.5
 62
   256
  6
BYLAYER
  0
ACDBPLACEHOLDER
  5
F
102
{ACAD_REACTORS
330
E
102
}
330
E
  0
SCALE
  5
48
102
{ACAD_REACTORS
330
47
102
}
330
47
100
AcDbScale
 70
     0
300
1:1
140
1.0
141
1.0
290
     1
  0
SCALE
  5
49
102
{ACAD_REACTORS
330
47
102
}
330
47
100
AcDbScale
 70
     0
300
1:2
140
1.0
141
2.0
290
     0
  0
SCALE
  5
4A
102
{ACAD_REACTORS
330
47
102
}
330
47
100
AcDbScale
 70
     0
300
1:4
140
1.0
141
4.0
290
     0
  0
SCALE
  5
4B
102
{ACAD_REACTORS
330
47
102
}
330
47
100
AcDbScale
 70
     0
300
1:5
140
1.0
141
5.0
290
     0
  0
SCALE
  5
4C
102
{ACAD_REACTORS
330
47
102
}
330
47
100
AcDbScale
 70
     0
300
1:8
140
1.0
141
8.0
290
     0
  0
SCALE
  5
4D
102
{ACAD_REACTORS
330
47
102
}
330
47
100
AcDbScale
 70
     0
300
1:10
140
1.0
141
10.0
290
     0
  0
SCALE
  5
4E
102
{ACAD_REACTORS
330
47
102
}
330
47
100
AcDbScale
 70
     0
300
1:16
140
1.0
141
16.0
290
     0
  0
SCALE
  5
4F
102
{ACAD_REACTORS
330
47
102
}
330
47
100
AcDbScale
 70
     0
300
1:20
140
1.0
141
20.0
290
     0
  0
SCALE
  5
50
102
{ACAD_REACTORS
330
47
102
}
330
47
100
AcDbScale
 70
     0
300
1:30
140
1.0
141
30.0
290
     0
  0
SCALE
  5
51
102
{ACAD_REACTORS
330
47
102
}
330
47
100
AcDbScale
 70
     0
300
1:40
140
1.0
141
40.0
290
     0
  0
SCALE
  5
52
102
{ACAD_REACTORS
330
47
102
}
330
47
100
AcDbScale
 70
     0
300
1:50
140
1.0
141
50.0
290
     0
  0
SCALE
  5
53
102
{ACAD_REACTORS
330
47
102
}
330
47
100
AcDbScale
 70
     0
300
1:100
140
1.0
141
100.0
290
     0
  0
SCALE
  5
54
102
{ACAD_REACTORS
330
47
102
}
330
47
100
AcDbScale
 70
     0
300
2:1
140
2.0
141
1.0
290
     0
  0
SCALE
  5
55
102
{ACAD_REACTORS
330
47
102
}
330
47
100
AcDbScale
 70
     0
300
4:1
140
4.0
141
1.0
290
     0
  0
SCALE
  5
56
102
{ACAD_REACTORS
330
47
102
}
330
47
100
AcDbScale
 70
     0
300
8:1
140
8.0
141
1.0
290
     0
  0
SCALE
  5
57
102
{ACAD_REACTORS
330
47
102
}
330
47
100
AcDbScale
 70
     0
300
10:1
140
10.0
141
1.0
290
     0
  0
SCALE
  5
58
102
{ACAD_REACTORS
330
47
102
}
330
47
100
AcDbScale
 70
     0
300
100:1
140
100.0
141
1.0
290
     0
  0
SCALE
  5
59
102
{ACAD_REACTORS
330
47
102
}
330
47
100
AcDbScale
 70
     0
300
1/128" = 1'-0"
140
0.0078125
141
12.0
290
     0
  0
SCALE
  5
5A
102
{ACAD_REACTORS
330
47
102
}
330
47
100
AcDbScale
 70
     0
300
1/64" = 1'-0"
140
0.015625
141
12.0
290
     0
  0
SCALE
  5
5B
102
{ACAD_REACTORS
330
47
102
}
330
47
100
AcDbScale
 70
     0
300
1/32" = 1'-0"
140
0.03125
141
12.0
290
     0
  0
SCALE
  5
5C
102
{ACAD_REACTORS
330
47
102
}
330
47
100
AcDbScale
 70
     0
300
1/16" = 1'-0"
140
0.0625
141
12.0
290
     0
  0
SCALE
  5
5D
102
{ACAD_REACTORS
330
47
102
}
330
47
100
AcDbScale
 70
     0
300
3/32" = 1'-0"
140
0.09375
141
12.0
290
     0
  0
SCALE
  5
5E
102
{ACAD_REACTORS
330
47
102
}
330
47
100
AcDbScale
 70
     0
300
1/8" = 1'-0"
140
0.125
141
12.0
290
     0
  0
SCALE
  5
5F
102
{ACAD_REACTORS
330
47
102
}
330
47
100
AcDbScale
 70
     0
300
3/16" = 1'-0"
140
0.1875
141
12.0
290
     0
  0
SCALE
  5
60
102
{ACAD_REACTORS
330
47
102
}
330
47
100
AcDbScale
 70
     0
300
1/4" = 1'-0"
140
0.25
141
12.0
290
     0
  0
SCALE
  5
61
102
{ACAD_REACTORS
330
47
102
}
330
47
100
AcDbScale
 70
     0
300
3/8" = 1'-0"
140
0.375
141
12.0
290
     0
  0
SCALE
  5
62
102
{ACAD_REACTORS
330
47
102
}
330
47
100
AcDbScale
 70
     0
300
1/2" = 1'-0"
140
0.5
141
12.0
290
     0
  0
SCALE
  5
63
102
{ACAD_REACTORS
330
47
102
}
330
47
100
AcDbScale
 70
     0
300
3/4" = 1'-0"
140
0.75
141
12.0
290
     0
  0
SCALE
  5
64
102
{ACAD_REACTORS
330
47
102
}
330
47
100
AcDbScale
 70
     0
300
1" = 1'-0"
140
1.0
141
12.0
290
     0
  0
SCALE
  5
65
102
{ACAD_REACTORS
330
47
102
}
330
47
100
AcDbScale
 70
     0
300
1-1/2" = 1'-0"
140
1.5
141
12.0
290
     0
  0
SCALE
  5
66
102
{ACAD_REACTORS
330
47
102
}
330
47
100
AcDbScale
 70
     0
300
3" = 1'-0"
140
3.0
141
12.0
290
     0
  0
SCALE
  5
67
102
{ACAD_REACTORS
330
47
102
}
330
47
100
AcDbScale
 70
     0
300
6" = 1'-0"
140
6.0
141
12.0
290
     0
  0
SCALE
  5
68
102
{ACAD_REACTORS
330
47
102
}
330
47
100
AcDbScale
 70
     0
300
1'-0" = 1'-0"
140
12.0
141
12.0
290
     0
  0
ENDSEC
  0
EOF
