  0
SECTION
  2
HEADER
  9
$ACADVER
  1
AC1015
  9
$ACADMAINTVER
 70
     6
  9
$DWGCODEPAGE
  3
ANSI_1250
  9
$INSBASE
 10
0.0
 20
0.0
 30
0.0
  9
$EXTMIN
 10
0.0
 20
0.0
 30
0.0
  9
$EXTMAX
 10
20000.0
 20
10000.0
 30
0.0
  9
$LIMMIN
 10
0.0
 20
0.0
  9
$LIMMAX
 10
20000.0
 20
10000.0
  9
$ORTHOMODE
 70
     0
  9
$REGENMODE
 70
     1
  9
$FILLMODE
 70
     1
  9
$QTEXTMODE
 70
     0
  9
$MIRRTEXT
 70
     1
  9
$LTSCALE
 40
1.0
  9
$ATTMODE
 70
     1
  9
$TEXTSIZE
 40
2.0
  9
$TRACEWID
 40
1.0
  9
$TEXTSTYLE
  7
Standard
  9
$CLAYER
  8
0
  9
$CELTYPE
  6
ByLayer
  9
$CECOLOR
 62
   256
  9
$CELTSCALE
 40
1.0
  9
$DISPSILH
 70
     0
  9
$DIMSCALE
 40
1.0
  9
$DIMASZ
 40
2.0
  9
$DIMEXO
 40
1.0
  9
$DIMDLI
 40
3.75
  9
$DIMRND
 40
0.0
  9
$DIMDLE
 40
0.0
  9
$DIMEXE
 40
1.0
  9
$DIMTP
 40
0.0
  9
$DIMTM
 40
0.0
  9
$DIMTXT
 40
2.0
  9
$DIMCEN
 40
2.5
  9
$DIMTSZ
 40
0.0
  9
$DIMTOL
 70
     0
  9
$DIMLIM
 70
     0
  9
$DIMTIH
 70
     1
  9
$DIMTOH
 70
     1
  9
$DIMSE1
 70
     0
  9
$DIMSE2
 70
     0
  9
$DIMTAD
 70
     1
  9
$DIMZIN
 70
     0
  9
$DIMBLK
  1

  9
$DIMASO
 70
     1
  9
$DIMSHO
 70
     1
  9
$DIMPOST
  1

  9
$DIMAPOST
  1

  9
$DIMALT
 70
     0
  9
$DIMALTD
 70
     3
  9
$DIMALTF
 40
0.0393700787
  9
$DIMLFAC
 40
1.0
  9
$DIMTOFL
 70
     1
  9
$DIMTVP
 40
0.0
  9
$DIMTIX
 70
     0
  9
$DIMSOXD
 70
     0
  9
$DIMSAH
 70
     0
  9
$DIMBLK1
  1

  9
$DIMBLK2
  1

  9
$DIMSTYLE
  2
ISO-25
  9
$DIMCLRD
 70
     0
  9
$DIMCLRE
 70
     0
  9
$DIMCLRT
 70
     0
  9
$DIMTFAC
 40
1.0
  9
$DIMGAP
 40
1.524
  9
$DIMJUST
 70
     0
  9
$DIMSD1
 70
     0
  9
$DIMSD2
 70
     0
  9
$DIMTOLJ
 70
     0
  9
$DIMTZIN
 70
     0
  9
$DIMALTZ
 70
     0
  9
$DIMALTTZ
 70
     0
  9
$DIMUPT
 70
     0
  9
$DIMDEC
 70
     2
  9
$DIMTDEC
 70
     0
  9
$DIMALTU
 70
     2
  9
$DIMALTTD
 70
     3
  9
$DIMTXSTY
  7
Standard
  9
$DIMAUNIT
 70
     0
  9
$DIMADEC
 70
     2
  9
$DIMALTRND
 40
0.0
  9
$DIMAZIN
 70
     0
  9
$DIMDSEP
 70
    44
  9
$DIMATFIT
 70
     3
  9
$DIMFRAC
 70
     0
  9
$DIMLDRBLK
  1

  9
$DIMLUNIT
 70
     2
  9
$DIMLWD
 70
    -2
  9
$DIMLWE
 70
    -2
  9
$DIMTMOVE
 70
     0
  9
$LUNITS
 70
     2
  9
$LUPREC
 70
     3
  9
$SKETCHINC
 40
1.0
  9
$FILLETRAD
 40
10.0
  9
$AUNITS
 70
     0
  9
$AUPREC
 70
     2
  9
$MENU
  1
.
  9
$ELEVATION
 40
0.0
  9
$PELEVATION
 40
0.0
  9
$THICKNESS
 40
0.0
  9
$LIMCHECK
 70
     0
  9
$CHAMFERA
 40
0.0
  9
$CHAMFERB
 40
0.0
  9
$CHAMFERC
 40
0.0
  9
$CHAMFERD
 40
0.0
  9
$SKPOLY
 70
     0
  9
$TDCREATE
 40
2459199.57392647
  9
$TDUCREATE
 40
2459199.532259803
  9
$TDUPDATE
 40
2459199.573926586
  9
$TDUUPDATE
 40
2459199.532259919
  9
$TDINDWG
 40
0.0000000116
  9
$TDUSRTIMER
 40
0.0000000116
  9
$USRTIMER
 70
     1
  9
$ANGBASE
 50
0.0
  9
$ANGDIR
 70
     0
  9
$PDMODE
 70
     0
  9
$PDSIZE
 40
-1.0
  9
$PLINEWID
 40
0.0
  9
$SPLFRAME
 70
     0
  9
$SPLINETYPE
 70
     6
  9
$SPLINESEGS
 70
     8
  9
$HANDSEED
  5
250
  9
$SURFTAB1
 70
     6
  9
$SURFTAB2
 70
     6
  9
$SURFTYPE
 70
     6
  9
$SURFU
 70
     6
  9
$SURFV
 70
     6
  9
$UCSBASE
  2

  9
$UCSNAME
  2

  9
$UCSORG
 10
0.0
 20
0.0
 30
0.0
  9
$UCSXDIR
 10
1.0
 20
0.0
 30
0.0
  9
$UCSYDIR
 10
0.0
 20
1.0
 30
0.0
  9
$UCSORTHOREF
  2

  9
$UCSORTHOVIEW
 70
     0
  9
$UCSORGTOP
 10
0.0
 20
0.0
 30
0.0
  9
$UCSORGBOTTOM
 10
0.0
 20
0.0
 30
0.0
  9
$UCSORGLEFT
 10
0.0
 20
0.0
 30
0.0
  9
$UCSORGRIGHT
 10
0.0
 20
0.0
 30
0.0
  9
$UCSORGFRONT
 10
0.0
 20
0.0
 30
0.0
  9
$UCSORGBACK
 10
0.0
 20
0.0
 30
0.0
  9
$PUCSBASE
  2

  9
$PUCSNAME
  2

  9
$PUCSORG
 10
0.0
 20
0.0
 30
0.0
  9
$PUCSXDIR
 10
1.0
 20
0.0
 30
0.0
  9
$PUCSYDIR
 10
0.0
 20
1.0
 30
0.0
  9
$PUCSORTHOREF
  2

  9
$PUCSORTHOVIEW
 70
     0
  9
$PUCSORGTOP
 10
0.0
 20
0.0
 30
0.0
  9
$PUCSORGBOTTOM
 10
0.0
 20
0.0
 30
0.0
  9
$PUCSORGLEFT
 10
0.0
 20
0.0
 30
0.0
  9
$PUCSORGRIGHT
 10
0.0
 20
0.0
 30
0.0
  9
$PUCSORGFRONT
 10
0.0
 20
0.0
 30
0.0
  9
$PUCSORGBACK
 10
0.0
 20
0.0
 30
0.0
  9
$USERI1
 70
     0
  9
$USERI2
 70
     0
  9
$USERI3
 70
     0
  9
$USERI4
 70
     0
  9
$USERI5
 70
     0
  9
$USERR1
 40
0.0
  9
$USERR2
 40
0.0
  9
$USERR3
 40
0.0
  9
$USERR4
 40
0.0
  9
$USERR5
 40
0.0
  9
$WORLDVIEW
 70
     1
  9
$SHADEDGE
 70
     3
  9
$SHADEDIF
 70
    70
  9
$TILEMODE
 70
     1
  9
$MAXACTVP
 70
    64
  9
$PINSBASE
 10
0.0
 20
0.0
 30
0.0
  9
$PLIMCHECK
 70
     0
  9
$PEXTMIN
 10
1.0000000000E+20
 20
1.0000000000E+20
 30
1.0000000000E+20
  9
$PEXTMAX
 10
-1.0000000000E+20
 20
-1.0000000000E+20
 30
-1.0000000000E+20
  9
$PLIMMIN
 10
0.0
 20
0.0
  9
$PLIMMAX
 10
420.0
 20
297.0
  9
$UNITMODE
 70
     0
  9
$VISRETAIN
 70
     1
  9
$PLINEGEN
 70
     0
  9
$PSLTSCALE
 70
     1
  9
$TREEDEPTH
 70
  3020
  9
$CMLSTYLE
  2
Standard
  9
$CMLJUST
 70
     0
  9
$CMLSCALE
 40
20.0
  9
$PROXYGRAPHICS
 70
     1
  9
$MEASUREMENT
 70
     1
  9
$CELWEIGHT
370
    -1
  9
$ENDCAPS
280
     0
  9
$JOINSTYLE
280
     0
  9
$LWDISPLAY
290
     1
  9
$INSUNITS
 70
     4
  9
$HYPERLINKBASE
  1

  9
$STYLESHEET
  1

  9
$XEDIT
290
     1
  9
$CEPSNTYPE
380
     0
  9
$PSTYLEMODE
290
     1
  9
$FINGERPRINTGUID
  2
{8f0911c3-69dd-4367-8c91-eb310ed3acae}
  9
$VERSIONGUID
  2
{FAEB1C32-E019-11D5-929B-00C0DF256EC4}
  9
$EXTNAMES
290
     1
  9
$PSVPSCALE
 40
0.0
  9
$OLESTARTUP
290
     0
  0
ENDSEC
  0
SECTION
  2
CLASSES
  0
CLASS
  1
ACDBDICTIONARYWDFLT
  2
AcDbDictionaryWithDefault
  3
ObjectDBX Classes
 90
        0
280
     0
281
     0
  0
CLASS
  1
VISUALSTYLE
  2
AcDbVisualStyle
  3
ObjectDBX Classes
 90
     4095
280
     0
281
     0
  0
CLASS
  1
MATERIAL
  2
AcDbMaterial
  3
ObjectDBX Classes
 90
     1153
280
     0
281
     0
  0
CLASS
  1
SCALE
  2
AcDbScale
  3
ObjectDBX Classes
 90
     1153
280
     0
281
     0
  0
CLASS
  1
TABLESTYLE
  2
AcDbTableStyle
  3
ObjectDBX Classes
 90
     4095
280
     0
281
     0
  0
CLASS
  1
MLEADERSTYLE
  2
AcDbMLeaderStyle
  3
ACDB_MLEADERSTYLE_CLASS
 90
     4095
280
     0
281
     0
  0
CLASS
  1
SUN
  2
AcDbSun
  3
SCENEOE
 90
     1153
280
     0
281
     0
  0
CLASS
  1
ACDBPLACEHOLDER
  2
AcDbPlaceHolder
  3
ObjectDBX Classes
 90
        0
280
     0
281
     0
  0
CLASS
  1
LAYOUT
  2
AcDbLayout
  3
ObjectDBX Classes
 90
        0
280
     0
281
     0
  0
ENDSEC
  0
SECTION
  2
TABLES
  0
TABLE
  2
VPORT
  5
8
330
0
100
AcDbSymbolTable
 70
     1
  0
VPORT
  5
29
330
8
100
AcDbSymbolTableRecord
100
AcDbViewportTableRecord
  2
*Active
 70
     0
 10
0.0
 20
0.0
 11
1.0
 21
1.0
 12
10000.0
 22
5000.0
 13
0.0
 23
0.0
 14
10.0
 24
10.0
 15
10.0
 25
10.0
 16
0.0
 26
0.0
 36
1.0
 17
0.0
 27
0.0
 37
0.0
 40
10000.0
 41
2.0
 42
50.0
 43
0.0
 44
0.0
 50
0.0
 51
0.0
 71
     0
 72
  2000
 73
     1
 74
     3
 75
     0
 76
     0
 77
     0
 78
     0
281
     0
 65
     1
110
0.0
120
0.0
130
0.0
111
1.0
121
0.0
131
0.0
112
0.0
122
1.0
132
0.0
 79
     0
146
0.0
  0
ENDTAB
  0
TABLE
  2
LTYPE
  5
5
330
0
100
AcDbSymbolTable
 70
     6
  0
LTYPE
  5
14
330
5
100
AcDbSymbolTableRecord
100
AcDbLinetypeTableRecord
  2
ByBlock
 70
     0
  3

 72
    65
 73
     0
 40
0.0
  0
LTYPE
  5
15
330
5
100
AcDbSymbolTableRecord
100
AcDbLinetypeTableRecord
  2
ByLayer
 70
     0
  3

 72
    65
 73
     0
 40
0.0
  0
LTYPE
  5
16
330
5
100
AcDbSymbolTableRecord
100
AcDbLinetypeTableRecord
  2
Continuous
 70
     0
  3
Solid line
 72
    65
 73
     0
 40
0.0
  0
LTYPE
  5
6E
330
5
100
AcDbSymbolTableRecord
100
AcDbLinetypeTableRecord
  2
HIDDEN
 70
     0
  3
Hidden __ __ __ __ __ __ __ __ __ __ __ __ __ __
 72
    65
 73
     2
 40
1.905
 49
1.27
 74
     0
 49
-0.635
 74
     0
  0
LTYPE
  5
6F
330
5
100
AcDbSymbolTableRecord
100
AcDbLinetypeTableRecord
  2
PHANTOM
 70
     0
  3
Phantom ______  __  __  ______  __  __  ______
 72
    65
 73
     6
 40
12.7
 49
6.35
 74
     0
 49
-1.27
 74
     0
 49
1.27
 74
     0
 49
-1.27
 74
     0
 49
1.27
 74
     0
 49
-1.27
 74
     0
  0
LTYPE
  5
70
330
5
100
AcDbSymbolTableRecord
100
AcDbLinetypeTableRecord
  2
CENTER
 70
     0
  3
Center ____ _ ____ _ ____ _ ____ _ ____ _ ____
 72
    65
 73
     4
 40
10.16
 49
6.35
 74
     0
 49
-1.27
 74
     0
 49
1.27
 74
     0
 49
-1.27
 74
     0
  0
LTYPE
  5
71
330
5
100
AcDbSymbolTableRecord
100
AcDbLinetypeTableRecord
  2
CENTERX2
 70
     0
  3
Center (2x) ________  __  ________  __  _____
 72
    65
 73
     4
 40
20.32
 49
12.7
 74
     0
 49
-2.54
 74
     0
 49
2.54
 74
     0
 49
-2.54
 74
     0
  0
LTYPE
  5
72
330
5
100
AcDbSymbolTableRecord
100
AcDbLinetypeTableRecord
  2
DOT2
 70
     0
  3
Dot (.5x) ........................................
 72
    65
 73
     2
 40
0.635
 49
0.0
 74
     0
 49
-0.635
 74
     0
  0
ENDTAB
  0
TABLE
  2
LAYER
  5
2
330
0
100
AcDbSymbolTable
 70
    13
  0
LAYER
  5
10
330
2
100
AcDbSymbolTableRecord
100
AcDbLayerTableRecord
  2
0
 70
     0
 62
     7
  6
Continuous
370
    -3
390
F
  0
LAYER
  5
73
330
2
100
AcDbSymbolTableRecord
100
AcDbLayerTableRecord
  2
FORMAT
 70
     0
 62
     7
  6
Continuous
370
    -3
390
F
  0
LAYER
  5
74
330
2
100
AcDbSymbolTableRecord
100
AcDbLayerTableRecord
  2
OSA
 70
     0
 62
     7
  6
CENTER
370
    -3
390
F
  0
LAYER
  5
75
330
2
100
AcDbSymbolTableRecord
100
AcDbLayerTableRecord
  2
0_35
 70
     0
 62
     7
  6
Continuous
370
    35
390
F
  0
LAYER
  5
76
330
2
100
AcDbSymbolTableRecord
100
AcDbLayerTableRecord
  2
0_5
 70
     0
 62
     7
  6
Continuous
370
    50
390
F
  0
LAYER
  5
77
330
2
100
AcDbSymbolTableRecord
100
AcDbLayerTableRecord
  2
0_25
 70
     0
 62
     7
  6
Continuous
370
    25
390
F
  0
LAYER
  5
78
330
2
100
AcDbSymbolTableRecord
100
AcDbLayerTableRecord
  2
0_18
 70
     0
 62
     7
  6
Continuous
370
    -3
390
F
  0
LAYER
  5
79
330
2
100
AcDbSymbolTableRecord
100
AcDbLayerTableRecord
  2
SLD-0
 70
     0
 62
   179
  6
Continuous
370
    -3
390
F
  0
LAYER
  5
7A
330
2
100
AcDbSymbolTableRecord
100
AcDbLayerTableRecord
  2
KOTY
 70
     0
 62
     7
  6
Continuous
370
    -3
390
F
  0
LAYER
  5
7B
330
2
100
AcDbSymbolTableRecord
100
AcDbLayerTableRecord
  2
SILNA
 70
     0
 62
   179
  6
Continuous
370
    -3
390
F
  0
LAYER
  5
7C
330
2
100
AcDbSymbolTableRecord
100
AcDbLayerTableRecord
  2
0_18_1
 70
     0
 62
   179
  6
Continuous
370
    -3
390
F
  0
LAYER
  5
7D
330
2
100
AcDbSymbolTableRecord
100
AcDbLayerTableRecord
  2
0_35_1
 70
     0
 62
   179
  6
Continuous
370
    35
390
F
  0
LAYER
  5
7E
330
2
100
AcDbSymbolTableRecord
100
AcDbLayerTableRecord
  2
0_5_1
 70
     0
 62
   179
  6
Continuous
370
    50
390
F
  0
ENDTAB
  0
TABLE
  2
STYLE
  5
3
330
0
100
AcDbSymbolTable
 70
     1
  0
STYLE
  5
11
330
3
100
AcDbSymbolTableRecord
100
AcDbTextStyleTableRecord
  2
Standard
 70
     0
 40
0.0
 41
1.0
 50
0.0
 71
     0
 42
2.0
  3
txt
  4

  0
ENDTAB
  0
TABLE
  2
VIEW
  5
6
330
0
100
AcDbSymbolTable
 70
     0
  0
ENDTAB
  0
TABLE
  2
UCS
  5
7
330
0
100
AcDbSymbolTable
 70
     0
  0
ENDTAB
  0
TABLE
  2
APPID
  5
9
330
0
100
AcDbSymbolTable
 70
     1
  0
APPID
  5
12
330
9
100
AcDbSymbolTableRecord
100
AcDbRegAppTableRecord
  2
ACAD
 70
     0
  0
ENDTAB
  0
TABLE
  2
DIMSTYLE
  5
A
330
0
100
AcDbSymbolTable
 70
     1
100
AcDbDimStyleTable
  0
DIMSTYLE
105
27
330
A
100
AcDbSymbolTableRecord
100
AcDbDimStyleTableRecord
  2
ISO-25
 70
     0
 41
2.5
 42
0.625
 43
3.75
 44
1.25
 73
     0
 74
     0
 77
     1
 78
     8
140
2.5
141
2.5
143
0.0393700787
147
0.625
171
     3
172
     1
178
     0
271
     2
272
     2
274
     3
278
    44
283
     0
284
     8
340
11
  0
ENDTAB
  0
TABLE
  2
BLOCK_RECORD
  5
1
330
0
100
AcDbSymbolTable
 70
     1
  0
BLOCK_RECORD
  5
1F
330
1
100
AcDbSymbolTableRecord
100
AcDbBlockTableRecord
  2
*Model_Space
340
22
  0
BLOCK_RECORD
  5
1B
330
1
100
AcDbSymbolTableRecord
100
AcDbBlockTableRecord
  2
*Paper_Space
340
1E
  0
BLOCK_RECORD
  5
23
330
1
100
AcDbSymbolTableRecord
100
AcDbBlockTableRecord
  2
*Paper_Space0
340
26
  0
ENDTAB
  0
ENDSEC
  0
SECTION
  2
BLOCKS
  0
BLOCK
  5
20
330
1F
100
AcDbEntity
  8
0
100
AcDbBlockBegin
  2
*Model_Space
 70
     0
 10
0.0
 20
0.0
 30
0.0
  3
*Model_Space
  1

  0
ENDBLK
  5
21
330
1F
100
AcDbEntity
  8
0
100
AcDbBlockEnd
  0
BLOCK
  5
1C
330
1B
100
AcDbEntity
 67
     1
  8
0
100
AcDbBlockBegin
  2
*Paper_Space
 70
     0
 10
0.0
 20
0.0
 30
0.0
  3
*Paper_Space
  1

  0
ENDBLK
  5
1D
330
1B
100
AcDbEntity
 67
     1
  8
0
100
AcDbBlockEnd
  0
BLOCK
  5
24
330
23
100
AcDbEntity
  8
0
100
AcDbBlockBegin
  2
*Paper_Space0
 70
     0
 10
0.0
 20
0.0
 30
0.0
  3
*Paper_Space0
  1

  0
ENDBLK
  5
25
330
23
100
AcDbEntity
  8
0
100
AcDbBlockEnd
  0
ENDSEC
  0
SECTION
  2
ENTITIES
  0
LINE
  5
7F
330
1F
100
AcDbEntity
  8
0
  6
Continuous
 62
     7
370
    25
100
AcDbLine
 10
10083.8630853833
 20
3800.2856351332
 30
0.0
 11
10083.8262273274
 21
3799.9034392311
 31
0.0
  0
LINE
  5
80
330
1F
100
AcDbEntity
  8
0
  6
Continuous
 62
     7
370
    25
100
AcDbLine
 10
10129.8262273274
 20
3799.9034392311
 30
0.0
 11
10129.7893692714
 21
3800.2856351332
 31
0.0
  0
LINE
  5
81
330
1F
100
AcDbEntity
  8
0
  6
Continuous
 62
     7
370
    25
100
AcDbLine
 10
10129.8074503539
 20
3902.6693156888
 30
0.0
 11
10140.8262606486
 21
3902.6693156888
 31
0.0
  0
ARC
  5
82
330
1F
100
AcDbEntity
  8
0
  6
Continuous
 62
     7
370
    25
100
AcDbCircle
 10
10140.7694725725
 20
3904.6780837365
 30
0.0
 40
2.571451110240927
100
AcDbArc
 50
6.1216289802
 51
96.0340644756
  0
LINE
  5
83
330
1F
100
AcDbEntity
  8
0
  6
Continuous
 62
     7
370
    25
100
AcDbLine
 10
10140.4991623387
 20
3907.235287911
 30
0.0
 11
10131.8450709432
 21
3907.235287911
 31
0.0
  0
ARC
  5
84
330
1F
100
AcDbEntity
  8
0
  6
Continuous
 62
     7
370
    25
100
AcDbCircle
 10
10072.8830154035
 20
3905.2265198632
 30
0.0
 40
2.571451110243167
100
AcDbArc
 50
186.1216289802
 51
276.0340644757
  0
LINE
  5
85
330
1F
100
AcDbEntity
  8
0
  6
Continuous
 62
     7
370
    25
100
AcDbLine
 10
10083.845037622
 20
3907.235287911
 30
0.0
 11
10072.8262273274
 21
3907.235287911
 31
0.0
  0
LINE
  5
86
330
1F
100
AcDbEntity
  8
0
  6
Continuous
 62
     7
370
    25
100
AcDbLine
 10
10073.1533256373
 20
3902.6693156888
 30
0.0
 11
10081.8074170327
 21
3902.6693156888
 31
0.0
  0
LINE
  5
87
330
1F
100
AcDbEntity
  8
0
  6
Continuous
 62
     7
370
    25
100
AcDbLine
 10
10081.8074170327
 20
3902.6693156888
 30
0.0
 11
10129.8074503539
 21
3902.6693156888
 31
0.0
  0
LINE
  5
88
330
1F
100
AcDbEntity
  8
0
  6
Continuous
 62
     7
370
    25
100
AcDbLine
 10
10131.8450709432
 20
3907.235287911
 30
0.0
 11
10083.845037622
 21
3907.235287911
 31
0.0
  0
LWPOLYLINE
  5
89
330
1F
100
AcDbEntity
  8
0
  6
Continuous
 62
     7
370
    25
100
AcDbPolyline
 90
       20
 70
   128
 43
0.0
 10
10143.3262273271
 20
3863.2803840866
 10
10143.3262280352
 20
3864.9410217459
 10
10143.3262289246
 20
3866.9771247839
 10
10143.3262296928
 20
3868.6960392245
 10
10143.3262303401
 20
3870.1155929325
 10
10143.3262308665
 20
3871.2509063958
 10
10143.3262313218
 20
3872.2186476039
 10
10143.3262335399
 20
3876.7469669789
 10
10143.3262355504
 20
3880.5816151228
 10
10143.326237553
 20
3884.1429064556
 10
10143.3262411053
 20
3889.8159941837
 10
10143.3262446214
 20
3894.6002491529
 10
10143.326247257
 20
3897.6269218715
 10
10143.326249865
 20
3900.1348475698
 10
10143.3262524427
 20
3902.1212942909
 10
10143.3262543543
 20
3903.2673956986
 10
10143.3262562462
 20
3904.1181963965
 10
10143.3262572633
 20
3904.4479928842
 10
10143.3262585009
 20
3904.7147988187
 10
10143.3191417182
 20
3904.6739464395
  0
LWPOLYLINE
  5
8A
330
1F
100
AcDbEntity
  8
0
  6
Continuous
 62
     7
370
    25
100
AcDbPolyline
 90
       17
 70
   128
 43
0.0
 10
10138.3262534894
 20
3902.6693156888
 10
10138.3262515015
 20
3901.4538808414
 10
10138.3262483469
 20
3898.734858946
 10
10138.3262451498
 20
3895.2459997
 10
10138.3262421741
 20
3891.358980527
 10
10138.3262391709
 20
3886.829806761
 10
10138.3262361444
 20
3881.6648218836
 10
10138.3262348063
 20
3879.192491628
 10
10138.3262334808
 20
3876.6303367586
 10
10138.3262322665
 20
3874.1852654696
 10
10138.3262318615
 20
3873.3490928669
 10
10138.3262313491
 20
3872.2764197264
 10
10138.3262307196
 20
3870.9357508093
 10
10138.3262299725
 20
3869.3127058251
 10
10138.3262291078
 20
3867.3903334103
 10
10138.3262281251
 20
3865.1491606228
 10
10138.3262273269
 20
3863.2789668309
  0
LINE
  5
8B
330
1F
100
AcDbEntity
  8
0
  6
Continuous
 62
     7
370
    25
100
AcDbLine
 10
10075.3262273274
 20
3863.2856351332
 30
0.0
 11
10075.3262273274
 21
3902.6693156888
 31
0.0
  0
LWPOLYLINE
  5
8C
330
1F
100
AcDbEntity
  8
0
  6
Continuous
 62
     7
370
    25
100
AcDbPolyline
 90
       23
 70
   128
 43
0.0
 10
10070.3294030707
 20
3904.9393312771
 10
10070.3288815356
 20
3904.9219106141
 10
10070.3272650196
 20
3904.821020938
 10
10070.3265306417
 20
3904.7219222257
 10
10070.3262295547
 20
3904.5389820481
 10
10070.3262273274
 20
3904.371740132
 10
10070.3262273274
 20
3903.6076553211
 10
10070.3262273274
 20
3901.5191959412
 10
10070.3262273274
 20
3898.8460555358
 10
10070.3262273274
 20
3895.4146095417
 10
10070.3262273274
 20
3891.5909277547
 10
10070.3262273274
 20
3887.134682564
 10
10070.3262273274
 20
3882.0519748437
 10
10070.3262273274
 20
3879.6188371175
 10
10070.3262273274
 20
3877.09551921
 10
10070.3262273274
 20
3874.6849034022
 10
10070.3262273274
 20
3873.8650296753
 10
10070.3262273274
 20
3872.8146121035
 10
10070.3262273274
 20
3871.4996184164
 10
10070.3262273274
 20
3869.9063716806
 10
10070.3262273274
 20
3868.0188338625
 10
10070.3262273274
 20
3865.8187195376
 10
10070.3262273274
 20
3863.2856351332
  0
LINE
  5
8D
330
1F
100
AcDbEntity
  8
0
  6
Continuous
 62
     7
370
    25
100
AcDbLine
 10
10103.8771126639
 20
3839.6170373325
 30
0.0
 11
10105.6660959222
 21
3835.3020597249
 31
0.0
  0
LINE
  5
8E
330
1F
100
AcDbEntity
  8
0
  6
Continuous
 62
     7
370
    25
100
AcDbLine
 10
10107.9863587326
 20
3835.3020597249
 30
0.0
 11
10109.7753419908
 21
3839.6170373325
 31
0.0
  0
LINE
  5
8F
330
1F
100
AcDbEntity
  8
0
  6
Continuous
 62
     7
370
    25
100
AcDbLine
 10
10109.8262273274
 20
3839.8646230584
 30
0.0
 11
10109.8262273274
 21
3841.149475766
 31
0.0
  0
LINE
  5
90
330
1F
100
AcDbEntity
  8
0
  6
Continuous
 62
     7
370
    25
100
AcDbLine
 10
10103.8262273274
 20
3841.149475766
 30
0.0
 11
10103.8262273274
 21
3839.8646230584
 31
0.0
  0
LINE
  5
91
330
1F
100
AcDbEntity
  8
0
  6
Continuous
 62
     7
370
    25
100
AcDbLine
 10
10103.8262273274
 20
3843.2856351332
 30
0.0
 11
10103.8262273274
 21
3841.149475766
 31
0.0
  0
LINE
  5
92
330
1F
100
AcDbEntity
  8
0
  6
Continuous
 62
     7
370
    25
100
AcDbLine
 10
10109.8262273274
 20
3841.149475766
 30
0.0
 11
10109.8262273274
 21
3843.2856351332
 31
0.0
  0
LINE
  5
93
330
1F
100
AcDbEntity
  8
0
  6
Continuous
 62
     7
370
    25
100
AcDbLine
 10
10074.8262273274
 20
3799.9034392311
 30
0.0
 11
10138.8262273274
 21
3799.9034392311
 31
0.0
  0
LINE
  5
94
330
1F
100
AcDbEntity
  8
0
  6
Continuous
 62
     7
370
    25
100
AcDbLine
 10
10138.8262273274
 20
3794.9034392311
 30
0.0
 11
10138.8262273274
 21
3799.9034392311
 31
0.0
  0
LINE
  5
95
330
1F
100
AcDbEntity
  8
0
  6
Continuous
 62
     7
370
    25
100
AcDbLine
 10
10138.8262273274
 20
3794.9034392311
 30
0.0
 11
10074.8262273274
 21
3794.9034392311
 31
0.0
  0
LINE
  5
96
330
1F
100
AcDbEntity
  8
0
  6
Continuous
 62
     7
370
    25
100
AcDbLine
 10
10074.8262273274
 20
3799.9034392311
 30
0.0
 11
10074.8262273274
 21
3794.9034392311
 31
0.0
  0
LINE
  5
97
330
1F
100
AcDbEntity
  8
0
  6
Continuous
 62
     7
370
    25
100
AcDbLine
 10
10069.8262273274
 20
3794.9034392311
 30
0.0
 11
10074.8262273274
 21
3794.9034392311
 31
0.0
  0
ARC
  5
98
330
1F
100
AcDbEntity
  8
0
  6
Continuous
 62
     7
370
    25
100
AcDbCircle
 10
10074.8262273274
 20
3794.9034392311
 30
0.0
 40
5.0
100
AcDbArc
 50
90.0
 51
180.0
  0
ARC
  5
99
330
1F
100
AcDbEntity
  8
0
  6
Continuous
 62
     7
370
    25
100
AcDbCircle
 10
10138.8262273274
 20
3794.9034392311
 30
0.0
 40
5.000000000001819
100
AcDbArc
 50
0.0
 51
90.0
  0
LINE
  5
9A
330
1F
100
AcDbEntity
  8
0
  6
Continuous
 62
     7
370
    25
100
AcDbLine
 10
10138.8262273274
 20
3794.9034392311
 30
0.0
 11
10143.8262273274
 21
3794.9034392311
 31
0.0
  0
LINE
  5
9B
330
1F
100
AcDbEntity
  8
0
  6
Continuous
 62
     7
370
    25
100
AcDbLine
 10
10138.8262273274
 20
3669.9034392311
 30
0.0
 11
10138.8262273274
 21
3794.9034392311
 31
0.0
  0
LINE
  5
9C
330
1F
100
AcDbEntity
  8
0
  6
Continuous
 62
     7
370
    25
100
AcDbLine
 10
10074.8262273274
 20
3669.9034392311
 30
0.0
 11
10138.8262273274
 21
3669.9034392311
 31
0.0
  0
LINE
  5
9D
330
1F
100
AcDbEntity
  8
0
  6
Continuous
 62
     7
370
    25
100
AcDbLine
 10
10074.8262273274
 20
3794.9034392311
 30
0.0
 11
10074.8262273274
 21
3669.9034392311
 31
0.0
  0
LINE
  5
9E
330
1F
100
AcDbEntity
  8
0
  6
Continuous
 62
     7
370
    25
100
AcDbLine
 10
10069.8262273274
 20
3669.9034392311
 30
0.0
 11
10069.8262273274
 21
3794.9034392311
 31
0.0
  0
LINE
  5
9F
330
1F
100
AcDbEntity
  8
0
  6
Continuous
 62
     7
370
    25
100
AcDbLine
 10
10069.8262273274
 20
3669.9034392311
 30
0.0
 11
10074.8262273274
 21
3669.9034392311
 31
0.0
  0
LINE
  5
A0
330
1F
100
AcDbEntity
  8
0
  6
Continuous
 62
     7
370
    25
100
AcDbLine
 10
10143.8262273274
 20
3794.9034392311
 30
0.0
 11
10143.8262273274
 21
3669.9034392311
 31
0.0
  0
LINE
  5
A1
330
1F
100
AcDbEntity
  8
0
  6
Continuous
 62
     7
370
    25
100
AcDbLine
 10
10138.8262273274
 20
3669.9034392311
 30
0.0
 11
10143.8262273274
 21
3669.9034392311
 31
0.0
  0
LINE
  5
A2
330
1F
100
AcDbEntity
  8
0
  6
Continuous
 62
     7
370
    25
100
AcDbLine
 10
10074.8262273274
 20
3664.9034392311
 30
0.0
 11
10074.8262273274
 21
3669.9034392311
 31
0.0
  0
ARC
  5
A3
330
1F
100
AcDbEntity
  8
0
  6
Continuous
 62
     7
370
    25
100
AcDbCircle
 10
10074.8262273274
 20
3669.9034392311
 30
0.0
 40
5.000000000000455
100
AcDbArc
 50
180.0
 51
270.0
  0
LINE
  5
A4
330
1F
100
AcDbEntity
  8
0
  6
Continuous
 62
     7
370
    25
100
AcDbLine
 10
10138.8262273274
 20
3669.9034392311
 30
0.0
 11
10138.8262273274
 21
3664.9034392311
 31
0.0
  0
LINE
  5
A5
330
1F
100
AcDbEntity
  8
0
  6
Continuous
 62
     7
370
    25
100
AcDbLine
 10
10138.8262273274
 20
3664.9034392311
 30
0.0
 11
10074.8262273274
 21
3664.9034392311
 31
0.0
  0
ARC
  5
A6
330
1F
100
AcDbEntity
  8
0
  6
Continuous
 62
     7
370
    25
100
AcDbCircle
 10
10138.8262273274
 20
3669.9034392311
 30
0.0
 40
5.000000000001819
100
AcDbArc
 50
270.0
 51
0.0
  0
LINE
  5
A7
330
1F
100
AcDbEntity
  8
0
  6
Continuous
 62
     7
370
    25
100
AcDbLine
 10
10103.0762273274
 20
3816.9034392311
 30
0.0
 11
10110.5762273274
 21
3816.9034392311
 31
0.0
  0
LINE
  5
A8
330
1F
100
AcDbEntity
  8
0
  6
Continuous
 62
     7
370
    25
100
AcDbLine
 10
10131.8450709432
 20
3907.235287911
 30
0.0
 11
10129.8074503569
 21
3902.6693156955
 31
0.0
  0
ARC
  5
A9
330
1F
100
AcDbEntity
  8
0
  6
Continuous
 62
     7
370
    25
100
AcDbCircle
 10
10140.9335034413
 20
3905.0609464245
 30
0.0
 40
2.395222526660275
100
AcDbArc
 50
266.8077887615
 51
357.4002083358
  0
LINE
  5
AA
330
1F
100
AcDbEntity
  8
0
  6
Continuous
 62
     7
370
    25
100
AcDbLine
 10
10140.3239661775
 20
3907.1887335013
 30
0.0
 11
10140.8262606486
 21
3907.235287911
 31
0.0
  0
ARC
  5
AB
330
1F
100
AcDbEntity
  8
0
  6
Continuous
 62
     7
370
    25
100
AcDbCircle
 10
10072.708763607
 20
3904.8536945116
 30
0.0
 40
2.384488382379649
100
AcDbArc
 50
87.176375245
 51
177.6807889498
  0
LWPOLYLINE
  5
AC
330
1F
100
AcDbEntity
  8
0
  6
Continuous
 62
     7
370
    25
100
AcDbPolyline
 90
        3
 70
   128
 43
0.0
 10
10072.8267431939
 20
3902.6693157374
 10
10073.2377138031
 20
3902.7004526437
 10
10073.3091073662
 20
3902.7123069582
  0
LINE
  5
AD
330
1F
100
AcDbEntity
  8
0
  6
Continuous
 62
     7
370
    25
100
AcDbLine
 10
10083.845037622
 20
3907.235287911
 30
0.0
 11
10081.8074721137
 21
3902.6694391162
 31
0.0
  0
ARC
  5
AE
330
1F
100
AcDbEntity
  8
0
  6
Continuous
 62
     7
370
    25
100
AcDbCircle
 10
10140.8262273802
 20
3863.4375847802
 30
0.0
 40
2.504613482203072
100
AcDbArc
 50
183.4781306875
 51
356.5218294559
  0
ARC
  5
AF
330
1F
100
AcDbEntity
  8
0
  6
Continuous
 62
     7
370
    25
100
AcDbCircle
 10
10072.8262273274
 20
3863.2856351332
 30
0.0
 40
2.500000000000575
100
AcDbArc
 50
180.0103566961
 51
0.0460350305
  0
LWPOLYLINE
  5
B0
330
1F
100
AcDbEntity
  8
0
  6
Continuous
 62
     7
370
    25
100
AcDbPolyline
 90
       17
 70
   128
 43
0.0
 10
10106.8262273274
 20
3835.9305111965
 10
10106.3746039229
 20
3835.8900870058
 10
10105.9917360878
 20
3835.7749686505
 10
10105.7359119793
 20
3835.6026818565
 10
10105.6460784987
 20
3835.3994557264
 10
10105.7359119793
 20
3835.1962295963
 10
10105.9917360878
 20
3835.0239428023
 10
10106.3746039229
 20
3834.9088244469
 10
10106.8262273274
 20
3834.8684002563
 10
10107.2778507318
 20
3834.9088244469
 10
10107.6607185669
 20
3835.0239428023
 10
10107.9165426755
 20
3835.1962295963
 10
10108.006376156
 20
3835.3994557264
 10
10107.9165426755
 20
3835.6026818565
 10
10107.6607185669
 20
3835.7749686505
 10
10107.2778507318
 20
3835.8900870058
 10
10106.8262273274
 20
3835.9305111965
  0
LWPOLYLINE
  5
B1
330
1F
100
AcDbEntity
  8
0
  6
Continuous
 62
     7
370
    25
100
AcDbPolyline
 90
        7
 70
   128
 43
0.0
 10
10106.8262273274
 20
3841.2145938177
 10
10107.7532783105
 20
3841.1485215458
 10
10108.5895830843
 20
3840.9567723446
 10
10109.2532783105
 20
3840.6581159617
 10
10109.6793968763
 20
3840.2817869649
 10
10109.8262273274
 20
3839.8646230584
 10
10109.7753419908
 20
3839.6170373325
  0
LWPOLYLINE
  5
B2
330
1F
100
AcDbEntity
  8
0
  6
Continuous
 62
     7
370
    25
100
AcDbPolyline
 90
        7
 70
   128
 43
0.0
 10
10103.8771126639
 20
3839.6170373325
 10
10103.8262273274
 20
3839.8646230584
 10
10103.9730577785
 20
3840.2817869649
 10
10104.3991763443
 20
3840.6581159617
 10
10105.0628715705
 20
3840.9567723446
 10
10105.8991763443
 20
3841.1485215458
 10
10106.8262273274
 20
3841.2145938177
  0
LINE
  5
B3
330
1F
100
AcDbEntity
  8
0
  6
Continuous
 62
     7
370
    25
100
AcDbLine
 10
10103.0762273274
 20
3828.2856351332
 30
0.0
 11
10110.5762273274
 21
3828.2856351332
 31
0.0
  0
LINE
  5
B4
330
1F
100
AcDbEntity
  8
0
  6
Continuous
 62
     7
370
    25
100
AcDbLine
 10
10145.3262273274
 20
3858.2856351332
 30
0.0
 11
10145.3262273274
 21
3868.2856351332
 31
0.0
  0
LINE
  5
B5
330
1F
100
AcDbEntity
  8
0
  6
Continuous
 62
     7
370
    25
100
AcDbLine
 10
10136.3262273274
 20
3858.2856351332
 30
0.0
 11
10145.3262273274
 21
3858.2856351332
 31
0.0
  0
LINE
  5
B6
330
1F
100
AcDbEntity
  8
0
  6
Continuous
 62
     7
370
    25
100
AcDbLine
 10
10136.3262273274
 20
3868.2856351332
 30
0.0
 11
10138.3262295105
 21
3868.2856351332
 31
0.0
  0
LINE
  5
B7
330
1F
100
AcDbEntity
  8
0
  6
Continuous
 62
     7
370
    25
100
AcDbLine
 10
10143.3262295094
 20
3868.2856351332
 30
0.0
 11
10145.3262273274
 21
3868.2856351332
 31
0.0
  0
LINE
  5
B8
330
1F
100
AcDbEntity
  8
0
  6
Continuous
 62
     7
370
    25
100
AcDbLine
 10
10068.3262273274
 20
3858.2856351332
 30
0.0
 11
10068.3262273274
 21
3868.2856351332
 31
0.0
  0
LINE
  5
B9
330
1F
100
AcDbEntity
  8
0
  6
Continuous
 62
     7
370
    25
100
AcDbLine
 10
10068.3262273274
 20
3858.2856351332
 30
0.0
 11
10077.3262273274
 21
3858.2856351332
 31
0.0
  0
LINE
  5
BA
330
1F
100
AcDbEntity
  8
0
  6
Continuous
 62
     7
370
    25
100
AcDbLine
 10
10068.3262273274
 20
3868.2856351332
 30
0.0
 11
10070.3262273274
 21
3868.2856351332
 31
0.0
  0
LINE
  5
BB
330
1F
100
AcDbEntity
  8
0
  6
Continuous
 62
     7
370
    25
100
AcDbLine
 10
10075.3262273274
 20
3868.2856351332
 30
0.0
 11
10077.3262273274
 21
3868.2856351332
 31
0.0
  0
LINE
  5
BC
330
1F
100
AcDbEntity
  8
0
  6
Continuous
 62
     7
370
    25
100
AcDbLine
 10
10093.0828473691
 20
3845.3625582101
 30
0.0
 11
10120.5696072857
 21
3845.3625582101
 31
0.0
  0
LINE
  5
BD
330
1F
100
AcDbEntity
  8
0
  6
Continuous
 62
     7
370
    25
100
AcDbLine
 10
10120.5696072857
 20
3845.3625582101
 30
0.0
 11
10120.5696072857
 21
3843.2856351332
 31
0.0
  0
LINE
  5
BE
330
1F
100
AcDbEntity
  8
0
  6
Continuous
 62
     7
370
    25
100
AcDbLine
 10
10120.5696072857
 20
3843.2856351332
 30
0.0
 11
10093.0828473691
 21
3843.2856351332
 31
0.0
  0
LINE
  5
BF
330
1F
100
AcDbEntity
  8
0
  6
Continuous
 62
     7
370
    25
100
AcDbLine
 10
10093.0828473691
 20
3845.3625582101
 30
0.0
 11
10093.0828473691
 21
3843.2856351332
 31
0.0
  0
ELLIPSE
  5
C0
330
1F
100
AcDbEntity
  8
0
  6
Continuous
 62
     7
370
    25
100
AcDbEllipse
 10
10120.5822942515
 20
3844.7856351332
 30
0.0
 11
2.499776686310724
 21
-0.04759973791169614
 31
0.0
210
0.0
220
0.0
230
1.0
 40
0.230619924
 41
0.082380138916391
 42
1.580262882530367
  0
ARC
  5
C1
330
1F
100
AcDbEntity
  8
0
  6
Continuous
 62
     7
370
    25
100
AcDbCircle
 10
10121.5768322945
 20
3844.783299511
 30
0.0
 40
1.497666210395893
100
AcDbArc
 50
270.0896328221
 51
0.0893532548
  0
LINE
  5
C2
330
1F
100
AcDbEntity
  8
0
  6
Continuous
 62
     7
370
    25
100
AcDbLine
 10
10121.5791752244
 20
3843.2856351332
 30
0.0
 11
10120.5696072857
 21
3843.2856351332
 31
0.0
  0
ELLIPSE
  5
C3
330
1F
100
AcDbEntity
  8
0
  6
Continuous
 62
     7
370
    25
100
AcDbEllipse
 10
10093.0701604033
 20
3844.7856351332
 30
0.0
 11
2.499776686308906
 21
0.04759973791215089
 31
0.0
210
0.0
220
0.0
230
1.0
 40
0.230619924
 41
1.561329771059374
 42
3.059212514672617
  0
LINE
  5
C4
330
1F
100
AcDbEntity
  8
0
  6
Continuous
 62
     7
370
    25
100
AcDbLine
 10
10093.0828473691
 20
3843.2856351332
 30
0.0
 11
10092.0732794304
 21
3843.2856351332
 31
0.0
  0
ARC
  5
C5
330
1F
100
AcDbEntity
  8
0
  6
Continuous
 62
     7
370
    25
100
AcDbCircle
 10
10092.0756223603
 20
3844.783299511
 30
0.0
 40
1.497666210394074
100
AcDbArc
 50
179.9106467451
 51
269.9103671779
  0
ELLIPSE
  5
C6
330
1F
100
AcDbEntity
  8
0
  6
Continuous
 62
     7
370
    25
100
AcDbEllipse
 10
10092.7642498485
 20
3854.0595551096
 30
0.0
 11
2.499818037704244
 21
0.0465092035951784
 31
0.0
210
0.0
220
0.0
230
1.0
 40
0.1708302565
 41
1.56057112887661
 42
3.058453872491626
  0
LINE
  5
C7
330
1F
100
AcDbEntity
  8
0
  6
Continuous
 62
     7
370
    25
100
AcDbLine
 10
10092.7818657734
 20
3854.4870528991
 30
0.0
 11
10093.0828473691
 21
3845.3625582101
 31
0.0
  0
LINE
  5
C8
330
1F
100
AcDbEntity
  8
0
  6
Continuous
 62
     7
370
    25
100
AcDbLine
 10
10090.5779579711
 20
3844.7856351332
 30
0.0
 11
10090.272406486
 21
3854.0486696277
 31
0.0
  0
ELLIPSE
  5
C9
330
1F
100
AcDbEntity
  8
0
  6
Continuous
 62
     7
370
    25
100
AcDbEllipse
 10
10120.8882048063
 20
3854.0595551096
 30
0.0
 11
2.499818037702425
 21
-0.04650920359563315
 31
0.0
210
0.0
220
0.0
230
1.0
 40
0.1708302565
 41
0.0831387810992356
 42
1.581021524713225
  0
LINE
  5
CA
330
1F
100
AcDbEntity
  8
0
  6
Continuous
 62
     7
370
    25
100
AcDbLine
 10
10123.3800481687
 20
3854.0486696277
 30
0.0
 11
10123.0744966837
 21
3844.7856351332
 31
0.0
  0
LINE
  5
CB
330
1F
100
AcDbEntity
  8
0
  6
Continuous
 62
     7
370
    25
100
AcDbLine
 10
10120.5696072857
 20
3845.3625582101
 30
0.0
 11
10120.8705888813
 21
3854.4870528991
 31
0.0
  0
LINE
  5
CC
330
1F
100
AcDbEntity
  8
0
  6
Continuous
 62
     7
370
    25
100
AcDbLine
 10
10120.8705888813
 20
3854.4870528991
 30
0.0
 11
10092.7818657734
 21
3854.4870528991
 31
0.0
  0
LINE
  5
CD
330
1F
100
AcDbEntity
  8
0
  6
Continuous
 62
     7
370
    25
100
AcDbLine
 10
10123.0744966837
 20
3844.7856351332
 30
0.0
 11
10126.3793556078
 21
3844.7856351332
 31
0.0
  0
LINE
  5
CE
330
1F
100
AcDbEntity
  8
0
  6
Continuous
 62
     7
370
    25
100
AcDbLine
 10
10132.2026378922
 20
3868.5847442293
 30
0.0
 11
10123.3800481687
 21
3854.0486696277
 31
0.0
  0
ELLIPSE
  5
CF
330
1F
100
AcDbEntity
  8
0
  6
Continuous
 62
     7
370
    25
100
AcDbEllipse
 10
10138.3977451053
 20
3798.3277137122
 30
0.0
 11
0.0
 21
105.1652824770649
 31
0.0
210
0.0
220
0.0
230
1.0
 40
0.0791666667
 41
0.8391937654463264
 42
1.54017856310316
  0
LINE
  5
D0
330
1F
100
AcDbEntity
  8
0
  6
Continuous
 62
     7
370
    25
100
AcDbLine
 10
10127.8133675949
 20
3836.2394205139
 30
0.0
 11
10130.0760623368
 21
3801.547136418
 31
0.0
  0
ELLIPSE
  5
D1
330
1F
100
AcDbEntity
  8
0
  6
Continuous
 62
     7
370
    25
100
AcDbEllipse
 10
10126.3793556078
 20
3821.316248786
 30
0.0
 11
0.0
 21
23.46938634723119
 31
0.0
210
0.0
220
0.0
230
1.0
 40
0.0791666667
 41
5.401507271555021
 42
6.283185307179586
  0
LINE
  5
D2
330
1F
100
AcDbEntity
  8
0
  6
Continuous
 62
     7
370
    25
100
AcDbLine
 10
10090.272406486
 20
3854.0486696277
 30
0.0
 11
10081.4498167626
 21
3868.5847442293
 31
0.0
  0
LINE
  5
D3
330
1F
100
AcDbEntity
  8
0
  6
Continuous
 62
     7
370
    25
100
AcDbLine
 10
10087.2730990469
 20
3844.7856351332
 30
0.0
 11
10090.5779579711
 21
3844.7856351332
 31
0.0
  0
ELLIPSE
  5
D4
330
1F
100
AcDbEntity
  8
0
  6
Continuous
 62
     7
370
    25
100
AcDbEllipse
 10
10087.2730990469
 20
3821.316248786
 30
0.0
 11
0.0
 21
23.46938634723119
 31
0.0
210
0.0
220
0.0
230
1.0
 40
0.0791666667
 41
0.0
 42
0.8816780356240161
  0
LINE
  5
D5
330
1F
100
AcDbEntity
  8
0
  6
Continuous
 62
     7
370
    25
100
AcDbLine
 10
10083.5763923179
 20
3801.547136418
 30
0.0
 11
10085.8390870599
 21
3836.2394205139
 31
0.0
  0
ELLIPSE
  5
D6
330
1F
100
AcDbEntity
  8
0
  6
Continuous
 62
     7
370
    25
100
AcDbEllipse
 10
10075.2547095495
 20
3798.3277137122
 30
0.0
 11
0.0
 21
105.1652824770649
 31
0.0
210
0.0
220
0.0
230
1.0
 40
0.0791666667
 41
4.743006744076434
 42
5.443991541733449
  0
ARC
  5
D7
330
1F
100
AcDbEntity
  8
0
  6
Continuous
 62
     7
370
    25
100
AcDbCircle
 10
10124.8816912186
 20
3844.783299511
 30
0.0
 40
1.49766621039586
100
AcDbArc
 50
270.0896328223
 51
0.0893532548
  0
LINE
  5
D8
330
1F
100
AcDbEntity
  8
0
  6
Continuous
 62
     7
370
    25
100
AcDbLine
 10
10124.8840341485
 20
3843.2856351332
 30
0.0
 11
10121.5791752244
 21
3843.2856351332
 31
0.0
  0
ARC
  5
D9
330
1F
100
AcDbEntity
  8
0
  6
Continuous
 62
     7
370
    25
100
AcDbCircle
 10
10088.7707634361
 20
3844.783299511
 30
0.0
 40
1.49766621039954
100
AcDbArc
 50
179.9106467453
 51
269.9103671777
  0
LINE
  5
DA
330
1F
100
AcDbEntity
  8
0
  6
Continuous
 62
     7
370
    25
100
AcDbLine
 10
10092.0732794304
 20
3843.2856351332
 30
0.0
 11
10088.7684205062
 21
3843.2856351332
 31
0.0
  0
ELLIPSE
  5
DB
330
1F
100
AcDbEntity
  8
0
  6
Continuous
 62
     7
370
    25
100
AcDbEllipse
 10
10120.8882048063
 20
3855.5469557263
 30
0.0
 11
1.000618450681941
 21
0.002690619971417618
 31
0.0
210
0.0
220
0.0
230
1.0
 40
0.149308721
 41
4.694381550463762
 42
6.192264294077417
  0
ARC
  5
DC
330
1F
100
AcDbEntity
  8
0
  6
Continuous
 62
     7
370
    25
100
AcDbCircle
 10
10121.8707560365
 20
3854.0266826239
 30
0.0
 40
1.509452274453346
100
AcDbArc
 50
0.8346120612
 51
89.4696937157
  0
LINE
  5
DD
330
1F
100
AcDbEntity
  8
0
  6
Continuous
 62
     7
370
    25
100
AcDbLine
 10
10120.8705888813
 20
3855.397530439
 30
0.0
 11
10120.8705888813
 21
3854.4870528991
 31
0.0
  0
ELLIPSE
  5
DE
330
1F
100
AcDbEntity
  8
0
  6
Continuous
 62
     7
370
    25
100
AcDbEllipse
 10
10092.7642498485
 20
3855.5469557263
 30
0.0
 11
1.00061845068376
 21
-0.002690619971872366
 31
0.0
210
0.0
220
0.0
230
1.0
 40
0.149308721
 41
3.232513666695295
 42
4.730396410305658
  0
LINE
  5
DF
330
1F
100
AcDbEntity
  8
0
  6
Continuous
 62
     7
370
    25
100
AcDbLine
 10
10092.7818657734
 20
3855.397530439
 30
0.0
 11
10092.7818657734
 21
3854.4870528991
 31
0.0
  0
ARC
  5
E0
330
1F
100
AcDbEntity
  8
0
  6
Continuous
 62
     7
370
    25
100
AcDbCircle
 10
10091.7816986183
 20
3854.0266826239
 30
0.0
 40
1.50945227445336
100
AcDbArc
 50
90.5303062843
 51
179.1653879387
  0
LINE
  5
E1
330
1F
100
AcDbEntity
  8
0
  6
Continuous
 62
     7
370
    25
100
AcDbLine
 10
10092.7818657734
 20
3855.397530439
 30
0.0
 11
10120.8705888813
 21
3855.397530439
 31
0.0
  0
LINE
  5
E2
330
1F
100
AcDbEntity
  8
0
  6
Continuous
 62
     7
370
    25
100
AcDbLine
 10
10082.8155614781
 20
3870.2856351332
 30
0.0
 11
10091.7677279453
 21
3855.5360702445
 31
0.0
  0
LINE
  5
E3
330
1F
100
AcDbEntity
  8
0
  6
Continuous
 62
     7
370
    25
100
AcDbLine
 10
10082.8155614781
 20
3870.2856351332
 30
0.0
 11
10130.8368931766
 21
3870.2856351332
 31
0.0
  0
LINE
  5
E4
330
1F
100
AcDbEntity
  8
0
  6
Continuous
 62
     7
370
    25
100
AcDbLine
 10
10121.8847267094
 20
3855.5360702445
 30
0.0
 11
10130.8368931766
 21
3870.2856351332
 31
0.0
  0
ARC
  5
E5
330
1F
100
AcDbEntity
  8
0
  6
Continuous
 62
     7
370
    25
100
AcDbCircle
 10
10130.7519559157
 20
3868.8186704637
 30
0.0
 40
1.469421546019469
100
AcDbArc
 50
350.8397597431
 51
86.6862737972
  0
ARC
  5
E6
330
1F
100
AcDbEntity
  8
0
  6
Continuous
 62
     7
370
    25
100
AcDbCircle
 10
10082.8801196495
 20
3868.8350340257
 30
0.0
 40
1.452036959099164
100
AcDbArc
 50
92.5482343542
 51
189.9257321055
  0
ARC
  5
E7
330
1F
100
AcDbEntity
  8
0
  6
Continuous
 62
     7
370
    25
100
AcDbCircle
 10
10126.4610337558
 20
3836.710519578
 30
0.0
 40
1.432040900433406
100
AcDbArc
 50
264.2695340197
 51
340.7937052768
  0
ELLIPSE
  5
E8
330
1F
100
AcDbEntity
  8
0
  6
Continuous
 62
     7
370
    25
100
AcDbEllipse
 10
10124.8840341485
 20
3821.316248786
 30
0.0
 11
0.0
 21
21.96938634723165
 31
0.0
210
0.0
220
0.0
230
1.0
 40
0.0845719155
 41
5.401507271555635
 42
6.283185307179586
  0
ELLIPSE
  5
E9
330
1F
100
AcDbEntity
  8
0
  6
Continuous
 62
     7
370
    25
100
AcDbEllipse
 10
10088.7684205062
 20
3821.316248786
 30
0.0
 11
0.0
 21
21.96938634723165
 31
0.0
210
0.0
220
0.0
230
1.0
 40
0.0845719155
 41
0.0
 42
0.8816780356240168
  0
ARC
  5
EA
330
1F
100
AcDbEntity
  8
0
  6
Continuous
 62
     7
370
    25
100
AcDbCircle
 10
10087.1914208989
 20
3836.710519578
 30
0.0
 40
1.432040900435237
100
AcDbArc
 50
199.2062947232
 51
275.7304659802
  0
LINE
  5
EB
330
1F
100
AcDbEntity
  8
0
  6
Continuous
 62
     7
370
    25
100
AcDbLine
 10
10087.3344085192
 20
3835.2856351332
 30
0.0
 11
10103.0762273274
 21
3835.2856351332
 31
0.0
  0
LINE
  5
EC
330
1F
100
AcDbEntity
  8
0
  6
Continuous
 62
     7
370
    25
100
AcDbLine
 10
10103.0762273274
 20
3835.2856351332
 30
0.0
 11
10103.0762273274
 21
3843.2856351332
 31
0.0
  0
LINE
  5
ED
330
1F
100
AcDbEntity
  8
0
  6
Continuous
 62
     7
370
    25
100
AcDbLine
 10
10110.5762273274
 20
3835.2856351332
 30
0.0
 11
10126.3180461356
 21
3835.2856351332
 31
0.0
  0
LINE
  5
EE
330
1F
100
AcDbEntity
  8
0
  6
Continuous
 62
     7
370
    25
100
AcDbLine
 10
10110.5762273274
 20
3843.2856351332
 30
0.0
 11
10110.5762273274
 21
3835.2856351332
 31
0.0
  0
LWPOLYLINE
  5
EF
330
1F
100
AcDbEntity
  8
0
  6
Continuous
 62
     7
370
    25
100
AcDbPolyline
 90
        3
 70
   128
 43
0.0
 10
10083.8392899551
 20
3800.2856351332
 10
10083.5957340442
 20
3801.192952101
 10
10083.5763923179
 20
3801.547136418
  0
LINE
  5
F0
330
1F
100
AcDbEntity
  8
0
  6
Continuous
 62
     7
370
    25
100
AcDbLine
 10
10087.3344085192
 20
3835.2856351332
 30
0.0
 11
10085.0516439785
 21
3800.2856351332
 31
0.0
  0
LINE
  5
F1
330
1F
100
AcDbEntity
  8
0
  6
Continuous
 62
     7
370
    25
100
AcDbLine
 10
10085.0516439785
 20
3800.2856351332
 30
0.0
 11
10083.8392899551
 21
3800.2856351332
 31
0.0
  0
LINE
  5
F2
330
1F
100
AcDbEntity
  8
0
  6
Continuous
 62
     7
370
    25
100
AcDbLine
 10
10129.8131646996
 20
3800.2856351332
 30
0.0
 11
10128.6008106763
 21
3800.2856351332
 31
0.0
  0
LINE
  5
F3
330
1F
100
AcDbEntity
  8
0
  6
Continuous
 62
     7
370
    25
100
AcDbLine
 10
10128.6008106763
 20
3800.2856351332
 30
0.0
 11
10126.3180461356
 21
3835.2856351332
 31
0.0
  0
LWPOLYLINE
  5
F4
330
1F
100
AcDbEntity
  8
0
  6
Continuous
 62
     7
370
    25
100
AcDbPolyline
 90
        3
 70
   128
 43
0.0
 10
10130.0760623368
 20
3801.547136418
 10
10129.8888207156
 20
3800.4668868683
 10
10129.8131646996
 20
3800.2856351332
  0
LINE
  5
F5
330
1F
100
AcDbEntity
  8
0
  6
Continuous
 62
     7
370
    25
100
AcDbLine
 10
10110.5762273274
 20
3800.2856351332
 30
0.0
 11
10128.6008106763
 21
3800.2856351332
 31
0.0
  0
LINE
  5
F6
330
1F
100
AcDbEntity
  8
0
  6
Continuous
 62
     7
370
    25
100
AcDbLine
 10
10110.5762273274
 20
3835.2856351332
 30
0.0
 11
10110.5762273274
 21
3800.2856351332
 31
0.0
  0
LINE
  5
F7
330
1F
100
AcDbEntity
  8
0
  6
Continuous
 62
     7
370
    25
100
AcDbLine
 10
10085.0516439785
 20
3800.2856351332
 30
0.0
 11
10103.0762273274
 21
3800.2856351332
 31
0.0
  0
LINE
  5
F8
330
1F
100
AcDbEntity
  8
0
  6
Continuous
 62
     7
370
    25
100
AcDbLine
 10
10103.0762273274
 20
3800.2856351332
 30
0.0
 11
10103.0762273274
 21
3835.2856351332
 31
0.0
  0
LINE
  5
F9
330
1F
100
AcDbEntity
  8
0
  6
Continuous
 62
     7
370
    25
100
AcDbLine
 10
10130.8368931766
 20
3870.2856351332
 30
0.0
 11
10136.3262273274
 21
3870.2856351332
 31
0.0
  0
LINE
  5
FA
330
1F
100
AcDbEntity
  8
0
  6
Continuous
 62
     7
370
    25
100
AcDbLine
 10
10136.3262273274
 20
3870.2856351332
 30
0.0
 11
10136.3262273274
 21
3834.7856351332
 31
0.0
  0
ARC
  5
FB
330
1F
100
AcDbEntity
  8
0
  6
Continuous
 62
     7
370
    25
100
AcDbCircle
 10
10140.8262273274
 20
3834.7856351332
 30
0.0
 40
4.499999999999072
100
AcDbArc
 50
180.0
 51
333.4746479834
  0
ARC
  5
FC
330
1F
100
AcDbEntity
  8
0
  6
Continuous
 62
     7
370
    25
100
AcDbCircle
 10
10145.0762273274
 20
3832.6643147896
 30
0.0
 40
0.2500000000027161
100
AcDbArc
 50
0.0000000005
 51
153.4746479833
  0
LINE
  5
FD
330
1F
100
AcDbEntity
  8
0
  6
Continuous
 62
     7
370
    25
100
AcDbLine
 10
10145.3262273274
 20
3800.2856351332
 30
0.0
 11
10145.3262273274
 21
3832.6643147897
 31
0.0
  0
LINE
  5
FE
330
1F
100
AcDbEntity
  8
0
  6
Continuous
 62
     7
370
    25
100
AcDbLine
 10
10129.8131646996
 20
3800.2856351332
 30
0.0
 11
10145.3262273274
 21
3800.2856351332
 31
0.0
  0
LINE
  5
FF
330
1F
100
AcDbEntity
  8
0
  6
Continuous
 62
     7
370
    25
100
AcDbLine
 10
10077.3262273274
 20
3834.7856351332
 30
0.0
 11
10077.3262273274
 21
3870.2856351332
 31
0.0
  0
LINE
  5
100
330
1F
100
AcDbEntity
  8
0
  6
Continuous
 62
     7
370
    25
100
AcDbLine
 10
10077.3262273274
 20
3870.2856351332
 30
0.0
 11
10082.8155614781
 21
3870.2856351332
 31
0.0
  0
LINE
  5
101
330
1F
100
AcDbEntity
  8
0
  6
Continuous
 62
     7
370
    25
100
AcDbLine
 10
10068.3262273274
 20
3800.2856351332
 30
0.0
 11
10068.3262273274
 21
3832.6643147897
 31
0.0
  0
ARC
  5
102
330
1F
100
AcDbEntity
  8
0
  6
Continuous
 62
     7
370
    25
100
AcDbCircle
 10
10068.5762273274
 20
3832.6643147897
 30
0.0
 40
0.250000000001819
100
AcDbArc
 50
26.5253520167
 51
179.9999999999
  0
ARC
  5
103
330
1F
100
AcDbEntity
  8
0
  6
Continuous
 62
     7
370
    25
100
AcDbCircle
 10
10072.8262273274
 20
3834.7856351332
 30
0.0
 40
4.500000000000087
100
AcDbArc
 50
206.5253520166
 51
360.0
  0
LINE
  5
104
330
1F
100
AcDbEntity
  8
0
  6
Continuous
 62
     7
370
    25
100
AcDbLine
 10
10068.3262273274
 20
3800.2856351332
 30
0.0
 11
10083.8392899551
 21
3800.2856351332
 31
0.0
  0
LINE
  5
105
330
1F
100
AcDbEntity
  8
0
  6
Continuous
 62
     7
370
    25
100
AcDbLine
 10
10110.5762273274
 20
3802.2856351332
 30
0.0
 11
10103.0762273274
 21
3802.2856351332
 31
0.0
  0
LINE
  5
106
330
1F
100
AcDbEntity
  8
0
  6
Continuous
 62
     7
370
    25
100
AcDbLine
 10
10110.5762273274
 20
3800.2856351332
 30
0.0
 11
10103.0762273274
 21
3800.2856351332
 31
0.0
  0
LINE
  5
107
330
1F
100
AcDbEntity
  8
0
  6
Continuous
 62
     7
370
    25
100
AcDbLine
 10
10136.3262273274
 20
3840.2109535294
 30
0.0
 11
10145.0762273274
 21
3840.2109535294
 31
0.0
  0
ARC
  5
108
330
1F
100
AcDbEntity
  8
0
  6
Continuous
 62
     7
370
    25
100
AcDbCircle
 10
10229.4671711232
 20
3833.956560865
 30
0.0
 40
84.62238960430433
100
AcDbArc
 50
175.7614366166
 51
180.7987540227
  0
ARC
  5
109
330
1F
100
AcDbEntity
  8
0
  6
Continuous
 62
     7
370
    25
100
AcDbCircle
 10
9985.0020926943
 20
3833.9810872092
 30
0.0
 40
83.80600941478382
100
AcDbArc
 50
359.1766948978
 51
4.2631144628
  0
LINE
  5
10A
330
1F
100
AcDbEntity
  8
0
  6
Continuous
 62
     7
370
    25
100
AcDbLine
 10
10077.3262273274
 20
3840.2109535294
 30
0.0
 11
10068.5762273274
 21
3840.2109535294
 31
0.0
  0
ARC
  5
10B
330
1F
100
AcDbEntity
  8
0
  6
Continuous
 62
     7
370
    25
100
AcDbCircle
 10
10145.075651859
 20
3839.9603783638
 30
0.0
 40
0.2505758263775342
100
AcDbArc
 50
359.9031528771
 51
89.8684153185
  0
LINE
  5
10C
330
1F
100
AcDbEntity
  8
0
  6
Continuous
 62
     7
370
    25
100
AcDbLine
 10
10145.3262273274
 20
3839.9599548154
 30
0.0
 11
10145.3262273274
 21
3832.6654226667
 31
0.0
  0
ARC
  5
10D
330
1F
100
AcDbEntity
  8
0
  6
Continuous
 62
     7
370
    25
100
AcDbCircle
 10
10068.5766488992
 20
3839.9605316481
 30
0.0
 40
0.2504222361579249
100
AcDbArc
 50
90.096454281
 51
180.1319775239
  0
LINE
  5
10E
330
1F
100
AcDbEntity
  8
0
  6
Continuous
 62
     7
370
    25
100
AcDbLine
 10
10068.3262273274
 20
3832.6654226667
 30
0.0
 11
10068.3262273274
 21
3839.9599548154
 31
0.0
  0
LINE
  5
10F
330
1F
100
AcDbEntity
  8
0
  6
Continuous
 62
     7
370
    25
100
AcDbLine
 10
10068.3262273274
 20
3870.2856351332
 30
0.0
 11
10068.3262273274
 21
3868.2856351332
 31
0.0
  0
LINE
  5
110
330
1F
100
AcDbEntity
  8
0
  6
Continuous
 62
     7
370
    25
100
AcDbLine
 10
10068.3262273274
 20
3858.2856351332
 30
0.0
 11
10068.3262273274
 21
3839.9599548154
 31
0.0
  0
LINE
  5
111
330
1F
100
AcDbEntity
  8
0
  6
Continuous
 62
     7
370
    25
100
AcDbLine
 10
10145.3262273274
 20
3839.9599548154
 30
0.0
 11
10145.3262273274
 21
3858.2856351332
 31
0.0
  0
LINE
  5
112
330
1F
100
AcDbEntity
  8
0
  6
Continuous
 62
     7
370
    25
100
AcDbLine
 10
10145.3262273274
 20
3868.2856351332
 30
0.0
 11
10145.3262273274
 21
3870.2856351332
 31
0.0
  0
LINE
  5
113
330
1F
100
AcDbEntity
  8
0
  6
Continuous
 62
     7
370
    25
100
AcDbLine
 10
10078.7012273274
 20
3799.9034392311
 30
0.0
 11
10078.7012273274
 21
3800.2856351332
 31
0.0
  0
LINE
  5
114
330
1F
100
AcDbEntity
  8
0
  6
Continuous
 62
     7
370
    25
100
AcDbLine
 10
10076.8262273274
 20
3800.2856351332
 30
0.0
 11
10076.8262273274
 21
3799.9034392311
 31
0.0
  0
LINE
  5
115
330
1F
100
AcDbEntity
  8
0
  6
Continuous
 62
     7
370
    25
100
AcDbLine
 10
10134.9512273274
 20
3800.2856351332
 30
0.0
 11
10134.9512273274
 21
3799.9034392311
 31
0.0
  0
LINE
  5
116
330
1F
100
AcDbEntity
  8
0
  6
Continuous
 62
     7
370
    25
100
AcDbLine
 10
10136.8262273274
 20
3799.9034392311
 30
0.0
 11
10136.8262273274
 21
3800.2856351332
 31
0.0
  0
LINE
  5
117
330
1F
100
AcDbEntity
  8
0
  6
Continuous
 62
     7
370
    25
100
AcDbLine
 10
10099.8306930376
 20
3658.0356351332
 30
0.0
 11
10113.8217616172
 21
3658.0356351332
 31
0.0
  0
ARC
  5
118
330
1F
100
AcDbEntity
  8
0
  6
Continuous
 62
     7
370
    25
100
AcDbCircle
 10
10106.8262273274
 20
3648.2856351332
 30
0.0
 40
11.99999999999942
100
AcDbArc
 50
125.6590876961
 51
234.3409123039
  0
LINE
  5
119
330
1F
100
AcDbEntity
  8
0
  6
Continuous
 62
     7
370
    25
100
AcDbLine
 10
10113.8217616172
 20
3638.5356351332
 30
0.0
 11
10099.8306930376
 21
3638.5356351332
 31
0.0
  0
ARC
  5
11A
330
1F
100
AcDbEntity
  8
0
  6
Continuous
 62
     7
370
    25
100
AcDbCircle
 10
10106.8262273274
 20
3648.2856351332
 30
0.0
 40
12.00000000000048
100
AcDbArc
 50
305.6590876961
 51
54.3409123039
  0
ARC
  5
11B
330
1F
100
AcDbEntity
  8
0
  6
Continuous
 62
     7
370
    25
100
AcDbCircle
 10
10140.3262273274
 20
3638.2856351332
 30
0.0
 40
5.000000000001819
100
AcDbArc
 50
270.0
 51
0.0
  0
LINE
  5
11C
330
1F
100
AcDbEntity
  8
0
  6
Continuous
 62
     7
370
    25
100
AcDbLine
 10
10073.3262273274
 20
3633.2856351332
 30
0.0
 11
10140.3262273274
 21
3633.2856351332
 31
0.0
  0
ARC
  5
11D
330
1F
100
AcDbEntity
  8
0
  6
Continuous
 62
     7
370
    25
100
AcDbCircle
 10
10073.3262273274
 20
3638.2856351332
 30
0.0
 40
5.000000000000455
100
AcDbArc
 50
180.0
 51
270.0
  0
LINE
  5
11E
330
1F
100
AcDbEntity
  8
0
  6
Continuous
 62
     7
370
    25
100
AcDbLine
 10
10068.3262273274
 20
3658.2856351332
 30
0.0
 11
10068.3262273274
 21
3638.2856351332
 31
0.0
  0
LINE
  5
11F
330
1F
100
AcDbEntity
  8
0
  6
Continuous
 62
     7
370
    25
100
AcDbLine
 10
10145.3262273274
 20
3638.2856351332
 30
0.0
 11
10145.3262273274
 21
3658.2856351332
 31
0.0
  0
ARC
  5
120
330
1F
100
AcDbEntity
  8
0
  6
Continuous
 62
     7
370
    25
100
AcDbCircle
 10
10073.3262273274
 20
3658.2856351332
 30
0.0
 40
4.999999999999348
100
AcDbArc
 50
155.8410348249
 51
180.0
  0
ARC
  5
121
330
1F
100
AcDbEntity
  8
0
  6
Continuous
 62
     7
370
    25
100
AcDbCircle
 10
10140.3262273274
 20
3658.2856351332
 30
0.0
 40
5.000000000001819
100
AcDbArc
 50
0.0
 51
24.1589651751
  0
LINE
  5
122
330
1F
100
AcDbEntity
  8
0
  6
Continuous
 62
     7
370
    25
100
AcDbLine
 10
10146.8262273274
 20
3871.2856351332
 30
0.0
 11
10143.3262308829
 21
3871.2856351332
 31
0.0
  0
LINE
  5
123
330
1F
100
AcDbEntity
  8
0
  6
Continuous
 62
     7
370
    25
100
AcDbLine
 10
10138.3262308839
 20
3871.2856351332
 30
0.0
 11
10075.3262273274
 21
3871.2856351332
 31
0.0
  0
LINE
  5
124
330
1F
100
AcDbEntity
  8
0
  6
Continuous
 62
     7
370
    25
100
AcDbLine
 10
10070.3262273274
 20
3871.2856351332
 30
0.0
 11
10066.8262273274
 21
3871.2856351332
 31
0.0
  0
LINE
  5
125
330
1F
100
AcDbEntity
  8
0
  6
Continuous
 62
     7
370
    25
100
AcDbLine
 10
10146.8262273274
 20
3801.2856351332
 30
0.0
 11
10145.8262273274
 21
3801.2856351332
 31
0.0
  0
LINE
  5
126
330
1F
100
AcDbEntity
  8
0
  6
Continuous
 62
     7
370
    25
100
AcDbLine
 10
10145.8262273274
 20
3870.2856351332
 30
0.0
 11
10145.8262273274
 21
3801.2856351332
 31
0.0
  0
LINE
  5
127
330
1F
100
AcDbEntity
  8
0
  6
Continuous
 62
     7
370
    25
100
AcDbLine
 10
10145.8262273274
 20
3870.2856351332
 30
0.0
 11
10143.3262304189
 21
3870.2856351332
 31
0.0
  0
LINE
  5
128
330
1F
100
AcDbEntity
  8
0
  6
Continuous
 62
     7
370
    25
100
AcDbLine
 10
10138.3262304203
 20
3870.2856351332
 30
0.0
 11
10075.3262273274
 21
3870.2856351332
 31
0.0
  0
LINE
  5
129
330
1F
100
AcDbEntity
  8
0
  6
Continuous
 62
     7
370
    25
100
AcDbLine
 10
10070.3262273274
 20
3870.2856351332
 30
0.0
 11
10067.8262273274
 21
3870.2856351332
 31
0.0
  0
LINE
  5
12A
330
1F
100
AcDbEntity
  8
0
  6
Continuous
 62
     7
370
    25
100
AcDbLine
 10
10067.8262273274
 20
3801.2856351332
 30
0.0
 11
10067.8262273274
 21
3870.2856351332
 31
0.0
  0
LINE
  5
12B
330
1F
100
AcDbEntity
  8
0
  6
Continuous
 62
     7
370
    25
100
AcDbLine
 10
10067.8262273274
 20
3801.2856351332
 30
0.0
 11
10066.8262273274
 21
3801.2856351332
 31
0.0
  0
LINE
  5
12C
330
1F
100
AcDbEntity
  8
0
  6
Continuous
 62
     7
370
    25
100
AcDbLine
 10
10146.8262273274
 20
3871.2856351332
 30
0.0
 11
10146.8262273274
 21
3801.2856351332
 31
0.0
  0
LINE
  5
12D
330
1F
100
AcDbEntity
  8
0
  6
Continuous
 62
     7
370
    25
100
AcDbLine
 10
10066.8262273274
 20
3871.2856351332
 30
0.0
 11
10066.8262273274
 21
3801.2856351332
 31
0.0
  0
LINE
  5
12E
330
1F
100
AcDbEntity
  8
0
  6
Continuous
 62
     7
370
    25
100
AcDbLine
 10
10067.8262273274
 20
3706.2510388036
 30
0.0
 11
10066.8262273274
 21
3706.2510388036
 31
0.0
  0
LINE
  5
12F
330
1F
100
AcDbEntity
  8
0
  6
Continuous
 62
     7
370
    25
100
AcDbLine
 10
10067.8262273274
 20
3801.2856351332
 30
0.0
 11
10067.8262273274
 21
3706.2510388036
 31
0.0
  0
LINE
  5
130
330
1F
100
AcDbEntity
  8
0
  6
Continuous
 62
     7
370
    25
100
AcDbLine
 10
10066.8262273274
 20
3706.2510388036
 30
0.0
 11
10066.8262273274
 21
3801.2856351332
 31
0.0
  0
LINE
  5
131
330
1F
100
AcDbEntity
  8
0
  6
Continuous
 62
     7
370
    25
100
AcDbLine
 10
10146.8262273274
 20
3706.2510388036
 30
0.0
 11
10145.8262273274
 21
3706.2510388036
 31
0.0
  0
LINE
  5
132
330
1F
100
AcDbEntity
  8
0
  6
Continuous
 62
     7
370
    25
100
AcDbLine
 10
10145.8262273274
 20
3801.2856351332
 30
0.0
 11
10145.8262273274
 21
3706.2510388036
 31
0.0
  0
LINE
  5
133
330
1F
100
AcDbEntity
  8
0
  6
Continuous
 62
     7
370
    25
100
AcDbLine
 10
10146.8262273274
 20
3706.2510388036
 30
0.0
 11
10146.8262273274
 21
3801.2856351332
 31
0.0
  0
LINE
  5
134
330
1F
100
AcDbEntity
  8
0
  6
Continuous
 62
     7
370
    25
100
AcDbLine
 10
10146.8262273274
 20
3696.4172135662
 30
0.0
 11
10145.8262273274
 21
3696.4172135662
 31
0.0
  0
LINE
  5
135
330
1F
100
AcDbEntity
  8
0
  6
Continuous
 62
     7
370
    25
100
AcDbLine
 10
10145.8262273274
 20
3706.2510388036
 30
0.0
 11
10145.8262273274
 21
3696.4172135662
 31
0.0
  0
LINE
  5
136
330
1F
100
AcDbEntity
  8
0
  6
Continuous
 62
     7
370
    25
100
AcDbLine
 10
10146.8262273274
 20
3706.2510388036
 30
0.0
 11
10146.8262273274
 21
3696.4172135662
 31
0.0
  0
LINE
  5
137
330
1F
100
AcDbEntity
  8
0
  6
Continuous
 62
     7
370
    25
100
AcDbLine
 10
10067.8262273274
 20
3696.4172135662
 30
0.0
 11
10066.8262273274
 21
3696.4172135662
 31
0.0
  0
LINE
  5
138
330
1F
100
AcDbEntity
  8
0
  6
Continuous
 62
     7
370
    25
100
AcDbLine
 10
10067.8262273274
 20
3696.4172135662
 30
0.0
 11
10067.8262273274
 21
3706.2510388036
 31
0.0
  0
LINE
  5
139
330
1F
100
AcDbEntity
  8
0
  6
Continuous
 62
     7
370
    25
100
AcDbLine
 10
10066.8262273274
 20
3706.2510388036
 30
0.0
 11
10066.8262273274
 21
3696.4172135662
 31
0.0
  0
LINE
  5
13A
330
1F
100
AcDbEntity
  8
0
  6
Continuous
 62
     7
370
    25
100
AcDbLine
 10
10146.8262273274
 20
3661.2856351332
 30
0.0
 11
10145.8262273274
 21
3661.2856351332
 31
0.0
  0
LINE
  5
13B
330
1F
100
AcDbEntity
  8
0
  6
Continuous
 62
     7
370
    25
100
AcDbLine
 10
10145.8262273274
 20
3696.4172135662
 30
0.0
 11
10145.8262273274
 21
3661.2856351332
 31
0.0
  0
LINE
  5
13C
330
1F
100
AcDbEntity
  8
0
  6
Continuous
 62
     7
370
    25
100
AcDbLine
 10
10146.8262273274
 20
3696.4172135662
 30
0.0
 11
10146.8262273274
 21
3661.2856351332
 31
0.0
  0
LINE
  5
13D
330
1F
100
AcDbEntity
  8
0
  6
Continuous
 62
     7
370
    25
100
AcDbLine
 10
10067.8262273274
 20
3661.2856351332
 30
0.0
 11
10066.8262273274
 21
3661.2856351332
 31
0.0
  0
LINE
  5
13E
330
1F
100
AcDbEntity
  8
0
  6
Continuous
 62
     7
370
    25
100
AcDbLine
 10
10067.8262273274
 20
3661.2856351332
 30
0.0
 11
10067.8262273274
 21
3696.4172135662
 31
0.0
  0
LINE
  5
13F
330
1F
100
AcDbEntity
  8
0
  6
Continuous
 62
     7
370
    25
100
AcDbLine
 10
10066.8262273274
 20
3696.4172135662
 30
0.0
 11
10066.8262273274
 21
3661.2856351332
 31
0.0
  0
LINE
  5
140
330
1F
100
AcDbEntity
  8
0
  6
Continuous
 62
     7
370
    25
100
AcDbLine
 10
10067.8262273274
 20
3651.2856351332
 30
0.0
 11
10066.8262273274
 21
3651.2856351332
 31
0.0
  0
LINE
  5
141
330
1F
100
AcDbEntity
  8
0
  6
Continuous
 62
     7
370
    25
100
AcDbLine
 10
10067.8262273274
 20
3651.2856351332
 30
0.0
 11
10067.8262273274
 21
3661.2856351332
 31
0.0
  0
LINE
  5
142
330
1F
100
AcDbEntity
  8
0
  6
Continuous
 62
     7
370
    25
100
AcDbLine
 10
10066.8262273274
 20
3661.2856351332
 30
0.0
 11
10066.8262273274
 21
3651.2856351332
 31
0.0
  0
LINE
  5
143
330
1F
100
AcDbEntity
  8
0
  6
Continuous
 62
     7
370
    25
100
AcDbLine
 10
10146.8262273274
 20
3651.2856351332
 30
0.0
 11
10145.8262273274
 21
3651.2856351332
 31
0.0
  0
LINE
  5
144
330
1F
100
AcDbEntity
  8
0
  6
Continuous
 62
     7
370
    25
100
AcDbLine
 10
10145.8262273274
 20
3661.2856351332
 30
0.0
 11
10145.8262273274
 21
3651.2856351332
 31
0.0
  0
LINE
  5
145
330
1F
100
AcDbEntity
  8
0
  6
Continuous
 62
     7
370
    25
100
AcDbLine
 10
10146.8262273274
 20
3661.2856351332
 30
0.0
 11
10146.8262273274
 21
3651.2856351332
 31
0.0
  0
LINE
  5
146
330
1F
100
AcDbEntity
  8
0
  6
Continuous
 62
     7
370
    25
100
AcDbLine
 10
10146.8262273274
 20
3626.2856351332
 30
0.0
 11
10145.8262273274
 21
3626.2856351332
 31
0.0
  0
LINE
  5
147
330
1F
100
AcDbEntity
  8
0
  6
Continuous
 62
     7
370
    25
100
AcDbLine
 10
10145.8262273274
 20
3651.2856351332
 30
0.0
 11
10145.8262273274
 21
3626.2856351332
 31
0.0
  0
LINE
  5
148
330
1F
100
AcDbEntity
  8
0
  6
Continuous
 62
     7
370
    25
100
AcDbLine
 10
10146.8262273274
 20
3651.2856351332
 30
0.0
 11
10146.8262273274
 21
3626.2856351332
 31
0.0
  0
LINE
  5
149
330
1F
100
AcDbEntity
  8
0
  6
Continuous
 62
     7
370
    25
100
AcDbLine
 10
10067.8262273274
 20
3626.2856351332
 30
0.0
 11
10066.8262273274
 21
3626.2856351332
 31
0.0
  0
LINE
  5
14A
330
1F
100
AcDbEntity
  8
0
  6
Continuous
 62
     7
370
    25
100
AcDbLine
 10
10067.8262273274
 20
3626.2856351332
 30
0.0
 11
10067.8262273274
 21
3651.2856351332
 31
0.0
  0
LINE
  5
14B
330
1F
100
AcDbEntity
  8
0
  6
Continuous
 62
     7
370
    25
100
AcDbLine
 10
10066.8262273274
 20
3651.2856351332
 30
0.0
 11
10066.8262273274
 21
3626.2856351332
 31
0.0
  0
LINE
  5
14C
330
1F
100
AcDbEntity
  8
0
  6
Continuous
 62
     7
370
    25
100
AcDbLine
 10
10145.8262273274
 20
3661.2856351332
 30
0.0
 11
10067.8262273274
 21
3661.2856351332
 31
0.0
  0
LINE
  5
14D
330
1F
100
AcDbEntity
  8
0
  6
Continuous
 62
     7
370
    25
100
AcDbLine
 10
10067.8262273274
 20
3666.0186985234
 30
0.0
 11
10071.6784043283
 21
3666.0186985234
 31
0.0
  0
LINE
  5
14E
330
1F
100
AcDbEntity
  8
0
  6
Continuous
 62
     7
370
    25
100
AcDbLine
 10
10141.9740503265
 20
3666.0186985234
 30
0.0
 11
10145.8262273274
 21
3666.0186985234
 31
0.0
  0
LINE
  5
14F
330
1F
100
AcDbEntity
  8
0
  6
Continuous
 62
     7
370
    25
100
AcDbLine
 10
10145.8262273274
 20
3660.3319835077
 30
0.0
 11
10067.8262273274
 21
3660.3319835077
 31
0.0
  0
LINE
  5
150
330
1F
100
AcDbEntity
  8
0
  6
Continuous
 62
     7
370
    25
100
AcDbLine
 10
10145.8262273274
 20
3692.2856351332
 30
0.0
 11
10143.8262273274
 21
3692.2856351332
 31
0.0
  0
LINE
  5
151
330
1F
100
AcDbEntity
  8
0
  6
Continuous
 62
     7
370
    25
100
AcDbLine
 10
10069.8262273274
 20
3692.2856351332
 30
0.0
 11
10067.8262273274
 21
3692.2856351332
 31
0.0
  0
LINE
  5
152
330
1F
100
AcDbEntity
  8
0
  6
Continuous
 62
     7
370
    25
100
AcDbLine
 10
10067.8262273274
 20
3869.2856351332
 30
0.0
 11
10068.3262273274
 21
3869.2856351332
 31
0.0
  0
LINE
  5
153
330
1F
100
AcDbEntity
  8
0
  6
Continuous
 62
     7
370
    25
100
AcDbLine
 10
10145.3262273274
 20
3869.2856351332
 30
0.0
 11
10145.8262273274
 21
3869.2856351332
 31
0.0
  0
LINE
  5
154
330
1F
100
AcDbEntity
  8
0
  6
Continuous
 62
     7
370
    25
100
AcDbLine
 10
10136.8262273274
 20
3626.2856351332
 30
0.0
 11
10136.8262273274
 21
3633.2856351332
 31
0.0
  0
LINE
  5
155
330
1F
100
AcDbEntity
  8
0
  6
Continuous
 62
     7
370
    25
100
AcDbLine
 10
10136.8262273274
 20
3626.2856351332
 30
0.0
 11
10145.8262273274
 21
3626.2856351332
 31
0.0
  0
LINE
  5
156
330
1F
100
AcDbEntity
  8
0
  6
Continuous
 62
     7
370
    25
100
AcDbLine
 10
10076.8262273274
 20
3633.2856351332
 30
0.0
 11
10076.8262273274
 21
3626.2856351332
 31
0.0
  0
LINE
  5
157
330
1F
100
AcDbEntity
  8
0
  6
Continuous
 62
     7
370
    25
100
AcDbLine
 10
10067.8262273274
 20
3626.2856351332
 30
0.0
 11
10076.8262273274
 21
3626.2856351332
 31
0.0
  0
LINE
  5
158
330
1F
100
AcDbEntity
  8
0
  6
Continuous
 62
     8
370
    25
100
AcDbLine
 10
10103.0762273274
 20
3803.4034392311
 30
0.0
 11
10110.5762273274
 21
3803.4034392311
 31
0.0
  0
LWPOLYLINE
  5
159
330
1F
100
AcDbEntity
  8
0
  6
Continuous
 62
     8
370
    25
100
AcDbPolyline
 90
        6
 70
   128
 43
0.0
 10
10106.8262273274
 20
3842.4994465253
 10
10105.8991763443
 20
3842.4333742534
 10
10105.0628715705
 20
3842.2416250522
 10
10104.3991763443
 20
3841.9429686693
 10
10103.9730577785
 20
3841.5666396725
 10
10103.8262273274
 20
3841.149475766
  0
LWPOLYLINE
  5
15A
330
1F
100
AcDbEntity
  8
0
  6
Continuous
 62
     8
370
    25
100
AcDbPolyline
 90
        6
 70
   128
 43
0.0
 10
10109.8262273274
 20
3841.149475766
 10
10109.6793968763
 20
3841.5666396725
 10
10109.2532783105
 20
3841.9429686693
 10
10108.5895830843
 20
3842.2416250522
 10
10107.7532783105
 20
3842.4333742534
 10
10106.8262273274
 20
3842.4994465253
  0
LINE
  5
15B
330
1F
100
AcDbEntity
  8
0
  6
Continuous
 62
     7
370
    25
100
AcDbLine
 10
10551.6430098847
 20
3902.6693156888
 30
0.0
 11
10562.6618201793
 21
3902.6693156888
 31
0.0
  0
ARC
  5
15C
330
1F
100
AcDbEntity
  8
0
  6
Continuous
 62
     7
370
    25
100
AcDbCircle
 10
10562.6050321032
 20
3904.6780837365
 30
0.0
 40
2.57145111024293
100
AcDbArc
 50
6.1216289802
 51
96.0340644756
  0
LINE
  5
15D
330
1F
100
AcDbEntity
  8
0
  6
Continuous
 62
     7
370
    25
100
AcDbLine
 10
10562.3347218695
 20
3907.235287911
 30
0.0
 11
10553.680630474
 21
3907.235287911
 31
0.0
  0
ARC
  5
15E
330
1F
100
AcDbEntity
  8
0
  6
Continuous
 62
     7
370
    25
100
AcDbCircle
 10
10548.6071344741
 20
3425.2831660902
 30
0.0
 40
477.3871231660602
100
AcDbArc
 50
90.1157138615
 51
113.0867658336
  0
ARC
  5
15F
330
1F
100
AcDbEntity
  8
0
  6
Continuous
 62
     7
370
    25
100
AcDbCircle
 10
10548.5886620888
 20
3425.4234545951
 30
0.0
 40
481.8130707215888
100
AcDbArc
 50
89.8701462513
 51
113.2964430368
  0
LINE
  5
160
330
1F
100
AcDbEntity
  8
0
  6
Continuous
 62
     7
370
    25
100
AcDbLine
 10
10547.6430098847
 20
3902.6693156888
 30
0.0
 11
10551.6430098847
 21
3902.6693156888
 31
0.0
  0
LINE
  5
161
330
1F
100
AcDbEntity
  8
0
  6
Continuous
 62
     7
370
    25
100
AcDbLine
 10
10553.680630474
 20
3907.235287911
 30
0.0
 11
10549.680630474
 21
3907.235287911
 31
0.0
  0
LWPOLYLINE
  5
162
330
1F
100
AcDbEntity
  8
0
  6
Continuous
 62
     7
370
    25
100
AcDbPolyline
 90
        3
 70
   128
 43
0.0
 10
10453.6602393381
 20
3843.2856351332
 10
10454.8116050623
 20
3841.8031307014
 10
10456.0011109573
 20
3839.7995050066
  0
LINE
  5
163
330
1F
100
AcDbEntity
  8
0
  6
Continuous
 62
     7
370
    25
100
AcDbLine
 10
10461.3593117557
 20
3842.4994465253
 30
0.0
 11
10460.9438249287
 21
3843.2856351332
 31
0.0
  0
LINE
  5
164
330
1F
100
AcDbEntity
  8
0
  6
Continuous
 62
     7
370
    25
100
AcDbLine
 10
10456.648534841
 20
3838.514652299
 30
0.0
 11
10460.5236741064
 21
3834.8684002563
 31
0.0
  0
LINE
  5
165
330
1F
100
AcDbEntity
  8
0
  6
Continuous
 62
     7
370
    25
100
AcDbLine
 10
10462.6314989051
 20
3835.9305111965
 30
0.0
 11
10462.0067356394
 21
3841.2145938177
 31
0.0
  0
LINE
  5
166
330
1F
100
AcDbEntity
  8
0
  6
Continuous
 62
     7
370
    25
100
AcDbLine
 10
10462.0067356394
 20
3841.2145938177
 30
0.0
 11
10461.3593117557
 21
3842.4994465253
 31
0.0
  0
LINE
  5
167
330
1F
100
AcDbEntity
  8
0
  6
Continuous
 62
     7
370
    25
100
AcDbLine
 10
10456.0011109573
 20
3839.7995050066
 30
0.0
 11
10456.648534841
 21
3838.514652299
 31
0.0
  0
LINE
  5
168
330
1F
100
AcDbEntity
  8
0
  6
Continuous
 62
     7
370
    25
100
AcDbLine
 10
10545.3119581569
 20
3902.6472132818
 30
0.0
 11
10549.680630474
 21
3902.6693156888
 31
0.0
  0
LINE
  5
169
330
1F
100
AcDbEntity
  8
0
  6
Continuous
 62
     7
370
    25
100
AcDbLine
 10
10549.680590474
 20
3907.235287911
 30
0.0
 11
10547.6430098847
 21
3907.235287911
 31
0.0
  0
LINE
  5
16A
330
1F
100
AcDbEntity
  8
0
  6
Continuous
 62
     7
370
    25
100
AcDbLine
 10
10553.680630474
 20
3907.235287911
 30
0.0
 11
10551.6430098877
 21
3902.6693156955
 31
0.0
  0
ARC
  5
16B
330
1F
100
AcDbEntity
  8
0
  6
Continuous
 62
     7
370
    25
100
AcDbCircle
 10
10562.769062972
 20
3905.0609464245
 30
0.0
 40
2.395222526662091
100
AcDbArc
 50
266.8077887615
 51
357.4002083357
  0
LINE
  5
16C
330
1F
100
AcDbEntity
  8
0
  6
Continuous
 62
     7
370
    25
100
AcDbLine
 10
10562.1595257083
 20
3907.1887335013
 30
0.0
 11
10562.6618201793
 21
3907.235287911
 31
0.0
  0
LINE
  5
16D
330
1F
100
AcDbEntity
  8
0
  6
Continuous
 62
     7
370
    25
100
AcDbLine
 10
10462.6314989051
 20
3835.9305111965
 30
0.0
 11
10460.5236741064
 21
3834.8684002563
 31
0.0
  0
LINE
  5
16E
330
1F
100
AcDbEntity
  8
0
  6
Continuous
 62
     7
370
    25
100
AcDbLine
 10
10456.648534841
 20
3838.514652299
 30
0.0
 11
10462.0067356394
 21
3841.2145938177
 31
0.0
  0
LINE
  5
16F
330
1F
100
AcDbEntity
  8
0
  6
Continuous
 62
     7
370
    25
100
AcDbLine
 10
10356.0502436076
 20
3870.2856351332
 30
0.0
 11
10361.7652892476
 21
3869.5401943976
 31
0.0
  0
LINE
  5
170
330
1F
100
AcDbEntity
  8
0
  6
Continuous
 62
     7
370
    25
100
AcDbLine
 10
10370.8723157903
 20
3868.3523213702
 30
0.0
 11
10469.130241088
 21
3855.5360702445
 31
0.0
  0
ARC
  5
171
330
1F
100
AcDbEntity
  8
0
  6
Continuous
 62
     7
370
    25
100
AcDbCircle
 10
10464.3279484399
 20
3855.0346271146
 30
0.0
 40
4.828401380419813
100
AcDbArc
 50
348.2173533268
 51
5.9610770074
  0
LINE
  5
172
330
1F
100
AcDbEntity
  8
0
  6
Continuous
 62
     7
370
    25
100
AcDbLine
 10
10472.9142096335
 20
3844.7856351332
 30
0.0
 11
10469.0546119274
 21
3854.0486696277
 31
0.0
  0
LINE
  5
173
330
1F
100
AcDbEntity
  8
0
  6
Continuous
 62
     7
370
    25
100
AcDbLine
 10
10431.1686232231
 20
3844.7856351332
 30
0.0
 11
10472.9142096335
 21
3844.7856351332
 31
0.0
  0
ARC
  5
174
330
1F
100
AcDbEntity
  8
0
  6
Continuous
 62
     7
370
    25
100
AcDbCircle
 10
10431.1686232231
 20
3821.316248786
 30
0.0
 40
23.46938634723119
100
AcDbArc
 50
90.0
 51
140.5164303306
  0
ARC
  5
175
330
1F
100
AcDbEntity
  8
0
  6
Continuous
 62
     7
370
    25
100
AcDbCircle
 10
10408.9214134013
 20
3830.6921550169
 30
0.0
 40
6.917870823867109
100
AcDbArc
 50
41.6058076295
 51
53.3094964634
  0
LINE
  5
176
330
1F
100
AcDbEntity
  8
0
  6
Continuous
 62
     7
370
    25
100
AcDbLine
 10
10414.0941184147
 20
3835.2856351332
 30
0.0
 11
10385.2591979012
 21
3800.2856351332
 31
0.0
  0
LINE
  5
177
330
1F
100
AcDbEntity
  8
0
  6
Continuous
 62
     7
370
    25
100
AcDbLine
 10
10385.2591979012
 20
3800.2856351332
 30
0.0
 11
10385.0157696307
 21
3800.2856351332
 31
0.0
  0
ARC
  5
178
330
1F
100
AcDbEntity
  8
0
  6
Continuous
 62
     7
370
    25
100
AcDbCircle
 10
10426.3281758414
 20
3844.4129707554
 30
0.0
 40
4.854771837412839
100
AcDbArc
 50
346.5726714604
 51
4.4024975843
  0
ARC
  5
179
330
1F
100
AcDbEntity
  8
0
  6
Continuous
 62
     7
370
    25
100
AcDbCircle
 10
10431.0502436076
 20
3821.316248786
 30
0.0
 40
21.96938634723199
100
AcDbArc
 50
90.0
 51
140.5164303306
  0
ARC
  5
17A
330
1F
100
AcDbEntity
  8
0
  6
Continuous
 62
     7
370
    25
100
AcDbCircle
 10
10468.0737622517
 20
3844.4129707554
 30
0.0
 40
4.854771837510069
100
AcDbArc
 50
346.5726714605
 51
4.4024975841
  0
LINE
  5
17B
330
1F
100
AcDbEntity
  8
0
  6
Continuous
 62
     7
370
    25
100
AcDbLine
 10
10472.7958300179
 20
3843.2856351332
 30
0.0
 11
10431.0502436076
 21
3843.2856351332
 31
0.0
  0
ELLIPSE
  5
17C
330
1F
100
AcDbEntity
  8
0
  6
Continuous
 62
     7
370
    25
100
AcDbEllipse
 10
10468.8527769508
 20
3854.0595551096
 30
0.0
 11
2.530259337070675
 21
0.4273252724042322
 31
0.0
210
0.0
220
0.0
230
1.0
 40
0.01733226
 41
4.789314802348811
 42
6.287197545965346
  0
LINE
  5
17D
330
1F
100
AcDbEntity
  8
0
  6
Continuous
 62
     7
370
    25
100
AcDbLine
 10
10471.3829862051
 20
3854.4870528991
 30
0.0
 11
10475.1848589922
 21
3845.3625582101
 31
0.0
  0
ELLIPSE
  5
17E
330
1F
100
AcDbEntity
  8
0
  6
Continuous
 62
     7
370
    25
100
AcDbEllipse
 10
10472.7169102743
 20
3844.7856351332
 30
0.0
 11
2.467989901098917
 21
0.5767957211487555
 31
0.0
210
0.0
220
0.0
230
1.0
 40
0.0177670776
 41
4.78826469554395
 42
6.286147439151263
  0
ARC
  5
17F
330
1F
100
AcDbEntity
  8
0
  6
Continuous
 62
     7
370
    25
100
AcDbCircle
 10
10469.9983708205
 20
3853.9101298222
 30
0.0
 40
1.499999999999895
100
AcDbArc
 50
22.619864948
 51
82.5685920288
  0
LINE
  5
180
330
1F
100
AcDbEntity
  8
0
  6
Continuous
 62
     7
370
    25
100
AcDbLine
 10
10469.130241088
 20
3855.5360702445
 30
0.0
 11
10470.1923795966
 21
3855.397530439
 31
0.0
  0
ARC
  5
181
330
1F
100
AcDbEntity
  8
0
  6
Continuous
 62
     7
370
    25
100
AcDbCircle
 10
10473.8002436076
 20
3844.7856351332
 30
0.0
 40
1.500000000001819
100
AcDbArc
 50
270.0
 51
22.619864948
  0
LINE
  5
182
330
1F
100
AcDbEntity
  8
0
  6
Continuous
 62
     7
370
    25
100
AcDbLine
 10
10473.8002436076
 20
3843.2856351332
 30
0.0
 11
10472.7958300179
 21
3843.2856351332
 31
0.0
  0
LINE
  5
183
330
1F
100
AcDbEntity
  8
0
  6
Continuous
 62
     7
370
    25
100
AcDbLine
 10
10304.2657696307
 20
3658.2856351332
 30
0.0
 11
10304.2657696307
 21
3663.2856351332
 31
0.0
  0
LINE
  5
184
330
1F
100
AcDbEntity
  8
0
  6
Continuous
 62
     7
370
    25
100
AcDbLine
 10
10304.2657696307
 20
3663.2856351332
 30
0.0
 11
10305.0157696307
 21
3663.2856351332
 31
0.0
  0
LINE
  5
185
330
1F
100
AcDbEntity
  8
0
  6
Continuous
 62
     7
370
    25
100
AcDbLine
 10
10305.0157696307
 20
3633.2856351332
 30
0.0
 11
10304.2657696307
 21
3633.2856351332
 31
0.0
  0
LINE
  5
186
330
1F
100
AcDbEntity
  8
0
  6
Continuous
 62
     7
370
    25
100
AcDbLine
 10
10304.2657696307
 20
3633.2856351332
 30
0.0
 11
10304.2657696307
 21
3638.2856351332
 31
0.0
  0
LINE
  5
187
330
1F
100
AcDbEntity
  8
0
  6
Continuous
 62
     7
370
    25
100
AcDbLine
 10
10302.4657696307
 20
3675.7356351332
 30
0.0
 11
10302.4657696307
 21
3665.2856351332
 31
0.0
  0
LINE
  5
188
330
1F
100
AcDbEntity
  8
0
  6
Continuous
 62
     7
370
    25
100
AcDbLine
 10
10302.4657696307
 20
3665.2856351332
 30
0.0
 11
10298.2657696307
 21
3665.2856351332
 31
0.0
  0
LINE
  5
189
330
1F
100
AcDbEntity
  8
0
  6
Continuous
 62
     7
370
    25
100
AcDbLine
 10
10302.4657696307
 20
3832.2856351332
 30
0.0
 11
10298.2657696307
 21
3832.2856351332
 31
0.0
  0
LINE
  5
18A
330
1F
100
AcDbEntity
  8
0
  6
Continuous
 62
     7
370
    25
100
AcDbLine
 10
10298.2657696307
 20
3832.2856351332
 30
0.0
 11
10298.2657696307
 21
3665.2856351332
 31
0.0
  0
LINE
  5
18B
330
1F
100
AcDbEntity
  8
0
  6
Continuous
 62
     7
370
    25
100
AcDbLine
 10
10300.4657696307
 20
3720.0856351332
 30
0.0
 11
10300.4657696307
 21
3675.7356351332
 31
0.0
  0
LINE
  5
18C
330
1F
100
AcDbEntity
  8
0
  6
Continuous
 62
     7
370
    25
100
AcDbLine
 10
10300.4657696307
 20
3720.0856351332
 30
0.0
 11
10302.4657696307
 21
3720.0856351332
 31
0.0
  0
LINE
  5
18D
330
1F
100
AcDbEntity
  8
0
  6
Continuous
 62
     7
370
    25
100
AcDbLine
 10
10300.4657696307
 20
3675.7356351332
 30
0.0
 11
10302.4657696307
 21
3675.7356351332
 31
0.0
  0
LINE
  5
18E
330
1F
100
AcDbEntity
  8
0
  6
Continuous
 62
     7
370
    25
100
AcDbLine
 10
10302.4657696307
 20
3832.2856351332
 30
0.0
 11
10302.4657696307
 21
3720.0856351332
 31
0.0
  0
LINE
  5
18F
330
1F
100
AcDbEntity
  8
0
  6
Continuous
 62
     7
370
    25
100
AcDbLine
 10
10298.2657696307
 20
3837.2856351332
 30
0.0
 11
10302.4657696307
 21
3837.2856351332
 31
0.0
  0
LINE
  5
190
330
1F
100
AcDbEntity
  8
0
  6
Continuous
 62
     7
370
    25
100
AcDbLine
 10
10298.2657696307
 20
3832.2856351332
 30
0.0
 11
10298.2657696307
 21
3837.2856351332
 31
0.0
  0
LINE
  5
191
330
1F
100
AcDbEntity
  8
0
  6
Continuous
 62
     7
370
    25
100
AcDbLine
 10
10302.4657696307
 20
3837.2856351332
 30
0.0
 11
10302.4657696307
 21
3832.2856351332
 31
0.0
  0
LINE
  5
192
330
1F
100
AcDbEntity
  8
0
  6
Continuous
 62
     7
370
    25
100
AcDbLine
 10
10304.2657696307
 20
3658.2856351332
 30
0.0
 11
10304.2657696307
 21
3638.2856351332
 31
0.0
  0
LINE
  5
193
330
1F
100
AcDbEntity
  8
0
  6
Continuous
 62
     7
370
    25
100
AcDbLine
 10
10298.2657696307
 20
3865.2856351332
 30
0.0
 11
10300.7657696307
 21
3865.2856351332
 31
0.0
  0
LINE
  5
194
330
1F
100
AcDbEntity
  8
0
  6
Continuous
 62
     7
370
    25
100
AcDbLine
 10
10300.7657696307
 20
3865.2856351332
 30
0.0
 11
10300.7657696307
 21
3860.2856351332
 31
0.0
  0
LINE
  5
195
330
1F
100
AcDbEntity
  8
0
  6
Continuous
 62
     7
370
    25
100
AcDbLine
 10
10300.7657696307
 20
3860.2856351332
 30
0.0
 11
10298.2657696307
 21
3860.2856351332
 31
0.0
  0
LINE
  5
196
330
1F
100
AcDbEntity
  8
0
  6
Continuous
 62
     7
370
    25
100
AcDbLine
 10
10298.2657696307
 20
3860.2856351332
 30
0.0
 11
10298.2657696307
 21
3865.2856351332
 31
0.0
  0
LINE
  5
197
330
1F
100
AcDbEntity
  8
0
  6
Continuous
 62
     7
370
    25
100
AcDbLine
 10
10300.7657696307
 20
3837.2856351332
 30
0.0
 11
10300.7657696307
 21
3860.2856351332
 31
0.0
  0
LINE
  5
198
330
1F
100
AcDbEntity
  8
0
  6
Continuous
 62
     7
370
    25
100
AcDbLine
 10
10298.2657696307
 20
3837.2856351332
 30
0.0
 11
10298.2657696307
 21
3860.2856351332
 31
0.0
  0
LINE
  5
199
330
1F
100
AcDbEntity
  8
0
  6
Continuous
 62
     7
370
    25
100
AcDbLine
 10
10302.2657696307
 20
3659.2856351332
 30
0.0
 11
10304.2657696307
 21
3659.2856351332
 31
0.0
  0
LINE
  5
19A
330
1F
100
AcDbEntity
  8
0
  6
Continuous
 62
     7
370
    25
100
AcDbLine
 10
10304.2657696307
 20
3663.2856351332
 30
0.0
 11
10304.2657696307
 21
3837.2856351332
 31
0.0
  0
LINE
  5
19B
330
1F
100
AcDbEntity
  8
0
  6
Continuous
 62
     7
370
    25
100
AcDbLine
 10
10302.2657696307
 20
3665.2856351332
 30
0.0
 11
10302.2657696307
 21
3659.2856351332
 31
0.0
  0
LINE
  5
19C
330
1F
100
AcDbEntity
  8
0
  6
Continuous
 62
     7
370
    25
100
AcDbLine
 10
10302.4657696307
 20
3837.2856351332
 30
0.0
 11
10304.2657696307
 21
3837.2856351332
 31
0.0
  0
LINE
  5
19D
330
1F
100
AcDbEntity
  8
0
  6
Continuous
 62
     7
370
    25
100
AcDbLine
 10
10304.2657696307
 20
3768.2856351332
 30
0.0
 11
10305.0157696307
 21
3769.5846732389
 31
0.0
  0
LINE
  5
19E
330
1F
100
AcDbEntity
  8
0
  6
Continuous
 62
     7
370
    25
100
AcDbLine
 10
10305.0157696307
 20
3837.2856351332
 30
0.0
 11
10304.2657696307
 21
3837.2856351332
 31
0.0
  0
LINE
  5
19F
330
1F
100
AcDbEntity
  8
0
  6
Continuous
 62
     7
370
    25
100
AcDbLine
 10
10300.7657696307
 20
3860.2856351332
 30
0.0
 11
10304.2657696307
 21
3860.2856351332
 31
0.0
  0
LINE
  5
1A0
330
1F
100
AcDbEntity
  8
0
  6
Continuous
 62
     7
370
    25
100
AcDbLine
 10
10304.2657696307
 20
3855.2856351332
 30
0.0
 11
10300.7657696307
 21
3855.2856351332
 31
0.0
  0
LINE
  5
1A1
330
1F
100
AcDbEntity
  8
0
  6
Continuous
 62
     7
370
    25
100
AcDbLine
 10
10304.2657696307
 20
3860.2856351332
 30
0.0
 11
10304.2657696307
 21
3855.2856351332
 31
0.0
  0
LINE
  5
1A2
330
1F
100
AcDbEntity
  8
0
  6
Continuous
 62
     7
370
    25
100
AcDbLine
 10
10304.2657696307
 20
3837.2856351332
 30
0.0
 11
10304.2657696307
 21
3855.2856351332
 31
0.0
  0
LINE
  5
1A3
330
1F
100
AcDbEntity
  8
0
  6
Continuous
 62
     7
370
    25
100
AcDbLine
 10
10304.2657696307
 20
3635.2856351332
 30
0.0
 11
10298.2657696307
 21
3635.2856351332
 31
0.0
  0
LINE
  5
1A4
330
1F
100
AcDbEntity
  8
0
  6
Continuous
 62
     7
370
    25
100
AcDbLine
 10
10298.2657696307
 20
3665.2856351332
 30
0.0
 11
10298.2657696307
 21
3635.2856351332
 31
0.0
  0
LINE
  5
1A5
330
1F
100
AcDbEntity
  8
0
  6
Continuous
 62
     7
370
    25
100
AcDbLine
 10
10305.0157696307
 20
3855.2856351332
 30
0.0
 11
10304.2657696307
 21
3855.2856351332
 31
0.0
  0
LINE
  5
1A6
330
1F
100
AcDbEntity
  8
0
  6
Continuous
 62
     7
370
    25
100
AcDbLine
 10
10304.2657696307
 20
3860.2856351332
 30
0.0
 11
10305.0157696307
 21
3860.2856351332
 31
0.0
  0
LINE
  5
1A7
330
1F
100
AcDbEntity
  8
0
  6
Continuous
 62
     7
370
    25
100
AcDbLine
 10
10305.0157696307
 20
3696.758445171
 30
0.0
 11
10304.2657696307
 21
3718.2356351332
 31
0.0
  0
LINE
  5
1A8
330
1F
100
AcDbEntity
  8
0
  6
Continuous
 62
     7
370
    25
100
AcDbLine
 10
10304.2657696307
 20
3692.7356351332
 30
0.0
 11
10305.0157696307
 21
3692.7356351332
 31
0.0
  0
ARC
  5
1A9
330
1F
100
AcDbEntity
  8
0
  6
Continuous
 62
     7
370
    25
100
AcDbCircle
 10
10335.0157696307
 20
3706.2510388036
 30
0.0
 40
50.00000000000182
100
AcDbArc
 50
348.6573229991
 51
0.0
  0
LINE
  5
1AA
330
1F
100
AcDbEntity
  8
0
  6
Continuous
 62
     7
370
    25
100
AcDbLine
 10
10384.0391913921
 20
3696.4172135662
 30
0.0
 11
10376.9919925184
 21
3661.2856351332
 31
0.0
  0
ARC
  5
1AB
330
1F
100
AcDbEntity
  8
0
  6
Continuous
 62
     7
370
    25
100
AcDbCircle
 10
10363.202975981
 20
3664.0516350155
 30
0.0
 40
14.06370265675844
100
AcDbArc
 50
294.8069209024
 51
348.6573229991
  0
LINE
  5
1AC
330
1F
100
AcDbEntity
  8
0
  6
Continuous
 62
     7
370
    25
100
AcDbLine
 10
10369.1035674278
 20
3651.2856351332
 30
0.0
 11
10315.0157696307
 21
3626.2856351332
 31
0.0
  0
LINE
  5
1AD
330
1F
100
AcDbEntity
  8
0
  6
Continuous
 62
     7
370
    25
100
AcDbLine
 10
10305.0157696307
 20
3626.2856351332
 30
0.0
 11
10305.0157696307
 21
3871.2856351332
 31
0.0
  0
LINE
  5
1AE
330
1F
100
AcDbEntity
  8
0
  6
Continuous
 62
     7
370
    25
100
AcDbLine
 10
10355.0157696307
 20
3871.2856351332
 30
0.0
 11
10305.0157696307
 21
3871.2856351332
 31
0.0
  0
ARC
  5
1AF
330
1F
100
AcDbEntity
  8
0
  6
Continuous
 62
     7
370
    25
100
AcDbCircle
 10
10288.349102964
 20
3801.2856351332
 30
0.0
 40
96.66666666666788
100
AcDbArc
 50
0.0
 51
46.3971810273
  0
LINE
  5
1B0
330
1F
100
AcDbEntity
  8
0
  6
Continuous
 62
     7
370
    25
100
AcDbLine
 10
10385.0157696307
 20
3706.2510388036
 30
0.0
 11
10385.0157696307
 21
3801.2856351332
 31
0.0
  0
LINE
  5
1B1
330
1F
100
AcDbEntity
  8
0
  6
Continuous
 62
     7
370
    25
100
AcDbLine
 10
10315.0157696307
 20
3626.2856351332
 30
0.0
 11
10305.0157696307
 21
3626.2856351332
 31
0.0
  0
LINE
  5
1B2
330
1F
100
AcDbEntity
  8
0
  6
Continuous
 62
     8
370
    25
100
AcDbLine
 10
10549.680630474
 20
3907.235287911
 30
0.0
 11
10547.6430129724
 21
3902.6693226079
 31
0.0
  0
LINE
  5
1B3
330
1F
100
AcDbEntity
  8
0
  6
Continuous
 62
     8
370
    25
100
AcDbLine
 10
10461.3593117557
 20
3842.4994465253
 30
0.0
 11
10456.0011109573
 21
3839.7995050066
 31
0.0
  0
LINE
  5
1B4
330
1F
100
AcDbEntity
  8
0
  6
Continuous
 62
     8
370
    25
100
AcDbLine
 10
10469.0546119274
 20
3854.0486696277
 30
0.0
 11
10368.0769204744
 21
3867.2196728607
 31
0.0
  0
LINE
  5
1B5
330
1F
100
AcDbEntity
  8
0
  6
Continuous
 62
     8
370
    25
100
AcDbLine
 10
10359.0531549119
 20
3868.3966857601
 30
0.0
 11
10357.7600881436
 21
3868.565346643
 31
0.0
  0
LINE
  5
1B6
330
1F
100
AcDbEntity
  8
0
  6
Continuous
 62
     8
370
    25
100
AcDbLine
 10
10385.0114428001
 20
3802.2002398813
 30
0.0
 11
10413.0547875969
 21
3836.2394205139
 31
0.0
  0
LINE
  5
1B7
330
1F
100
AcDbEntity
  8
0
  6
Continuous
 62
     8
370
    25
100
AcDbLine
 10
10305.0157696307
 20
3658.2856351332
 30
0.0
 11
10304.2657696307
 21
3658.2856351332
 31
0.0
  0
LINE
  5
1B8
330
1F
100
AcDbEntity
  8
0
  6
Continuous
 62
     8
370
    25
100
AcDbLine
 10
10304.2657696307
 20
3638.2856351332
 30
0.0
 11
10305.0157696307
 21
3638.2856351332
 31
0.0
  0
LINE
  5
1B9
330
1F
100
AcDbEntity
  8
0
  6
Continuous
 62
     8
370
    25
100
AcDbLine
 10
10304.2657696307
 20
3857.7856351332
 30
0.0
 11
10305.0157696307
 21
3857.7856351332
 31
0.0
  0
LINE
  5
1BA
330
1F
100
AcDbEntity
  8
0
  6
Continuous
 62
     7
370
    25
100
AcDbLine
 10
10070.3262273274
 20
3419.8777900001
 30
0.0
 11
10070.3262273274
 21
3227.2662134283
 31
0.0
  0
LINE
  5
1BB
330
1F
100
AcDbEntity
  8
0
  6
Continuous
 62
     7
370
    25
100
AcDbLine
 10
10075.3262273274
 20
3227.2662134283
 30
0.0
 11
10075.3262273274
 21
3419.8777900001
 31
0.0
  0
LWPOLYLINE
  5
1BC
330
1F
100
AcDbEntity
  8
0
  6
Continuous
 62
     7
370
    25
100
AcDbPolyline
 90
       30
 70
   128
 43
0.0
 10
10143.3262606486
 20
3227.2662134605
 10
10143.3262602743
 20
3231.0710362616
 10
10143.3262598518
 20
3234.261843997
 10
10143.3262594556
 20
3236.8386285047
 10
10143.3262591279
 20
3238.8076758774
 10
10143.3262588217
 20
3240.5687906033
 10
10143.3262575283
 20
3247.7498757986
 10
10143.3262554289
 20
3260.7093945946
 10
10143.3262535825
 20
3272.2600171615
 10
10143.3262517179
 20
3283.7844097806
 10
10143.3262500385
 20
3294.0463912487
 10
10143.3262483461
 20
3304.2773448633
 10
10143.3262466417
 20
3314.4719089207
 10
10143.3262450065
 20
3324.1509992704
 10
10143.3262438282
 20
3331.0658378869
 10
10143.3262424901
 20
3338.8582299795
 10
10143.3262411534
 20
3346.5789207661
 10
10143.3262398767
 20
3353.894622146
 10
10143.3262386028
 20
3361.1381897745
 10
10143.3262373249
 20
3368.3488578951
 10
10143.3262360432
 20
3375.5248435831
 10
10143.3262347239
 20
3382.8542463962
 10
10143.3262334203
 20
3390.0388697073
 10
10143.3262322283
 20
3396.5595147963
 10
10143.3262317448
 20
3399.1905608703
 10
10143.3262311119
 20
3402.6239069644
 10
10143.3262303237
 20
3406.8806549504
 10
10143.3262293799
 20
3411.9508881156
 10
10143.3262282802
 20
3417.8222531201
 10
10143.3262278925
 20
3419.8777900001
  0
LWPOLYLINE
  5
1BD
330
1F
100
AcDbEntity
  8
0
  6
Continuous
 62
     7
370
    25
100
AcDbPolyline
 90
       29
 70
   128
 43
0.0
 10
10138.3262278933
 20
3419.8777900001
 10
10138.3262282316
 20
3418.0808219748
 10
10138.3262286761
 20
3415.7132806169
 10
10138.3262290156
 20
3413.9002864388
 10
10138.3262293192
 20
3412.275952892
 10
10138.3262305566
 20
3405.62507613
 10
10138.3262327868
 20
3393.5103099159
 10
10138.3262347715
 20
3382.5905542608
 10
10138.326236749
 20
3371.5802449128
 10
10138.3262385074
 20
3361.6783093214
 10
10138.3262402583
 20
3351.7139204059
 10
10138.3262420007
 20
3341.6923270586
 10
10138.3262436528
 20
3332.0909091473
 10
10138.3262448319
 20
3325.1793262223
 10
10138.3262461592
 20
3317.3378406596
 10
10138.326247473
 20
3309.5127879665
 10
10138.3262487167
 20
3302.0464178827
 10
10138.3262499468
 20
3294.60339354
 10
10138.3262511701
 20
3287.143818043
 10
10138.3262523863
 20
3279.6695152513
 10
10138.3262536272
 20
3271.9824957381
 10
10138.3262548422
 20
3264.3945965802
 10
10138.3262559439
 20
3257.4620107768
 10
10138.3262563881
 20
3254.6522444168
 10
10138.3262569737
 20
3250.9747161972
 10
10138.3262577701
 20
3246.3978303294
 10
10138.3262587593
 20
3240.9208798924
 10
10138.3262598106
 20
3234.5435519237
 10
10138.3262606486
 20
3227.2662133961
  0
LINE
  5
1BE
330
1F
100
AcDbEntity
  8
0
  6
Continuous
 62
     7
370
    25
100
AcDbLine
 10
10143.3262606486
 20
3223.2662134283
 30
0.0
 11
10143.3262606486
 21
3227.2662134283
 31
0.0
  0
LINE
  5
1BF
330
1F
100
AcDbEntity
  8
0
  6
Continuous
 62
     7
370
    25
100
AcDbLine
 10
10138.3262606486
 20
3227.2662134283
 30
0.0
 11
10138.3262606486
 21
3223.2662134283
 31
0.0
  0
LINE
  5
1C0
330
1F
100
AcDbEntity
  8
0
  6
Continuous
 62
     7
370
    25
100
AcDbLine
 10
10070.3262273274
 20
3227.2662134283
 30
0.0
 11
10070.3262273274
 21
3223.2662134283
 31
0.0
  0
LINE
  5
1C1
330
1F
100
AcDbEntity
  8
0
  6
Continuous
 62
     7
370
    25
100
AcDbLine
 10
10075.3262273274
 20
3223.2662134283
 30
0.0
 11
10075.3262273274
 21
3227.2662134283
 31
0.0
  0
ARC
  5
1C2
330
1F
100
AcDbEntity
  8
0
  6
Continuous
 62
     7
370
    25
100
AcDbCircle
 10
10130.8262606486
 20
3223.2662134283
 30
0.0
 40
12.49999999999909
100
AcDbArc
 50
270.0
 51
0.0
  0
ARC
  5
1C3
330
1F
100
AcDbEntity
  8
0
  6
Continuous
 62
     7
370
    25
100
AcDbCircle
 10
10130.8262606486
 20
3223.2662134283
 30
0.0
 40
7.500000000003638
100
AcDbArc
 50
270.0
 51
360.0
  0
ARC
  5
1C4
330
1F
100
AcDbEntity
  8
0
  6
Continuous
 62
     7
370
    25
100
AcDbCircle
 10
10082.8262273274
 20
3223.2662134283
 30
0.0
 40
12.5
100
AcDbArc
 50
180.0
 51
270.0
  0
ARC
  5
1C5
330
1F
100
AcDbEntity
  8
0
  6
Continuous
 62
     7
370
    25
100
AcDbCircle
 10
10082.8262273274
 20
3223.2662134283
 30
0.0
 40
7.500000000005457
100
AcDbArc
 50
180.0
 51
270.0
  0
LINE
  5
1C6
330
1F
100
AcDbEntity
  8
0
  6
Continuous
 62
     7
370
    25
100
AcDbLine
 10
10082.8262273274
 20
3210.7662134283
 30
0.0
 11
10130.8262606486
 21
3210.7662134283
 31
0.0
  0
LINE
  5
1C7
330
1F
100
AcDbEntity
  8
0
  6
Continuous
 62
     7
370
    25
100
AcDbLine
 10
10130.8262606486
 20
3215.7662134283
 30
0.0
 11
10082.8262273274
 21
3215.7662134283
 31
0.0
  0
ARC
  5
1C8
330
1F
100
AcDbEntity
  8
0
  6
Continuous
 62
     7
370
    25
100
AcDbCircle
 10
10120.5246960833
 20
3303.1827880309
 30
0.0
 40
2.555392720098291
100
AcDbArc
 50
271.0070291024
 51
356.2088037433
  0
ARC
  5
1C9
330
1F
100
AcDbEntity
  8
0
  6
Continuous
 62
     7
370
    25
100
AcDbCircle
 10
10093.1207420033
 20
3303.1754219468
 30
0.0
 40
2.547913762113574
100
AcDbArc
 50
183.6363477473
 51
269.147819407
  0
LINE
  5
1CA
330
1F
100
AcDbEntity
  8
0
  6
Continuous
 62
     7
370
    25
100
AcDbLine
 10
10093.0828473691
 20
3300.6277900001
 30
0.0
 11
10120.5696072857
 21
3300.6277900001
 31
0.0
  0
LWPOLYLINE
  5
1CB
330
1F
100
AcDbEntity
  8
0
  6
Continuous
 62
     7
370
    25
100
AcDbPolyline
 90
        6
 70
   128
 43
0.0
 10
10140.8262606486
 20
3224.2850237229
 10
10141.6380093216
 20
3224.229821771
 10
10142.3617924303
 20
3224.0701979032
 10
10142.9191768442
 20
3223.8234498424
 10
10143.2497613134
 20
3223.5163165698
 10
10143.3262426055
 20
3223.2700841556
  0
LWPOLYLINE
  5
1CC
330
1F
100
AcDbEntity
  8
0
  6
Continuous
 62
     7
370
    25
100
AcDbPolyline
 90
        6
 70
   128
 43
0.0
 10
10138.326261475
 20
3223.2670418584
 10
10138.4027599837
 20
3223.5163165698
 10
10138.7333444529
 20
3223.8234498424
 10
10139.2907288668
 20
3224.0701979032
 10
10140.0145119755
 20
3224.229821771
 10
10140.8262606486
 20
3224.2850237229
  0
LWPOLYLINE
  5
1CD
330
1F
100
AcDbEntity
  8
0
  6
Continuous
 62
     7
370
    25
100
AcDbPolyline
 90
        6
 70
   128
 43
0.0
 10
10072.8262273274
 20
3222.2474031337
 10
10072.0144786544
 20
3222.3026050856
 10
10071.2906955457
 20
3222.4622289534
 10
10070.7333111317
 20
3222.7089770142
 10
10070.4027266625
 20
3223.0161102868
 10
10070.3262276704
 20
3223.2667470923
  0
LWPOLYLINE
  5
1CE
330
1F
100
AcDbEntity
  8
0
  6
Continuous
 62
     7
370
    25
100
AcDbPolyline
 90
        6
 70
   128
 43
0.0
 10
10075.3262200539
 20
3223.2686710225
 10
10075.2497279922
 20
3223.0161102868
 10
10074.919143523
 20
3222.7089770142
 10
10074.3617591091
 20
3222.4622289534
 10
10073.6379760004
 20
3222.3026050856
 10
10072.8262273274
 20
3222.2474031337
  0
LWPOLYLINE
  5
1CF
330
1F
100
AcDbEntity
  8
0
  6
Continuous
 62
     7
370
    25
100
AcDbPolyline
 90
        6
 70
   128
 43
0.0
 10
10131.8450709432
 20
3213.2662134283
 10
10131.7898689913
 20
3212.4544647553
 10
10131.6302451235
 20
3211.7306816466
 10
10131.3834970627
 20
3211.1732972326
 10
10131.07636379
 20
3210.8427127635
 10
10130.826066142
 20
3210.7662134739
  0
LWPOLYLINE
  5
1D0
330
1F
100
AcDbEntity
  8
0
  6
Continuous
 62
     7
370
    25
100
AcDbPolyline
 90
        6
 70
   128
 43
0.0
 10
10130.8434980097
 20
3215.7658555824
 10
10131.07636379
 20
3215.6897140931
 10
10131.3834970627
 20
3215.359129624
 10
10131.6302451235
 20
3214.80174521
 10
10131.7898689913
 20
3214.0779621013
 10
10131.8450709432
 20
3213.2662134283
  0
LWPOLYLINE
  5
1D1
330
1F
100
AcDbEntity
  8
0
  6
Continuous
 62
     7
370
    25
100
AcDbPolyline
 90
        6
 70
   128
 43
0.0
 10
10083.845037622
 20
3213.2662134283
 10
10083.7898356701
 20
3212.4544647553
 10
10083.6302118023
 20
3211.7306816466
 10
10083.3834637415
 20
3211.1732972326
 10
10083.0763304689
 20
3210.8427127635
 10
10082.8253621733
 20
3210.7662143297
  0
LWPOLYLINE
  5
1D2
330
1F
100
AcDbEntity
  8
0
  6
Continuous
 62
     7
370
    25
100
AcDbPolyline
 90
        6
 70
   128
 43
0.0
 10
10082.811237322
 20
3215.7659428142
 10
10083.0763304689
 20
3215.6897140931
 10
10083.3834637415
 20
3215.359129624
 10
10083.6302118023
 20
3214.80174521
 10
10083.7898356701
 20
3214.0779621013
 10
10083.845037622
 20
3213.2662134283
  0
LINE
  5
1D3
330
1F
100
AcDbEntity
  8
0
  6
Continuous
 62
     7
370
    25
100
AcDbLine
 10
10077.3262273274
 20
3397.9270624475
 30
0.0
 11
10077.3262273274
 21
3419.8777900001
 31
0.0
  0
LINE
  5
1D4
330
1F
100
AcDbEntity
  8
0
  6
Continuous
 62
     7
370
    25
100
AcDbLine
 10
10077.3262273274
 20
3419.8777900001
 30
0.0
 11
10082.8155614781
 21
3419.8777900001
 31
0.0
  0
ARC
  5
1D5
330
1F
100
AcDbEntity
  8
0
  6
Continuous
 62
     7
370
    25
100
AcDbCircle
 10
10082.8320482119
 20
3418.4853951497
 30
0.0
 40
1.392492452986304
100
AcDbArc
 50
90.6783823726
 51
186.9599027827
  0
LINE
  5
1D6
330
1F
100
AcDbEntity
  8
0
  6
Continuous
 62
     7
370
    25
100
AcDbLine
 10
10068.3262273274
 20
3391.4235911089
 30
0.0
 11
10070.3262273274
 21
3391.4235911089
 31
0.0
  0
LINE
  5
1D7
330
1F
100
AcDbEntity
  8
0
  6
Continuous
 62
     7
370
    25
100
AcDbLine
 10
10075.3262273274
 20
3391.4235911089
 30
0.0
 11
10083.5788514063
 21
3391.4235911089
 31
0.0
  0
LINE
  5
1D8
330
1F
100
AcDbEntity
  8
0
  6
Continuous
 62
     7
370
    25
100
AcDbLine
 10
10068.3262273274
 20
3391.4235911089
 30
0.0
 11
10068.3262273274
 21
3397.1687625337
 31
0.0
  0
LWPOLYLINE
  5
1D9
330
1F
100
AcDbEntity
  8
0
  6
Continuous
 62
     7
370
    25
100
AcDbPolyline
 90
        9
 70
   128
 43
0.0
 10
10068.7999115379
 20
3397.2073996991
 10
10068.7500497848
 20
3397.2310124827
 10
10068.6787673634
 20
3397.2478151454
 10
10068.5977378292
 20
3397.2551498913
 10
10068.5176407204
 20
3397.2530486087
 10
10068.4449630551
 20
3397.2425140695
 10
10068.3848805544
 20
3397.2244858141
 10
10068.3431738573
 20
3397.2000622838
 10
10068.3262273274
 20
3397.1687625337
  0
LWPOLYLINE
  5
1DA
330
1F
100
AcDbEntity
  8
0
  6
Continuous
 62
     7
370
    25
100
AcDbPolyline
 90
        3
 70
   128
 43
0.0
 10
10068.7999115379
 20
3397.2073996991
 10
10069.4193332983
 20
3396.8897574288
 10
10070.3262273274
 20
3396.6459804274
  0
LWPOLYLINE
  5
1DB
330
1F
100
AcDbEntity
  8
0
  6
Continuous
 62
     7
370
    25
100
AcDbPolyline
 90
        5
 70
   128
 43
0.0
 10
10075.3262273274
 20
3396.645801343
 10
10076.0490817369
 20
3396.8225080842
 10
10076.8828827776
 20
3397.2289053904
 10
10077.2979655654
 20
3397.742414227
 10
10077.3262273274
 20
3397.9270624475
  0
LINE
  5
1DC
330
1F
100
AcDbEntity
  8
0
  6
Continuous
 62
     7
370
    25
100
AcDbLine
 10
10082.8155614781
 20
3419.8777900001
 30
0.0
 11
10091.7677279453
 21
3306.7977925196
 31
0.0
  0
ARC
  5
1DD
330
1F
100
AcDbEntity
  8
0
  6
Continuous
 62
     7
370
    25
100
AcDbCircle
 10
10091.168680743
 20
3309.7739577947
 30
0.0
 40
3.035855282341803
100
AcDbArc
 50
252.8286959543
 51
281.3805191078
  0
LINE
  5
1DE
330
1F
100
AcDbEntity
  8
0
  6
Continuous
 62
     7
370
    25
100
AcDbLine
 10
10090.272406486
 20
3306.8734216802
 30
0.0
 11
10081.4498167626
 21
3418.3166602923
 31
0.0
  0
LINE
  5
1DF
330
1F
100
AcDbEntity
  8
0
  6
Continuous
 62
     7
370
    25
100
AcDbLine
 10
10130.0736032485
 20
3391.4235911089
 30
0.0
 11
10138.326233166
 21
3391.4235911089
 31
0.0
  0
LINE
  5
1E0
330
1F
100
AcDbEntity
  8
0
  6
Continuous
 62
     7
370
    25
100
AcDbLine
 10
10143.3262331672
 20
3391.4235911089
 30
0.0
 11
10145.3262273274
 21
3391.4235911089
 31
0.0
  0
ARC
  5
1E1
330
1F
100
AcDbEntity
  8
0
  6
Continuous
 62
     7
370
    25
100
AcDbCircle
 10
10130.8132888645
 20
3418.4791683801
 30
0.0
 40
1.398820788882567
100
AcDbArc
 50
353.3285947105
 51
89.0331201341
  0
LINE
  5
1E2
330
1F
100
AcDbEntity
  8
0
  6
Continuous
 62
     7
370
    25
100
AcDbLine
 10
10130.8368931766
 20
3419.8777900001
 30
0.0
 11
10136.3262273274
 21
3419.8777900001
 31
0.0
  0
LINE
  5
1E3
330
1F
100
AcDbEntity
  8
0
  6
Continuous
 62
     7
370
    25
100
AcDbLine
 10
10136.3262273274
 20
3419.8777900001
 30
0.0
 11
10136.3262273274
 21
3397.9270624475
 31
0.0
  0
LWPOLYLINE
  5
1E4
330
1F
100
AcDbEntity
  8
0
  6
Continuous
 62
     7
370
    25
100
AcDbPolyline
 90
        5
 70
   128
 43
0.0
 10
10136.3262273274
 20
3397.9270624475
 10
10136.46515658
 20
3397.5240509186
 10
10137.1449731629
 20
3397.008739648
 10
10138.2788149378
 20
3396.6342654783
 10
10138.326232213
 20
3396.6272067399
  0
ARC
  5
1E5
330
1F
100
AcDbEntity
  8
0
  6
Continuous
 62
     7
370
    25
100
AcDbCircle
 10
10142.8565284257
 20
3400.2730442715
 30
0.0
 40
3.658175951465597
100
AcDbArc
 50
277.3770493675
 51
303.0678036477
  0
LWPOLYLINE
  5
1E6
330
1F
100
AcDbEntity
  8
0
  6
Continuous
 62
     7
370
    25
100
AcDbPolyline
 90
        9
 70
   128
 43
0.0
 10
10145.3262273274
 20
3397.1687625337
 10
10145.3107733724
 20
3397.1986963671
 10
10145.2655599636
 20
3397.2253072143
 10
10145.1971081385
 20
3397.2446242624
 10
10145.1171007899
 20
3397.2543013363
 10
10145.0360905588
 20
3397.2543434554
 10
10144.9611871213
 20
3397.2457118552
 10
10144.8976472267
 20
3397.2293699466
 10
10144.8525431168
 20
3397.2073996991
  0
LINE
  5
1E7
330
1F
100
AcDbEntity
  8
0
  6
Continuous
 62
     7
370
    25
100
AcDbLine
 10
10145.3262273274
 20
3391.4235911089
 30
0.0
 11
10145.3262273274
 21
3397.1687625337
 31
0.0
  0
LINE
  5
1E8
330
1F
100
AcDbEntity
  8
0
  6
Continuous
 62
     7
370
    25
100
AcDbLine
 10
10121.8847267094
 20
3306.7977925196
 30
0.0
 11
10130.8368931766
 21
3419.8777900001
 31
0.0
  0
LINE
  5
1E9
330
1F
100
AcDbEntity
  8
0
  6
Continuous
 62
     7
370
    25
100
AcDbLine
 10
10132.2026378922
 20
3418.3166602923
 30
0.0
 11
10123.3800481687
 21
3306.8734216802
 31
0.0
  0
ARC
  5
1EA
330
1F
100
AcDbEntity
  8
0
  6
Continuous
 62
     7
370
    25
100
AcDbCircle
 10
10122.4837739118
 20
3309.7739577947
 30
0.0
 40
3.03585528234185
100
AcDbArc
 50
258.6194808922
 51
287.1713040456
  0
LINE
  5
1EB
330
1F
100
AcDbEntity
  8
0
  6
Continuous
 62
     7
370
    25
100
AcDbLine
 10
10082.8155614781
 20
3419.8777900001
 30
0.0
 11
10130.8368931766
 21
3419.8777900001
 31
0.0
  0
LINE
  5
1EC
330
1F
100
AcDbEntity
  8
0
  6
Continuous
 62
     7
370
    25
100
AcDbLine
 10
10092.7818657734
 20
3305.735654011
 30
0.0
 11
10120.8705888813
 21
3305.735654011
 31
0.0
  0
ELLIPSE
  5
1ED
330
1F
100
AcDbEntity
  8
0
  6
Continuous
 62
     7
370
    25
100
AcDbEllipse
 10
10092.7642498485
 20
3306.8812478808
 30
0.0
 11
-0.07387475461655413
 21
1.143779380659907
 31
0.0
210
0.0
220
0.0
230
1.0
 40
0.8724477544
 41
1.587419530669942
 42
3.085302274284712
  0
ELLIPSE
  5
1EE
330
1F
100
AcDbEntity
  8
0
  6
Continuous
 62
     7
370
    25
100
AcDbEllipse
 10
10120.8882048063
 20
3306.8812478808
 30
0.0
 11
0.07387475461837313
 21
1.143779380660362
 31
0.0
210
0.0
220
0.0
230
1.0
 40
0.8724477544
 41
3.197883032896696
 42
4.695765776511024
  0
LINE
  5
1EF
330
1F
100
AcDbEntity
  8
0
  6
Continuous
 62
     7
370
    25
100
AcDbLine
 10
10092.7818657734
 20
3305.735654011
 30
0.0
 11
10092.7818657734
 21
3304.5450474025
 31
0.0
  0
ELLIPSE
  5
1F0
330
1F
100
AcDbEntity
  8
0
  6
Continuous
 62
     7
370
    25
100
AcDbEllipse
 10
10092.7642498485
 20
3307.0752566569
 30
0.0
 11
-0.01123634691793995
 21
2.530245824690155
 31
0.0
210
0.0
220
0.0
230
1.0
 40
0.9879693848
 41
1.646261957232644
 42
3.144144700846891
  0
ELLIPSE
  5
1F1
330
1F
100
AcDbEntity
  8
0
  6
Continuous
 62
     7
370
    25
100
AcDbEllipse
 10
10120.8882048063
 20
3307.0752566569
 30
0.0
 11
0.01123634691793995
 21
2.53024582469061
 31
0.0
210
0.0
220
0.0
230
1.0
 40
0.9879693848
 41
3.139040606332705
 42
4.636923349947202
  0
LINE
  5
1F2
330
1F
100
AcDbEntity
  8
0
  6
Continuous
 62
     7
370
    25
100
AcDbLine
 10
10120.8705888813
 20
3305.735654011
 30
0.0
 11
10120.8705888813
 21
3304.5450474025
 31
0.0
  0
LINE
  5
1F3
330
1F
100
AcDbEntity
  8
0
  6
Continuous
 62
     7
370
    25
100
AcDbLine
 10
10120.8705888813
 20
3304.5450474025
 30
0.0
 11
10092.7818657734
 21
3304.5450474025
 31
0.0
  0
LINE
  5
1F4
330
1F
100
AcDbEntity
  8
0
  6
Continuous
 62
     7
370
    25
100
AcDbLine
 10
10092.7818657734
 20
3304.5450474025
 30
0.0
 11
10093.0828473691
 21
3300.7431746154
 31
0.0
  0
ELLIPSE
  5
1F5
330
1F
100
AcDbEntity
  8
0
  6
Continuous
 62
     7
370
    25
100
AcDbEllipse
 10
10093.0701604033
 20
3303.2111233334
 30
0.0
 11
2.492202432156774
 21
0.1972993592125931
 31
0.0
210
0.0
220
0.0
230
1.0
 40
0.9871237538
 41
3.141592653589735
 42
4.639475397203189
  0
LINE
  5
1F6
330
1F
100
AcDbEntity
  8
0
  6
Continuous
 62
     7
370
    25
100
AcDbLine
 10
10090.5779579711
 20
3303.0138239742
 30
0.0
 11
10090.272406486
 21
3306.8734216802
 31
0.0
  0
ELLIPSE
  5
1F7
330
1F
100
AcDbEntity
  8
0
  6
Continuous
 62
     7
370
    25
100
AcDbEllipse
 10
10120.5822942515
 20
3303.2111233334
 30
0.0
 11
2.492202432158592
 21
-0.1972993592125931
 31
0.0
210
0.0
220
0.0
230
1.0
 40
0.9871237538
 41
4.785302563566108
 42
6.283185307179586
  0
LINE
  5
1F8
330
1F
100
AcDbEntity
  8
0
  6
Continuous
 62
     7
370
    25
100
AcDbLine
 10
10120.5696072857
 20
3300.7431746154
 30
0.0
 11
10120.8705888813
 21
3304.5450474025
 31
0.0
  0
LINE
  5
1F9
330
1F
100
AcDbEntity
  8
0
  6
Continuous
 62
     7
370
    25
100
AcDbLine
 10
10123.3800481687
 20
3306.8734216802
 30
0.0
 11
10123.0744966837
 21
3303.0138239742
 31
0.0
  0
LINE
  5
1FA
330
1F
100
AcDbEntity
  8
0
  6
Continuous
 62
     7
370
    25
100
AcDbLine
 10
10093.0828473691
 20
3300.7431746154
 30
0.0
 11
10120.5696072857
 21
3300.7431746154
 31
0.0
  0
ARC
  5
1FB
330
1F
100
AcDbEntity
  8
0
  6
Continuous
 62
     7
370
    25
100
AcDbCircle
 10
10068.5893732167
 20
3398.7772577478
 30
0.0
 40
0.8298102659466271
100
AcDbArc
 50
251.5115963767
 51
284.6645953774
  0
LINE
  5
1FC
330
1F
100
AcDbEntity
  8
0
  6
Continuous
 62
     7
370
    25
100
AcDbLine
 10
10068.3262273274
 20
3397.9901980378
 30
0.0
 11
10068.3262273274
 21
3419.8777900001
 31
0.0
  0
ARC
  5
1FD
330
1F
100
AcDbEntity
  8
0
  6
Continuous
 62
     7
370
    25
100
AcDbCircle
 10
10145.0643702099
 20
3398.7386502802
 30
0.0
 40
0.7928633228759279
100
AcDbArc
 50
254.5389775319
 51
289.2848307141
  0
LINE
  5
1FE
330
1F
100
AcDbEntity
  8
0
  6
Continuous
 62
     7
370
    25
100
AcDbLine
 10
10145.3262273274
 20
3419.8777900001
 30
0.0
 11
10145.3262273274
 21
3397.9901980378
 31
0.0
  0
LWPOLYLINE
  5
1FF
330
1F
100
AcDbEntity
  8
0
  6
Continuous
 62
     7
370
    25
100
AcDbPolyline
 90
        3
 70
   128
 43
0.0
 10
10068.7999115379
 20
3397.9744731973
 10
10069.4936022028
 20
3397.9540549393
 10
10070.3262273274
 20
3397.9278388882
  0
ARC
  5
200
330
1F
100
AcDbEntity
  8
0
  6
Continuous
 62
     7
370
    25
100
AcDbCircle
 10
10076.3217850818
 20
3390.3168461614
 30
0.0
 40
7.676216264929573
100
AcDbArc
 50
82.481216313
 51
97.4518992878
  0
ARC
  5
201
330
1F
100
AcDbEntity
  8
0
  6
Continuous
 62
     7
370
    25
100
AcDbCircle
 10
10137.3306713248
 20
3390.3168285685
 30
0.0
 40
7.676233935742006
100
AcDbArc
 50
82.5480961773
 51
97.5187794679
  0
LWPOLYLINE
  5
202
330
1F
100
AcDbEntity
  8
0
  6
Continuous
 62
     7
370
    25
100
AcDbPolyline
 90
        3
 70
   128
 43
0.0
 10
10143.3262319768
 20
3397.9278390346
 10
10144.158852452
 20
3397.9540549393
 10
10144.8525431168
 20
3397.9744731973
  0
LINE
  5
203
330
1F
100
AcDbEntity
  8
0
  6
Continuous
 62
     7
370
    25
100
AcDbLine
 10
10144.8525431168
 20
3397.2073996991
 30
0.0
 11
10144.8525431168
 21
3397.9744761349
 31
0.0
  0
LINE
  5
204
330
1F
100
AcDbEntity
  8
0
  6
Continuous
 62
     7
370
    25
100
AcDbLine
 10
10068.7999115379
 20
3397.9744761349
 30
0.0
 11
10068.7999115379
 21
3397.2073996991
 31
0.0
  0
LINE
  5
205
330
1F
100
AcDbEntity
  8
0
  6
Continuous
 62
     7
370
    25
100
AcDbLine
 10
10145.3262273274
 20
3397.9902757683
 30
0.0
 11
10145.3262273274
 21
3397.1687625337
 31
0.0
  0
LINE
  5
206
330
1F
100
AcDbEntity
  8
0
  6
Continuous
 62
     7
370
    25
100
AcDbLine
 10
10068.3262273274
 20
3397.1687625337
 30
0.0
 11
10068.3262273274
 21
3397.9902757683
 31
0.0
  0
LINE
  5
207
330
1F
100
AcDbEntity
  8
0
  6
Continuous
 62
     7
370
    25
100
AcDbLine
 10
10133.3262273274
 20
3475.162263977
 30
0.0
 11
10133.3262273274
 21
3477.662263977
 31
0.0
  0
LINE
  5
208
330
1F
100
AcDbEntity
  8
0
  6
Continuous
 62
     7
370
    25
100
AcDbLine
 10
10133.3262273274
 20
3475.162263977
 30
0.0
 11
10125.0762273274
 21
3475.162263977
 31
0.0
  0
LINE
  5
209
330
1F
100
AcDbEntity
  8
0
  6
Continuous
 62
     7
370
    25
100
AcDbLine
 10
10133.3262273274
 20
3477.662263977
 30
0.0
 11
10125.0762273274
 21
3477.662263977
 31
0.0
  0
LINE
  5
20A
330
1F
100
AcDbEntity
  8
0
  6
Continuous
 62
     7
370
    25
100
AcDbLine
 10
10125.0762273274
 20
3477.662263977
 30
0.0
 11
10125.0762273274
 21
3475.162263977
 31
0.0
  0
LINE
  5
20B
330
1F
100
AcDbEntity
  8
0
  6
Continuous
 62
     7
370
    25
100
AcDbLine
 10
10088.5762273274
 20
3477.662263977
 30
0.0
 11
10088.5762273274
 21
3475.162263977
 31
0.0
  0
LINE
  5
20C
330
1F
100
AcDbEntity
  8
0
  6
Continuous
 62
     7
370
    25
100
AcDbLine
 10
10088.5762273274
 20
3475.162263977
 30
0.0
 11
10080.3262273274
 21
3475.162263977
 31
0.0
  0
LINE
  5
20D
330
1F
100
AcDbEntity
  8
0
  6
Continuous
 62
     7
370
    25
100
AcDbLine
 10
10080.3262273274
 20
3477.662263977
 30
0.0
 11
10080.3262273274
 21
3475.162263977
 31
0.0
  0
LINE
  5
20E
330
1F
100
AcDbEntity
  8
0
  6
Continuous
 62
     7
370
    25
100
AcDbLine
 10
10088.5762273274
 20
3477.662263977
 30
0.0
 11
10080.3262273274
 21
3477.662263977
 31
0.0
  0
LINE
  5
20F
330
1F
100
AcDbEntity
  8
0
  6
Continuous
 62
     7
370
    25
100
AcDbLine
 10
10138.3262273274
 20
3477.662263977
 30
0.0
 11
10138.3262273274
 21
3475.162263977
 31
0.0
  0
LINE
  5
210
330
1F
100
AcDbEntity
  8
0
  6
Continuous
 62
     7
370
    25
100
AcDbLine
 10
10138.3262273274
 20
3475.162263977
 30
0.0
 11
10133.3262273274
 21
3475.162263977
 31
0.0
  0
LINE
  5
211
330
1F
100
AcDbEntity
  8
0
  6
Continuous
 62
     7
370
    25
100
AcDbLine
 10
10133.3262273274
 20
3477.662263977
 30
0.0
 11
10138.3262273274
 21
3477.662263977
 31
0.0
  0
LINE
  5
212
330
1F
100
AcDbEntity
  8
0
  6
Continuous
 62
     7
370
    25
100
AcDbLine
 10
10080.3262273274
 20
3475.162263977
 30
0.0
 11
10075.3262273274
 21
3475.162263977
 31
0.0
  0
LINE
  5
213
330
1F
100
AcDbEntity
  8
0
  6
Continuous
 62
     7
370
    25
100
AcDbLine
 10
10075.3262273274
 20
3475.162263977
 30
0.0
 11
10075.3262273274
 21
3477.662263977
 31
0.0
  0
LINE
  5
214
330
1F
100
AcDbEntity
  8
0
  6
Continuous
 62
     7
370
    25
100
AcDbLine
 10
10075.3262273274
 20
3477.662263977
 30
0.0
 11
10080.3262273274
 21
3477.662263977
 31
0.0
  0
LINE
  5
215
330
1F
100
AcDbEntity
  8
0
  6
Continuous
 62
     7
370
    25
100
AcDbLine
 10
10129.9512273274
 20
3471.662263977
 30
0.0
 11
10129.9512273274
 21
3475.162263977
 31
0.0
  0
LINE
  5
216
330
1F
100
AcDbEntity
  8
0
  6
Continuous
 62
     7
370
    25
100
AcDbLine
 10
10124.8262273274
 20
3471.662263977
 30
0.0
 11
10129.9512273274
 21
3471.662263977
 31
0.0
  0
LINE
  5
217
330
1F
100
AcDbEntity
  8
0
  6
Continuous
 62
     7
370
    25
100
AcDbLine
 10
10083.7012273274
 20
3471.662263977
 30
0.0
 11
10088.8262273274
 21
3471.662263977
 31
0.0
  0
LINE
  5
218
330
1F
100
AcDbEntity
  8
0
  6
Continuous
 62
     7
370
    25
100
AcDbLine
 10
10083.7012273274
 20
3475.162263977
 30
0.0
 11
10083.7012273274
 21
3471.662263977
 31
0.0
  0
LINE
  5
219
330
1F
100
AcDbEntity
  8
0
  6
Continuous
 62
     7
370
    25
100
AcDbLine
 10
10088.5762273274
 20
3477.662263977
 30
0.0
 11
10125.0762273274
 21
3477.662263977
 31
0.0
  0
LINE
  5
21A
330
1F
100
AcDbEntity
  8
0
  6
Continuous
 62
     7
370
    25
100
AcDbLine
 10
10124.8262273274
 20
3470.912263977
 30
0.0
 11
10124.8262273274
 21
3471.662263977
 31
0.0
  0
LINE
  5
21B
330
1F
100
AcDbEntity
  8
0
  6
Continuous
 62
     7
370
    25
100
AcDbLine
 10
10088.8262273274
 20
3471.662263977
 30
0.0
 11
10088.8262273274
 21
3470.912263977
 31
0.0
  0
LINE
  5
21C
330
1F
100
AcDbEntity
  8
0
  6
Continuous
 62
     7
370
    25
100
AcDbLine
 10
10134.9512273274
 20
3475.162263977
 30
0.0
 11
10134.9512273274
 21
3471.662263977
 31
0.0
  0
LINE
  5
21D
330
1F
100
AcDbEntity
  8
0
  6
Continuous
 62
     7
370
    25
100
AcDbLine
 10
10134.9512273274
 20
3471.662263977
 30
0.0
 11
10129.9512273274
 21
3471.662263977
 31
0.0
  0
LINE
  5
21E
330
1F
100
AcDbEntity
  8
0
  6
Continuous
 62
     7
370
    25
100
AcDbLine
 10
10083.7012273274
 20
3471.662263977
 30
0.0
 11
10078.7012273274
 21
3471.662263977
 31
0.0
  0
LINE
  5
21F
330
1F
100
AcDbEntity
  8
0
  6
Continuous
 62
     7
370
    25
100
AcDbLine
 10
10078.7012273274
 20
3471.662263977
 30
0.0
 11
10078.7012273274
 21
3475.162263977
 31
0.0
  0
LINE
  5
220
330
1F
100
AcDbEntity
  8
0
  6
Continuous
 62
     7
370
    25
100
AcDbLine
 10
10145.3262273274
 20
3477.662263977
 30
0.0
 11
10145.3262273274
 21
3473.462263977
 31
0.0
  0
LINE
  5
221
330
1F
100
AcDbEntity
  8
0
  6
Continuous
 62
     7
370
    25
100
AcDbLine
 10
10145.3262273274
 20
3473.462263977
 30
0.0
 11
10140.3262273274
 21
3473.462263977
 31
0.0
  0
LINE
  5
222
330
1F
100
AcDbEntity
  8
0
  6
Continuous
 62
     7
370
    25
100
AcDbLine
 10
10140.3262273274
 20
3473.462263977
 30
0.0
 11
10140.3262273274
 21
3477.662263977
 31
0.0
  0
LINE
  5
223
330
1F
100
AcDbEntity
  8
0
  6
Continuous
 62
     7
370
    25
100
AcDbLine
 10
10140.3262273274
 20
3477.662263977
 30
0.0
 11
10145.3262273274
 21
3477.662263977
 31
0.0
  0
LINE
  5
224
330
1F
100
AcDbEntity
  8
0
  6
Continuous
 62
     7
370
    25
100
AcDbLine
 10
10137.6512273274
 20
3473.462263977
 30
0.0
 11
10137.6512273274
 21
3471.662263977
 31
0.0
  0
LINE
  5
225
330
1F
100
AcDbEntity
  8
0
  6
Continuous
 62
     7
370
    25
100
AcDbLine
 10
10136.8262273274
 20
3470.912263977
 30
0.0
 11
10136.8262273274
 21
3471.662263977
 31
0.0
  0
LINE
  5
226
330
1F
100
AcDbEntity
  8
0
  6
Continuous
 62
     7
370
    25
100
AcDbLine
 10
10134.9512273274
 20
3470.912263977
 30
0.0
 11
10134.9512273274
 21
3471.662263977
 31
0.0
  0
LINE
  5
227
330
1F
100
AcDbEntity
  8
0
  6
Continuous
 62
     7
370
    25
100
AcDbLine
 10
10140.3262273274
 20
3473.462263977
 30
0.0
 11
10137.6512273274
 21
3473.462263977
 31
0.0
  0
LINE
  5
228
330
1F
100
AcDbEntity
  8
0
  6
Continuous
 62
     7
370
    25
100
AcDbLine
 10
10136.8262273274
 20
3471.662263977
 30
0.0
 11
10137.6512273274
 21
3471.662263977
 31
0.0
  0
LINE
  5
229
330
1F
100
AcDbEntity
  8
0
  6
Continuous
 62
     7
370
    25
100
AcDbLine
 10
10138.3262273274
 20
3477.662263977
 30
0.0
 11
10140.3262273274
 21
3477.662263977
 31
0.0
  0
LINE
  5
22A
330
1F
100
AcDbEntity
  8
0
  6
Continuous
 62
     7
370
    25
100
AcDbLine
 10
10078.7012273274
 20
3470.912263977
 30
0.0
 11
10078.7012273274
 21
3471.662263977
 31
0.0
  0
LINE
  5
22B
330
1F
100
AcDbEntity
  8
0
  6
Continuous
 62
     7
370
    25
100
AcDbLine
 10
10076.8262273274
 20
3470.912263977
 30
0.0
 11
10076.8262273274
 21
3471.662263977
 31
0.0
  0
LINE
  5
22C
330
1F
100
AcDbEntity
  8
0
  6
Continuous
 62
     7
370
    25
100
AcDbLine
 10
10076.0012273274
 20
3473.462263977
 30
0.0
 11
10076.0012273274
 21
3471.662263977
 31
0.0
  0
LINE
  5
22D
330
1F
100
AcDbEntity
  8
0
  6
Continuous
 62
     7
370
    25
100
AcDbLine
 10
10076.0012273274
 20
3473.462263977
 30
0.0
 11
10073.3262273274
 21
3473.462263977
 31
0.0
  0
LINE
  5
22E
330
1F
100
AcDbEntity
  8
0
  6
Continuous
 62
     7
370
    25
100
AcDbLine
 10
10073.3262273274
 20
3477.662263977
 30
0.0
 11
10073.3262273274
 21
3473.462263977
 31
0.0
  0
LINE
  5
22F
330
1F
100
AcDbEntity
  8
0
  6
Continuous
 62
     7
370
    25
100
AcDbLine
 10
10076.0012273274
 20
3471.662263977
 30
0.0
 11
10076.8262273274
 21
3471.662263977
 31
0.0
  0
LINE
  5
230
330
1F
100
AcDbEntity
  8
0
  6
Continuous
 62
     7
370
    25
100
AcDbLine
 10
10073.3262273274
 20
3477.662263977
 30
0.0
 11
10075.3262273274
 21
3477.662263977
 31
0.0
  0
LINE
  5
231
330
1F
100
AcDbEntity
  8
0
  6
Continuous
 62
     7
370
    25
100
AcDbLine
 10
10073.3262273274
 20
3473.462263977
 30
0.0
 11
10068.3262273274
 21
3473.462263977
 31
0.0
  0
LINE
  5
232
330
1F
100
AcDbEntity
  8
0
  6
Continuous
 62
     7
370
    25
100
AcDbLine
 10
10068.3262273274
 20
3473.462263977
 30
0.0
 11
10068.3262273274
 21
3477.662263977
 31
0.0
  0
LINE
  5
233
330
1F
100
AcDbEntity
  8
0
  6
Continuous
 62
     7
370
    25
100
AcDbLine
 10
10068.3262273274
 20
3477.662263977
 30
0.0
 11
10073.3262273274
 21
3477.662263977
 31
0.0
  0
LINE
  5
234
330
1F
100
AcDbEntity
  8
0
  6
Continuous
 62
     7
370
    25
100
AcDbLine
 10
10076.0012273274
 20
3471.662263977
 30
0.0
 11
10073.3262273274
 21
3471.662263977
 31
0.0
  0
LINE
  5
235
330
1F
100
AcDbEntity
  8
0
  6
Continuous
 62
     7
370
    25
100
AcDbLine
 10
10140.3262273274
 20
3471.662263977
 30
0.0
 11
10137.6512273274
 21
3471.662263977
 31
0.0
  0
LINE
  5
236
330
1F
100
AcDbEntity
  8
0
  6
Continuous
 62
     7
370
    25
100
AcDbLine
 10
10145.3262273274
 20
3471.662263977
 30
0.0
 11
10145.3262273274
 21
3470.912263977
 31
0.0
  0
LINE
  5
237
330
1F
100
AcDbEntity
  8
0
  6
Continuous
 62
     7
370
    25
100
AcDbLine
 10
10140.3262273274
 20
3471.662263977
 30
0.0
 11
10145.3262273274
 21
3471.662263977
 31
0.0
  0
LINE
  5
238
330
1F
100
AcDbEntity
  8
0
  6
Continuous
 62
     7
370
    25
100
AcDbLine
 10
10068.3262273274
 20
3470.912263977
 30
0.0
 11
10068.3262273274
 21
3471.662263977
 31
0.0
  0
LINE
  5
239
330
1F
100
AcDbEntity
  8
0
  6
Continuous
 62
     7
370
    25
100
AcDbLine
 10
10068.3262273274
 20
3471.662263977
 30
0.0
 11
10073.3262273274
 21
3471.662263977
 31
0.0
  0
LINE
  5
23A
330
1F
100
AcDbEntity
  8
0
  6
Continuous
 62
     7
370
    25
100
AcDbLine
 10
10146.8262273274
 20
3420.912263977
 30
0.0
 11
10066.8262273274
 21
3420.912263977
 31
0.0
  0
LINE
  5
23B
330
1F
100
AcDbEntity
  8
0
  6
Continuous
 62
     7
370
    25
100
AcDbLine
 10
10066.8262273274
 20
3420.912263977
 30
0.0
 11
10066.8262273274
 21
3470.912263977
 31
0.0
  0
LINE
  5
23C
330
1F
100
AcDbEntity
  8
0
  6
Continuous
 62
     7
370
    25
100
AcDbLine
 10
10146.8262273274
 20
3470.912263977
 30
0.0
 11
10146.8262273274
 21
3420.912263977
 31
0.0
  0
LINE
  5
23D
330
1F
100
AcDbEntity
  8
0
  6
Continuous
 62
     7
370
    25
100
AcDbLine
 10
10066.8262273274
 20
3470.912263977
 30
0.0
 11
10146.8262273274
 21
3470.912263977
 31
0.0
  0
LINE
  5
23E
330
1F
100
AcDbEntity
  8
0
  6
Continuous
 62
     7
370
    25
100
AcDbLine
 10
10146.8262273274
 20
3390.912263977
 30
0.0
 11
10145.8262273274
 21
3390.912263977
 31
0.0
  0
LINE
  5
23F
330
1F
100
AcDbEntity
  8
0
  6
Continuous
 62
     7
370
    25
100
AcDbLine
 10
10145.8262273274
 20
3419.8777900001
 30
0.0
 11
10145.8262273274
 21
3390.912263977
 31
0.0
  0
LINE
  5
240
330
1F
100
AcDbEntity
  8
0
  6
Continuous
 62
     7
370
    25
100
AcDbLine
 10
10145.8262273274
 20
3419.8777900001
 30
0.0
 11
10067.8262273274
 21
3419.8777900001
 31
0.0
  0
LINE
  5
241
330
1F
100
AcDbEntity
  8
0
  6
Continuous
 62
     7
370
    25
100
AcDbLine
 10
10067.8262273274
 20
3390.912263977
 30
0.0
 11
10067.8262273274
 21
3419.8777900001
 31
0.0
  0
LINE
  5
242
330
1F
100
AcDbEntity
  8
0
  6
Continuous
 62
     7
370
    25
100
AcDbLine
 10
10067.8262273274
 20
3390.912263977
 30
0.0
 11
10066.8262273274
 21
3390.912263977
 31
0.0
  0
LINE
  5
243
330
1F
100
AcDbEntity
  8
0
  6
Continuous
 62
     7
370
    25
100
AcDbLine
 10
10066.8262273274
 20
3420.912263977
 30
0.0
 11
10066.8262273274
 21
3390.912263977
 31
0.0
  0
LINE
  5
244
330
1F
100
AcDbEntity
  8
0
  6
Continuous
 62
     7
370
    25
100
AcDbLine
 10
10146.8262273274
 20
3420.912263977
 30
0.0
 11
10146.8262273274
 21
3390.912263977
 31
0.0
  0
LWPOLYLINE
  5
245
330
1F
100
AcDbEntity
  8
0
  6
Continuous
 62
     8
370
    25
100
AcDbPolyline
 90
        6
 70
   128
 43
0.0
 10
10072.8262273274
 20
3226.2474031337
 10
10072.0144786544
 20
3226.3026050856
 10
10071.2906955457
 20
3226.4622289534
 10
10070.7333111317
 20
3226.7089770142
 10
10070.4027266625
 20
3227.0161102868
 10
10070.3262276807
 20
3227.2667550594
  0
LWPOLYLINE
  5
246
330
1F
100
AcDbEntity
  8
0
  6
Continuous
 62
     8
370
    25
100
AcDbPolyline
 90
        6
 70
   128
 43
0.0
 10
10075.3259187237
 20
3227.2822209998
 10
10075.2497279922
 20
3227.0161102868
 10
10074.919143523
 20
3226.7089770142
 10
10074.3617591091
 20
3226.4622289534
 10
10073.6379760004
 20
3226.3026050856
 10
10072.8262273274
 20
3226.2474031337
  0
LWPOLYLINE
  5
247
330
1F
100
AcDbEntity
  8
0
  6
Continuous
 62
     8
370
    25
100
AcDbPolyline
 90
        6
 70
   128
 43
0.0
 10
10140.8262606486
 20
3228.2850237229
 10
10141.6380093216
 20
3228.229821771
 10
10142.3617924303
 20
3228.0701979032
 10
10142.9191768442
 20
3227.8234498424
 10
10143.2497613134
 20
3227.5163165698
 10
10143.3262606426
 20
3227.2661431862
  0
LWPOLYLINE
  5
248
330
1F
100
AcDbEntity
  8
0
  6
Continuous
 62
     8
370
    25
100
AcDbPolyline
 90
        6
 70
   128
 43
0.0
 10
10138.3262614505
 20
3227.267029484
 10
10138.4027599837
 20
3227.5163165698
 10
10138.7333444529
 20
3227.8234498424
 10
10139.2907288668
 20
3228.0701979032
 10
10140.0145119755
 20
3228.229821771
 10
10140.8262606486
 20
3228.2850237229
  0
LINE
  5
249
330
1F
100
AcDbEntity
  8
0
  6
Continuous
 62
     8
370
    25
100
AcDbLine
 10
10120.5696072857
 20
3300.7431746154
 30
0.0
 11
10120.5696072857
 21
3300.6277900039
 31
0.0
  0
LINE
  5
24A
330
1F
100
AcDbEntity
  8
0
  6
Continuous
 62
     8
370
    25
100
AcDbLine
 10
10093.0828473691
 20
3300.7431746154
 30
0.0
 11
10093.0828473691
 21
3300.6277900038
 31
0.0
  0
LINE
  5
24B
330
1F
100
AcDbEntity
  8
0
  6
Continuous
 62
     8
370
    25
100
AcDbLine
 10
10068.7792570898
 20
3419.8777900001
 30
0.0
 11
10068.7994501583
 21
3397.9744790724
 31
0.0
  0
LWPOLYLINE
  5
24C
330
1F
100
AcDbEntity
  8
0
  6
Continuous
 62
     8
370
    25
100
AcDbPolyline
 90
        3
 70
   128
 43
0.0
 10
10144.8530044965
 20
3397.9744790724
 10
10144.864085262
 20
3416.1753865657
 10
10144.8716254804
 20
3419.8777900001
  0
LINE
  5
24D
330
1F
100
AcDbEntity
  8
0
  6
Continuous
 62
     8
370
    25
100
AcDbLine
 10
10073.3262273274
 20
3471.662263977
 30
0.0
 11
10073.3262273274
 21
3470.912263977
 31
0.0
  0
LINE
  5
24E
330
1F
100
AcDbEntity
  8
0
  6
Continuous
 62
     8
370
    25
100
AcDbLine
 10
10140.3262273274
 20
3470.912263977
 30
0.0
 11
10140.3262273274
 21
3471.662263977
 31
0.0
  0
ENDSEC
  0
SECTION
  2
OBJECTS
  0
DICTIONARY
  5
C
330
0
100
AcDbDictionary
281
     1
  3
ACAD_GROUP
350
D
  3
ACAD_LAYOUT
350
1A
  3
ACAD_MLINESTYLE
350
17
  3
ACAD_PLOTSETTINGS
350
19
  3
ACAD_PLOTSTYLENAME
350
E
  3
ACAD_SCALELIST
350
47
  3
DWGPROPS
350
24F
  0
DICTIONARY
  5
D
102
{ACAD_REACTORS
330
C
102
}
330
C
100
AcDbDictionary
281
     1
  0
DICTIONARY
  5
1A
102
{ACAD_REACTORS
330
C
102
}
330
C
100
AcDbDictionary
281
     1
  3
Layout1
350
1E
  3
Layout2
350
26
  3
Model
350
22
  0
DICTIONARY
  5
17
102
{ACAD_REACTORS
330
C
102
}
330
C
100
AcDbDictionary
281
     1
  3
Standard
350
18
  0
DICTIONARY
  5
19
102
{ACAD_REACTORS
330
C
102
}
330
C
100
AcDbDictionary
281
     1
  0
ACDBDICTIONARYWDFLT
  5
E
102
{ACAD_REACTORS
330
C
102
}
330
C
100
AcDbDictionary
281
     1
  3
Normal
350
F
100
AcDbDictionaryWithDefault
340
F
  0
DICTIONARY
  5
47
102
{ACAD_REACTORS
330
C
102
}
330
C
100
AcDbDictionary
281
     1
  3
A0
350
48
  3
A1
350
49
  3
A2
350
4A
  3
A3
350
4B
  3
A4
350
4C
  3
A5
350
4D
  3
A6
350
4E
  3
A7
350
4F
  3
A8
350
50
  3
A9
350
51
  3
B0
350
52
  3
B1
350
53
  3
B2
350
54
  3
B3
350
55
  3
B4
350
56
  3
B5
350
57
  3
B6
350
58
  3
B7
350
59
  3
B8
350
5A
  3
B9
350
5B
  3
C0
350
5C
  3
C1
350
5D
  3
C2
350
5E
  3
C3
350
5F
  3
C4
350
60
  3
C5
350
61
  3
C6
350
62
  3
C7
350
63
  3
C8
350
64
  3
C9
350
65
  3
D0
350
66
  3
D1
350
67
  3
D2
350
68
  0
XRECORD
  5
24F
102
{ACAD_REACTORS
330
C
102
}
330
C
100
AcDbXrecord
280
     1
  1
DWGPROPS COOKIE
  2

  3

  4

  6

  7

  8
radek.stransky
  9

300
=
301
=
302
=
303
=
304
=
305
=
306
=
307
=
308
=
309
=
 40
0.0
 41
2459199.532259803
 42
2459199.532259919
  1

 90
        0
  0
LAYOUT
  5
1E
102
{ACAD_REACTORS
330
1A
102
}
330
1A
100
AcDbPlotSettings
  1

  2
none_device
  4

  6

 40
0.0
 41
0.0
 42
0.0
 43
0.0
 44
0.0
 45
0.0
 46
0.0
 47
0.0
 48
0.0
 49
0.0
140
0.0
141
0.0
142
1.0
143
1.0
 70
   688
 72
     1
 73
     0
 74
     5
  7

 75
    16
147
1.0
148
0.0
149
0.0
100
AcDbLayout
  1
Layout1
 70
     1
 71
     1
 10
0.0
 20
0.0
 11
420.0
 21
297.0
 12
0.0
 22
0.0
 32
0.0
 14
1.0000000000E+20
 24
1.0000000000E+20
 34
1.0000000000E+20
 15
-1.0000000000E+20
 25
-1.0000000000E+20
 35
-1.0000000000E+20
146
0.0
 13
0.0
 23
0.0
 33
0.0
 16
1.0
 26
0.0
 36
0.0
 17
0.0
 27
1.0
 37
0.0
 76
     0
330
1B
  0
LAYOUT
  5
26
102
{ACAD_REACTORS
330
1A
102
}
330
1A
100
AcDbPlotSettings
  1

  2
none_device
  4

  6

 40
0.0
 41
0.0
 42
0.0
 43
0.0
 44
0.0
 45
0.0
 46
0.0
 47
0.0
 48
0.0
 49
0.0
140
0.0
141
0.0
142
1.0
143
1.0
 70
   688
 72
     1
 73
     0
 74
     5
  7

 75
    16
147
1.0
148
0.0
149
0.0
100
AcDbLayout
  1
Layout2
 70
     1
 71
     2
 10
0.0
 20
0.0
 11
0.0
 21
0.0
 12
0.0
 22
0.0
 32
0.0
 14
0.0
 24
0.0
 34
0.0
 15
0.0
 25
0.0
 35
0.0
146
0.0
 13
0.0
 23
0.0
 33
0.0
 16
1.0
 26
0.0
 36
0.0
 17
0.0
 27
1.0
 37
0.0
 76
     0
330
23
  0
LAYOUT
  5
22
102
{ACAD_REACTORS
330
1A
102
}
330
1A
100
AcDbPlotSettings
  1

  2
none_device
  4
Letter_(8.50_x_11.00_Inches)
  6

 40
6.35
 41
6.35
 42
6.35000508
 43
6.35000508
 44
215.9
 45
279.4
 46
0.0
 47
0.0
 48
0.0
 49
0.0
140
0.0
141
0.0
142
1.0
143
1.0
 70
  1712
 72
     1
 73
     0
 74
     0
  7

 75
     0
147
1.0
148
0.0
149
0.0
100
AcDbLayout
  1
Model
 70
     1
 71
     0
 10
0.0
 20
0.0
 11
20000.0
 21
10000.0
 12
0.0
 22
0.0
 32
0.0
 14
0.0
 24
0.0
 34
0.0
 15
20000.0
 25
10000.0
 35
0.0
146
0.0
 13
0.0
 23
0.0
 33
0.0
 16
1.0
 26
0.0
 36
0.0
 17
0.0
 27
1.0
 37
0.0
 76
     0
330
1F
331
29
  0
MLINESTYLE
  5
18
102
{ACAD_REACTORS
330
17
102
}
330
17
100
AcDbMlineStyle
  2
Standard
 70
     0
  3

 62
   256
 51
90.0
 52
90.0
 71
     2
 49
0.5
 62
   256
  6
BYLAYER
 49
-0.5
 62
   256
  6
BYLAYER
  0
ACDBPLACEHOLDER
  5
F
102
{ACAD_REACTORS
330
E
102
}
330
E
  0
SCALE
  5
48
102
{ACAD_REACTORS
330
47
102
}
330
47
100
AcDbScale
 70
     0
300
1:1
140
1.0
141
1.0
290
     1
  0
SCALE
  5
49
102
{ACAD_REACTORS
330
47
102
}
330
47
100
AcDbScale
 70
     0
300
1:2
140
1.0
141
2.0
290
     0
  0
SCALE
  5
4A
102
{ACAD_REACTORS
330
47
102
}
330
47
100
AcDbScale
 70
     0
300
1:4
140
1.0
141
4.0
290
     0
  0
SCALE
  5
4B
102
{ACAD_REACTORS
330
47
102
}
330
47
100
AcDbScale
 70
     0
300
1:5
140
1.0
141
5.0
290
     0
  0
SCALE
  5
4C
102
{ACAD_REACTORS
330
47
102
}
330
47
100
AcDbScale
 70
     0
300
1:8
140
1.0
141
8.0
290
     0
  0
SCALE
  5
4D
102
{ACAD_REACTORS
330
47
102
}
330
47
100
AcDbScale
 70
     0
300
1:10
140
1.0
141
10.0
290
     0
  0
SCALE
  5
4E
102
{ACAD_REACTORS
330
47
102
}
330
47
100
AcDbScale
 70
     0
300
1:16
140
1.0
141
16.0
290
     0
  0
SCALE
  5
4F
102
{ACAD_REACTORS
330
47
102
}
330
47
100
AcDbScale
 70
     0
300
1:20
140
1.0
141
20.0
290
     0
  0
SCALE
  5
50
102
{ACAD_REACTORS
330
47
102
}
330
47
100
AcDbScale
 70
     0
300
1:30
140
1.0
141
30.0
290
     0
  0
SCALE
  5
51
102
{ACAD_REACTORS
330
47
102
}
330
47
100
AcDbScale
 70
     0
300
1:40
140
1.0
141
40.0
290
     0
  0
SCALE
  5
52
102
{ACAD_REACTORS
330
47
102
}
330
47
100
AcDbScale
 70
     0
300
1:50
140
1.0
141
50.0
290
     0
  0
SCALE
  5
53
102
{ACAD_REACTORS
330
47
102
}
330
47
100
AcDbScale
 70
     0
300
1:100
140
1.0
141
100.0
290
     0
  0
SCALE
  5
54
102
{ACAD_REACTORS
330
47
102
}
330
47
100
AcDbScale
 70
     0
300
2:1
140
2.0
141
1.0
290
     0
  0
SCALE
  5
55
102
{ACAD_REACTORS
330
47
102
}
330
47
100
AcDbScale
 70
     0
300
4:1
140
4.0
141
1.0
290
     0
  0
SCALE
  5
56
102
{ACAD_REACTORS
330
47
102
}
330
47
100
AcDbScale
 70
     0
300
8:1
140
8.0
141
1.0
290
     0
  0
SCALE
  5
57
102
{ACAD_REACTORS
330
47
102
}
330
47
100
AcDbScale
 70
     0
300
10:1
140
10.0
141
1.0
290
     0
  0
SCALE
  5
58
102
{ACAD_REACTORS
330
47
102
}
330
47
100
AcDbScale
 70
     0
300
100:1
140
100.0
141
1.0
290
     0
  0
SCALE
  5
59
102
{ACAD_REACTORS
330
47
102
}
330
47
100
AcDbScale
 70
     0
300
1/128" = 1'-0"
140
0.0078125
141
12.0
290
     0
  0
SCALE
  5
5A
102
{ACAD_REACTORS
330
47
102
}
330
47
100
AcDbScale
 70
     0
300
1/64" = 1'-0"
140
0.015625
141
12.0
290
     0
  0
SCALE
  5
5B
102
{ACAD_REACTORS
330
47
102
}
330
47
100
AcDbScale
 70
     0
300
1/32" = 1'-0"
140
0.03125
141
12.0
290
     0
  0
SCALE
  5
5C
102
{ACAD_REACTORS
330
47
102
}
330
47
100
AcDbScale
 70
     0
300
1/16" = 1'-0"
140
0.0625
141
12.0
290
     0
  0
SCALE
  5
5D
102
{ACAD_REACTORS
330
47
102
}
330
47
100
AcDbScale
 70
     0
300
3/32" = 1'-0"
140
0.09375
141
12.0
290
     0
  0
SCALE
  5
5E
102
{ACAD_REACTORS
330
47
102
}
330
47
100
AcDbScale
 70
     0
300
1/8" = 1'-0"
140
0.125
141
12.0
290
     0
  0
SCALE
  5
5F
102
{ACAD_REACTORS
330
47
102
}
330
47
100
AcDbScale
 70
     0
300
3/16" = 1'-0"
140
0.1875
141
12.0
290
     0
  0
SCALE
  5
60
102
{ACAD_REACTORS
330
47
102
}
330
47
100
AcDbScale
 70
     0
300
1/4" = 1'-0"
140
0.25
141
12.0
290
     0
  0
SCALE
  5
61
102
{ACAD_REACTORS
330
47
102
}
330
47
100
AcDbScale
 70
     0
300
3/8" = 1'-0"
140
0.375
141
12.0
290
     0
  0
SCALE
  5
62
102
{ACAD_REACTORS
330
47
102
}
330
47
100
AcDbScale
 70
     0
300
1/2" = 1'-0"
140
0.5
141
12.0
290
     0
  0
SCALE
  5
63
102
{ACAD_REACTORS
330
47
102
}
330
47
100
AcDbScale
 70
     0
300
3/4" = 1'-0"
140
0.75
141
12.0
290
     0
  0
SCALE
  5
64
102
{ACAD_REACTORS
330
47
102
}
330
47
100
AcDbScale
 70
     0
300
1" = 1'-0"
140
1.0
141
12.0
290
     0
  0
SCALE
  5
65
102
{ACAD_REACTORS
330
47
102
}
330
47
100
AcDbScale
 70
     0
300
1-1/2" = 1'-0"
140
1.5
141
12.0
290
     0
  0
SCALE
  5
66
102
{ACAD_REACTORS
330
47
102
}
330
47
100
AcDbScale
 70
     0
300
3" = 1'-0"
140
3.0
141
12.0
290
     0
  0
SCALE
  5
67
102
{ACAD_REACTORS
330
47
102
}
330
47
100
AcDbScale
 70
     0
300
6" = 1'-0"
140
6.0
141
12.0
290
     0
  0
SCALE
  5
68
102
{ACAD_REACTORS
330
47
102
}
330
47
100
AcDbScale
 70
     0
300
1'-0" = 1'-0"
140
12.0
141
12.0
290
     0
  0
ENDSEC
  0
EOF
