  0
SECTION
  2
HEADER
  9
$ACADVER
  1
AC1015
  9
$ACADMAINTVER
 70
     6
  9
$DWGCODEPAGE
  3
ANSI_1250
  9
$INSBASE
 10
0.0
 20
0.0
 30
0.0
  9
$EXTMIN
 10
0.0
 20
0.0
 30
0.0
  9
$EXTMAX
 10
20000.0
 20
10000.0
 30
0.0
  9
$LIMMIN
 10
0.0
 20
0.0
  9
$LIMMAX
 10
20000.0
 20
10000.0
  9
$ORTHOMODE
 70
     0
  9
$REGENMODE
 70
     1
  9
$FILLMODE
 70
     1
  9
$QTEXTMODE
 70
     0
  9
$MIRRTEXT
 70
     1
  9
$LTSCALE
 40
1.0
  9
$ATTMODE
 70
     1
  9
$TEXTSIZE
 40
2.0
  9
$TRACEWID
 40
1.0
  9
$TEXTSTYLE
  7
Standard
  9
$CLAYER
  8
0
  9
$CELTYPE
  6
ByLayer
  9
$CECOLOR
 62
   256
  9
$CELTSCALE
 40
1.0
  9
$DISPSILH
 70
     0
  9
$DIMSCALE
 40
1.0
  9
$DIMASZ
 40
2.0
  9
$DIMEXO
 40
1.0
  9
$DIMDLI
 40
3.75
  9
$DIMRND
 40
0.0
  9
$DIMDLE
 40
0.0
  9
$DIMEXE
 40
1.0
  9
$DIMTP
 40
0.0
  9
$DIMTM
 40
0.0
  9
$DIMTXT
 40
2.0
  9
$DIMCEN
 40
2.5
  9
$DIMTSZ
 40
0.0
  9
$DIMTOL
 70
     0
  9
$DIMLIM
 70
     0
  9
$DIMTIH
 70
     1
  9
$DIMTOH
 70
     1
  9
$DIMSE1
 70
     0
  9
$DIMSE2
 70
     0
  9
$DIMTAD
 70
     1
  9
$DIMZIN
 70
     0
  9
$DIMBLK
  1

  9
$DIMASO
 70
     1
  9
$DIMSHO
 70
     1
  9
$DIMPOST
  1

  9
$DIMAPOST
  1

  9
$DIMALT
 70
     0
  9
$DIMALTD
 70
     3
  9
$DIMALTF
 40
0.0393700787
  9
$DIMLFAC
 40
1.0
  9
$DIMTOFL
 70
     1
  9
$DIMTVP
 40
0.0
  9
$DIMTIX
 70
     0
  9
$DIMSOXD
 70
     0
  9
$DIMSAH
 70
     0
  9
$DIMBLK1
  1

  9
$DIMBLK2
  1

  9
$DIMSTYLE
  2
ISO-25
  9
$DIMCLRD
 70
     0
  9
$DIMCLRE
 70
     0
  9
$DIMCLRT
 70
     0
  9
$DIMTFAC
 40
1.0
  9
$DIMGAP
 40
1.524
  9
$DIMJUST
 70
     0
  9
$DIMSD1
 70
     0
  9
$DIMSD2
 70
     0
  9
$DIMTOLJ
 70
     0
  9
$DIMTZIN
 70
     0
  9
$DIMALTZ
 70
     0
  9
$DIMALTTZ
 70
     0
  9
$DIMUPT
 70
     0
  9
$DIMDEC
 70
     2
  9
$DIMTDEC
 70
     0
  9
$DIMALTU
 70
     2
  9
$DIMALTTD
 70
     3
  9
$DIMTXSTY
  7
Standard
  9
$DIMAUNIT
 70
     0
  9
$DIMADEC
 70
     2
  9
$DIMALTRND
 40
0.0
  9
$DIMAZIN
 70
     0
  9
$DIMDSEP
 70
    44
  9
$DIMATFIT
 70
     3
  9
$DIMFRAC
 70
     0
  9
$DIMLDRBLK
  1

  9
$DIMLUNIT
 70
     2
  9
$DIMLWD
 70
    -2
  9
$DIMLWE
 70
    -2
  9
$DIMTMOVE
 70
     0
  9
$LUNITS
 70
     2
  9
$LUPREC
 70
     3
  9
$SKETCHINC
 40
1.0
  9
$FILLETRAD
 40
10.0
  9
$AUNITS
 70
     0
  9
$AUPREC
 70
     2
  9
$MENU
  1
.
  9
$ELEVATION
 40
0.0
  9
$PELEVATION
 40
0.0
  9
$THICKNESS
 40
0.0
  9
$LIMCHECK
 70
     0
  9
$CHAMFERA
 40
0.0
  9
$CHAMFERB
 40
0.0
  9
$CHAMFERC
 40
0.0
  9
$CHAMFERD
 40
0.0
  9
$SKPOLY
 70
     0
  9
$TDCREATE
 40
2459293.325194502
  9
$TDUCREATE
 40
2459293.283527836
  9
$TDUPDATE
 40
2459293.325194734
  9
$TDUUPDATE
 40
2459293.283528067
  9
$TDINDWG
 40
0.0000000116
  9
$TDUSRTIMER
 40
0.0000000116
  9
$USRTIMER
 70
     1
  9
$ANGBASE
 50
0.0
  9
$ANGDIR
 70
     0
  9
$PDMODE
 70
     0
  9
$PDSIZE
 40
-1.0
  9
$PLINEWID
 40
0.0
  9
$SPLFRAME
 70
     0
  9
$SPLINETYPE
 70
     6
  9
$SPLINESEGS
 70
     8
  9
$HANDSEED
  5
1A3
  9
$SURFTAB1
 70
     6
  9
$SURFTAB2
 70
     6
  9
$SURFTYPE
 70
     6
  9
$SURFU
 70
     6
  9
$SURFV
 70
     6
  9
$UCSBASE
  2

  9
$UCSNAME
  2

  9
$UCSORG
 10
0.0
 20
0.0
 30
0.0
  9
$UCSXDIR
 10
1.0
 20
0.0
 30
0.0
  9
$UCSYDIR
 10
0.0
 20
1.0
 30
0.0
  9
$UCSORTHOREF
  2

  9
$UCSORTHOVIEW
 70
     0
  9
$UCSORGTOP
 10
0.0
 20
0.0
 30
0.0
  9
$UCSORGBOTTOM
 10
0.0
 20
0.0
 30
0.0
  9
$UCSORGLEFT
 10
0.0
 20
0.0
 30
0.0
  9
$UCSORGRIGHT
 10
0.0
 20
0.0
 30
0.0
  9
$UCSORGFRONT
 10
0.0
 20
0.0
 30
0.0
  9
$UCSORGBACK
 10
0.0
 20
0.0
 30
0.0
  9
$PUCSBASE
  2

  9
$PUCSNAME
  2

  9
$PUCSORG
 10
0.0
 20
0.0
 30
0.0
  9
$PUCSXDIR
 10
1.0
 20
0.0
 30
0.0
  9
$PUCSYDIR
 10
0.0
 20
1.0
 30
0.0
  9
$PUCSORTHOREF
  2

  9
$PUCSORTHOVIEW
 70
     0
  9
$PUCSORGTOP
 10
0.0
 20
0.0
 30
0.0
  9
$PUCSORGBOTTOM
 10
0.0
 20
0.0
 30
0.0
  9
$PUCSORGLEFT
 10
0.0
 20
0.0
 30
0.0
  9
$PUCSORGRIGHT
 10
0.0
 20
0.0
 30
0.0
  9
$PUCSORGFRONT
 10
0.0
 20
0.0
 30
0.0
  9
$PUCSORGBACK
 10
0.0
 20
0.0
 30
0.0
  9
$USERI1
 70
     0
  9
$USERI2
 70
     0
  9
$USERI3
 70
     0
  9
$USERI4
 70
     0
  9
$USERI5
 70
     0
  9
$USERR1
 40
0.0
  9
$USERR2
 40
0.0
  9
$USERR3
 40
0.0
  9
$USERR4
 40
0.0
  9
$USERR5
 40
0.0
  9
$WORLDVIEW
 70
     1
  9
$SHADEDGE
 70
     3
  9
$SHADEDIF
 70
    70
  9
$TILEMODE
 70
     1
  9
$MAXACTVP
 70
    64
  9
$PINSBASE
 10
0.0
 20
0.0
 30
0.0
  9
$PLIMCHECK
 70
     0
  9
$PEXTMIN
 10
1.0000000000E+20
 20
1.0000000000E+20
 30
1.0000000000E+20
  9
$PEXTMAX
 10
-1.0000000000E+20
 20
-1.0000000000E+20
 30
-1.0000000000E+20
  9
$PLIMMIN
 10
0.0
 20
0.0
  9
$PLIMMAX
 10
420.0
 20
297.0
  9
$UNITMODE
 70
     0
  9
$VISRETAIN
 70
     1
  9
$PLINEGEN
 70
     0
  9
$PSLTSCALE
 70
     1
  9
$TREEDEPTH
 70
  3020
  9
$CMLSTYLE
  2
Standard
  9
$CMLJUST
 70
     0
  9
$CMLSCALE
 40
20.0
  9
$PROXYGRAPHICS
 70
     1
  9
$MEASUREMENT
 70
     1
  9
$CELWEIGHT
370
    -1
  9
$ENDCAPS
280
     0
  9
$JOINSTYLE
280
     0
  9
$LWDISPLAY
290
     1
  9
$INSUNITS
 70
     4
  9
$HYPERLINKBASE
  1

  9
$STYLESHEET
  1

  9
$XEDIT
290
     1
  9
$CEPSNTYPE
380
     0
  9
$PSTYLEMODE
290
     1
  9
$FINGERPRINTGUID
  2
{72931faa-3cf6-413e-b52d-b0a1fbe4841c}
  9
$VERSIONGUID
  2
{FAEB1C32-E019-11D5-929B-00C0DF256EC4}
  9
$EXTNAMES
290
     1
  9
$PSVPSCALE
 40
0.0
  9
$OLESTARTUP
290
     0
  0
ENDSEC
  0
SECTION
  2
CLASSES
  0
CLASS
  1
ACDBDICTIONARYWDFLT
  2
AcDbDictionaryWithDefault
  3
ObjectDBX Classes
 90
        0
280
     0
281
     0
  0
CLASS
  1
VISUALSTYLE
  2
AcDbVisualStyle
  3
ObjectDBX Classes
 90
     4095
280
     0
281
     0
  0
CLASS
  1
MATERIAL
  2
AcDbMaterial
  3
ObjectDBX Classes
 90
     1153
280
     0
281
     0
  0
CLASS
  1
SCALE
  2
AcDbScale
  3
ObjectDBX Classes
 90
     1153
280
     0
281
     0
  0
CLASS
  1
TABLESTYLE
  2
AcDbTableStyle
  3
ObjectDBX Classes
 90
     4095
280
     0
281
     0
  0
CLASS
  1
MLEADERSTYLE
  2
AcDbMLeaderStyle
  3
ACDB_MLEADERSTYLE_CLASS
 90
     4095
280
     0
281
     0
  0
CLASS
  1
SUN
  2
AcDbSun
  3
SCENEOE
 90
     1153
280
     0
281
     0
  0
CLASS
  1
ACDBPLACEHOLDER
  2
AcDbPlaceHolder
  3
ObjectDBX Classes
 90
        0
280
     0
281
     0
  0
CLASS
  1
LAYOUT
  2
AcDbLayout
  3
ObjectDBX Classes
 90
        0
280
     0
281
     0
  0
ENDSEC
  0
SECTION
  2
TABLES
  0
TABLE
  2
VPORT
  5
8
330
0
100
AcDbSymbolTable
 70
     1
  0
VPORT
  5
29
330
8
100
AcDbSymbolTableRecord
100
AcDbViewportTableRecord
  2
*Active
 70
     0
 10
0.0
 20
0.0
 11
1.0
 21
1.0
 12
10000.0
 22
5000.0
 13
0.0
 23
0.0
 14
10.0
 24
10.0
 15
10.0
 25
10.0
 16
0.0
 26
0.0
 36
1.0
 17
0.0
 27
0.0
 37
0.0
 40
10000.0
 41
2.0
 42
50.0
 43
0.0
 44
0.0
 50
0.0
 51
0.0
 71
     0
 72
  2000
 73
     1
 74
     3
 75
     0
 76
     0
 77
     0
 78
     0
281
     0
 65
     1
110
0.0
120
0.0
130
0.0
111
1.0
121
0.0
131
0.0
112
0.0
122
1.0
132
0.0
 79
     0
146
0.0
  0
ENDTAB
  0
TABLE
  2
LTYPE
  5
5
330
0
100
AcDbSymbolTable
 70
     6
  0
LTYPE
  5
14
330
5
100
AcDbSymbolTableRecord
100
AcDbLinetypeTableRecord
  2
ByBlock
 70
     0
  3

 72
    65
 73
     0
 40
0.0
  0
LTYPE
  5
15
330
5
100
AcDbSymbolTableRecord
100
AcDbLinetypeTableRecord
  2
ByLayer
 70
     0
  3

 72
    65
 73
     0
 40
0.0
  0
LTYPE
  5
16
330
5
100
AcDbSymbolTableRecord
100
AcDbLinetypeTableRecord
  2
Continuous
 70
     0
  3
Solid line
 72
    65
 73
     0
 40
0.0
  0
LTYPE
  5
6E
330
5
100
AcDbSymbolTableRecord
100
AcDbLinetypeTableRecord
  2
HIDDEN
 70
     0
  3
Hidden __ __ __ __ __ __ __ __ __ __ __ __ __ __
 72
    65
 73
     2
 40
1.905
 49
1.27
 74
     0
 49
-0.635
 74
     0
  0
LTYPE
  5
6F
330
5
100
AcDbSymbolTableRecord
100
AcDbLinetypeTableRecord
  2
PHANTOM
 70
     0
  3
Phantom ______  __  __  ______  __  __  ______
 72
    65
 73
     6
 40
12.7
 49
6.35
 74
     0
 49
-1.27
 74
     0
 49
1.27
 74
     0
 49
-1.27
 74
     0
 49
1.27
 74
     0
 49
-1.27
 74
     0
  0
LTYPE
  5
70
330
5
100
AcDbSymbolTableRecord
100
AcDbLinetypeTableRecord
  2
CENTER
 70
     0
  3
Center ____ _ ____ _ ____ _ ____ _ ____ _ ____
 72
    65
 73
     4
 40
10.16
 49
6.35
 74
     0
 49
-1.27
 74
     0
 49
1.27
 74
     0
 49
-1.27
 74
     0
  0
LTYPE
  5
71
330
5
100
AcDbSymbolTableRecord
100
AcDbLinetypeTableRecord
  2
CENTERX2
 70
     0
  3
Center (2x) ________  __  ________  __  _____
 72
    65
 73
     4
 40
20.32
 49
12.7
 74
     0
 49
-2.54
 74
     0
 49
2.54
 74
     0
 49
-2.54
 74
     0
  0
LTYPE
  5
72
330
5
100
AcDbSymbolTableRecord
100
AcDbLinetypeTableRecord
  2
DOT2
 70
     0
  3
Dot (.5x) ........................................
 72
    65
 73
     2
 40
0.635
 49
0.0
 74
     0
 49
-0.635
 74
     0
  0
ENDTAB
  0
TABLE
  2
LAYER
  5
2
330
0
100
AcDbSymbolTable
 70
    13
  0
LAYER
  5
10
330
2
100
AcDbSymbolTableRecord
100
AcDbLayerTableRecord
  2
0
 70
     0
 62
     7
  6
Continuous
370
    -3
390
F
  0
LAYER
  5
73
330
2
100
AcDbSymbolTableRecord
100
AcDbLayerTableRecord
  2
FORMAT
 70
     0
 62
     7
  6
Continuous
370
    -3
390
F
  0
LAYER
  5
74
330
2
100
AcDbSymbolTableRecord
100
AcDbLayerTableRecord
  2
OSA
 70
     0
 62
     7
  6
CENTER
370
    -3
390
F
  0
LAYER
  5
75
330
2
100
AcDbSymbolTableRecord
100
AcDbLayerTableRecord
  2
0_35
 70
     0
 62
     7
  6
Continuous
370
    35
390
F
  0
LAYER
  5
76
330
2
100
AcDbSymbolTableRecord
100
AcDbLayerTableRecord
  2
0_5
 70
     0
 62
     7
  6
Continuous
370
    50
390
F
  0
LAYER
  5
77
330
2
100
AcDbSymbolTableRecord
100
AcDbLayerTableRecord
  2
0_25
 70
     0
 62
     7
  6
Continuous
370
    25
390
F
  0
LAYER
  5
78
330
2
100
AcDbSymbolTableRecord
100
AcDbLayerTableRecord
  2
0_18
 70
     0
 62
     7
  6
Continuous
370
    -3
390
F
  0
LAYER
  5
79
330
2
100
AcDbSymbolTableRecord
100
AcDbLayerTableRecord
  2
SLD-0
 70
     0
 62
   179
  6
Continuous
370
    -3
390
F
  0
LAYER
  5
7A
330
2
100
AcDbSymbolTableRecord
100
AcDbLayerTableRecord
  2
KOTY
 70
     0
 62
     7
  6
Continuous
370
    -3
390
F
  0
LAYER
  5
7B
330
2
100
AcDbSymbolTableRecord
100
AcDbLayerTableRecord
  2
SILNA
 70
     0
 62
   179
  6
Continuous
370
    -3
390
F
  0
LAYER
  5
7C
330
2
100
AcDbSymbolTableRecord
100
AcDbLayerTableRecord
  2
0_18_1
 70
     0
 62
   179
  6
Continuous
370
    -3
390
F
  0
LAYER
  5
7D
330
2
100
AcDbSymbolTableRecord
100
AcDbLayerTableRecord
  2
0_35_1
 70
     0
 62
   179
  6
Continuous
370
    35
390
F
  0
LAYER
  5
7E
330
2
100
AcDbSymbolTableRecord
100
AcDbLayerTableRecord
  2
0_5_1
 70
     0
 62
   179
  6
Continuous
370
    50
390
F
  0
ENDTAB
  0
TABLE
  2
STYLE
  5
3
330
0
100
AcDbSymbolTable
 70
     1
  0
STYLE
  5
11
330
3
100
AcDbSymbolTableRecord
100
AcDbTextStyleTableRecord
  2
Standard
 70
     0
 40
0.0
 41
1.0
 50
0.0
 71
     0
 42
2.0
  3
txt
  4

  0
ENDTAB
  0
TABLE
  2
VIEW
  5
6
330
0
100
AcDbSymbolTable
 70
     0
  0
ENDTAB
  0
TABLE
  2
UCS
  5
7
330
0
100
AcDbSymbolTable
 70
     0
  0
ENDTAB
  0
TABLE
  2
APPID
  5
9
330
0
100
AcDbSymbolTable
 70
     1
  0
APPID
  5
12
330
9
100
AcDbSymbolTableRecord
100
AcDbRegAppTableRecord
  2
ACAD
 70
     0
  0
ENDTAB
  0
TABLE
  2
DIMSTYLE
  5
A
330
0
100
AcDbSymbolTable
 70
     1
100
AcDbDimStyleTable
  0
DIMSTYLE
105
27
330
A
100
AcDbSymbolTableRecord
100
AcDbDimStyleTableRecord
  2
ISO-25
 70
     0
 41
2.5
 42
0.625
 43
3.75
 44
1.25
 73
     0
 74
     0
 77
     1
 78
     8
140
2.5
141
2.5
143
0.0393700787
147
0.625
171
     3
172
     1
178
     0
271
     2
272
     2
274
     3
278
    44
283
     0
284
     8
340
11
  0
ENDTAB
  0
TABLE
  2
BLOCK_RECORD
  5
1
330
0
100
AcDbSymbolTable
 70
     1
  0
BLOCK_RECORD
  5
1F
330
1
100
AcDbSymbolTableRecord
100
AcDbBlockTableRecord
  2
*Model_Space
340
22
  0
BLOCK_RECORD
  5
1B
330
1
100
AcDbSymbolTableRecord
100
AcDbBlockTableRecord
  2
*Paper_Space
340
1E
  0
BLOCK_RECORD
  5
23
330
1
100
AcDbSymbolTableRecord
100
AcDbBlockTableRecord
  2
*Paper_Space0
340
26
  0
ENDTAB
  0
ENDSEC
  0
SECTION
  2
BLOCKS
  0
BLOCK
  5
20
330
1F
100
AcDbEntity
  8
0
100
AcDbBlockBegin
  2
*Model_Space
 70
     0
 10
0.0
 20
0.0
 30
0.0
  3
*Model_Space
  1

  0
ENDBLK
  5
21
330
1F
100
AcDbEntity
  8
0
100
AcDbBlockEnd
  0
BLOCK
  5
1C
330
1B
100
AcDbEntity
 67
     1
  8
0
100
AcDbBlockBegin
  2
*Paper_Space
 70
     0
 10
0.0
 20
0.0
 30
0.0
  3
*Paper_Space
  1

  0
ENDBLK
  5
1D
330
1B
100
AcDbEntity
 67
     1
  8
0
100
AcDbBlockEnd
  0
BLOCK
  5
24
330
23
100
AcDbEntity
  8
0
100
AcDbBlockBegin
  2
*Paper_Space0
 70
     0
 10
0.0
 20
0.0
 30
0.0
  3
*Paper_Space0
  1

  0
ENDBLK
  5
25
330
23
100
AcDbEntity
  8
0
100
AcDbBlockEnd
  0
ENDSEC
  0
SECTION
  2
ENTITIES
  0
LINE
  5
7F
330
1F
100
AcDbEntity
  8
0
  6
Continuous
 62
     7
370
    25
100
AcDbLine
 10
6262.0187553361
 20
5247.1115893736
 30
0.0
 11
6262.0187553361
 21
5243.0712328815
 31
0.0
  0
LINE
  5
80
330
1F
100
AcDbEntity
  8
0
  6
Continuous
 62
     7
370
    25
100
AcDbLine
 10
6286.0187553361
 20
5243.0712328815
 30
0.0
 11
6286.0187553361
 21
5247.1115893736
 31
0.0
  0
LINE
  5
81
330
1F
100
AcDbEntity
  8
0
  6
Continuous
 62
     7
370
    25
100
AcDbLine
 10
6264.5408652755
 20
5237.5671650679
 30
0.0
 11
6265.3306894473
 21
5237.2689611376
 31
0.0
  0
LINE
  5
82
330
1F
100
AcDbEntity
  8
0
  6
Continuous
 62
     7
370
    25
100
AcDbLine
 10
6282.7068212249
 20
5237.2689611376
 30
0.0
 11
6283.4966453967
 21
5237.5671650679
 31
0.0
  0
LINE
  5
83
330
1F
100
AcDbEntity
  8
0
  6
Continuous
 62
     7
370
    25
100
AcDbLine
 10
6213.2982553361
 20
5131.9494545927
 30
0.0
 11
6213.2982553361
 21
5131.9491644813
 31
0.0
  0
LINE
  5
84
330
1F
100
AcDbEntity
  8
0
  6
Continuous
 62
     7
370
    25
100
AcDbLine
 10
6239.7392553361
 20
5131.9491644813
 30
0.0
 11
6239.7392553361
 21
5131.9494545927
 31
0.0
  0
ARC
  5
85
330
1F
100
AcDbEntity
  8
0
  6
Continuous
 62
     7
370
    25
100
AcDbCircle
 10
6213.2687553361
 20
5130.4494545927
 30
0.0
 40
1.499999999999704
100
AcDbArc
 50
271.1268896477
 51
88.8731103523
  0
ARC
  5
86
330
1F
100
AcDbEntity
  8
0
  6
Continuous
 62
     7
370
    25
100
AcDbCircle
 10
6239.7687553361
 20
5130.4494545927
 30
0.0
 40
1.499999999999704
100
AcDbArc
 50
91.1268896477
 51
268.8731103523
  0
LINE
  5
87
330
1F
100
AcDbEntity
  8
0
  6
Continuous
 62
     7
370
    25
100
AcDbLine
 10
6213.2982553361
 20
5128.9497447041
 30
0.0
 11
6213.2982553361
 21
5123.9494545927
 31
0.0
  0
LINE
  5
88
330
1F
100
AcDbEntity
  8
0
  6
Continuous
 62
     7
370
    25
100
AcDbLine
 10
6239.7392553361
 20
5123.9494545927
 30
0.0
 11
6239.7392553361
 21
5128.9497447041
 31
0.0
  0
LINE
  5
89
330
1F
100
AcDbEntity
  8
0
  6
Continuous
 62
     7
370
    25
100
AcDbLine
 10
6213.2982553361
 20
5123.9494545927
 30
0.0
 11
6214.2982553361
 21
5122.9494545927
 31
0.0
  0
LINE
  5
8A
330
1F
100
AcDbEntity
  8
0
  6
Continuous
 62
     7
370
    25
100
AcDbLine
 10
6238.7392553361
 20
5122.9494545927
 30
0.0
 11
6239.7392553361
 21
5123.9494545927
 31
0.0
  0
LINE
  5
8B
330
1F
100
AcDbEntity
  8
0
  6
Continuous
 62
     7
370
    25
100
AcDbLine
 10
6240.2687553361
 20
5131.9494545927
 30
0.0
 11
6241.2687553361
 21
5132.5268048619
 31
0.0
  0
LINE
  5
8C
330
1F
100
AcDbEntity
  8
0
  6
Continuous
 62
     7
370
    25
100
AcDbLine
 10
6211.7687553361
 20
5132.5268048619
 30
0.0
 11
6212.7687553361
 21
5131.9494545927
 31
0.0
  0
LINE
  5
8D
330
1F
100
AcDbEntity
  8
0
  6
Continuous
 62
     7
370
    25
100
AcDbLine
 10
6241.2687553361
 20
5132.5268048619
 30
0.0
 11
6241.2687553361
 21
5134.4494545927
 31
0.0
  0
LINE
  5
8E
330
1F
100
AcDbEntity
  8
0
  6
Continuous
 62
     7
370
    25
100
AcDbLine
 10
6211.7687553361
 20
5134.4494545927
 30
0.0
 11
6211.7687553361
 21
5132.5268048619
 31
0.0
  0
LINE
  5
8F
330
1F
100
AcDbEntity
  8
0
  6
Continuous
 62
     7
370
    25
100
AcDbLine
 10
6199.0187553361
 20
5294.4494545927
 30
0.0
 11
6199.0187553361
 21
5144.4494545927
 31
0.0
  0
LINE
  5
90
330
1F
100
AcDbEntity
  8
0
  6
Continuous
 62
     7
370
    25
100
AcDbLine
 10
6349.0187553361
 20
5294.4494545927
 30
0.0
 11
6199.0187553361
 21
5294.4494545927
 31
0.0
  0
LINE
  5
91
330
1F
100
AcDbEntity
  8
0
  6
Continuous
 62
     7
370
    25
100
AcDbLine
 10
6349.0187553361
 20
5144.4494545927
 30
0.0
 11
6349.0187553361
 21
5294.4494545927
 31
0.0
  0
LINE
  5
92
330
1F
100
AcDbEntity
  8
0
  6
Continuous
 62
     7
370
    25
100
AcDbLine
 10
6199.0187553361
 20
5144.4494545927
 30
0.0
 11
6349.0187553361
 21
5144.4494545927
 31
0.0
  0
LINE
  5
93
330
1F
100
AcDbEntity
  8
0
  6
Continuous
 62
     7
370
    25
100
AcDbLine
 10
6289.7187553361
 20
5183.0494545927
 30
0.0
 11
6258.3187553361
 21
5183.0494545927
 31
0.0
  0
ARC
  5
94
330
1F
100
AcDbEntity
  8
0
  6
Continuous
 62
     7
370
    25
100
AcDbCircle
 10
6258.3187553361
 20
5181.8994545927
 30
0.0
 40
1.150000000000546
100
AcDbArc
 50
90.0
 51
180.0
  0
LINE
  5
95
330
1F
100
AcDbEntity
  8
0
  6
Continuous
 62
     7
370
    25
100
AcDbLine
 10
6257.1687553361
 20
5181.8994545927
 30
0.0
 11
6257.1687553361
 21
5168.9994545927
 31
0.0
  0
ARC
  5
96
330
1F
100
AcDbEntity
  8
0
  6
Continuous
 62
     7
370
    25
100
AcDbCircle
 10
6258.3187553361
 20
5168.9994545927
 30
0.0
 40
1.150000000000546
100
AcDbArc
 50
180.0
 51
270.0
  0
LINE
  5
97
330
1F
100
AcDbEntity
  8
0
  6
Continuous
 62
     7
370
    25
100
AcDbLine
 10
6258.3187553361
 20
5167.8494545927
 30
0.0
 11
6289.7187553361
 21
5167.8494545927
 31
0.0
  0
ARC
  5
98
330
1F
100
AcDbEntity
  8
0
  6
Continuous
 62
     7
370
    25
100
AcDbCircle
 10
6289.7187553361
 20
5168.9994545927
 30
0.0
 40
1.150000000000546
100
AcDbArc
 50
270.0
 51
0.0
  0
LINE
  5
99
330
1F
100
AcDbEntity
  8
0
  6
Continuous
 62
     7
370
    25
100
AcDbLine
 10
6290.8687553361
 20
5168.9994545927
 30
0.0
 11
6290.8687553361
 21
5181.8994545927
 31
0.0
  0
ARC
  5
9A
330
1F
100
AcDbEntity
  8
0
  6
Continuous
 62
     7
370
    25
100
AcDbCircle
 10
6289.7187553361
 20
5181.8994545927
 30
0.0
 40
1.150000000000546
100
AcDbArc
 50
0.0
 51
90.0
  0
LINE
  5
9B
330
1F
100
AcDbEntity
  8
0
  6
Continuous
 62
     7
370
    25
100
AcDbLine
 10
6199.0187553361
 20
5144.4494545927
 30
0.0
 11
6199.0187553361
 21
5134.4494545927
 31
0.0
  0
ARC
  5
9C
330
1F
100
AcDbEntity
  8
0
  6
Continuous
 62
     7
370
    25
100
AcDbCircle
 10
6199.0187553361
 20
5144.4494545927
 30
0.0
 40
10.0
100
AcDbArc
 50
180.0
 51
270.0
  0
LINE
  5
9D
330
1F
100
AcDbEntity
  8
0
  6
Continuous
 62
     7
370
    25
100
AcDbLine
 10
6189.0187553361
 20
5144.4494545927
 30
0.0
 11
6199.0187553361
 21
5144.4494545927
 31
0.0
  0
LINE
  5
9E
330
1F
100
AcDbEntity
  8
0
  6
Continuous
 62
     7
370
    25
100
AcDbLine
 10
6349.0187553361
 20
5294.4494545927
 30
0.0
 11
6359.0187553361
 21
5294.4494545927
 31
0.0
  0
LINE
  5
9F
330
1F
100
AcDbEntity
  8
0
  6
Continuous
 62
     7
370
    25
100
AcDbLine
 10
6359.0187553361
 20
5144.4494545927
 30
0.0
 11
6359.0187553361
 21
5294.4494545927
 31
0.0
  0
LINE
  5
A0
330
1F
100
AcDbEntity
  8
0
  6
Continuous
 62
     7
370
    25
100
AcDbLine
 10
6349.0187553361
 20
5144.4494545927
 30
0.0
 11
6359.0187553361
 21
5144.4494545927
 31
0.0
  0
LINE
  5
A1
330
1F
100
AcDbEntity
  8
0
  6
Continuous
 62
     7
370
    25
100
AcDbLine
 10
6349.0187553361
 20
5144.4494545927
 30
0.0
 11
6349.0187553361
 21
5134.4494545927
 31
0.0
  0
LINE
  5
A2
330
1F
100
AcDbEntity
  8
0
  6
Continuous
 62
     7
370
    25
100
AcDbLine
 10
6199.0187553361
 20
5134.4494545927
 30
0.0
 11
6349.0187553361
 21
5134.4494545927
 31
0.0
  0
LINE
  5
A3
330
1F
100
AcDbEntity
  8
0
  6
Continuous
 62
     7
370
    25
100
AcDbLine
 10
6189.0187553361
 20
5294.4494545927
 30
0.0
 11
6189.0187553361
 21
5144.4494545927
 31
0.0
  0
LINE
  5
A4
330
1F
100
AcDbEntity
  8
0
  6
Continuous
 62
     7
370
    25
100
AcDbLine
 10
6189.0187553361
 20
5294.4494545927
 30
0.0
 11
6199.0187553361
 21
5294.4494545927
 31
0.0
  0
ARC
  5
A5
330
1F
100
AcDbEntity
  8
0
  6
Continuous
 62
     7
370
    25
100
AcDbCircle
 10
6349.0187553361
 20
5144.4494545927
 30
0.0
 40
10.0
100
AcDbArc
 50
270.0
 51
0.0
  0
LINE
  5
A6
330
1F
100
AcDbEntity
  8
0
  6
Continuous
 62
     7
370
    25
100
AcDbLine
 10
6199.0187553361
 20
5304.4494545927
 30
0.0
 11
6199.0187553361
 21
5294.4494545927
 31
0.0
  0
ARC
  5
A7
330
1F
100
AcDbEntity
  8
0
  6
Continuous
 62
     7
370
    25
100
AcDbCircle
 10
6199.0187553361
 20
5294.4494545927
 30
0.0
 40
10.0
100
AcDbArc
 50
90.0
 51
180.0
  0
LINE
  5
A8
330
1F
100
AcDbEntity
  8
0
  6
Continuous
 62
     7
370
    25
100
AcDbLine
 10
6349.0187553361
 20
5304.4494545927
 30
0.0
 11
6199.0187553361
 21
5304.4494545927
 31
0.0
  0
LINE
  5
A9
330
1F
100
AcDbEntity
  8
0
  6
Continuous
 62
     7
370
    25
100
AcDbLine
 10
6349.0187553361
 20
5304.4494545927
 30
0.0
 11
6349.0187553361
 21
5294.4494545927
 31
0.0
  0
ARC
  5
AA
330
1F
100
AcDbEntity
  8
0
  6
Continuous
 62
     7
370
    25
100
AcDbCircle
 10
6349.0187553361
 20
5294.4494545927
 30
0.0
 40
10.0
100
AcDbArc
 50
0.0
 51
90.0
  0
LWPOLYLINE
  5
AB
330
1F
100
AcDbEntity
  8
0
  6
Continuous
 62
     7
370
    25
100
AcDbPolyline
 90
       20
 70
   128
 43
0.0
 10
6263.1282406657
 20
5239.7009106752
 10
6263.5315860485
 20
5240.2202689476
 10
6264.2209940715
 20
5240.7130794179
 10
6265.177659481
 20
5241.1658995013
 10
6266.3754869383
 20
5241.5663774462
 10
6267.781802833
 20
5241.9035892584
 10
6269.3582465335
 20
5242.1683366785
 10
6271.0618167651
 20
5242.3533980872
 10
6272.8460445727
 20
5242.4537254916
 10
6274.662260873
 20
5242.4665822217
 10
6276.4609240196
 20
5242.3916175793
 10
6278.1929711709
 20
5242.2308764046
 10
6279.8111565955
 20
5241.9887432977
 10
6281.2713404135
 20
5241.6718230186
 10
6282.5336926166
 20
5241.2887603263
 10
6283.5637795275
 20
5240.8500041726
 10
6284.3335030605
 20
5240.3675226816
 10
6284.821867164
 20
5239.8544766905
 10
6285.0155505386
 20
5239.3248607567
 10
6284.9092700065
 20
5238.7931214221
  0
LWPOLYLINE
  5
AC
330
1F
100
AcDbEntity
  8
0
  6
Continuous
 62
     7
370
    25
100
AcDbPolyline
 90
        3
 70
   128
 43
0.0
 10
6263.1282406657
 20
5239.7009106752
 10
6263.7566140583
 20
5241.4135676495
 10
6263.8031993416
 20
5241.5710323103
  0
LWPOLYLINE
  5
AD
330
1F
100
AcDbEntity
  8
0
  6
Continuous
 62
     7
370
    25
100
AcDbPolyline
 90
       15
 70
   128
 43
0.0
 10
6263.8031993416
 20
5241.5710323103
 10
6264.9813644392
 20
5242.0396764952
 10
6266.4069944862
 20
5242.4449405929
 10
6268.0410523899
 20
5242.7757275222
 10
6269.8387938141
 20
5243.0229795617
 10
6271.750992384
 20
5243.1799263708
 10
6273.72528762
 20
5243.242270378
 10
6275.70761869
 20
5243.2083044581
 10
6277.6437047221
 20
5243.0789586777
 10
6279.4805311419
 20
5242.8577748276
 10
6281.1678013359
 20
5242.5508094399
 10
6282.6593138905
 20
5242.1664679468
 10
6283.9142276955
 20
5241.7152745192
 10
6284.8981802688
 20
5241.2095838911
 10
6285.5842286824
 20
5240.6632430572
  0
LWPOLYLINE
  5
AE
330
1F
100
AcDbEntity
  8
0
  6
Continuous
 62
     7
370
    25
100
AcDbPolyline
 90
        3
 70
   128
 43
0.0
 10
6285.5842286824
 20
5240.6632430572
 10
6285.5376433991
 20
5240.5057783964
 10
6284.9092700065
 20
5238.7931214221
  0
LINE
  5
AF
330
1F
100
AcDbEntity
  8
0
  6
Continuous
 62
     7
370
    25
100
AcDbLine
 10
6263.8031993416
 20
5241.5710323103
 30
0.0
 11
6263.8031993416
 21
5244.917222039
 31
0.0
  0
LWPOLYLINE
  5
B0
330
1F
100
AcDbEntity
  8
0
  6
Continuous
 62
     7
370
    25
100
AcDbPolyline
 90
        9
 70
   128
 43
0.0
 10
6263.8031993416
 20
5244.917222039
 10
6263.2110987613
 20
5244.6001716859
 10
6262.7330767643
 20
5244.2669828506
 10
6262.3741790395
 20
5243.9211724575
 10
6262.1381938775
 20
5243.5663906559
 10
6262.027612184
 20
5243.2063822913
 10
6262.0436011872
 20
5242.8449473775
 10
6262.1859921178
 20
5242.4859009861
 10
6262.4532819898
 20
5242.133032977
  0
LINE
  5
B1
330
1F
100
AcDbEntity
  8
0
  6
Continuous
 62
     7
370
    25
100
AcDbLine
 10
6262.4532819898
 20
5242.133032977
 30
0.0
 11
6262.4532819898
 21
5238.7868432483
 31
0.0
  0
LINE
  5
B2
330
1F
100
AcDbEntity
  8
0
  6
Continuous
 62
     7
370
    25
100
AcDbLine
 10
6284.2343113306
 20
5237.8790539952
 30
0.0
 11
6283.4966453967
 21
5237.5671650679
 31
0.0
  0
ARC
  5
B3
330
1F
100
AcDbEntity
  8
0
  6
Continuous
 62
     7
370
    25
100
AcDbCircle
 10
6266.503495696
 20
5243.3227520696
 30
0.0
 40
6.081011420907291
100
AcDbArc
 50
228.2376261382
 51
251.1708444177
  0
ARC
  5
B4
330
1F
100
AcDbEntity
  8
0
  6
Continuous
 62
     7
370
    25
100
AcDbCircle
 10
6284.7076725098
 20
5243.0712328815
 30
0.0
 40
1.283966426550064
100
AcDbArc
 50
313.054521906
 51
46.945478094
  0
LINE
  5
B5
330
1F
100
AcDbEntity
  8
0
  6
Continuous
 62
     7
370
    25
100
AcDbLine
 10
6285.5842286824
 20
5244.0094327859
 30
0.0
 11
6285.5842286824
 21
5240.6632430572
 31
0.0
  0
LWPOLYLINE
  5
B6
330
1F
100
AcDbEntity
  8
0
  6
Continuous
 62
     7
370
    25
100
AcDbPolyline
 90
       20
 70
   128
 43
0.0
 10
6284.9092700065
 20
5238.7931214221
 10
6284.5059246237
 20
5238.2737631498
 10
6283.8165166007
 20
5237.7809526794
 10
6282.8598511912
 20
5237.3281325961
 10
6281.6620237339
 20
5236.9276546511
 10
6280.2557078392
 20
5236.590442839
 10
6278.6792641387
 20
5236.3256954188
 10
6276.9756939071
 20
5236.1406340102
 10
6275.1914660995
 20
5236.0403066058
 10
6273.3752497992
 20
5236.0274498757
 10
6271.5765866526
 20
5236.102414518
 10
6269.8445395013
 20
5236.2631556928
 10
6268.2263540767
 20
5236.5052887997
 10
6266.7661702587
 20
5236.8222090788
 10
6265.5038180556
 20
5237.205271771
 10
6264.4737311447
 20
5237.6440279247
 10
6263.7040076118
 20
5238.1265094158
 10
6263.2156435082
 20
5238.6395554069
 10
6263.0219601336
 20
5239.1691713407
 10
6263.1282406657
 20
5239.7009106752
  0
LWPOLYLINE
  5
B7
330
1F
100
AcDbEntity
  8
0
  6
Continuous
 62
     7
370
    25
100
AcDbPolyline
 90
       37
 70
   128
 43
0.0
 10
6283.9192232183
 20
5238.83438457
 10
6283.5244228285
 20
5238.336601721
 10
6282.840797542
 20
5237.8664813507
 10
6281.8891189673
 20
5237.4383078285
 10
6280.6983033762
 20
5237.0650909904
 10
6279.304533098
 20
5236.7581708411
 10
6277.7501571372
 20
5236.526872994
 10
6276.0824044208
 20
5236.3782253171
 10
6274.3519487713
 20
5236.316744395
 10
6272.6113692079
 20
5236.3442982942
 10
6270.9135523597
 20
5236.4600498036
 10
6269.3100855327
 20
5236.6604818721
 10
6267.849689255
 20
5236.9395044727
 10
6266.5767369285
 20
5237.2886396448
 10
6265.5299065654
 20
5237.697279093
 10
6264.7410055767
 20
5238.1530065144
 10
6264.2340043196
 20
5238.6419748619
 10
6264.0243077708
 20
5239.1493270797
 10
6264.1182874539
 20
5239.6596475274
 10
6264.5130878437
 20
5240.1574303764
 10
6265.1967131302
 20
5240.6275507467
 10
6266.1483917049
 20
5241.0557242688
 10
6267.339207296
 20
5241.4289411069
 10
6268.7329775742
 20
5241.7358612563
 10
6270.287353535
 20
5241.9671591034
 10
6271.9551062514
 20
5242.1158067802
 10
6273.6855619009
 20
5242.1772877024
 10
6275.4261414644
 20
5242.1497338031
 10
6277.1239583125
 20
5242.0339822937
 10
6278.7274251395
 20
5241.8335502253
 10
6280.1878214172
 20
5241.5545276247
 10
6281.4607737437
 20
5241.2053924525
 10
6282.5076041068
 20
5240.7967530043
 10
6283.2965050955
 20
5240.341025583
 10
6283.8035063526
 20
5239.8520572355
 10
6284.0132029014
 20
5239.3447050177
 10
6283.9192232183
 20
5238.83438457
  0
LINE
  5
B8
330
1F
100
AcDbEntity
  8
0
  6
Continuous
 62
     7
370
    25
100
AcDbLine
 10
6263.8031993416
 20
5244.917222039
 30
0.0
 11
6262.4532819898
 21
5242.133032977
 31
0.0
  0
LWPOLYLINE
  5
B9
330
1F
100
AcDbEntity
  8
0
  6
Continuous
 62
     7
370
    25
100
AcDbPolyline
 90
        3
 70
   128
 43
0.0
 10
6262.4532819898
 20
5238.7868432483
 10
6262.640791733
 20
5238.9500465792
 10
6263.1282406657
 20
5239.7009106752
  0
LWPOLYLINE
  5
BA
330
1F
100
AcDbEntity
  8
0
  6
Continuous
 62
     7
370
    25
100
AcDbPolyline
 90
        3
 70
   128
 43
0.0
 10
6284.9092700065
 20
5238.7931214221
 10
6284.4218210738
 20
5238.0422573261
 10
6284.2343113306
 20
5237.8790539952
  0
ARC
  5
BB
330
1F
100
AcDbEntity
  8
0
  6
Continuous
 62
     7
370
    25
100
AcDbCircle
 10
6274.0187553361
 20
5251.4494545926
 30
0.0
 40
14.00000000000057
100
AcDbArc
 50
0.6139062371
 51
179.3860937629
  0
LINE
  5
BC
330
1F
100
AcDbEntity
  8
0
  6
Continuous
 62
     7
370
    25
100
AcDbLine
 10
6288.0179517124
 20
5251.5994573143
 30
0.0
 11
6287.8179631928
 21
5251.5973144183
 31
0.0
  0
ARC
  5
BD
330
1F
100
AcDbEntity
  8
0
  6
Continuous
 62
     7
370
    25
100
AcDbCircle
 10
6274.0187553361
 20
5251.4494545926
 30
0.0
 40
13.80000000000071
100
AcDbArc
 50
0.6139062371
 51
179.3860937629
  0
LINE
  5
BE
330
1F
100
AcDbEntity
  8
0
  6
Continuous
 62
     7
370
    25
100
AcDbLine
 10
6260.2195474794
 20
5251.5973144183
 30
0.0
 11
6260.0195589598
 21
5251.5994573143
 31
0.0
  0
LINE
  5
BF
330
1F
100
AcDbEntity
  8
0
  6
Continuous
 62
     7
370
    25
100
AcDbLine
 10
6260.2195474794
 20
5251.5973144183
 30
0.0
 11
6287.8179631928
 21
5251.5973144183
 31
0.0
  0
LINE
  5
C0
330
1F
100
AcDbEntity
  8
0
  6
Continuous
 62
     7
370
    25
100
AcDbLine
 10
6287.8179631928
 20
5251.4061035767
 30
0.0
 11
6260.2195474794
 21
5251.4061035767
 31
0.0
  0
LINE
  5
C1
330
1F
100
AcDbEntity
  8
0
  6
Continuous
 62
     7
370
    25
100
AcDbLine
 10
6260.2195474794
 20
5251.4061035767
 30
0.0
 11
6260.2195474794
 21
5251.5973144183
 31
0.0
  0
LINE
  5
C2
330
1F
100
AcDbEntity
  8
0
  6
Continuous
 62
     7
370
    25
100
AcDbLine
 10
6287.8179631928
 20
5251.5973144183
 30
0.0
 11
6287.8179631928
 21
5251.4061035767
 31
0.0
  0
ARC
  5
C3
330
1F
100
AcDbEntity
  8
0
  6
Continuous
 62
     7
370
    25
100
AcDbCircle
 10
6260.2154008858
 20
5251.6019170493
 30
0.0
 40
0.1958573723459232
100
AcDbArc
 50
180.7195855617
 51
271.2131280109
  0
ARC
  5
C4
330
1F
100
AcDbEntity
  8
0
  6
Continuous
 62
     7
370
    25
100
AcDbCircle
 10
6287.8221097864
 20
5251.6019170493
 30
0.0
 40
0.1958573723450331
100
AcDbArc
 50
268.7868719888
 51
359.2804144385
  0
ARC
  5
C5
330
1F
100
AcDbEntity
  8
0
  6
Continuous
 62
     7
370
    25
100
AcDbCircle
 10
6274.0187553361
 20
5251.4494545926
 30
0.0
 40
13.99999999999966
100
AcDbArc
 50
328.9972808661
 51
0.6139062371
  0
ARC
  5
C6
330
1F
100
AcDbEntity
  8
0
  6
Continuous
 62
     7
370
    25
100
AcDbCircle
 10
6274.0187553361
 20
5251.258243751
 30
0.0
 40
13.79999999999981
100
AcDbArc
 50
330.4081542061
 51
0.6139062371
  0
ARC
  5
C7
330
1F
100
AcDbEntity
  8
0
  6
Continuous
 62
     7
370
    25
100
AcDbCircle
 10
6274.0187553361
 20
5251.258243751
 30
0.0
 40
13.80000000000072
100
AcDbArc
 50
179.3860937629
 51
209.5918457939
  0
ARC
  5
C8
330
1F
100
AcDbEntity
  8
0
  6
Continuous
 62
     7
370
    25
100
AcDbCircle
 10
6274.0187553361
 20
5251.4494545926
 30
0.0
 40
14.00000000000057
100
AcDbArc
 50
179.3860937629
 51
211.0027191339
  0
LWPOLYLINE
  5
C9
330
1F
100
AcDbEntity
  8
0
  6
Continuous
 62
     7
370
    25
100
AcDbPolyline
 90
       25
 70
   128
 43
0.0
 10
6262.0187553361
 20
5245.6736124362
 10
6261.8701887468
 20
5245.901085647
 10
6261.7187553361
 20
5246.4652253206
 10
6261.8701887468
 20
5247.0293649941
 10
6262.3207601857
 20
5247.5796136765
 10
6263.0593750886
 20
5248.1024224193
 10
6264.0678463053
 20
5248.5849179358
 10
6265.3213419275
 20
5249.0152195854
 10
6266.7889967329
 20
5249.3827319132
 10
6268.4346721893
 20
5249.678405546
 10
6270.2178463053
 20
5249.8949600178
 10
6272.0946114161
 20
5250.0270630387
 10
6274.0187553361
 20
5250.0714617939
 10
6275.9428992561
 20
5250.0270630387
 10
6277.8196643669
 20
5249.8949600178
 10
6279.6028384829
 20
5249.678405546
 10
6281.2485139393
 20
5249.3827319132
 10
6282.7161687447
 20
5249.0152195854
 10
6283.9696643669
 20
5248.5849179358
 10
6284.9781355836
 20
5248.1024224193
 10
6285.7167504865
 20
5247.5796136765
 10
6286.1673219254
 20
5247.0293649941
 10
6286.3187553361
 20
5246.4652253206
 10
6286.1673219254
 20
5245.901085647
 10
6286.0187553361
 20
5245.6736124362
  0
ARC
  5
CA
330
1F
100
AcDbEntity
  8
0
  6
Continuous
 62
     7
370
    25
100
AcDbCircle
 10
6284.8338813691
 20
5246.665895556
 30
0.0
 40
1.272710175387825
100
AcDbArc
 50
338.5888684319
 51
52.4928597885
  0
ARC
  5
CB
330
1F
100
AcDbEntity
  8
0
  6
Continuous
 62
     7
370
    25
100
AcDbCircle
 10
6263.1971820581
 20
5246.6654700502
 30
0.0
 40
1.266554066111872
100
AcDbArc
 50
128.2370881525
 51
201.4996830182
  0
ARC
  5
CC
330
1F
100
AcDbEntity
  8
0
  6
Continuous
 62
     7
370
    25
100
AcDbCircle
 10
6289.7187553361
 20
5181.8994545927
 30
0.0
 40
1.000000000000909
100
AcDbArc
 50
0.0
 51
90.0
  0
LINE
  5
CD
330
1F
100
AcDbEntity
  8
0
  6
Continuous
 62
     7
370
    25
100
AcDbLine
 10
6290.7187553361
 20
5168.9994545927
 30
0.0
 11
6290.7187553361
 21
5181.8994545927
 31
0.0
  0
ARC
  5
CE
330
1F
100
AcDbEntity
  8
0
  6
Continuous
 62
     7
370
    25
100
AcDbCircle
 10
6289.7187553361
 20
5168.9994545927
 30
0.0
 40
1.000000000000909
100
AcDbArc
 50
270.0
 51
0.0
  0
LINE
  5
CF
330
1F
100
AcDbEntity
  8
0
  6
Continuous
 62
     7
370
    25
100
AcDbLine
 10
6258.3187553361
 20
5167.9994545927
 30
0.0
 11
6289.7187553361
 21
5167.9994545927
 31
0.0
  0
ARC
  5
D0
330
1F
100
AcDbEntity
  8
0
  6
Continuous
 62
     7
370
    25
100
AcDbCircle
 10
6258.3187553361
 20
5168.9994545927
 30
0.0
 40
1.0
100
AcDbArc
 50
180.0
 51
270.0
  0
LINE
  5
D1
330
1F
100
AcDbEntity
  8
0
  6
Continuous
 62
     7
370
    25
100
AcDbLine
 10
6257.3187553361
 20
5181.8994545927
 30
0.0
 11
6257.3187553361
 21
5168.9994545927
 31
0.0
  0
LINE
  5
D2
330
1F
100
AcDbEntity
  8
0
  6
Continuous
 62
     7
370
    25
100
AcDbLine
 10
6289.7187553361
 20
5182.8994545927
 30
0.0
 11
6258.3187553361
 21
5182.8994545927
 31
0.0
  0
ARC
  5
D3
330
1F
100
AcDbEntity
  8
0
  6
Continuous
 62
     7
370
    25
100
AcDbCircle
 10
6258.3187553361
 20
5181.8994545927
 30
0.0
 40
1.000000000000909
100
AcDbArc
 50
90.0
 51
180.0
  0
LINE
  5
D4
330
1F
100
AcDbEntity
  8
0
  6
Continuous
 62
     7
370
    25
100
AcDbLine
 10
6232.4611874981
 20
5132.5268048619
 30
0.0
 11
6232.4611874981
 21
5134.4494545927
 31
0.0
  0
LWPOLYLINE
  5
D5
330
1F
100
AcDbEntity
  8
0
  6
Continuous
 62
     7
370
    25
100
AcDbPolyline
 90
        3
 70
   128
 43
0.0
 10
6229.1288319634
 20
5131.9494545927
 10
6230.6084118589
 20
5132.1549105441
 10
6232.4611874981
 20
5132.5268048619
  0
LINE
  5
D6
330
1F
100
AcDbEntity
  8
0
  6
Continuous
 62
     7
370
    25
100
AcDbLine
 10
6229.1288319634
 20
5131.9494545927
 30
0.0
 11
6223.9086787089
 21
5131.9494545927
 31
0.0
  0
LWPOLYLINE
  5
D7
330
1F
100
AcDbEntity
  8
0
  6
Continuous
 62
     7
370
    25
100
AcDbPolyline
 90
        3
 70
   128
 43
0.0
 10
6220.5763231741
 20
5132.5268048619
 10
6221.4640056181
 20
5132.3335581295
 10
6223.9086787089
 20
5131.9494545927
  0
LINE
  5
D8
330
1F
100
AcDbEntity
  8
0
  6
Continuous
 62
     7
370
    25
100
AcDbLine
 10
6220.5763231741
 20
5134.4494545927
 30
0.0
 11
6220.5763231741
 21
5132.5268048619
 31
0.0
  0
LINE
  5
D9
330
1F
100
AcDbEntity
  8
0
  6
Continuous
 62
     7
370
    25
100
AcDbLine
 10
6235.2388822062
 20
5134.4494545927
 30
0.0
 11
6235.2388822062
 21
5132.5268048619
 31
0.0
  0
LINE
  5
DA
330
1F
100
AcDbEntity
  8
0
  6
Continuous
 62
     7
370
    25
100
AcDbLine
 10
6232.4611874981
 20
5132.5268048619
 30
0.0
 11
6235.2388822062
 21
5132.5268048619
 31
0.0
  0
LINE
  5
DB
330
1F
100
AcDbEntity
  8
0
  6
Continuous
 62
     7
370
    25
100
AcDbLine
 10
6217.798628466
 20
5132.5268048619
 30
0.0
 11
6220.5763231741
 21
5132.5268048619
 31
0.0
  0
LINE
  5
DC
330
1F
100
AcDbEntity
  8
0
  6
Continuous
 62
     7
370
    25
100
AcDbLine
 10
6217.798628466
 20
5132.5268048619
 30
0.0
 11
6217.798628466
 21
5134.4494545927
 31
0.0
  0
LINE
  5
DD
330
1F
100
AcDbEntity
  8
0
  6
Continuous
 62
     7
370
    25
100
AcDbLine
 10
6235.2388822062
 20
5132.5268048619
 30
0.0
 11
6236.9050599736
 21
5131.9494545927
 31
0.0
  0
LINE
  5
DE
330
1F
100
AcDbEntity
  8
0
  6
Continuous
 62
     7
370
    25
100
AcDbLine
 10
6229.1288319634
 20
5131.9494545927
 30
0.0
 11
6236.9050599736
 21
5131.9494545927
 31
0.0
  0
LWPOLYLINE
  5
DF
330
1F
100
AcDbEntity
  8
0
  6
Continuous
 62
     7
370
    25
100
AcDbPolyline
 90
        3
 70
   128
 43
0.0
 10
6216.1324506986
 20
5131.9494545927
 10
6216.3187533921
 20
5131.9930850814
 10
6217.798628466
 20
5132.5268048619
  0
LINE
  5
E0
330
1F
100
AcDbEntity
  8
0
  6
Continuous
 62
     7
370
    25
100
AcDbLine
 10
6216.1324506986
 20
5131.9494545927
 30
0.0
 11
6223.9086787089
 21
5131.9494545927
 31
0.0
  0
LINE
  5
E1
330
1F
100
AcDbEntity
  8
0
  6
Continuous
 62
     7
370
    25
100
AcDbLine
 10
6226.5187553361
 20
5131.9491644813
 30
0.0
 11
6239.7392553361
 21
5131.9491644813
 31
0.0
  0
LINE
  5
E2
330
1F
100
AcDbEntity
  8
0
  6
Continuous
 62
     7
370
    25
100
AcDbLine
 10
6213.2982553361
 20
5131.9491644813
 30
0.0
 11
6226.5187553361
 21
5131.9491644813
 31
0.0
  0
LINE
  5
E3
330
1F
100
AcDbEntity
  8
0
  6
Continuous
 62
     7
370
    25
100
AcDbLine
 10
6239.7392553361
 20
5128.9497447041
 30
0.0
 11
6213.2982553361
 21
5128.9497447041
 31
0.0
  0
LINE
  5
E4
330
1F
100
AcDbEntity
  8
0
  6
Continuous
 62
     7
370
    25
100
AcDbLine
 10
6226.5187553361
 20
5123.9494545927
 30
0.0
 11
6239.7392553361
 21
5123.9494545927
 31
0.0
  0
LINE
  5
E5
330
1F
100
AcDbEntity
  8
0
  6
Continuous
 62
     7
370
    25
100
AcDbLine
 10
6213.2982553361
 20
5123.9494545927
 30
0.0
 11
6226.5187553361
 21
5123.9494545927
 31
0.0
  0
LINE
  5
E6
330
1F
100
AcDbEntity
  8
0
  6
Continuous
 62
     7
370
    25
100
AcDbLine
 10
6226.5187553361
 20
5122.9494545927
 30
0.0
 11
6214.2982553361
 21
5122.9494545927
 31
0.0
  0
LINE
  5
E7
330
1F
100
AcDbEntity
  8
0
  6
Continuous
 62
     7
370
    25
100
AcDbLine
 10
6238.7392553361
 20
5122.9494545927
 30
0.0
 11
6226.5187553361
 21
5122.9494545927
 31
0.0
  0
LINE
  5
E8
330
1F
100
AcDbEntity
  8
0
  6
Continuous
 62
     7
370
    25
100
AcDbLine
 10
6241.1813143682
 20
5132.5268048619
 30
0.0
 11
6241.1813143682
 21
5134.4494545927
 31
0.0
  0
LWPOLYLINE
  5
E9
330
1F
100
AcDbEntity
  8
0
  6
Continuous
 62
     7
370
    25
100
AcDbPolyline
 90
        3
 70
   128
 43
0.0
 10
6239.5151366008
 20
5131.9494545927
 10
6239.7014392943
 20
5131.9930850814
 10
6241.1813143682
 20
5132.5268048619
  0
LINE
  5
EA
330
1F
100
AcDbEntity
  8
0
  6
Continuous
 62
     7
370
    25
100
AcDbLine
 10
6239.5151366008
 20
5131.9494545927
 30
0.0
 11
6236.9050599736
 21
5131.9494545927
 31
0.0
  0
LINE
  5
EB
330
1F
100
AcDbEntity
  8
0
  6
Continuous
 62
     7
370
    25
100
AcDbLine
 10
6211.856196304
 20
5132.5268048619
 30
0.0
 11
6213.5223740714
 21
5131.9494545927
 31
0.0
  0
LINE
  5
EC
330
1F
100
AcDbEntity
  8
0
  6
Continuous
 62
     7
370
    25
100
AcDbLine
 10
6211.856196304
 20
5134.4494545927
 30
0.0
 11
6211.856196304
 21
5132.5268048619
 31
0.0
  0
LINE
  5
ED
330
1F
100
AcDbEntity
  8
0
  6
Continuous
 62
     7
370
    25
100
AcDbLine
 10
6216.1324506986
 20
5131.9494545927
 30
0.0
 11
6213.5223740714
 21
5131.9494545927
 31
0.0
  0
LINE
  5
EE
330
1F
100
AcDbEntity
  8
0
  6
Continuous
 62
     7
370
    25
100
AcDbLine
 10
6241.1813143682
 20
5132.5268048619
 30
0.0
 11
6241.2687553361
 21
5132.5268048619
 31
0.0
  0
LINE
  5
EF
330
1F
100
AcDbEntity
  8
0
  6
Continuous
 62
     7
370
    25
100
AcDbLine
 10
6239.5151366008
 20
5131.9494545927
 30
0.0
 11
6240.2687553361
 21
5131.9494545927
 31
0.0
  0
LINE
  5
F0
330
1F
100
AcDbEntity
  8
0
  6
Continuous
 62
     7
370
    25
100
AcDbLine
 10
6211.7687553361
 20
5132.5268048619
 30
0.0
 11
6211.856196304
 21
5132.5268048619
 31
0.0
  0
LINE
  5
F1
330
1F
100
AcDbEntity
  8
0
  6
Continuous
 62
     7
370
    25
100
AcDbLine
 10
6212.7687553361
 20
5131.9494545927
 30
0.0
 11
6213.5223740714
 21
5131.9494545927
 31
0.0
  0
LINE
  5
F2
330
1F
100
AcDbEntity
  8
0
  6
Continuous
 62
     7
370
    25
100
AcDbLine
 10
6789.0603259731
 20
5242.9469458344
 30
0.0
 11
6791.1273151712
 21
5236.2067636666
 31
0.0
  0
LINE
  5
F3
330
1F
100
AcDbEntity
  8
0
  6
Continuous
 62
     7
370
    25
100
AcDbLine
 10
6814.0726161679
 20
5243.2433226389
 30
0.0
 11
6812.0056269698
 21
5249.9835048067
 31
0.0
  0
LINE
  5
F4
330
1F
100
AcDbEntity
  8
0
  6
Continuous
 62
     7
370
    25
100
AcDbLine
 10
6791.1273151712
 20
5236.2067636666
 30
0.0
 11
6792.229964358
 21
5236.0219265197
 31
0.0
  0
LINE
  5
F5
330
1F
100
AcDbEntity
  8
0
  6
Continuous
 62
     7
370
    25
100
AcDbLine
 10
6813.2631569383
 20
5242.4721055777
 30
0.0
 11
6814.0726161679
 21
5243.2433226389
 31
0.0
  0
ARC
  5
F6
330
1F
100
AcDbEntity
  8
0
  6
Continuous
 62
     7
370
    25
100
AcDbCircle
 10
6556.9858980108
 20
5237.6494545926
 30
0.0
 40
0.2000000000007276
100
AcDbArc
 50
180.0
 51
270.0
  0
ARC
  5
F7
330
1F
100
AcDbEntity
  8
0
  6
Continuous
 62
     7
370
    25
100
AcDbCircle
 10
6556.9858980108
 20
5265.2494545926
 30
0.0
 40
0.2000000000007276
100
AcDbArc
 50
90.0
 51
180.0
  0
LINE
  5
F8
330
1F
100
AcDbEntity
  8
0
  6
Continuous
 62
     7
370
    25
100
AcDbLine
 10
6816.5858980108
 20
5265.4494545926
 30
0.0
 11
6556.9858980108
 21
5265.4494545926
 31
0.0
  0
LINE
  5
F9
330
1F
100
AcDbEntity
  8
0
  6
Continuous
 62
     7
370
    25
100
AcDbLine
 10
6567.7470363434
 20
5237.4494545926
 30
0.0
 11
6779.7346517761
 21
5237.4494545926
 31
0.0
  0
LINE
  5
FA
330
1F
100
AcDbEntity
  8
0
  6
Continuous
 62
     7
370
    25
100
AcDbLine
 10
6556.9858980108
 20
5237.4494545926
 30
0.0
 11
6563.1758980108
 21
5237.4494545926
 31
0.0
  0
ARC
  5
FB
330
1F
100
AcDbEntity
  8
0
  6
Continuous
 62
     7
370
    25
100
AcDbCircle
 10
6816.5858980108
 20
5265.2494545926
 30
0.0
 40
0.2000000000007276
100
AcDbArc
 50
0.0
 51
90.0
  0
ARC
  5
FC
330
1F
100
AcDbEntity
  8
0
  6
Continuous
 62
     7
370
    25
100
AcDbCircle
 10
6788.7148717192
 20
5243.0501996889
 30
0.0
 40
0.2000000000002942
100
AcDbArc
 50
287.0490309723
 51
341.7489308897
  0
ARC
  5
FD
330
1F
100
AcDbEntity
  8
0
  6
Continuous
 62
     7
370
    25
100
AcDbCircle
 10
6812.2338052408
 20
5250.2626726355
 30
0.0
 40
0.2000000000001146
100
AcDbArc
 50
201.9917272341
 51
287.0490309723
  0
ARC
  5
FE
330
1F
100
AcDbEntity
  8
0
  6
Continuous
 62
     7
370
    25
100
AcDbCircle
 10
6565.0938266803
 20
5220.7155668598
 30
0.0
 40
16.94502296378755
100
AcDbArc
 50
80.9908143932
 51
83.8751078202
  0
LWPOLYLINE
  5
FF
330
1F
100
AcDbEntity
  8
0
  6
Continuous
 62
     7
370
    25
100
AcDbPolyline
 90
       17
 70
   128
 43
0.0
 10
6563.1565239203
 20
5237.4509761583
 10
6563.1707183885
 20
5237.4495789752
 10
6563.1907880887
 20
5237.4500500125
 10
6563.1989558498
 20
5237.4508214661
 10
6563.2021451142
 20
5237.4512147085
 10
6563.2037904813
 20
5237.4514378825
 10
6563.2051914887
 20
5237.4516387682
 10
6563.2065618677
 20
5237.4518447518
 10
6563.2081728949
 20
5237.4520977263
 10
6563.2172319448
 20
5237.4535831284
 10
6563.3978100567
 20
5237.4824038141
 10
6563.8212274407
 20
5237.5407597156
 10
6564.4380027677
 20
5237.6023584186
 10
6565.1753760132
 20
5237.6391031563
 10
6565.9423994003
 20
5237.6343575656
 10
6566.6527123769
 20
5237.5909247753
 10
6566.90179373
 20
5237.5638622748
  0
LINE
  5
100
330
1F
100
AcDbEntity
  8
0
  6
Continuous
 62
     7
370
    25
100
AcDbLine
 10
6465.2653980108
 20
5123.9494545927
 30
0.0
 11
6466.2653980108
 21
5122.9494545927
 31
0.0
  0
LINE
  5
101
330
1F
100
AcDbEntity
  8
0
  6
Continuous
 62
     7
370
    25
100
AcDbLine
 10
6490.7063980108
 20
5122.9494545927
 30
0.0
 11
6491.7063980108
 21
5123.9494545927
 31
0.0
  0
LINE
  5
102
330
1F
100
AcDbEntity
  8
0
  6
Continuous
 62
     7
370
    25
100
AcDbLine
 10
6465.2653980108
 20
5128.9497447041
 30
0.0
 11
6465.2653980108
 21
5123.9494545927
 31
0.0
  0
LINE
  5
103
330
1F
100
AcDbEntity
  8
0
  6
Continuous
 62
     7
370
    25
100
AcDbLine
 10
6491.7063980108
 20
5123.9494545927
 30
0.0
 11
6491.7063980108
 21
5128.9497447041
 31
0.0
  0
ARC
  5
104
330
1F
100
AcDbEntity
  8
0
  6
Continuous
 62
     7
370
    25
100
AcDbCircle
 10
6465.2358980108
 20
5130.4494545927
 30
0.0
 40
1.499999999999704
100
AcDbArc
 50
271.1268896477
 51
88.8731103523
  0
ARC
  5
105
330
1F
100
AcDbEntity
  8
0
  6
Continuous
 62
     7
370
    25
100
AcDbCircle
 10
6491.7358980108
 20
5130.4494545927
 30
0.0
 40
1.499999999999704
100
AcDbArc
 50
91.1268896477
 51
268.8731103523
  0
LINE
  5
106
330
1F
100
AcDbEntity
  8
0
  6
Continuous
 62
     7
370
    25
100
AcDbLine
 10
6465.2653980108
 20
5131.9494545927
 30
0.0
 11
6465.2653980108
 21
5131.9491644813
 31
0.0
  0
LINE
  5
107
330
1F
100
AcDbEntity
  8
0
  6
Continuous
 62
     7
370
    25
100
AcDbLine
 10
6491.7063980108
 20
5131.9491644813
 30
0.0
 11
6491.7063980108
 21
5131.9494545927
 31
0.0
  0
ARC
  5
108
330
1F
100
AcDbEntity
  8
0
  6
Continuous
 62
     7
370
    25
100
AcDbCircle
 10
6546.7858980108
 20
5294.4494545927
 30
0.0
 40
10.0
100
AcDbArc
 50
0.0
 51
90.0
  0
LINE
  5
109
330
1F
100
AcDbEntity
  8
0
  6
Continuous
 62
     7
370
    25
100
AcDbLine
 10
6546.7858980108
 20
5294.4494545927
 30
0.0
 11
6556.7858980108
 21
5294.4494545927
 31
0.0
  0
LINE
  5
10A
330
1F
100
AcDbEntity
  8
0
  6
Continuous
 62
     7
370
    25
100
AcDbLine
 10
6546.7858980108
 20
5304.4494545927
 30
0.0
 11
6546.7858980108
 21
5294.4494545927
 31
0.0
  0
ARC
  5
10B
330
1F
100
AcDbEntity
  8
0
  6
Continuous
 62
     7
370
    25
100
AcDbCircle
 10
6546.7858980108
 20
5144.4494545927
 30
0.0
 40
10.0
100
AcDbArc
 50
270.0
 51
0.0
  0
LINE
  5
10C
330
1F
100
AcDbEntity
  8
0
  6
Continuous
 62
     7
370
    25
100
AcDbLine
 10
6546.7858980108
 20
5144.4494545927
 30
0.0
 11
6556.7858980108
 21
5144.4494545927
 31
0.0
  0
LINE
  5
10D
330
1F
100
AcDbEntity
  8
0
  6
Continuous
 62
     7
370
    25
100
AcDbLine
 10
6546.7858980108
 20
5144.4494545927
 30
0.0
 11
6546.7858980108
 21
5134.4494545927
 31
0.0
  0
LINE
  5
10E
330
1F
100
AcDbEntity
  8
0
  6
Continuous
 62
     7
370
    25
100
AcDbLine
 10
6556.7858980108
 20
5294.4494545927
 30
0.0
 11
6556.7858980108
 21
5144.4494545927
 31
0.0
  0
LINE
  5
10F
330
1F
100
AcDbEntity
  8
0
  6
Continuous
 62
     7
370
    25
100
AcDbLine
 10
6546.7858980108
 20
5294.4494545927
 30
0.0
 11
6546.7858980108
 21
5144.4494545927
 31
0.0
  0
LINE
  5
110
330
1F
100
AcDbEntity
  8
0
  6
Continuous
 62
     7
370
    25
100
AcDbLine
 10
6808.6194955311
 20
5241.5710323103
 30
0.0
 11
6814.0726161679
 21
5243.2433226389
 31
0.0
  0
LINE
  5
111
330
1F
100
AcDbEntity
  8
0
  6
Continuous
 62
     7
370
    25
100
AcDbLine
 10
6808.6194955311
 20
5241.5710323103
 30
0.0
 11
6807.593330681
 21
5244.917222039
 31
0.0
  0
LINE
  5
112
330
1F
100
AcDbEntity
  8
0
  6
Continuous
 62
     7
370
    25
100
AcDbLine
 10
6807.593330681
 20
5244.917222039
 30
0.0
 11
6798.5144533049
 21
5242.133032977
 31
0.0
  0
LINE
  5
113
330
1F
100
AcDbEntity
  8
0
  6
Continuous
 62
     7
370
    25
100
AcDbLine
 10
6798.5144533049
 20
5242.133032977
 30
0.0
 11
6799.540618155
 21
5238.7868432483
 31
0.0
  0
LINE
  5
114
330
1F
100
AcDbEntity
  8
0
  6
Continuous
 62
     7
370
    25
100
AcDbLine
 10
6791.1273151712
 20
5236.2067636666
 30
0.0
 11
6799.540618155
 21
5238.7868432483
 31
0.0
  0
LWPOLYLINE
  5
115
330
1F
100
AcDbEntity
  8
0
  6
Continuous
 62
     7
370
    25
100
AcDbPolyline
 90
        3
 70
   128
 43
0.0
 10
6799.540618155
 20
5238.7868432483
 10
6800.8702663074
 20
5238.9500465792
 10
6804.2266518217
 20
5239.7009106752
  0
LINE
  5
116
330
1F
100
AcDbEntity
  8
0
  6
Continuous
 62
     7
370
    25
100
AcDbLine
 10
6792.229964358
 20
5236.0219265197
 30
0.0
 11
6804.2266518217
 21
5239.7009106752
 31
0.0
  0
LWPOLYLINE
  5
117
330
1F
100
AcDbEntity
  8
0
  6
Continuous
 62
     7
370
    25
100
AcDbPolyline
 90
        3
 70
   128
 43
0.0
 10
6804.2266518217
 20
5239.7009106752
 10
6808.3250100587
 20
5241.4135676495
 10
6808.6194955311
 20
5241.5710323103
  0
LINE
  5
118
330
1F
100
AcDbEntity
  8
0
  6
Continuous
 62
     7
370
    25
100
AcDbLine
 10
6804.2266518217
 20
5239.7009106752
 30
0.0
 11
6813.2631569383
 21
5242.4721055777
 31
0.0
  0
LINE
  5
119
330
1F
100
AcDbEntity
  8
0
  6
Continuous
 62
     7
370
    25
100
AcDbLine
 10
6785.1996350806
 20
5241.8348421805
 30
0.0
 11
6816.5858980108
 21
5251.5994573143
 31
0.0
  0
LWPOLYLINE
  5
11A
330
1F
100
AcDbEntity
  8
0
  6
Continuous
 62
     7
370
    25
100
AcDbPolyline
 90
        3
 70
   128
 43
0.0
 10
6785.1996350806
 20
5241.8348421805
 10
6785.1584666417
 20
5241.8201407927
 10
6785.0012795013
 20
5241.7266048823
  0
LWPOLYLINE
  5
11B
330
1F
100
AcDbEntity
  8
0
  6
Continuous
 62
     7
370
    25
100
AcDbPolyline
 90
        8
 70
   128
 43
0.0
 10
6779.7346517761
 20
5237.4734752394
 10
6779.7338696063
 20
5237.4728451366
 10
6779.9793533561
 20
5237.6706219598
 10
6780.4318492938
 20
5238.0352842695
 10
6781.0820541206
 20
5238.5595231563
 10
6782.2247506341
 20
5239.481589372
 10
6783.612700118
 20
5240.6029666915
 10
6785.0012795013
 20
5241.7266048823
  0
LINE
  5
11C
330
1F
100
AcDbEntity
  8
0
  6
Continuous
 62
     7
370
    25
100
AcDbLine
 10
6816.6445360022
 20
5251.4061035767
 30
0.0
 11
6785.258273072
 21
5241.7809829447
 31
0.0
  0
LWPOLYLINE
  5
11D
330
1F
100
AcDbEntity
  8
0
  6
Continuous
 62
     7
370
    25
100
AcDbPolyline
 90
        9
 70
   128
 43
0.0
 10
6785.258273072
 20
5241.7809829447
 10
6785.2524969404
 20
5241.7804038624
 10
6785.2461182524
 20
5241.7820109352
 10
6785.2392097169
 20
5241.7857858446
 10
6785.2318500821
 20
5241.7916855616
 10
6785.2241232382
 20
5241.7996428372
 10
6785.2161172613
 20
5241.8095669686
 10
6785.207923409
 20
5241.8213448338
 10
6785.1996350806
 20
5241.8348421805
  0
ARC
  5
11E
330
1F
100
AcDbEntity
  8
0
  6
Continuous
 62
     7
370
    25
100
AcDbCircle
 10
6801.1746693748
 20
5246.8201572351
 30
0.0
 40
16.13529291084028
100
AcDbArc
 50
16.5121313317
 51
17.2296064252
  0
ARC
  5
11F
330
1F
100
AcDbEntity
  8
0
  6
Continuous
 62
     7
370
    25
100
AcDbCircle
 10
6816.6358922707
 20
5246.931268147
 30
0.0
 40
4.668456867918345
100
AcDbArc
 50
88.1586687701
 51
90.6135892288
  0
ARC
  5
120
330
1F
100
AcDbEntity
  8
0
  6
Continuous
 62
     7
370
    25
100
AcDbCircle
 10
6816.5858980108
 20
5251.5973144183
 30
0.0
 40
0.2000000000007276
100
AcDbArc
 50
287.0490309723
 51
0.0
  0
LINE
  5
121
330
1F
100
AcDbEntity
  8
0
  6
Continuous
 62
     7
370
    25
100
AcDbLine
 10
6816.7858980108
 20
5265.2494545926
 30
0.0
 11
6816.7858980108
 21
5251.5973144183
 31
0.0
  0
LWPOLYLINE
  5
122
330
1F
100
AcDbEntity
  8
0
  6
Continuous
 62
     7
370
    25
100
AcDbPolyline
 90
        3
 70
   128
 43
0.0
 10
6785.1368810685
 20
5241.7208250603
 10
6785.2341068513
 20
5241.7726387804
 10
6785.258273072
 20
5241.7809829447
  0
LWPOLYLINE
  5
123
330
1F
100
AcDbEntity
  8
0
  6
Continuous
 62
     7
370
    25
100
AcDbPolyline
 90
        9
 70
   128
 43
0.0
 10
6785.1368810685
 20
5241.7208250603
 10
6785.1267882387
 20
5241.7097942996
 10
6785.1141065776
 20
5241.7019752904
 10
6785.0990976661
 20
5241.6975293128
 10
6785.0820710885
 20
5241.6965480729
 10
6785.0633780471
 20
5241.6990518103
 10
6785.0434041175
 20
5241.7049888812
 10
6785.022561296
 20
5241.7142368234
 10
6785.0012795013
 20
5241.7266048823
  0
LWPOLYLINE
  5
124
330
1F
100
AcDbEntity
  8
0
  6
Continuous
 62
     7
370
    25
100
AcDbPolyline
 90
        8
 70
   128
 43
0.0
 10
6785.1368810685
 20
5241.7208250603
 10
6783.7493455657
 20
5240.613558967
 10
6782.380015237
 20
5239.5225506466
 10
6781.2204382556
 20
5238.5998406797
 10
6780.5785812021
 20
5238.0895220674
 10
6780.1184361178
 20
5237.7238523173
 10
6779.8769981876
 20
5237.5320366033
 10
6779.8756913746
 20
5237.5310010466
  0
LINE
  5
125
330
1F
100
AcDbEntity
  8
0
  6
Continuous
 62
     7
370
    25
100
AcDbLine
 10
6480.0896007982
 20
5132.5268048619
 30
0.0
 11
6482.9755053458
 21
5131.9494545927
 31
0.0
  0
LINE
  5
126
330
1F
100
AcDbEntity
  8
0
  6
Continuous
 62
     7
370
    25
100
AcDbLine
 10
6473.9962906758
 20
5131.9494545927
 30
0.0
 11
6482.9755053458
 21
5131.9494545927
 31
0.0
  0
LWPOLYLINE
  5
127
330
1F
100
AcDbEntity
  8
0
  6
Continuous
 62
     7
370
    25
100
AcDbPolyline
 90
        3
 70
   128
 43
0.0
 10
6473.9962906758
 20
5131.9494545927
 10
6474.3189764064
 20
5131.9930850814
 10
6476.8821952233
 20
5132.5268048619
  0
LINE
  5
128
330
1F
100
AcDbEntity
  8
0
  6
Continuous
 62
     7
370
    25
100
AcDbLine
 10
6476.8821952233
 20
5132.5268048619
 30
0.0
 11
6480.0896007982
 21
5132.5268048619
 31
0.0
  0
LINE
  5
129
330
1F
100
AcDbEntity
  8
0
  6
Continuous
 62
     7
370
    25
100
AcDbLine
 10
6480.0896007982
 20
5140.9494545927
 30
0.0
 11
6480.0896007982
 21
5132.5268048619
 31
0.0
  0
LINE
  5
12A
330
1F
100
AcDbEntity
  8
0
  6
Continuous
 62
     7
370
    25
100
AcDbLine
 10
6476.8821952233
 20
5132.5268048619
 30
0.0
 11
6476.8821952233
 21
5140.9494545927
 31
0.0
  0
LINE
  5
12B
330
1F
100
AcDbEntity
  8
0
  6
Continuous
 62
     7
370
    25
100
AcDbLine
 10
6476.8821952233
 20
5140.9494545927
 30
0.0
 11
6480.0896007982
 21
5140.9494545927
 31
0.0
  0
LINE
  5
12C
330
1F
100
AcDbEntity
  8
0
  6
Continuous
 62
     7
370
    25
100
AcDbLine
 10
6482.9755053458
 20
5141.9494545927
 30
0.0
 11
6480.0896007982
 21
5140.9494545927
 31
0.0
  0
LWPOLYLINE
  5
12D
330
1F
100
AcDbEntity
  8
0
  6
Continuous
 62
     7
370
    25
100
AcDbPolyline
 90
        3
 70
   128
 43
0.0
 10
6476.8821952233
 20
5140.9494545927
 10
6474.6300744377
 20
5141.7919622623
 10
6473.9962906758
 20
5141.9494545927
  0
LINE
  5
12E
330
1F
100
AcDbEntity
  8
0
  6
Continuous
 62
     7
370
    25
100
AcDbLine
 10
6473.9962906758
 20
5131.9494545927
 30
0.0
 11
6469.4755053458
 21
5131.9494545927
 31
0.0
  0
LINE
  5
12F
330
1F
100
AcDbEntity
  8
0
  6
Continuous
 62
     7
370
    25
100
AcDbLine
 10
6466.5896007982
 20
5132.5268048619
 30
0.0
 11
6469.4755053458
 21
5131.9494545927
 31
0.0
  0
LINE
  5
130
330
1F
100
AcDbEntity
  8
0
  6
Continuous
 62
     7
370
    25
100
AcDbLine
 10
6466.5896007982
 20
5140.9494545927
 30
0.0
 11
6466.5896007982
 21
5132.5268048619
 31
0.0
  0
LINE
  5
131
330
1F
100
AcDbEntity
  8
0
  6
Continuous
 62
     7
370
    25
100
AcDbLine
 10
6469.4755053458
 20
5141.9494545927
 30
0.0
 11
6466.5896007982
 21
5140.9494545927
 31
0.0
  0
LWPOLYLINE
  5
132
330
1F
100
AcDbEntity
  8
0
  6
Continuous
 62
     7
370
    25
100
AcDbPolyline
 90
        3
 70
   128
 43
0.0
 10
6490.3821952233
 20
5140.9494545927
 10
6488.1300744377
 20
5141.7919622623
 10
6487.4962906758
 20
5141.9494545927
  0
LINE
  5
133
330
1F
100
AcDbEntity
  8
0
  6
Continuous
 62
     7
370
    25
100
AcDbLine
 10
6490.3821952233
 20
5132.5268048619
 30
0.0
 11
6490.3821952233
 21
5140.9494545927
 31
0.0
  0
LWPOLYLINE
  5
134
330
1F
100
AcDbEntity
  8
0
  6
Continuous
 62
     7
370
    25
100
AcDbPolyline
 90
        3
 70
   128
 43
0.0
 10
6487.4962906758
 20
5131.9494545927
 10
6487.8189764064
 20
5131.9930850814
 10
6490.3821952233
 20
5132.5268048619
  0
LINE
  5
135
330
1F
100
AcDbEntity
  8
0
  6
Continuous
 62
     7
370
    25
100
AcDbLine
 10
6487.4962906758
 20
5131.9494545927
 30
0.0
 11
6482.9755053458
 21
5131.9494545927
 31
0.0
  0
LINE
  5
136
330
1F
100
AcDbEntity
  8
0
  6
Continuous
 62
     7
370
    25
100
AcDbLine
 10
6490.7063980108
 20
5122.9494545927
 30
0.0
 11
6466.2653980108
 21
5122.9494545927
 31
0.0
  0
LINE
  5
137
330
1F
100
AcDbEntity
  8
0
  6
Continuous
 62
     7
370
    25
100
AcDbLine
 10
6465.2653980108
 20
5123.9494545927
 30
0.0
 11
6491.7063980108
 21
5123.9494545927
 31
0.0
  0
LINE
  5
138
330
1F
100
AcDbEntity
  8
0
  6
Continuous
 62
     7
370
    25
100
AcDbLine
 10
6491.7063980108
 20
5128.9497447041
 30
0.0
 11
6465.2653980108
 21
5128.9497447041
 31
0.0
  0
LINE
  5
139
330
1F
100
AcDbEntity
  8
0
  6
Continuous
 62
     7
370
    25
100
AcDbLine
 10
6465.2653980108
 20
5131.9491644813
 30
0.0
 11
6491.7063980108
 21
5131.9491644813
 31
0.0
  0
LINE
  5
13A
330
1F
100
AcDbEntity
  8
0
  6
Continuous
 62
     7
370
    25
100
AcDbLine
 10
6464.9858980108
 20
5131.9494545927
 30
0.0
 11
6464.9858980108
 21
5132.5268048619
 31
0.0
  0
LINE
  5
13B
330
1F
100
AcDbEntity
  8
0
  6
Continuous
 62
     7
370
    25
100
AcDbLine
 10
6464.9858980108
 20
5132.5268048619
 30
0.0
 11
6466.5896007982
 21
5132.5268048619
 31
0.0
  0
LINE
  5
13C
330
1F
100
AcDbEntity
  8
0
  6
Continuous
 62
     7
370
    25
100
AcDbLine
 10
6464.9858980108
 20
5131.9494545927
 30
0.0
 11
6469.4755053458
 21
5131.9494545927
 31
0.0
  0
LINE
  5
13D
330
1F
100
AcDbEntity
  8
0
  6
Continuous
 62
     7
370
    25
100
AcDbLine
 10
6464.9858980108
 20
5140.9494545927
 30
0.0
 11
6464.9858980108
 21
5141.9494545927
 31
0.0
  0
LINE
  5
13E
330
1F
100
AcDbEntity
  8
0
  6
Continuous
 62
     7
370
    25
100
AcDbLine
 10
6464.9858980108
 20
5140.9494545927
 30
0.0
 11
6466.5896007982
 21
5140.9494545927
 31
0.0
  0
LINE
  5
13F
330
1F
100
AcDbEntity
  8
0
  6
Continuous
 62
     7
370
    25
100
AcDbLine
 10
6464.9858980108
 20
5141.9494545927
 30
0.0
 11
6466.2745028688
 21
5141.9494545927
 31
0.0
  0
LINE
  5
140
330
1F
100
AcDbEntity
  8
0
  6
Continuous
 62
     7
370
    25
100
AcDbLine
 10
6491.9858980108
 20
5132.5268048619
 30
0.0
 11
6491.9858980108
 21
5131.9494545927
 31
0.0
  0
LINE
  5
141
330
1F
100
AcDbEntity
  8
0
  6
Continuous
 62
     7
370
    25
100
AcDbLine
 10
6490.3821952233
 20
5132.5268048619
 30
0.0
 11
6491.9858980108
 21
5132.5268048619
 31
0.0
  0
LINE
  5
142
330
1F
100
AcDbEntity
  8
0
  6
Continuous
 62
     7
370
    25
100
AcDbLine
 10
6487.4962906758
 20
5131.9494545927
 30
0.0
 11
6491.9858980108
 21
5131.9494545927
 31
0.0
  0
LINE
  5
143
330
1F
100
AcDbEntity
  8
0
  6
Continuous
 62
     7
370
    25
100
AcDbLine
 10
6491.9858980108
 20
5141.9494545927
 30
0.0
 11
6491.9858980108
 21
5140.9494545927
 31
0.0
  0
LINE
  5
144
330
1F
100
AcDbEntity
  8
0
  6
Continuous
 62
     7
370
    25
100
AcDbLine
 10
6490.3821952233
 20
5140.9494545927
 30
0.0
 11
6491.9858980108
 21
5140.9494545927
 31
0.0
  0
LINE
  5
145
330
1F
100
AcDbEntity
  8
0
  6
Continuous
 62
     7
370
    25
100
AcDbLine
 10
6464.9858980108
 20
5132.5268048619
 30
0.0
 11
6464.9858980108
 21
5140.9494545927
 31
0.0
  0
LINE
  5
146
330
1F
100
AcDbEntity
  8
0
  6
Continuous
 62
     7
370
    25
100
AcDbLine
 10
6491.9858980108
 20
5140.9494545927
 30
0.0
 11
6491.9858980108
 21
5132.5268048619
 31
0.0
  0
LINE
  5
147
330
1F
100
AcDbEntity
  8
0
  6
Continuous
 62
     7
370
    25
100
AcDbLine
 10
6466.2858980108
 20
5295.2423478115
 30
0.0
 11
6544.4858980108
 21
5295.2423478115
 31
0.0
  0
LINE
  5
148
330
1F
100
AcDbEntity
  8
0
  6
Continuous
 62
     7
370
    25
100
AcDbLine
 10
6544.4858980108
 20
5293.9423478115
 30
0.0
 11
6544.4858980108
 21
5295.2423478115
 31
0.0
  0
LINE
  5
149
330
1F
100
AcDbEntity
  8
0
  6
Continuous
 62
     7
370
    25
100
AcDbLine
 10
6544.4858980108
 20
5276.9494545927
 30
0.0
 11
6544.4858980108
 21
5293.9423478115
 31
0.0
  0
LINE
  5
14A
330
1F
100
AcDbEntity
  8
0
  6
Continuous
 62
     7
370
    25
100
AcDbLine
 10
6544.4858980108
 20
5276.9494545927
 30
0.0
 11
6544.4858980108
 21
5161.9494545927
 31
0.0
  0
LINE
  5
14B
330
1F
100
AcDbEntity
  8
0
  6
Continuous
 62
     7
370
    25
100
AcDbLine
 10
6544.4858980108
 20
5144.9565613739
 30
0.0
 11
6544.4858980108
 21
5161.9494545927
 31
0.0
  0
LINE
  5
14C
330
1F
100
AcDbEntity
  8
0
  6
Continuous
 62
     7
370
    25
100
AcDbLine
 10
6544.4858980108
 20
5143.6565613739
 30
0.0
 11
6544.4858980108
 21
5144.9565613739
 31
0.0
  0
LINE
  5
14D
330
1F
100
AcDbEntity
  8
0
  6
Continuous
 62
     7
370
    25
100
AcDbLine
 10
6466.2858980108
 20
5143.6565613739
 30
0.0
 11
6544.4858980108
 21
5143.6565613739
 31
0.0
  0
LINE
  5
14E
330
1F
100
AcDbEntity
  8
0
  6
Continuous
 62
     7
370
    25
100
AcDbLine
 10
6466.2858980108
 20
5143.6565613739
 30
0.0
 11
6466.2858980108
 21
5295.2423478115
 31
0.0
  0
LINE
  5
14F
330
1F
100
AcDbEntity
  8
0
  6
Continuous
 62
     7
370
    25
100
AcDbLine
 10
6544.4858980108
 20
5293.9423478115
 30
0.0
 11
6546.2858980108
 21
5293.9423478115
 31
0.0
  0
LINE
  5
150
330
1F
100
AcDbEntity
  8
0
  6
Continuous
 62
     7
370
    25
100
AcDbLine
 10
6546.2858980108
 20
5293.9423478115
 30
0.0
 11
6546.2858980108
 21
5276.9494545927
 31
0.0
  0
LINE
  5
151
330
1F
100
AcDbEntity
  8
0
  6
Continuous
 62
     7
370
    25
100
AcDbLine
 10
6546.2858980108
 20
5276.9494545927
 30
0.0
 11
6544.4858980108
 21
5276.9494545927
 31
0.0
  0
LINE
  5
152
330
1F
100
AcDbEntity
  8
0
  6
Continuous
 62
     7
370
    25
100
AcDbLine
 10
6546.2858980108
 20
5161.9494545927
 30
0.0
 11
6546.2858980108
 21
5144.9565613739
 31
0.0
  0
LINE
  5
153
330
1F
100
AcDbEntity
  8
0
  6
Continuous
 62
     7
370
    25
100
AcDbLine
 10
6546.2858980108
 20
5144.9565613739
 30
0.0
 11
6544.4858980108
 21
5144.9565613739
 31
0.0
  0
LINE
  5
154
330
1F
100
AcDbEntity
  8
0
  6
Continuous
 62
     7
370
    25
100
AcDbLine
 10
6544.4858980108
 20
5161.9494545927
 30
0.0
 11
6546.2858980108
 21
5161.9494545927
 31
0.0
  0
ARC
  5
155
330
1F
100
AcDbEntity
  8
0
  6
Continuous
 62
     7
370
    25
100
AcDbCircle
 10
6466.3443255016
 20
5276.6243681493
 30
0.0
 40
18.61807134139776
100
AcDbArc
 50
90.1798067087
 51
95.7287175669
  0
ARC
  5
156
330
1F
100
AcDbEntity
  8
0
  6
Continuous
 62
     7
370
    25
100
AcDbCircle
 10
6466.3443255017
 20
5162.2745410372
 30
0.0
 40
18.61807134251571
100
AcDbArc
 50
264.2712824333
 51
269.8201932912
  0
LINE
  5
157
330
1F
100
AcDbEntity
  8
0
  6
Continuous
 62
     7
370
    25
100
AcDbLine
 10
6464.4858980108
 20
5143.7494545927
 30
0.0
 11
6464.4858980108
 21
5295.1494545927
 31
0.0
  0
ARC
  5
158
330
1F
100
AcDbEntity
  8
0
  6
Continuous
 62
     7
370
    25
100
AcDbCircle
 10
6466.2858980108
 20
5295.1494545927
 30
0.0
 40
1.799999999999272
100
AcDbArc
 50
89.9999999999
 51
180.0
  0
LINE
  5
159
330
1F
100
AcDbEntity
  8
0
  6
Continuous
 62
     7
370
    25
100
AcDbLine
 10
6466.2858980108
 20
5296.9494545927
 30
0.0
 11
6466.2858980108
 21
5295.9494545927
 31
0.0
  0
ARC
  5
15A
330
1F
100
AcDbEntity
  8
0
  6
Continuous
 62
     7
370
    25
100
AcDbCircle
 10
6466.2858980108
 20
5295.1494545927
 30
0.0
 40
0.8000000000047294
100
AcDbArc
 50
90.0000000003
 51
179.9999999999
  0
ARC
  5
15B
330
1F
100
AcDbEntity
  8
0
  6
Continuous
 62
     7
370
    25
100
AcDbCircle
 10
6466.2858980108
 20
5143.7494545927
 30
0.0
 40
0.8000000000020009
100
AcDbArc
 50
180.0000000001
 51
269.9999999999
  0
LINE
  5
15C
330
1F
100
AcDbEntity
  8
0
  6
Continuous
 62
     7
370
    25
100
AcDbLine
 10
6466.2858980108
 20
5141.9494545927
 30
0.0
 11
6466.2858980108
 21
5142.9494545927
 31
0.0
  0
ARC
  5
15D
330
1F
100
AcDbEntity
  8
0
  6
Continuous
 62
     7
370
    25
100
AcDbCircle
 10
6466.2858980108
 20
5143.7494545927
 30
0.0
 40
1.799999999998363
100
AcDbArc
 50
179.9999999999
 51
270.0000000001
  0
LINE
  5
15E
330
1F
100
AcDbEntity
  8
0
  6
Continuous
 62
     7
370
    25
100
AcDbLine
 10
6544.4858980108
 20
5141.9494545927
 30
0.0
 11
6544.4858980108
 21
5142.9494545927
 31
0.0
  0
LINE
  5
15F
330
1F
100
AcDbEntity
  8
0
  6
Continuous
 62
     7
370
    25
100
AcDbLine
 10
6466.2858980108
 20
5142.9494545927
 30
0.0
 11
6544.4858980108
 21
5142.9494545927
 31
0.0
  0
LINE
  5
160
330
1F
100
AcDbEntity
  8
0
  6
Continuous
 62
     7
370
    25
100
AcDbLine
 10
6466.2858980108
 20
5141.9494545927
 30
0.0
 11
6544.4858980108
 21
5141.9494545927
 31
0.0
  0
LINE
  5
161
330
1F
100
AcDbEntity
  8
0
  6
Continuous
 62
     7
370
    25
100
AcDbLine
 10
6544.4858980108
 20
5296.9494545927
 30
0.0
 11
6544.4858980108
 21
5295.9494545927
 31
0.0
  0
LINE
  5
162
330
1F
100
AcDbEntity
  8
0
  6
Continuous
 62
     7
370
    25
100
AcDbLine
 10
6466.2858980108
 20
5295.9494545927
 30
0.0
 11
6544.4858980108
 21
5295.9494545927
 31
0.0
  0
LINE
  5
163
330
1F
100
AcDbEntity
  8
0
  6
Continuous
 62
     7
370
    25
100
AcDbLine
 10
6466.2858980108
 20
5296.9494545927
 30
0.0
 11
6544.4858980108
 21
5296.9494545927
 31
0.0
  0
LINE
  5
164
330
1F
100
AcDbEntity
  8
0
  6
Continuous
 62
     7
370
    25
100
AcDbLine
 10
6526.2858980108
 20
5143.1565613739
 30
0.0
 11
6526.2858980108
 21
5143.6565613739
 31
0.0
  0
LINE
  5
165
330
1F
100
AcDbEntity
  8
0
  6
Continuous
 62
     7
370
    25
100
AcDbLine
 10
6526.2858980108
 20
5143.1565613739
 30
0.0
 11
6544.4858980108
 21
5143.1565613739
 31
0.0
  0
LINE
  5
166
330
1F
100
AcDbEntity
  8
0
  6
Continuous
 62
     7
370
    25
100
AcDbLine
 10
6526.2858980108
 20
5295.7423478115
 30
0.0
 11
6526.2858980108
 21
5295.2423478115
 31
0.0
  0
LINE
  5
167
330
1F
100
AcDbEntity
  8
0
  6
Continuous
 62
     7
370
    25
100
AcDbLine
 10
6544.4858980108
 20
5295.7423478115
 30
0.0
 11
6526.2858980108
 21
5295.7423478115
 31
0.0
  0
ARC
  5
168
330
1F
100
AcDbEntity
  8
0
  6
Continuous
 62
     7
370
    25
100
AcDbCircle
 10
6544.4858980108
 20
5144.9565613739
 30
0.0
 40
0.8000000000001819
100
AcDbArc
 50
270.0
 51
0.0
  0
ARC
  5
169
330
1F
100
AcDbEntity
  8
0
  6
Continuous
 62
     7
370
    25
100
AcDbCircle
 10
6544.4858980108
 20
5144.9565613739
 30
0.0
 40
1.800000000000182
100
AcDbArc
 50
270.0
 51
0.0
  0
ARC
  5
16A
330
1F
100
AcDbEntity
  8
0
  6
Continuous
 62
     7
370
    25
100
AcDbCircle
 10
6544.4858980108
 20
5293.9423478115
 30
0.0
 40
1.800000000000182
100
AcDbArc
 50
0.0
 51
90.0
  0
ARC
  5
16B
330
1F
100
AcDbEntity
  8
0
  6
Continuous
 62
     7
370
    25
100
AcDbCircle
 10
6544.4858980108
 20
5293.9423478115
 30
0.0
 40
0.8000000000001819
100
AcDbArc
 50
0.0
 51
90.0
  0
LINE
  5
16C
330
1F
100
AcDbEntity
  8
0
  6
Continuous
 62
     8
370
    25
100
AcDbLine
 10
6556.9858980108
 20
5251.4494545926
 30
0.0
 11
6556.9858980108
 21
5237.4494545926
 31
0.0
  0
LINE
  5
16D
330
1F
100
AcDbEntity
  8
0
  6
Continuous
 62
     8
370
    25
100
AcDbLine
 10
6556.9858980108
 20
5265.4494545926
 30
0.0
 11
6556.9858980108
 21
5251.4494545926
 31
0.0
  0
LWPOLYLINE
  5
16E
330
1F
100
AcDbEntity
  8
0
  6
Continuous
 62
     8
370
    25
100
AcDbPolyline
 90
       12
 70
   128
 43
0.0
 10
6563.1758980108
 20
5237.4494545926
 10
6563.1873736649
 20
5237.4513902139
 10
6563.3878992819
 20
5237.483690052
 10
6563.8187120917
 20
5237.5432689387
 10
6564.4404360745
 20
5237.6053569369
 10
6565.1817460784
 20
5237.6420432831
 10
6565.9482115864
 20
5237.636954869
 10
6566.6566940605
 20
5237.5933894364
 10
6567.2395566954
 20
5237.5297972683
 10
6567.6297670659
 20
5237.4733982805
 10
6567.7607861622
 20
5237.4520015737
 10
6567.7470363434
 20
5237.4542919575
  0
LINE
  5
16F
330
1F
100
AcDbEntity
  8
0
  6
Continuous
 62
     8
370
    25
100
AcDbLine
 10
6816.5858980108
 20
5251.5994573143
 30
0.0
 11
6816.5858980108
 21
5265.4494545926
 31
0.0
  0
LINE
  5
170
330
1F
100
AcDbEntity
  8
0
  6
Continuous
 62
     8
370
    25
100
AcDbLine
 10
6544.4858980108
 20
5143.6565613739
 30
0.0
 11
6544.4858980108
 21
5143.1565613739
 31
0.0
  0
LINE
  5
171
330
1F
100
AcDbEntity
  8
0
  6
Continuous
 62
     8
370
    25
100
AcDbLine
 10
6544.4858980108
 20
5295.2423478115
 30
0.0
 11
6544.4858980108
 21
5295.7423478115
 31
0.0
  0
ARC
  5
172
330
1F
100
AcDbEntity
  8
0
  6
Continuous
 62
     7
370
    25
100
AcDbCircle
 10
6260.2187553361
 20
4927.8089537377
 30
0.0
 40
0.1999999999998181
100
AcDbArc
 50
90.0
 51
180.0
  0
ARC
  5
173
330
1F
100
AcDbEntity
  8
0
  6
Continuous
 62
     7
370
    25
100
AcDbCircle
 10
6287.8187553361
 20
4927.8089537377
 30
0.0
 40
0.2000000000007276
100
AcDbArc
 50
0.0
 51
90.0
  0
LINE
  5
174
330
1F
100
AcDbEntity
  8
0
  6
Continuous
 62
     7
370
    25
100
AcDbLine
 10
6288.0187553361
 20
4668.6911053432
 30
0.0
 11
6288.0187553361
 21
4927.8089537377
 31
0.0
  0
LINE
  5
175
330
1F
100
AcDbEntity
  8
0
  6
Continuous
 62
     7
370
    25
100
AcDbLine
 10
6260.0187553361
 20
4927.8089537377
 30
0.0
 11
6260.0187553361
 21
4668.6911053432
 31
0.0
  0
LINE
  5
176
330
1F
100
AcDbEntity
  8
0
  6
Continuous
 62
     7
370
    25
100
AcDbLine
 10
6349.0187553361
 20
4938.0089537377
 30
0.0
 11
6349.0187553361
 21
4928.0089537377
 31
0.0
  0
ARC
  5
177
330
1F
100
AcDbEntity
  8
0
  6
Continuous
 62
     7
370
    25
100
AcDbCircle
 10
6349.0187553361
 20
4938.0089537377
 30
0.0
 40
10.0
100
AcDbArc
 50
270.0
 51
0.0
  0
LINE
  5
178
330
1F
100
AcDbEntity
  8
0
  6
Continuous
 62
     7
370
    25
100
AcDbLine
 10
6359.0187553361
 20
4938.0089537377
 30
0.0
 11
6349.0187553361
 21
4938.0089537377
 31
0.0
  0
LINE
  5
179
330
1F
100
AcDbEntity
  8
0
  6
Continuous
 62
     7
370
    25
100
AcDbLine
 10
6349.0187553361
 20
4928.0089537377
 30
0.0
 11
6199.0187553361
 21
4928.0089537377
 31
0.0
  0
LINE
  5
17A
330
1F
100
AcDbEntity
  8
0
  6
Continuous
 62
     7
370
    25
100
AcDbLine
 10
6199.0187553361
 20
4938.0089537377
 30
0.0
 11
6199.0187553361
 21
4928.0089537377
 31
0.0
  0
LINE
  5
17B
330
1F
100
AcDbEntity
  8
0
  6
Continuous
 62
     7
370
    25
100
AcDbLine
 10
6349.0187553361
 20
4938.0089537377
 30
0.0
 11
6199.0187553361
 21
4938.0089537377
 31
0.0
  0
ARC
  5
17C
330
1F
100
AcDbEntity
  8
0
  6
Continuous
 62
     7
370
    25
100
AcDbCircle
 10
6199.0187553361
 20
4938.0089537377
 30
0.0
 40
10.00000000000091
100
AcDbArc
 50
180.0
 51
270.0
  0
LINE
  5
17D
330
1F
100
AcDbEntity
  8
0
  6
Continuous
 62
     7
370
    25
100
AcDbLine
 10
6199.0187553361
 20
4938.0089537377
 30
0.0
 11
6189.0187553361
 21
4938.0089537377
 31
0.0
  0
ELLIPSE
  5
17E
330
1F
100
AcDbEntity
  8
0
  6
Continuous
 62
     7
370
    25
100
AcDbEllipse
 10
6274.0187553361
 20
4668.6911053432
 30
0.0
 11
0.0
 21
45.0
 31
0.0
210
0.0
220
0.0
230
1.0
 40
0.3111111111
 41
1.570796326794897
 42
1.581511011931051
  0
ELLIPSE
  5
17F
330
1F
100
AcDbEntity
  8
0
  6
Continuous
 62
     7
370
    25
100
AcDbEllipse
 10
6274.0187553361
 20
4668.6911053432
 30
0.0
 11
0.0
 21
45.0
 31
0.0
210
0.0
220
0.0
230
1.0
 40
0.3111111111
 41
4.701674295248539
 42
4.712388980384694
  0
LINE
  5
180
330
1F
100
AcDbEntity
  8
0
  6
Continuous
 62
     7
370
    25
100
AcDbLine
 10
6260.0195589598
 20
4668.2089537377
 30
0.0
 11
6288.0179517124
 21
4668.2089537377
 31
0.0
  0
ARC
  5
181
330
1F
100
AcDbEntity
  8
0
  6
Continuous
 62
     7
370
    25
100
AcDbCircle
 10
6287.8179574525
 20
4668.2089479977
 30
0.0
 40
0.1999942600774182
100
AcDbArc
 50
270.0016445315
 51
0.0016444374
  0
LINE
  5
182
330
1F
100
AcDbEntity
  8
0
  6
Continuous
 62
     7
370
    25
100
AcDbLine
 10
6287.8179631928
 20
4668.0089537377
 30
0.0
 11
6260.2195474794
 21
4668.0089537377
 31
0.0
  0
ARC
  5
183
330
1F
100
AcDbEntity
  8
0
  6
Continuous
 62
     7
370
    25
100
AcDbCircle
 10
6260.2195532198
 20
4668.2089479977
 30
0.0
 40
0.1999942600792372
100
AcDbArc
 50
179.9983555631
 51
269.9983554682
  0
LINE
  5
184
330
1F
100
AcDbEntity
  8
0
  6
Continuous
 62
     7
370
    25
100
AcDbLine
 10
6349.8116485549
 20
5018.5089537377
 30
0.0
 11
6349.8116485549
 21
4940.3089537377
 31
0.0
  0
LINE
  5
185
330
1F
100
AcDbEntity
  8
0
  6
Continuous
 62
     7
370
    25
100
AcDbLine
 10
6198.2258621173
 20
4940.3089537377
 30
0.0
 11
6349.8116485549
 21
4940.3089537377
 31
0.0
  0
LINE
  5
186
330
1F
100
AcDbEntity
  8
0
  6
Continuous
 62
     7
370
    25
100
AcDbLine
 10
6198.2258621173
 20
5018.5089537377
 30
0.0
 11
6198.2258621173
 21
4940.3089537377
 31
0.0
  0
LINE
  5
187
330
1F
100
AcDbEntity
  8
0
  6
Continuous
 62
     7
370
    25
100
AcDbLine
 10
6198.2258621173
 20
5018.5089537377
 30
0.0
 11
6349.8116485549
 21
5018.5089537377
 31
0.0
  0
ARC
  5
188
330
1F
100
AcDbEntity
  8
0
  6
Continuous
 62
     7
370
    25
100
AcDbCircle
 10
6331.1936688909
 20
5018.4505262467
 30
0.0
 40
18.61807134320889
100
AcDbArc
 50
0.179806709
 51
5.7287175666
  0
ARC
  5
189
330
1F
100
AcDbEntity
  8
0
  6
Continuous
 62
     7
370
    25
100
AcDbCircle
 10
6216.8438417807
 20
5018.4505262467
 30
0.0
 40
18.61807134264306
100
AcDbArc
 50
174.2712824333
 51
179.8201932912
  0
LINE
  5
18A
330
1F
100
AcDbEntity
  8
0
  6
Continuous
 62
     7
370
    25
100
AcDbLine
 10
6198.3187553361
 20
5020.3089537377
 30
0.0
 11
6349.7187553361
 21
5020.3089537377
 31
0.0
  0
LINE
  5
18B
330
1F
100
AcDbEntity
  8
0
  6
Continuous
 62
     7
370
    25
100
AcDbLine
 10
6331.5187553361
 20
4938.5089537377
 30
0.0
 11
6331.5187553361
 21
4940.3089537377
 31
0.0
  0
LINE
  5
18C
330
1F
100
AcDbEntity
  8
0
  6
Continuous
 62
     7
370
    25
100
AcDbLine
 10
6349.7187553361
 20
4940.3089537377
 30
0.0
 11
6349.7187553361
 21
4938.5089537377
 31
0.0
  0
LINE
  5
18D
330
1F
100
AcDbEntity
  8
0
  6
Continuous
 62
     7
370
    25
100
AcDbLine
 10
6331.5187553361
 20
4938.5089537377
 30
0.0
 11
6349.7187553361
 21
4938.5089537377
 31
0.0
  0
LINE
  5
18E
330
1F
100
AcDbEntity
  8
0
  6
Continuous
 62
     7
370
    25
100
AcDbLine
 10
6198.3187553361
 20
4938.5089537377
 30
0.0
 11
6198.3187553361
 21
4940.3089537377
 31
0.0
  0
LINE
  5
18F
330
1F
100
AcDbEntity
  8
0
  6
Continuous
 62
     7
370
    25
100
AcDbLine
 10
6198.3187553361
 20
4938.5089537377
 30
0.0
 11
6216.5187553361
 21
4938.5089537377
 31
0.0
  0
LINE
  5
190
330
1F
100
AcDbEntity
  8
0
  6
Continuous
 62
     7
370
    25
100
AcDbLine
 10
6216.5187553361
 20
4940.3089537377
 30
0.0
 11
6216.5187553361
 21
4938.5089537377
 31
0.0
  0
LINE
  5
191
330
1F
100
AcDbEntity
  8
0
  6
Continuous
 62
     7
370
    25
100
AcDbLine
 10
6351.5187553361
 20
5018.5089537377
 30
0.0
 11
6350.5187553361
 21
5018.5089537377
 31
0.0
  0
ARC
  5
192
330
1F
100
AcDbEntity
  8
0
  6
Continuous
 62
     7
370
    25
100
AcDbCircle
 10
6349.7187553361
 20
5018.5089537377
 30
0.0
 40
0.7999999999983629
100
AcDbArc
 50
359.9999999999
 51
90.0000000001
  0
ARC
  5
193
330
1F
100
AcDbEntity
  8
0
  6
Continuous
 62
     7
370
    25
100
AcDbCircle
 10
6349.7187553361
 20
5018.5089537377
 30
0.0
 40
1.800000000001091
100
AcDbArc
 50
0.0
 51
90.0
  0
LINE
  5
194
330
1F
100
AcDbEntity
  8
0
  6
Continuous
 62
     7
370
    25
100
AcDbLine
 10
6351.5187553361
 20
5018.5089537377
 30
0.0
 11
6351.5187553361
 21
4940.3089537377
 31
0.0
  0
LINE
  5
195
330
1F
100
AcDbEntity
  8
0
  6
Continuous
 62
     7
370
    25
100
AcDbLine
 10
6351.5187553361
 20
4940.3089537377
 30
0.0
 11
6350.5187553361
 21
4940.3089537377
 31
0.0
  0
LINE
  5
196
330
1F
100
AcDbEntity
  8
0
  6
Continuous
 62
     7
370
    25
100
AcDbLine
 10
6350.5187553361
 20
5018.5089537377
 30
0.0
 11
6350.5187553361
 21
4940.3089537377
 31
0.0
  0
ARC
  5
197
330
1F
100
AcDbEntity
  8
0
  6
Continuous
 62
     7
370
    25
100
AcDbCircle
 10
6198.3187553361
 20
5018.5089537377
 30
0.0
 40
1.800000000001091
100
AcDbArc
 50
90.0
 51
180.0
  0
ARC
  5
198
330
1F
100
AcDbEntity
  8
0
  6
Continuous
 62
     7
370
    25
100
AcDbCircle
 10
6198.3187553361
 20
5018.5089537377
 30
0.0
 40
0.7999999999974534
100
AcDbArc
 50
89.9999999998
 51
180.0000000001
  0
LINE
  5
199
330
1F
100
AcDbEntity
  8
0
  6
Continuous
 62
     7
370
    25
100
AcDbLine
 10
6196.5187553361
 20
5018.5089537377
 30
0.0
 11
6197.5187553361
 21
5018.5089537377
 31
0.0
  0
LINE
  5
19A
330
1F
100
AcDbEntity
  8
0
  6
Continuous
 62
     7
370
    25
100
AcDbLine
 10
6196.5187553361
 20
4940.3089537377
 30
0.0
 11
6197.5187553361
 21
4940.3089537377
 31
0.0
  0
LINE
  5
19B
330
1F
100
AcDbEntity
  8
0
  6
Continuous
 62
     7
370
    25
100
AcDbLine
 10
6196.5187553361
 20
5018.5089537377
 30
0.0
 11
6196.5187553361
 21
4940.3089537377
 31
0.0
  0
LINE
  5
19C
330
1F
100
AcDbEntity
  8
0
  6
Continuous
 62
     7
370
    25
100
AcDbLine
 10
6197.5187553361
 20
5018.5089537377
 30
0.0
 11
6197.5187553361
 21
4940.3089537377
 31
0.0
  0
ARC
  5
19D
330
1F
100
AcDbEntity
  8
0
  6
Continuous
 62
     7
370
    25
100
AcDbCircle
 10
6198.3187553361
 20
4940.3089537377
 30
0.0
 40
1.800000000000182
100
AcDbArc
 50
180.0
 51
270.0
  0
ARC
  5
19E
330
1F
100
AcDbEntity
  8
0
  6
Continuous
 62
     7
370
    25
100
AcDbCircle
 10
6198.3187553361
 20
4940.3089537377
 30
0.0
 40
0.8000000000010914
100
AcDbArc
 50
180.0
 51
270.0
  0
ARC
  5
19F
330
1F
100
AcDbEntity
  8
0
  6
Continuous
 62
     7
370
    25
100
AcDbCircle
 10
6349.7187553361
 20
4940.3089537377
 30
0.0
 40
1.800000000000182
100
AcDbArc
 50
270.0
 51
0.0
  0
ARC
  5
1A0
330
1F
100
AcDbEntity
  8
0
  6
Continuous
 62
     7
370
    25
100
AcDbCircle
 10
6349.7187553361
 20
4940.3089537377
 30
0.0
 40
0.8000000000001819
100
AcDbArc
 50
270.0
 51
0.0
  0
LINE
  5
1A1
330
1F
100
AcDbEntity
  8
0
  6
Continuous
 62
     8
370
    25
100
AcDbLine
 10
6288.0187553361
 20
4927.8089537377
 30
0.0
 11
6260.0187553361
 21
4927.8089537377
 31
0.0
  0
ENDSEC
  0
SECTION
  2
OBJECTS
  0
DICTIONARY
  5
C
330
0
100
AcDbDictionary
281
     1
  3
ACAD_GROUP
350
D
  3
ACAD_LAYOUT
350
1A
  3
ACAD_MLINESTYLE
350
17
  3
ACAD_PLOTSETTINGS
350
19
  3
ACAD_PLOTSTYLENAME
350
E
  3
ACAD_SCALELIST
350
47
  3
DWGPROPS
350
1A2
  0
DICTIONARY
  5
D
102
{ACAD_REACTORS
330
C
102
}
330
C
100
AcDbDictionary
281
     1
  0
DICTIONARY
  5
1A
102
{ACAD_REACTORS
330
C
102
}
330
C
100
AcDbDictionary
281
     1
  3
Layout1
350
1E
  3
Layout2
350
26
  3
Model
350
22
  0
DICTIONARY
  5
17
102
{ACAD_REACTORS
330
C
102
}
330
C
100
AcDbDictionary
281
     1
  3
Standard
350
18
  0
DICTIONARY
  5
19
102
{ACAD_REACTORS
330
C
102
}
330
C
100
AcDbDictionary
281
     1
  0
ACDBDICTIONARYWDFLT
  5
E
102
{ACAD_REACTORS
330
C
102
}
330
C
100
AcDbDictionary
281
     1
  3
Normal
350
F
100
AcDbDictionaryWithDefault
340
F
  0
DICTIONARY
  5
47
102
{ACAD_REACTORS
330
C
102
}
330
C
100
AcDbDictionary
281
     1
  3
A0
350
48
  3
A1
350
49
  3
A2
350
4A
  3
A3
350
4B
  3
A4
350
4C
  3
A5
350
4D
  3
A6
350
4E
  3
A7
350
4F
  3
A8
350
50
  3
A9
350
51
  3
B0
350
52
  3
B1
350
53
  3
B2
350
54
  3
B3
350
55
  3
B4
350
56
  3
B5
350
57
  3
B6
350
58
  3
B7
350
59
  3
B8
350
5A
  3
B9
350
5B
  3
C0
350
5C
  3
C1
350
5D
  3
C2
350
5E
  3
C3
350
5F
  3
C4
350
60
  3
C5
350
61
  3
C6
350
62
  3
C7
350
63
  3
C8
350
64
  3
C9
350
65
  3
D0
350
66
  3
D1
350
67
  3
D2
350
68
  0
XRECORD
  5
1A2
102
{ACAD_REACTORS
330
C
102
}
330
C
100
AcDbXrecord
280
     1
  1
DWGPROPS COOKIE
  2

  3

  4

  6

  7

  8
radek.stransky
  9

300
=
301
=
302
=
303
=
304
=
305
=
306
=
307
=
308
=
309
=
 40
0.0
 41
2459293.283527836
 42
2459293.283528067
  1

 90
        0
  0
LAYOUT
  5
1E
102
{ACAD_REACTORS
330
1A
102
}
330
1A
100
AcDbPlotSettings
  1

  2
none_device
  4

  6

 40
0.0
 41
0.0
 42
0.0
 43
0.0
 44
0.0
 45
0.0
 46
0.0
 47
0.0
 48
0.0
 49
0.0
140
0.0
141
0.0
142
1.0
143
1.0
 70
   688
 72
     1
 73
     0
 74
     5
  7

 75
    16
147
1.0
148
0.0
149
0.0
100
AcDbLayout
  1
Layout1
 70
     1
 71
     1
 10
0.0
 20
0.0
 11
420.0
 21
297.0
 12
0.0
 22
0.0
 32
0.0
 14
1.0000000000E+20
 24
1.0000000000E+20
 34
1.0000000000E+20
 15
-1.0000000000E+20
 25
-1.0000000000E+20
 35
-1.0000000000E+20
146
0.0
 13
0.0
 23
0.0
 33
0.0
 16
1.0
 26
0.0
 36
0.0
 17
0.0
 27
1.0
 37
0.0
 76
     0
330
1B
  0
LAYOUT
  5
26
102
{ACAD_REACTORS
330
1A
102
}
330
1A
100
AcDbPlotSettings
  1

  2
none_device
  4

  6

 40
0.0
 41
0.0
 42
0.0
 43
0.0
 44
0.0
 45
0.0
 46
0.0
 47
0.0
 48
0.0
 49
0.0
140
0.0
141
0.0
142
1.0
143
1.0
 70
   688
 72
     1
 73
     0
 74
     5
  7

 75
    16
147
1.0
148
0.0
149
0.0
100
AcDbLayout
  1
Layout2
 70
     1
 71
     2
 10
0.0
 20
0.0
 11
0.0
 21
0.0
 12
0.0
 22
0.0
 32
0.0
 14
0.0
 24
0.0
 34
0.0
 15
0.0
 25
0.0
 35
0.0
146
0.0
 13
0.0
 23
0.0
 33
0.0
 16
1.0
 26
0.0
 36
0.0
 17
0.0
 27
1.0
 37
0.0
 76
     0
330
23
  0
LAYOUT
  5
22
102
{ACAD_REACTORS
330
1A
102
}
330
1A
100
AcDbPlotSettings
  1

  2
none_device
  4
Letter_(8.50_x_11.00_Inches)
  6

 40
6.35
 41
6.35
 42
6.35000508
 43
6.35000508
 44
215.9
 45
279.4
 46
0.0
 47
0.0
 48
0.0
 49
0.0
140
0.0
141
0.0
142
1.0
143
1.0
 70
  1712
 72
     1
 73
     0
 74
     0
  7

 75
     0
147
1.0
148
0.0
149
0.0
100
AcDbLayout
  1
Model
 70
     1
 71
     0
 10
0.0
 20
0.0
 11
20000.0
 21
10000.0
 12
0.0
 22
0.0
 32
0.0
 14
0.0
 24
0.0
 34
0.0
 15
20000.0
 25
10000.0
 35
0.0
146
0.0
 13
0.0
 23
0.0
 33
0.0
 16
1.0
 26
0.0
 36
0.0
 17
0.0
 27
1.0
 37
0.0
 76
     0
330
1F
331
29
  0
MLINESTYLE
  5
18
102
{ACAD_REACTORS
330
17
102
}
330
17
100
AcDbMlineStyle
  2
Standard
 70
     0
  3

 62
   256
 51
90.0
 52
90.0
 71
     2
 49
0.5
 62
   256
  6
BYLAYER
 49
-0.5
 62
   256
  6
BYLAYER
  0
ACDBPLACEHOLDER
  5
F
102
{ACAD_REACTORS
330
E
102
}
330
E
  0
SCALE
  5
48
102
{ACAD_REACTORS
330
47
102
}
330
47
100
AcDbScale
 70
     0
300
1:1
140
1.0
141
1.0
290
     1
  0
SCALE
  5
49
102
{ACAD_REACTORS
330
47
102
}
330
47
100
AcDbScale
 70
     0
300
1:2
140
1.0
141
2.0
290
     0
  0
SCALE
  5
4A
102
{ACAD_REACTORS
330
47
102
}
330
47
100
AcDbScale
 70
     0
300
1:4
140
1.0
141
4.0
290
     0
  0
SCALE
  5
4B
102
{ACAD_REACTORS
330
47
102
}
330
47
100
AcDbScale
 70
     0
300
1:5
140
1.0
141
5.0
290
     0
  0
SCALE
  5
4C
102
{ACAD_REACTORS
330
47
102
}
330
47
100
AcDbScale
 70
     0
300
1:8
140
1.0
141
8.0
290
     0
  0
SCALE
  5
4D
102
{ACAD_REACTORS
330
47
102
}
330
47
100
AcDbScale
 70
     0
300
1:10
140
1.0
141
10.0
290
     0
  0
SCALE
  5
4E
102
{ACAD_REACTORS
330
47
102
}
330
47
100
AcDbScale
 70
     0
300
1:16
140
1.0
141
16.0
290
     0
  0
SCALE
  5
4F
102
{ACAD_REACTORS
330
47
102
}
330
47
100
AcDbScale
 70
     0
300
1:20
140
1.0
141
20.0
290
     0
  0
SCALE
  5
50
102
{ACAD_REACTORS
330
47
102
}
330
47
100
AcDbScale
 70
     0
300
1:30
140
1.0
141
30.0
290
     0
  0
SCALE
  5
51
102
{ACAD_REACTORS
330
47
102
}
330
47
100
AcDbScale
 70
     0
300
1:40
140
1.0
141
40.0
290
     0
  0
SCALE
  5
52
102
{ACAD_REACTORS
330
47
102
}
330
47
100
AcDbScale
 70
     0
300
1:50
140
1.0
141
50.0
290
     0
  0
SCALE
  5
53
102
{ACAD_REACTORS
330
47
102
}
330
47
100
AcDbScale
 70
     0
300
1:100
140
1.0
141
100.0
290
     0
  0
SCALE
  5
54
102
{ACAD_REACTORS
330
47
102
}
330
47
100
AcDbScale
 70
     0
300
2:1
140
2.0
141
1.0
290
     0
  0
SCALE
  5
55
102
{ACAD_REACTORS
330
47
102
}
330
47
100
AcDbScale
 70
     0
300
4:1
140
4.0
141
1.0
290
     0
  0
SCALE
  5
56
102
{ACAD_REACTORS
330
47
102
}
330
47
100
AcDbScale
 70
     0
300
8:1
140
8.0
141
1.0
290
     0
  0
SCALE
  5
57
102
{ACAD_REACTORS
330
47
102
}
330
47
100
AcDbScale
 70
     0
300
10:1
140
10.0
141
1.0
290
     0
  0
SCALE
  5
58
102
{ACAD_REACTORS
330
47
102
}
330
47
100
AcDbScale
 70
     0
300
100:1
140
100.0
141
1.0
290
     0
  0
SCALE
  5
59
102
{ACAD_REACTORS
330
47
102
}
330
47
100
AcDbScale
 70
     0
300
1/128" = 1'-0"
140
0.0078125
141
12.0
290
     0
  0
SCALE
  5
5A
102
{ACAD_REACTORS
330
47
102
}
330
47
100
AcDbScale
 70
     0
300
1/64" = 1'-0"
140
0.015625
141
12.0
290
     0
  0
SCALE
  5
5B
102
{ACAD_REACTORS
330
47
102
}
330
47
100
AcDbScale
 70
     0
300
1/32" = 1'-0"
140
0.03125
141
12.0
290
     0
  0
SCALE
  5
5C
102
{ACAD_REACTORS
330
47
102
}
330
47
100
AcDbScale
 70
     0
300
1/16" = 1'-0"
140
0.0625
141
12.0
290
     0
  0
SCALE
  5
5D
102
{ACAD_REACTORS
330
47
102
}
330
47
100
AcDbScale
 70
     0
300
3/32" = 1'-0"
140
0.09375
141
12.0
290
     0
  0
SCALE
  5
5E
102
{ACAD_REACTORS
330
47
102
}
330
47
100
AcDbScale
 70
     0
300
1/8" = 1'-0"
140
0.125
141
12.0
290
     0
  0
SCALE
  5
5F
102
{ACAD_REACTORS
330
47
102
}
330
47
100
AcDbScale
 70
     0
300
3/16" = 1'-0"
140
0.1875
141
12.0
290
     0
  0
SCALE
  5
60
102
{ACAD_REACTORS
330
47
102
}
330
47
100
AcDbScale
 70
     0
300
1/4" = 1'-0"
140
0.25
141
12.0
290
     0
  0
SCALE
  5
61
102
{ACAD_REACTORS
330
47
102
}
330
47
100
AcDbScale
 70
     0
300
3/8" = 1'-0"
140
0.375
141
12.0
290
     0
  0
SCALE
  5
62
102
{ACAD_REACTORS
330
47
102
}
330
47
100
AcDbScale
 70
     0
300
1/2" = 1'-0"
140
0.5
141
12.0
290
     0
  0
SCALE
  5
63
102
{ACAD_REACTORS
330
47
102
}
330
47
100
AcDbScale
 70
     0
300
3/4" = 1'-0"
140
0.75
141
12.0
290
     0
  0
SCALE
  5
64
102
{ACAD_REACTORS
330
47
102
}
330
47
100
AcDbScale
 70
     0
300
1" = 1'-0"
140
1.0
141
12.0
290
     0
  0
SCALE
  5
65
102
{ACAD_REACTORS
330
47
102
}
330
47
100
AcDbScale
 70
     0
300
1-1/2" = 1'-0"
140
1.5
141
12.0
290
     0
  0
SCALE
  5
66
102
{ACAD_REACTORS
330
47
102
}
330
47
100
AcDbScale
 70
     0
300
3" = 1'-0"
140
3.0
141
12.0
290
     0
  0
SCALE
  5
67
102
{ACAD_REACTORS
330
47
102
}
330
47
100
AcDbScale
 70
     0
300
6" = 1'-0"
140
6.0
141
12.0
290
     0
  0
SCALE
  5
68
102
{ACAD_REACTORS
330
47
102
}
330
47
100
AcDbScale
 70
     0
300
1'-0" = 1'-0"
140
12.0
141
12.0
290
     0
  0
ENDSEC
  0
EOF
