  0
SECTION
  2
HEADER
  9
$ACADVER
  1
AC1015
  9
$ACADMAINTVER
 70
     6
  9
$DWGCODEPAGE
  3
ANSI_1250
  9
$INSBASE
 10
0.0
 20
0.0
 30
0.0
  9
$EXTMIN
 10
0.0
 20
0.0
 30
0.0
  9
$EXTMAX
 10
20000.0
 20
10000.0
 30
0.0
  9
$LIMMIN
 10
0.0
 20
0.0
  9
$LIMMAX
 10
20000.0
 20
10000.0
  9
$ORTHOMODE
 70
     0
  9
$REGENMODE
 70
     1
  9
$FILLMODE
 70
     1
  9
$QTEXTMODE
 70
     0
  9
$MIRRTEXT
 70
     1
  9
$LTSCALE
 40
1.0
  9
$ATTMODE
 70
     1
  9
$TEXTSIZE
 40
2.0
  9
$TRACEWID
 40
1.0
  9
$TEXTSTYLE
  7
Standard
  9
$CLAYER
  8
0
  9
$CELTYPE
  6
ByLayer
  9
$CECOLOR
 62
   256
  9
$CELTSCALE
 40
1.0
  9
$DISPSILH
 70
     0
  9
$DIMSCALE
 40
1.0
  9
$DIMASZ
 40
2.0
  9
$DIMEXO
 40
1.0
  9
$DIMDLI
 40
3.75
  9
$DIMRND
 40
0.0
  9
$DIMDLE
 40
0.0
  9
$DIMEXE
 40
1.0
  9
$DIMTP
 40
0.0
  9
$DIMTM
 40
0.0
  9
$DIMTXT
 40
2.0
  9
$DIMCEN
 40
2.5
  9
$DIMTSZ
 40
0.0
  9
$DIMTOL
 70
     0
  9
$DIMLIM
 70
     0
  9
$DIMTIH
 70
     1
  9
$DIMTOH
 70
     1
  9
$DIMSE1
 70
     0
  9
$DIMSE2
 70
     0
  9
$DIMTAD
 70
     1
  9
$DIMZIN
 70
     0
  9
$DIMBLK
  1

  9
$DIMASO
 70
     1
  9
$DIMSHO
 70
     1
  9
$DIMPOST
  1

  9
$DIMAPOST
  1

  9
$DIMALT
 70
     0
  9
$DIMALTD
 70
     3
  9
$DIMALTF
 40
0.0393700787
  9
$DIMLFAC
 40
1.0
  9
$DIMTOFL
 70
     1
  9
$DIMTVP
 40
0.0
  9
$DIMTIX
 70
     0
  9
$DIMSOXD
 70
     0
  9
$DIMSAH
 70
     0
  9
$DIMBLK1
  1

  9
$DIMBLK2
  1

  9
$DIMSTYLE
  2
ISO-25
  9
$DIMCLRD
 70
     0
  9
$DIMCLRE
 70
     0
  9
$DIMCLRT
 70
     0
  9
$DIMTFAC
 40
1.0
  9
$DIMGAP
 40
1.524
  9
$DIMJUST
 70
     0
  9
$DIMSD1
 70
     0
  9
$DIMSD2
 70
     0
  9
$DIMTOLJ
 70
     0
  9
$DIMTZIN
 70
     0
  9
$DIMALTZ
 70
     0
  9
$DIMALTTZ
 70
     0
  9
$DIMUPT
 70
     0
  9
$DIMDEC
 70
     2
  9
$DIMTDEC
 70
     0
  9
$DIMALTU
 70
     2
  9
$DIMALTTD
 70
     3
  9
$DIMTXSTY
  7
Standard
  9
$DIMAUNIT
 70
     0
  9
$DIMADEC
 70
     2
  9
$DIMALTRND
 40
0.0
  9
$DIMAZIN
 70
     0
  9
$DIMDSEP
 70
    44
  9
$DIMATFIT
 70
     3
  9
$DIMFRAC
 70
     0
  9
$DIMLDRBLK
  1

  9
$DIMLUNIT
 70
     2
  9
$DIMLWD
 70
    -2
  9
$DIMLWE
 70
    -2
  9
$DIMTMOVE
 70
     0
  9
$LUNITS
 70
     2
  9
$LUPREC
 70
     3
  9
$SKETCHINC
 40
1.0
  9
$FILLETRAD
 40
10.0
  9
$AUNITS
 70
     0
  9
$AUPREC
 70
     2
  9
$MENU
  1
.
  9
$ELEVATION
 40
0.0
  9
$PELEVATION
 40
0.0
  9
$THICKNESS
 40
0.0
  9
$LIMCHECK
 70
     0
  9
$CHAMFERA
 40
0.0
  9
$CHAMFERB
 40
0.0
  9
$CHAMFERC
 40
0.0
  9
$CHAMFERD
 40
0.0
  9
$SKPOLY
 70
     0
  9
$TDCREATE
 40
2459129.413481169
  9
$TDUCREATE
 40
2459129.330147835
  9
$TDUPDATE
 40
2459129.41348147
  9
$TDUUPDATE
 40
2459129.330148137
  9
$TDINDWG
 40
0.0000000116
  9
$TDUSRTIMER
 40
0.0000000116
  9
$USRTIMER
 70
     1
  9
$ANGBASE
 50
0.0
  9
$ANGDIR
 70
     0
  9
$PDMODE
 70
     0
  9
$PDSIZE
 40
-1.0
  9
$PLINEWID
 40
0.0
  9
$SPLFRAME
 70
     0
  9
$SPLINETYPE
 70
     6
  9
$SPLINESEGS
 70
     8
  9
$HANDSEED
  5
4EF
  9
$SURFTAB1
 70
     6
  9
$SURFTAB2
 70
     6
  9
$SURFTYPE
 70
     6
  9
$SURFU
 70
     6
  9
$SURFV
 70
     6
  9
$UCSBASE
  2

  9
$UCSNAME
  2

  9
$UCSORG
 10
0.0
 20
0.0
 30
0.0
  9
$UCSXDIR
 10
1.0
 20
0.0
 30
0.0
  9
$UCSYDIR
 10
0.0
 20
1.0
 30
0.0
  9
$UCSORTHOREF
  2

  9
$UCSORTHOVIEW
 70
     0
  9
$UCSORGTOP
 10
0.0
 20
0.0
 30
0.0
  9
$UCSORGBOTTOM
 10
0.0
 20
0.0
 30
0.0
  9
$UCSORGLEFT
 10
0.0
 20
0.0
 30
0.0
  9
$UCSORGRIGHT
 10
0.0
 20
0.0
 30
0.0
  9
$UCSORGFRONT
 10
0.0
 20
0.0
 30
0.0
  9
$UCSORGBACK
 10
0.0
 20
0.0
 30
0.0
  9
$PUCSBASE
  2

  9
$PUCSNAME
  2

  9
$PUCSORG
 10
0.0
 20
0.0
 30
0.0
  9
$PUCSXDIR
 10
1.0
 20
0.0
 30
0.0
  9
$PUCSYDIR
 10
0.0
 20
1.0
 30
0.0
  9
$PUCSORTHOREF
  2

  9
$PUCSORTHOVIEW
 70
     0
  9
$PUCSORGTOP
 10
0.0
 20
0.0
 30
0.0
  9
$PUCSORGBOTTOM
 10
0.0
 20
0.0
 30
0.0
  9
$PUCSORGLEFT
 10
0.0
 20
0.0
 30
0.0
  9
$PUCSORGRIGHT
 10
0.0
 20
0.0
 30
0.0
  9
$PUCSORGFRONT
 10
0.0
 20
0.0
 30
0.0
  9
$PUCSORGBACK
 10
0.0
 20
0.0
 30
0.0
  9
$USERI1
 70
     0
  9
$USERI2
 70
     0
  9
$USERI3
 70
     0
  9
$USERI4
 70
     0
  9
$USERI5
 70
     0
  9
$USERR1
 40
0.0
  9
$USERR2
 40
0.0
  9
$USERR3
 40
0.0
  9
$USERR4
 40
0.0
  9
$USERR5
 40
0.0
  9
$WORLDVIEW
 70
     1
  9
$SHADEDGE
 70
     3
  9
$SHADEDIF
 70
    70
  9
$TILEMODE
 70
     1
  9
$MAXACTVP
 70
    64
  9
$PINSBASE
 10
0.0
 20
0.0
 30
0.0
  9
$PLIMCHECK
 70
     0
  9
$PEXTMIN
 10
1.0000000000E+20
 20
1.0000000000E+20
 30
1.0000000000E+20
  9
$PEXTMAX
 10
-1.0000000000E+20
 20
-1.0000000000E+20
 30
-1.0000000000E+20
  9
$PLIMMIN
 10
0.0
 20
0.0
  9
$PLIMMAX
 10
420.0
 20
297.0
  9
$UNITMODE
 70
     0
  9
$VISRETAIN
 70
     1
  9
$PLINEGEN
 70
     0
  9
$PSLTSCALE
 70
     1
  9
$TREEDEPTH
 70
  3020
  9
$CMLSTYLE
  2
Standard
  9
$CMLJUST
 70
     0
  9
$CMLSCALE
 40
20.0
  9
$PROXYGRAPHICS
 70
     1
  9
$MEASUREMENT
 70
     1
  9
$CELWEIGHT
370
    -1
  9
$ENDCAPS
280
     0
  9
$JOINSTYLE
280
     0
  9
$LWDISPLAY
290
     1
  9
$INSUNITS
 70
     4
  9
$HYPERLINKBASE
  1

  9
$STYLESHEET
  1

  9
$XEDIT
290
     1
  9
$CEPSNTYPE
380
     0
  9
$PSTYLEMODE
290
     1
  9
$FINGERPRINTGUID
  2
{59adeee8-16c0-4406-8bcf-94a62baed022}
  9
$VERSIONGUID
  2
{FAEB1C32-E019-11D5-929B-00C0DF256EC4}
  9
$EXTNAMES
290
     1
  9
$PSVPSCALE
 40
0.0
  9
$OLESTARTUP
290
     0
  0
ENDSEC
  0
SECTION
  2
CLASSES
  0
CLASS
  1
ACDBDICTIONARYWDFLT
  2
AcDbDictionaryWithDefault
  3
ObjectDBX Classes
 90
        0
280
     0
281
     0
  0
CLASS
  1
VISUALSTYLE
  2
AcDbVisualStyle
  3
ObjectDBX Classes
 90
     4095
280
     0
281
     0
  0
CLASS
  1
MATERIAL
  2
AcDbMaterial
  3
ObjectDBX Classes
 90
     1153
280
     0
281
     0
  0
CLASS
  1
SCALE
  2
AcDbScale
  3
ObjectDBX Classes
 90
     1153
280
     0
281
     0
  0
CLASS
  1
TABLESTYLE
  2
AcDbTableStyle
  3
ObjectDBX Classes
 90
     4095
280
     0
281
     0
  0
CLASS
  1
MLEADERSTYLE
  2
AcDbMLeaderStyle
  3
ACDB_MLEADERSTYLE_CLASS
 90
     4095
280
     0
281
     0
  0
CLASS
  1
SUN
  2
AcDbSun
  3
SCENEOE
 90
     1153
280
     0
281
     0
  0
CLASS
  1
ACDBPLACEHOLDER
  2
AcDbPlaceHolder
  3
ObjectDBX Classes
 90
        0
280
     0
281
     0
  0
CLASS
  1
LAYOUT
  2
AcDbLayout
  3
ObjectDBX Classes
 90
        0
280
     0
281
     0
  0
ENDSEC
  0
SECTION
  2
TABLES
  0
TABLE
  2
VPORT
  5
8
330
0
100
AcDbSymbolTable
 70
     1
  0
VPORT
  5
29
330
8
100
AcDbSymbolTableRecord
100
AcDbViewportTableRecord
  2
*Active
 70
     0
 10
0.0
 20
0.0
 11
1.0
 21
1.0
 12
10000.0
 22
5000.0
 13
0.0
 23
0.0
 14
10.0
 24
10.0
 15
10.0
 25
10.0
 16
0.0
 26
0.0
 36
1.0
 17
0.0
 27
0.0
 37
0.0
 40
10000.0
 41
2.0
 42
50.0
 43
0.0
 44
0.0
 50
0.0
 51
0.0
 71
     0
 72
  2000
 73
     1
 74
     3
 75
     0
 76
     0
 77
     0
 78
     0
281
     0
 65
     1
110
0.0
120
0.0
130
0.0
111
1.0
121
0.0
131
0.0
112
0.0
122
1.0
132
0.0
 79
     0
146
0.0
  0
ENDTAB
  0
TABLE
  2
LTYPE
  5
5
330
0
100
AcDbSymbolTable
 70
     6
  0
LTYPE
  5
14
330
5
100
AcDbSymbolTableRecord
100
AcDbLinetypeTableRecord
  2
ByBlock
 70
     0
  3

 72
    65
 73
     0
 40
0.0
  0
LTYPE
  5
15
330
5
100
AcDbSymbolTableRecord
100
AcDbLinetypeTableRecord
  2
ByLayer
 70
     0
  3

 72
    65
 73
     0
 40
0.0
  0
LTYPE
  5
16
330
5
100
AcDbSymbolTableRecord
100
AcDbLinetypeTableRecord
  2
Continuous
 70
     0
  3
Solid line
 72
    65
 73
     0
 40
0.0
  0
LTYPE
  5
6E
330
5
100
AcDbSymbolTableRecord
100
AcDbLinetypeTableRecord
  2
HIDDEN
 70
     0
  3
Hidden __ __ __ __ __ __ __ __ __ __ __ __ __ __
 72
    65
 73
     2
 40
1.905
 49
1.27
 74
     0
 49
-0.635
 74
     0
  0
LTYPE
  5
6F
330
5
100
AcDbSymbolTableRecord
100
AcDbLinetypeTableRecord
  2
PHANTOM
 70
     0
  3
Phantom ______  __  __  ______  __  __  ______
 72
    65
 73
     6
 40
12.7
 49
6.35
 74
     0
 49
-1.27
 74
     0
 49
1.27
 74
     0
 49
-1.27
 74
     0
 49
1.27
 74
     0
 49
-1.27
 74
     0
  0
LTYPE
  5
70
330
5
100
AcDbSymbolTableRecord
100
AcDbLinetypeTableRecord
  2
CENTER
 70
     0
  3
Center ____ _ ____ _ ____ _ ____ _ ____ _ ____
 72
    65
 73
     4
 40
10.16
 49
6.35
 74
     0
 49
-1.27
 74
     0
 49
1.27
 74
     0
 49
-1.27
 74
     0
  0
LTYPE
  5
71
330
5
100
AcDbSymbolTableRecord
100
AcDbLinetypeTableRecord
  2
CENTERX2
 70
     0
  3
Center (2x) ________  __  ________  __  _____
 72
    65
 73
     4
 40
20.32
 49
12.7
 74
     0
 49
-2.54
 74
     0
 49
2.54
 74
     0
 49
-2.54
 74
     0
  0
LTYPE
  5
72
330
5
100
AcDbSymbolTableRecord
100
AcDbLinetypeTableRecord
  2
DOT2
 70
     0
  3
Dot (.5x) ........................................
 72
    65
 73
     2
 40
0.635
 49
0.0
 74
     0
 49
-0.635
 74
     0
  0
ENDTAB
  0
TABLE
  2
LAYER
  5
2
330
0
100
AcDbSymbolTable
 70
    13
  0
LAYER
  5
10
330
2
100
AcDbSymbolTableRecord
100
AcDbLayerTableRecord
  2
0
 70
     0
 62
     7
  6
Continuous
370
    -3
390
F
  0
LAYER
  5
73
330
2
100
AcDbSymbolTableRecord
100
AcDbLayerTableRecord
  2
FORMAT
 70
     0
 62
     7
  6
Continuous
370
    -3
390
F
  0
LAYER
  5
74
330
2
100
AcDbSymbolTableRecord
100
AcDbLayerTableRecord
  2
OSA
 70
     0
 62
     7
  6
CENTER
370
    -3
390
F
  0
LAYER
  5
75
330
2
100
AcDbSymbolTableRecord
100
AcDbLayerTableRecord
  2
0_35
 70
     0
 62
     7
  6
Continuous
370
    35
390
F
  0
LAYER
  5
76
330
2
100
AcDbSymbolTableRecord
100
AcDbLayerTableRecord
  2
0_5
 70
     0
 62
     7
  6
Continuous
370
    50
390
F
  0
LAYER
  5
77
330
2
100
AcDbSymbolTableRecord
100
AcDbLayerTableRecord
  2
0_25
 70
     0
 62
     7
  6
Continuous
370
    25
390
F
  0
LAYER
  5
78
330
2
100
AcDbSymbolTableRecord
100
AcDbLayerTableRecord
  2
0_18
 70
     0
 62
     7
  6
Continuous
370
    -3
390
F
  0
LAYER
  5
79
330
2
100
AcDbSymbolTableRecord
100
AcDbLayerTableRecord
  2
SLD-0
 70
     0
 62
   179
  6
Continuous
370
    -3
390
F
  0
LAYER
  5
7A
330
2
100
AcDbSymbolTableRecord
100
AcDbLayerTableRecord
  2
KOTY
 70
     0
 62
     7
  6
Continuous
370
    -3
390
F
  0
LAYER
  5
7B
330
2
100
AcDbSymbolTableRecord
100
AcDbLayerTableRecord
  2
SILNA
 70
     0
 62
   179
  6
Continuous
370
    -3
390
F
  0
LAYER
  5
7C
330
2
100
AcDbSymbolTableRecord
100
AcDbLayerTableRecord
  2
0_18_1
 70
     0
 62
   179
  6
Continuous
370
    -3
390
F
  0
LAYER
  5
7D
330
2
100
AcDbSymbolTableRecord
100
AcDbLayerTableRecord
  2
0_35_1
 70
     0
 62
   179
  6
Continuous
370
    35
390
F
  0
LAYER
  5
7E
330
2
100
AcDbSymbolTableRecord
100
AcDbLayerTableRecord
  2
0_5_1
 70
     0
 62
   179
  6
Continuous
370
    50
390
F
  0
ENDTAB
  0
TABLE
  2
STYLE
  5
3
330
0
100
AcDbSymbolTable
 70
     1
  0
STYLE
  5
11
330
3
100
AcDbSymbolTableRecord
100
AcDbTextStyleTableRecord
  2
Standard
 70
     0
 40
0.0
 41
1.0
 50
0.0
 71
     0
 42
2.0
  3
txt
  4

  0
ENDTAB
  0
TABLE
  2
VIEW
  5
6
330
0
100
AcDbSymbolTable
 70
     0
  0
ENDTAB
  0
TABLE
  2
UCS
  5
7
330
0
100
AcDbSymbolTable
 70
     0
  0
ENDTAB
  0
TABLE
  2
APPID
  5
9
330
0
100
AcDbSymbolTable
 70
     1
  0
APPID
  5
12
330
9
100
AcDbSymbolTableRecord
100
AcDbRegAppTableRecord
  2
ACAD
 70
     0
  0
ENDTAB
  0
TABLE
  2
DIMSTYLE
  5
A
330
0
100
AcDbSymbolTable
 70
     1
100
AcDbDimStyleTable
  0
DIMSTYLE
105
27
330
A
100
AcDbSymbolTableRecord
100
AcDbDimStyleTableRecord
  2
ISO-25
 70
     0
 41
2.5
 42
0.625
 43
3.75
 44
1.25
 73
     0
 74
     0
 77
     1
 78
     8
140
2.5
141
2.5
143
0.0393700787
147
0.625
171
     3
172
     1
178
     0
271
     2
272
     2
274
     3
278
    44
283
     0
284
     8
340
11
  0
ENDTAB
  0
TABLE
  2
BLOCK_RECORD
  5
1
330
0
100
AcDbSymbolTable
 70
     7
  0
BLOCK_RECORD
  5
1F
330
1
100
AcDbSymbolTableRecord
100
AcDbBlockTableRecord
  2
*Model_Space
340
22
  0
BLOCK_RECORD
  5
1B
330
1
100
AcDbSymbolTableRecord
100
AcDbBlockTableRecord
  2
*Paper_Space
340
1E
  0
BLOCK_RECORD
  5
23
330
1
100
AcDbSymbolTableRecord
100
AcDbBlockTableRecord
  2
*Paper_Space0
340
26
  0
BLOCK_RECORD
  5
325
330
1
100
AcDbSymbolTableRecord
100
AcDbBlockTableRecord
  2
SW_CENTERMARKSYMBOL_0
340
0
102
{BLKREFS
331
330
102
}
  0
BLOCK_RECORD
  5
331
330
1
100
AcDbSymbolTableRecord
100
AcDbBlockTableRecord
  2
SW_CENTERMARKSYMBOL_1
340
0
102
{BLKREFS
331
33C
102
}
  0
BLOCK_RECORD
  5
4BE
330
1
100
AcDbSymbolTableRecord
100
AcDbBlockTableRecord
  2
SW_CENTERMARKSYMBOL_2
340
0
102
{BLKREFS
331
4C9
102
}
  0
BLOCK_RECORD
  5
4CA
330
1
100
AcDbSymbolTableRecord
100
AcDbBlockTableRecord
  2
SW_CENTERMARKSYMBOL_3
340
0
102
{BLKREFS
331
4D5
102
}
  0
BLOCK_RECORD
  5
4D6
330
1
100
AcDbSymbolTableRecord
100
AcDbBlockTableRecord
  2
SW_CENTERMARKSYMBOL_4
340
0
102
{BLKREFS
331
4E1
102
}
  0
BLOCK_RECORD
  5
4E2
330
1
100
AcDbSymbolTableRecord
100
AcDbBlockTableRecord
  2
SW_CENTERMARKSYMBOL_5
340
0
102
{BLKREFS
331
4ED
102
}
  0
ENDTAB
  0
ENDSEC
  0
SECTION
  2
BLOCKS
  0
BLOCK
  5
20
330
1F
100
AcDbEntity
  8
0
100
AcDbBlockBegin
  2
*Model_Space
 70
     0
 10
0.0
 20
0.0
 30
0.0
  3
*Model_Space
  1

  0
ENDBLK
  5
21
330
1F
100
AcDbEntity
  8
0
100
AcDbBlockEnd
  0
BLOCK
  5
1C
330
1B
100
AcDbEntity
 67
     1
  8
0
100
AcDbBlockBegin
  2
*Paper_Space
 70
     0
 10
0.0
 20
0.0
 30
0.0
  3
*Paper_Space
  1

  0
ENDBLK
  5
1D
330
1B
100
AcDbEntity
 67
     1
  8
0
100
AcDbBlockEnd
  0
BLOCK
  5
24
330
23
100
AcDbEntity
  8
0
100
AcDbBlockBegin
  2
*Paper_Space0
 70
     0
 10
0.0
 20
0.0
 30
0.0
  3
*Paper_Space0
  1

  0
ENDBLK
  5
25
330
23
100
AcDbEntity
  8
0
100
AcDbBlockEnd
  0
BLOCK
  5
326
330
325
100
AcDbEntity
  8
0
100
AcDbBlockBegin
  2
SW_CENTERMARKSYMBOL_0
 70
     0
 10
0.0
 20
0.0
 30
0.0
  3
SW_CENTERMARKSYMBOL_0
  1

  0
LINE
  5
328
330
325
100
AcDbEntity
  8
SLD-0
 62
     0
100
AcDbLine
 10
0.0
 20
0.0
 30
0.0
 11
0.0
 21
2.5
 31
0.0
  0
LINE
  5
329
330
325
100
AcDbEntity
  8
SLD-0
 62
     0
100
AcDbLine
 10
0.0
 20
0.0
 30
0.0
 11
-2.5
 21
0.0
 31
0.0
  0
LINE
  5
32A
330
325
100
AcDbEntity
  8
SLD-0
 62
     0
100
AcDbLine
 10
0.0
 20
0.0
 30
0.0
 11
0.0
 21
-2.5
 31
0.0
  0
LINE
  5
32B
330
325
100
AcDbEntity
  8
SLD-0
 62
     0
100
AcDbLine
 10
0.0
 20
0.0
 30
0.0
 11
2.5
 21
0.0
 31
0.0
  0
LINE
  5
32C
330
325
100
AcDbEntity
  8
SLD-0
 62
     0
100
AcDbLine
 10
0.0
 20
2.5
 30
0.0
 11
0.0
 21
4.0
 31
0.0
  0
LINE
  5
32D
330
325
100
AcDbEntity
  8
SLD-0
 62
     0
100
AcDbLine
 10
-2.5
 20
0.0
 30
0.0
 11
-4.0
 21
0.0
 31
0.0
  0
LINE
  5
32E
330
325
100
AcDbEntity
  8
SLD-0
 62
     0
100
AcDbLine
 10
0.0
 20
-2.5
 30
0.0
 11
0.0
 21
-4.0
 31
0.0
  0
LINE
  5
32F
330
325
100
AcDbEntity
  8
SLD-0
 62
     0
100
AcDbLine
 10
2.5
 20
0.0
 30
0.0
 11
4.0
 21
0.0
 31
0.0
  0
ENDBLK
  5
327
330
325
100
AcDbEntity
  8
0
100
AcDbBlockEnd
  0
BLOCK
  5
332
330
331
100
AcDbEntity
  8
0
100
AcDbBlockBegin
  2
SW_CENTERMARKSYMBOL_1
 70
     0
 10
0.0
 20
0.0
 30
0.0
  3
SW_CENTERMARKSYMBOL_1
  1

  0
LINE
  5
334
330
331
100
AcDbEntity
  8
SLD-0
 62
     0
100
AcDbLine
 10
0.0
 20
0.0
 30
0.0
 11
0.0
 21
2.5
 31
0.0
  0
LINE
  5
335
330
331
100
AcDbEntity
  8
SLD-0
 62
     0
100
AcDbLine
 10
0.0
 20
0.0
 30
0.0
 11
-2.5
 21
0.0
 31
0.0
  0
LINE
  5
336
330
331
100
AcDbEntity
  8
SLD-0
 62
     0
100
AcDbLine
 10
0.0
 20
0.0
 30
0.0
 11
0.0
 21
-2.5
 31
0.0
  0
LINE
  5
337
330
331
100
AcDbEntity
  8
SLD-0
 62
     0
100
AcDbLine
 10
0.0
 20
0.0
 30
0.0
 11
2.5
 21
0.0
 31
0.0
  0
LINE
  5
338
330
331
100
AcDbEntity
  8
SLD-0
 62
     0
100
AcDbLine
 10
0.0
 20
2.5
 30
0.0
 11
0.0
 21
4.0
 31
0.0
  0
LINE
  5
339
330
331
100
AcDbEntity
  8
SLD-0
 62
     0
100
AcDbLine
 10
-2.5
 20
0.0
 30
0.0
 11
-4.0
 21
0.0
 31
0.0
  0
LINE
  5
33A
330
331
100
AcDbEntity
  8
SLD-0
 62
     0
100
AcDbLine
 10
0.0
 20
-2.5
 30
0.0
 11
0.0
 21
-4.0
 31
0.0
  0
LINE
  5
33B
330
331
100
AcDbEntity
  8
SLD-0
 62
     0
100
AcDbLine
 10
2.5
 20
0.0
 30
0.0
 11
4.0
 21
0.0
 31
0.0
  0
ENDBLK
  5
333
330
331
100
AcDbEntity
  8
0
100
AcDbBlockEnd
  0
BLOCK
  5
4BF
330
4BE
100
AcDbEntity
  8
0
100
AcDbBlockBegin
  2
SW_CENTERMARKSYMBOL_2
 70
     0
 10
0.0
 20
0.0
 30
0.0
  3
SW_CENTERMARKSYMBOL_2
  1

  0
LINE
  5
4C1
330
4BE
100
AcDbEntity
  8
SLD-0
 62
     0
100
AcDbLine
 10
0.0
 20
0.0
 30
0.0
 11
0.0
 21
2.5
 31
0.0
  0
LINE
  5
4C2
330
4BE
100
AcDbEntity
  8
SLD-0
 62
     0
100
AcDbLine
 10
0.0
 20
0.0
 30
0.0
 11
-2.5
 21
0.0
 31
0.0
  0
LINE
  5
4C3
330
4BE
100
AcDbEntity
  8
SLD-0
 62
     0
100
AcDbLine
 10
0.0
 20
0.0
 30
0.0
 11
0.0
 21
-2.5
 31
0.0
  0
LINE
  5
4C4
330
4BE
100
AcDbEntity
  8
SLD-0
 62
     0
100
AcDbLine
 10
0.0
 20
0.0
 30
0.0
 11
2.5
 21
0.0
 31
0.0
  0
LINE
  5
4C5
330
4BE
100
AcDbEntity
  8
SLD-0
 62
     0
100
AcDbLine
 10
0.0
 20
2.5
 30
0.0
 11
0.0
 21
4.0
 31
0.0
  0
LINE
  5
4C6
330
4BE
100
AcDbEntity
  8
SLD-0
 62
     0
100
AcDbLine
 10
-2.5
 20
0.0
 30
0.0
 11
-4.0
 21
0.0
 31
0.0
  0
LINE
  5
4C7
330
4BE
100
AcDbEntity
  8
SLD-0
 62
     0
100
AcDbLine
 10
0.0
 20
-2.5
 30
0.0
 11
0.0
 21
-4.0
 31
0.0
  0
LINE
  5
4C8
330
4BE
100
AcDbEntity
  8
SLD-0
 62
     0
100
AcDbLine
 10
2.5
 20
0.0
 30
0.0
 11
4.0
 21
0.0
 31
0.0
  0
ENDBLK
  5
4C0
330
4BE
100
AcDbEntity
  8
0
100
AcDbBlockEnd
  0
BLOCK
  5
4CB
330
4CA
100
AcDbEntity
  8
0
100
AcDbBlockBegin
  2
SW_CENTERMARKSYMBOL_3
 70
     0
 10
0.0
 20
0.0
 30
0.0
  3
SW_CENTERMARKSYMBOL_3
  1

  0
LINE
  5
4CD
330
4CA
100
AcDbEntity
  8
SLD-0
 62
     0
100
AcDbLine
 10
0.0
 20
0.0
 30
0.0
 11
0.0
 21
2.5
 31
0.0
  0
LINE
  5
4CE
330
4CA
100
AcDbEntity
  8
SLD-0
 62
     0
100
AcDbLine
 10
0.0
 20
0.0
 30
0.0
 11
-2.5
 21
0.0
 31
0.0
  0
LINE
  5
4CF
330
4CA
100
AcDbEntity
  8
SLD-0
 62
     0
100
AcDbLine
 10
0.0
 20
0.0
 30
0.0
 11
0.0
 21
-2.5
 31
0.0
  0
LINE
  5
4D0
330
4CA
100
AcDbEntity
  8
SLD-0
 62
     0
100
AcDbLine
 10
0.0
 20
0.0
 30
0.0
 11
2.5
 21
0.0
 31
0.0
  0
LINE
  5
4D1
330
4CA
100
AcDbEntity
  8
SLD-0
 62
     0
100
AcDbLine
 10
0.0
 20
2.5
 30
0.0
 11
0.0
 21
4.0
 31
0.0
  0
LINE
  5
4D2
330
4CA
100
AcDbEntity
  8
SLD-0
 62
     0
100
AcDbLine
 10
-2.5
 20
0.0
 30
0.0
 11
-4.0
 21
0.0
 31
0.0
  0
LINE
  5
4D3
330
4CA
100
AcDbEntity
  8
SLD-0
 62
     0
100
AcDbLine
 10
0.0
 20
-2.5
 30
0.0
 11
0.0
 21
-4.0
 31
0.0
  0
LINE
  5
4D4
330
4CA
100
AcDbEntity
  8
SLD-0
 62
     0
100
AcDbLine
 10
2.5
 20
0.0
 30
0.0
 11
4.0
 21
0.0
 31
0.0
  0
ENDBLK
  5
4CC
330
4CA
100
AcDbEntity
  8
0
100
AcDbBlockEnd
  0
BLOCK
  5
4D7
330
4D6
100
AcDbEntity
  8
0
100
AcDbBlockBegin
  2
SW_CENTERMARKSYMBOL_4
 70
     0
 10
0.0
 20
0.0
 30
0.0
  3
SW_CENTERMARKSYMBOL_4
  1

  0
LINE
  5
4D9
330
4D6
100
AcDbEntity
  8
SLD-0
 62
     0
100
AcDbLine
 10
0.0
 20
0.0
 30
0.0
 11
0.0
 21
2.5
 31
0.0
  0
LINE
  5
4DA
330
4D6
100
AcDbEntity
  8
SLD-0
 62
     0
100
AcDbLine
 10
0.0
 20
0.0
 30
0.0
 11
-2.5
 21
0.0
 31
0.0
  0
LINE
  5
4DB
330
4D6
100
AcDbEntity
  8
SLD-0
 62
     0
100
AcDbLine
 10
0.0
 20
0.0
 30
0.0
 11
0.0
 21
-2.5
 31
0.0
  0
LINE
  5
4DC
330
4D6
100
AcDbEntity
  8
SLD-0
 62
     0
100
AcDbLine
 10
0.0
 20
0.0
 30
0.0
 11
2.5
 21
0.0
 31
0.0
  0
LINE
  5
4DD
330
4D6
100
AcDbEntity
  8
SLD-0
 62
     0
100
AcDbLine
 10
0.0
 20
2.5
 30
0.0
 11
0.0
 21
4.0
 31
0.0
  0
LINE
  5
4DE
330
4D6
100
AcDbEntity
  8
SLD-0
 62
     0
100
AcDbLine
 10
-2.5
 20
0.0
 30
0.0
 11
-4.0
 21
0.0
 31
0.0
  0
LINE
  5
4DF
330
4D6
100
AcDbEntity
  8
SLD-0
 62
     0
100
AcDbLine
 10
0.0
 20
-2.5
 30
0.0
 11
0.0
 21
-4.0
 31
0.0
  0
LINE
  5
4E0
330
4D6
100
AcDbEntity
  8
SLD-0
 62
     0
100
AcDbLine
 10
2.5
 20
0.0
 30
0.0
 11
4.0
 21
0.0
 31
0.0
  0
ENDBLK
  5
4D8
330
4D6
100
AcDbEntity
  8
0
100
AcDbBlockEnd
  0
BLOCK
  5
4E3
330
4E2
100
AcDbEntity
  8
0
100
AcDbBlockBegin
  2
SW_CENTERMARKSYMBOL_5
 70
     0
 10
0.0
 20
0.0
 30
0.0
  3
SW_CENTERMARKSYMBOL_5
  1

  0
LINE
  5
4E5
330
4E2
100
AcDbEntity
  8
SLD-0
 62
     0
100
AcDbLine
 10
0.0
 20
0.0
 30
0.0
 11
0.0
 21
2.5
 31
0.0
  0
LINE
  5
4E6
330
4E2
100
AcDbEntity
  8
SLD-0
 62
     0
100
AcDbLine
 10
0.0
 20
0.0
 30
0.0
 11
-2.5
 21
0.0
 31
0.0
  0
LINE
  5
4E7
330
4E2
100
AcDbEntity
  8
SLD-0
 62
     0
100
AcDbLine
 10
0.0
 20
0.0
 30
0.0
 11
0.0
 21
-2.5
 31
0.0
  0
LINE
  5
4E8
330
4E2
100
AcDbEntity
  8
SLD-0
 62
     0
100
AcDbLine
 10
0.0
 20
0.0
 30
0.0
 11
2.5
 21
0.0
 31
0.0
  0
LINE
  5
4E9
330
4E2
100
AcDbEntity
  8
SLD-0
 62
     0
100
AcDbLine
 10
0.0
 20
2.5
 30
0.0
 11
0.0
 21
4.0
 31
0.0
  0
LINE
  5
4EA
330
4E2
100
AcDbEntity
  8
SLD-0
 62
     0
100
AcDbLine
 10
-2.5
 20
0.0
 30
0.0
 11
-4.0
 21
0.0
 31
0.0
  0
LINE
  5
4EB
330
4E2
100
AcDbEntity
  8
SLD-0
 62
     0
100
AcDbLine
 10
0.0
 20
-2.5
 30
0.0
 11
0.0
 21
-4.0
 31
0.0
  0
LINE
  5
4EC
330
4E2
100
AcDbEntity
  8
SLD-0
 62
     0
100
AcDbLine
 10
2.5
 20
0.0
 30
0.0
 11
4.0
 21
0.0
 31
0.0
  0
ENDBLK
  5
4E4
330
4E2
100
AcDbEntity
  8
0
100
AcDbBlockEnd
  0
ENDSEC
  0
SECTION
  2
ENTITIES
  0
LINE
  5
7F
330
1F
100
AcDbEntity
  8
0
  6
Continuous
 62
     7
370
    25
100
AcDbLine
 10
6666.30633562
 20
4566.2633362206
 30
0.0
 11
6666.30633562
 21
4569.4133362206
 31
0.0
  0
LINE
  5
80
330
1F
100
AcDbEntity
  8
0
  6
Continuous
 62
     7
370
    25
100
AcDbLine
 10
6663.30633562
 20
4569.4133362206
 30
0.0
 11
6663.30633562
 21
4566.2633362206
 31
0.0
  0
ARC
  5
81
330
1F
100
AcDbEntity
  8
0
  6
Continuous
 62
     7
370
    25
100
AcDbCircle
 10
6659.65633562
 20
4566.2633362206
 30
0.0
 40
3.350000000000364
100
AcDbArc
 50
180.0
 51
270.0
  0
ARC
  5
82
330
1F
100
AcDbEntity
  8
0
  6
Continuous
 62
     7
370
    25
100
AcDbCircle
 10
6659.65633562
 20
4566.2633362206
 30
0.0
 40
6.350000000000364
100
AcDbArc
 50
180.0
 51
270.0
  0
LINE
  5
83
330
1F
100
AcDbEntity
  8
0
  6
Continuous
 62
     7
370
    25
100
AcDbLine
 10
6666.30633562
 20
4569.4133362206
 30
0.0
 11
6666.30633562
 21
4571.4133362206
 31
0.0
  0
LINE
  5
84
330
1F
100
AcDbEntity
  8
0
  6
Continuous
 62
     7
370
    25
100
AcDbLine
 10
6663.30633562
 20
4571.4133362206
 30
0.0
 11
6663.30633562
 21
4569.4133362206
 31
0.0
  0
ARC
  5
85
330
1F
100
AcDbEntity
  8
0
  6
Continuous
 62
     7
370
    25
100
AcDbCircle
 10
6659.95633562
 20
4566.2633362206
 30
0.0
 40
3.350000000000364
100
AcDbArc
 50
270.0
 51
0.0
  0
ARC
  5
86
330
1F
100
AcDbEntity
  8
0
  6
Continuous
 62
     7
370
    25
100
AcDbCircle
 10
6659.95633562
 20
4566.2633362206
 30
0.0
 40
6.350000000000364
100
AcDbArc
 50
270.0
 51
0.0
  0
LINE
  5
87
330
1F
100
AcDbEntity
  8
0
  6
Continuous
 62
     7
370
    25
100
AcDbLine
 10
6659.65633562
 20
4559.9133362206
 30
0.0
 11
6659.95633562
 21
4559.9133362206
 31
0.0
  0
LINE
  5
88
330
1F
100
AcDbEntity
  8
0
  6
Continuous
 62
     7
370
    25
100
AcDbLine
 10
6659.95633562
 20
4562.9133362206
 30
0.0
 11
6659.65633562
 21
4562.9133362206
 31
0.0
  0
LINE
  5
89
330
1F
100
AcDbEntity
  8
0
  6
Continuous
 62
     7
370
    25
100
AcDbLine
 10
6653.30633562
 20
4571.4133362206
 30
0.0
 11
6653.30633562
 21
4569.4133362206
 31
0.0
  0
LINE
  5
8A
330
1F
100
AcDbEntity
  8
0
  6
Continuous
 62
     7
370
    25
100
AcDbLine
 10
6656.30633562
 20
4569.4133362206
 30
0.0
 11
6656.30633562
 21
4571.4133362206
 31
0.0
  0
LINE
  5
8B
330
1F
100
AcDbEntity
  8
0
  6
Continuous
 62
     7
370
    25
100
AcDbLine
 10
6653.30633562
 20
4569.4133362206
 30
0.0
 11
6653.30633562
 21
4566.2633362206
 31
0.0
  0
LINE
  5
8C
330
1F
100
AcDbEntity
  8
0
  6
Continuous
 62
     7
370
    25
100
AcDbLine
 10
6656.30633562
 20
4566.2633362206
 30
0.0
 11
6656.30633562
 21
4569.4133362206
 31
0.0
  0
LINE
  5
8D
330
1F
100
AcDbEntity
  8
0
  6
Continuous
 62
     7
370
    25
100
AcDbLine
 10
6490.1739380762
 20
4569.4133362206
 30
0.0
 11
6490.1739380762
 21
4571.4133362206
 31
0.0
  0
LINE
  5
8E
330
1F
100
AcDbEntity
  8
0
  6
Continuous
 62
     7
370
    25
100
AcDbLine
 10
6487.1739380762
 20
4571.4133362206
 30
0.0
 11
6487.1739380762
 21
4569.4133362206
 31
0.0
  0
LINE
  5
8F
330
1F
100
AcDbEntity
  8
0
  6
Continuous
 62
     7
370
    25
100
AcDbLine
 10
6477.1739380762
 20
4571.4133362206
 30
0.0
 11
6477.1739380762
 21
4569.4133362206
 31
0.0
  0
LINE
  5
90
330
1F
100
AcDbEntity
  8
0
  6
Continuous
 62
     7
370
    25
100
AcDbLine
 10
6480.1739380762
 20
4569.4133362206
 30
0.0
 11
6480.1739380762
 21
4571.4133362206
 31
0.0
  0
LINE
  5
91
330
1F
100
AcDbEntity
  8
0
  6
Continuous
 62
     7
370
    25
100
AcDbLine
 10
6480.1739380762
 20
4566.2633362206
 30
0.0
 11
6480.1739380762
 21
4569.4133362206
 31
0.0
  0
LINE
  5
92
330
1F
100
AcDbEntity
  8
0
  6
Continuous
 62
     7
370
    25
100
AcDbLine
 10
6477.1739380762
 20
4569.4133362206
 30
0.0
 11
6477.1739380762
 21
4566.2633362206
 31
0.0
  0
ARC
  5
93
330
1F
100
AcDbEntity
  8
0
  6
Continuous
 62
     7
370
    25
100
AcDbCircle
 10
6483.5239380762
 20
4566.2633362206
 30
0.0
 40
3.350000000000364
100
AcDbArc
 50
180.0
 51
270.0
  0
ARC
  5
94
330
1F
100
AcDbEntity
  8
0
  6
Continuous
 62
     7
370
    25
100
AcDbCircle
 10
6483.5239380762
 20
4566.2633362206
 30
0.0
 40
6.350000000000364
100
AcDbArc
 50
180.0
 51
270.0
  0
LINE
  5
95
330
1F
100
AcDbEntity
  8
0
  6
Continuous
 62
     7
370
    25
100
AcDbLine
 10
6483.8239380762
 20
4562.9133362206
 30
0.0
 11
6483.5239380762
 21
4562.9133362206
 31
0.0
  0
LINE
  5
96
330
1F
100
AcDbEntity
  8
0
  6
Continuous
 62
     7
370
    25
100
AcDbLine
 10
6483.5239380762
 20
4559.9133362206
 30
0.0
 11
6483.8239380762
 21
4559.9133362206
 31
0.0
  0
ARC
  5
97
330
1F
100
AcDbEntity
  8
0
  6
Continuous
 62
     7
370
    25
100
AcDbCircle
 10
6483.8239380762
 20
4566.2633362206
 30
0.0
 40
3.350000000000364
100
AcDbArc
 50
270.0
 51
0.0
  0
ARC
  5
98
330
1F
100
AcDbEntity
  8
0
  6
Continuous
 62
     7
370
    25
100
AcDbCircle
 10
6483.8239380762
 20
4566.2633362206
 30
0.0
 40
6.350000000000364
100
AcDbArc
 50
270.0
 51
0.0
  0
LINE
  5
99
330
1F
100
AcDbEntity
  8
0
  6
Continuous
 62
     7
370
    25
100
AcDbLine
 10
6487.1739380762
 20
4569.4133362206
 30
0.0
 11
6487.1739380762
 21
4566.2633362206
 31
0.0
  0
LINE
  5
9A
330
1F
100
AcDbEntity
  8
0
  6
Continuous
 62
     7
370
    25
100
AcDbLine
 10
6490.1739380762
 20
4566.2633362206
 30
0.0
 11
6490.1739380762
 21
4569.4133362206
 31
0.0
  0
LINE
  5
9B
330
1F
100
AcDbEntity
  8
0
  6
Continuous
 62
     7
370
    25
100
AcDbLine
 10
6720.2401368481
 20
4572.9411213463
 30
0.0
 11
6669.1479206517
 21
4572.9411213463
 31
0.0
  0
LINE
  5
9C
330
1F
100
AcDbEntity
  8
0
  6
Continuous
 62
     7
370
    25
100
AcDbLine
 10
6666.1479206517
 20
4572.9411213463
 30
0.0
 11
6605.1479206517
 21
4572.9411213463
 31
0.0
  0
LINE
  5
9D
330
1F
100
AcDbEntity
  8
0
  6
Continuous
 62
     7
370
    25
100
AcDbLine
 10
6602.1479206517
 20
4572.9411213463
 30
0.0
 11
6541.1479206517
 21
4572.9411213463
 31
0.0
  0
LINE
  5
9E
330
1F
100
AcDbEntity
  8
0
  6
Continuous
 62
     7
370
    25
100
AcDbLine
 10
6538.1479206517
 20
4572.9411213463
 30
0.0
 11
6477.1479206517
 21
4572.9411213463
 31
0.0
  0
LINE
  5
9F
330
1F
100
AcDbEntity
  8
0
  6
Continuous
 62
     7
370
    25
100
AcDbLine
 10
6474.1479206517
 20
4572.9411213463
 30
0.0
 11
6423.2401368481
 21
4572.9411213463
 31
0.0
  0
LINE
  5
A0
330
1F
100
AcDbEntity
  8
0
  6
Continuous
 62
     7
370
    25
100
AcDbLine
 10
6423.2401368481
 20
4572.9411213463
 30
0.0
 11
6413.2401368481
 21
4572.9411213463
 31
0.0
  0
LINE
  5
A1
330
1F
100
AcDbEntity
  8
0
  6
Continuous
 62
     7
370
    25
100
AcDbLine
 10
6730.1479206517
 20
4572.9411213463
 30
0.0
 11
6720.2401368481
 21
4572.9411213463
 31
0.0
  0
LINE
  5
A2
330
1F
100
AcDbEntity
  8
0
  6
Continuous
 62
     7
370
    25
100
AcDbLine
 10
6413.1479206517
 20
4980.4411213463
 30
0.0
 11
6474.1479206517
 21
4980.4411213463
 31
0.0
  0
LINE
  5
A3
330
1F
100
AcDbEntity
  8
0
  6
Continuous
 62
     7
370
    25
100
AcDbLine
 10
6477.1479206517
 20
4980.4411213463
 30
0.0
 11
6538.1479206517
 21
4980.4411213463
 31
0.0
  0
LINE
  5
A4
330
1F
100
AcDbEntity
  8
0
  6
Continuous
 62
     7
370
    25
100
AcDbLine
 10
6541.1479206517
 20
4980.4411213463
 30
0.0
 11
6602.1479206517
 21
4980.4411213463
 31
0.0
  0
LINE
  5
A5
330
1F
100
AcDbEntity
  8
0
  6
Continuous
 62
     7
370
    25
100
AcDbLine
 10
6605.1479206517
 20
4980.4411213463
 30
0.0
 11
6666.1479206517
 21
4980.4411213463
 31
0.0
  0
LINE
  5
A6
330
1F
100
AcDbEntity
  8
0
  6
Continuous
 62
     7
370
    25
100
AcDbLine
 10
6669.1479206517
 20
4980.4411213463
 30
0.0
 11
6730.1479206517
 21
4980.4411213463
 31
0.0
  0
LINE
  5
A7
330
1F
100
AcDbEntity
  8
0
  6
Continuous
 62
     7
370
    25
100
AcDbLine
 10
6730.1479206517
 20
4983.4411213463
 30
0.0
 11
6669.1479206517
 21
4983.4411213463
 31
0.0
  0
LINE
  5
A8
330
1F
100
AcDbEntity
  8
0
  6
Continuous
 62
     7
370
    25
100
AcDbLine
 10
6666.1479206517
 20
4983.4411213463
 30
0.0
 11
6605.1479206517
 21
4983.4411213463
 31
0.0
  0
LINE
  5
A9
330
1F
100
AcDbEntity
  8
0
  6
Continuous
 62
     7
370
    25
100
AcDbLine
 10
6602.1479206517
 20
4983.4411213463
 30
0.0
 11
6541.1479206517
 21
4983.4411213463
 31
0.0
  0
LINE
  5
AA
330
1F
100
AcDbEntity
  8
0
  6
Continuous
 62
     7
370
    25
100
AcDbLine
 10
6538.1479206517
 20
4983.4411213463
 30
0.0
 11
6477.1479206517
 21
4983.4411213463
 31
0.0
  0
LINE
  5
AB
330
1F
100
AcDbEntity
  8
0
  6
Continuous
 62
     7
370
    25
100
AcDbLine
 10
6474.1479206517
 20
4983.4411213463
 30
0.0
 11
6413.1479206517
 21
4983.4411213463
 31
0.0
  0
LINE
  5
AC
330
1F
100
AcDbEntity
  8
0
  6
Continuous
 62
     7
370
    25
100
AcDbLine
 10
6413.1479206517
 20
4768.9411213463
 30
0.0
 11
6474.1479206517
 21
4768.9411213463
 31
0.0
  0
LINE
  5
AD
330
1F
100
AcDbEntity
  8
0
  6
Continuous
 62
     7
370
    25
100
AcDbLine
 10
6477.1479206517
 20
4768.9411213463
 30
0.0
 11
6538.1479206517
 21
4768.9411213463
 31
0.0
  0
LINE
  5
AE
330
1F
100
AcDbEntity
  8
0
  6
Continuous
 62
     7
370
    25
100
AcDbLine
 10
6541.1479206517
 20
4768.9411213463
 30
0.0
 11
6602.1479206517
 21
4768.9411213463
 31
0.0
  0
LINE
  5
AF
330
1F
100
AcDbEntity
  8
0
  6
Continuous
 62
     7
370
    25
100
AcDbLine
 10
6605.1479206517
 20
4768.9411213463
 30
0.0
 11
6666.1479206517
 21
4768.9411213463
 31
0.0
  0
LINE
  5
B0
330
1F
100
AcDbEntity
  8
0
  6
Continuous
 62
     7
370
    25
100
AcDbLine
 10
6669.1479206517
 20
4768.9411213463
 30
0.0
 11
6730.1479206517
 21
4768.9411213463
 31
0.0
  0
LINE
  5
B1
330
1F
100
AcDbEntity
  8
0
  6
Continuous
 62
     7
370
    25
100
AcDbLine
 10
6730.1479206517
 20
4771.9411213463
 30
0.0
 11
6669.1479206517
 21
4771.9411213463
 31
0.0
  0
LINE
  5
B2
330
1F
100
AcDbEntity
  8
0
  6
Continuous
 62
     7
370
    25
100
AcDbLine
 10
6666.1479206517
 20
4771.9411213463
 30
0.0
 11
6605.1479206517
 21
4771.9411213463
 31
0.0
  0
LINE
  5
B3
330
1F
100
AcDbEntity
  8
0
  6
Continuous
 62
     7
370
    25
100
AcDbLine
 10
6602.1479206517
 20
4771.9411213463
 30
0.0
 11
6541.1479206517
 21
4771.9411213463
 31
0.0
  0
LINE
  5
B4
330
1F
100
AcDbEntity
  8
0
  6
Continuous
 62
     7
370
    25
100
AcDbLine
 10
6538.1479206517
 20
4771.9411213463
 30
0.0
 11
6477.1479206517
 21
4771.9411213463
 31
0.0
  0
LINE
  5
B5
330
1F
100
AcDbEntity
  8
0
  6
Continuous
 62
     7
370
    25
100
AcDbLine
 10
6474.1479206517
 20
4771.9411213463
 30
0.0
 11
6413.1479206517
 21
4771.9411213463
 31
0.0
  0
LINE
  5
B6
330
1F
100
AcDbEntity
  8
0
  6
Continuous
 62
     7
370
    25
100
AcDbLine
 10
6413.1479206517
 20
4660.4411213463
 30
0.0
 11
6474.1479206517
 21
4660.4411213463
 31
0.0
  0
LINE
  5
B7
330
1F
100
AcDbEntity
  8
0
  6
Continuous
 62
     7
370
    25
100
AcDbLine
 10
6477.1479206517
 20
4660.4411213463
 30
0.0
 11
6538.1479206517
 21
4660.4411213463
 31
0.0
  0
LINE
  5
B8
330
1F
100
AcDbEntity
  8
0
  6
Continuous
 62
     7
370
    25
100
AcDbLine
 10
6541.1479206517
 20
4660.4411213463
 30
0.0
 11
6602.1479206517
 21
4660.4411213463
 31
0.0
  0
LINE
  5
B9
330
1F
100
AcDbEntity
  8
0
  6
Continuous
 62
     7
370
    25
100
AcDbLine
 10
6605.1479206517
 20
4660.4411213463
 30
0.0
 11
6666.1479206517
 21
4660.4411213463
 31
0.0
  0
LINE
  5
BA
330
1F
100
AcDbEntity
  8
0
  6
Continuous
 62
     7
370
    25
100
AcDbLine
 10
6669.1479206517
 20
4660.4411213463
 30
0.0
 11
6730.1479206517
 21
4660.4411213463
 31
0.0
  0
LINE
  5
BB
330
1F
100
AcDbEntity
  8
0
  6
Continuous
 62
     7
370
    25
100
AcDbLine
 10
6730.1479206517
 20
4663.4411213463
 30
0.0
 11
6669.1479206517
 21
4663.4411213463
 31
0.0
  0
LINE
  5
BC
330
1F
100
AcDbEntity
  8
0
  6
Continuous
 62
     7
370
    25
100
AcDbLine
 10
6666.1479206517
 20
4663.4411213463
 30
0.0
 11
6605.1479206517
 21
4663.4411213463
 31
0.0
  0
LINE
  5
BD
330
1F
100
AcDbEntity
  8
0
  6
Continuous
 62
     7
370
    25
100
AcDbLine
 10
6602.1479206517
 20
4663.4411213463
 30
0.0
 11
6541.1479206517
 21
4663.4411213463
 31
0.0
  0
LINE
  5
BE
330
1F
100
AcDbEntity
  8
0
  6
Continuous
 62
     7
370
    25
100
AcDbLine
 10
6538.1479206517
 20
4663.4411213463
 30
0.0
 11
6477.1479206517
 21
4663.4411213463
 31
0.0
  0
LINE
  5
BF
330
1F
100
AcDbEntity
  8
0
  6
Continuous
 62
     7
370
    25
100
AcDbLine
 10
6474.1479206517
 20
4663.4411213463
 30
0.0
 11
6413.1479206517
 21
4663.4411213463
 31
0.0
  0
LINE
  5
C0
330
1F
100
AcDbEntity
  8
0
  6
Continuous
 62
     7
370
    25
100
AcDbLine
 10
6477.1479206517
 20
4569.9411213463
 30
0.0
 11
6477.1479206517
 21
4660.4411213463
 31
0.0
  0
LINE
  5
C1
330
1F
100
AcDbEntity
  8
0
  6
Continuous
 62
     7
370
    25
100
AcDbLine
 10
6477.1479206517
 20
4663.4411213463
 30
0.0
 11
6477.1479206517
 21
4768.9411213463
 31
0.0
  0
LINE
  5
C2
330
1F
100
AcDbEntity
  8
0
  6
Continuous
 62
     7
370
    25
100
AcDbLine
 10
6477.1479206517
 20
4771.9411213463
 30
0.0
 11
6477.1479206517
 21
4885.9411213463
 31
0.0
  0
LINE
  5
C3
330
1F
100
AcDbEntity
  8
0
  6
Continuous
 62
     7
370
    25
100
AcDbLine
 10
6474.1479206517
 20
4885.9411213463
 30
0.0
 11
6474.1479206517
 21
4771.9411213463
 31
0.0
  0
LINE
  5
C4
330
1F
100
AcDbEntity
  8
0
  6
Continuous
 62
     7
370
    25
100
AcDbLine
 10
6474.1479206517
 20
4768.9411213463
 30
0.0
 11
6474.1479206517
 21
4663.4411213463
 31
0.0
  0
LINE
  5
C5
330
1F
100
AcDbEntity
  8
0
  6
Continuous
 62
     7
370
    25
100
AcDbLine
 10
6474.1479206517
 20
4660.4411213463
 30
0.0
 11
6474.1479206517
 21
4569.9411213463
 31
0.0
  0
LINE
  5
C6
330
1F
100
AcDbEntity
  8
0
  6
Continuous
 62
     7
370
    25
100
AcDbLine
 10
6669.1479206517
 20
4885.9411213463
 30
0.0
 11
6730.1479206517
 21
4885.9411213463
 31
0.0
  0
LINE
  5
C7
330
1F
100
AcDbEntity
  8
0
  6
Continuous
 62
     7
370
    25
100
AcDbLine
 10
6730.1479206517
 20
4888.9411213463
 30
0.0
 11
6669.1479206517
 21
4888.9411213463
 31
0.0
  0
LINE
  5
C8
330
1F
100
AcDbEntity
  8
0
  6
Continuous
 62
     7
370
    25
100
AcDbLine
 10
6477.1479206517
 20
4888.9411213463
 30
0.0
 11
6477.1479206517
 21
4980.4411213463
 31
0.0
  0
LINE
  5
C9
330
1F
100
AcDbEntity
  8
0
  6
Continuous
 62
     7
370
    25
100
AcDbLine
 10
6477.1479206517
 20
4983.4411213463
 30
0.0
 11
6477.1479206517
 21
5072.4411213463
 31
0.0
  0
LINE
  5
CA
330
1F
100
AcDbEntity
  8
0
  6
Continuous
 62
     7
370
    25
100
AcDbLine
 10
6474.1479206517
 20
5072.4411213463
 30
0.0
 11
6474.1479206517
 21
4983.4411213463
 31
0.0
  0
LINE
  5
CB
330
1F
100
AcDbEntity
  8
0
  6
Continuous
 62
     7
370
    25
100
AcDbLine
 10
6474.1479206517
 20
4980.4411213463
 30
0.0
 11
6474.1479206517
 21
4888.9411213463
 31
0.0
  0
LINE
  5
CC
330
1F
100
AcDbEntity
  8
0
  6
Continuous
 62
     7
370
    25
100
AcDbLine
 10
6413.1479206517
 20
4888.9411213463
 30
0.0
 11
6413.1479206517
 21
4980.4411213463
 31
0.0
  0
LINE
  5
CD
330
1F
100
AcDbEntity
  8
0
  6
Continuous
 62
     7
370
    25
100
AcDbLine
 10
6413.1479206517
 20
4983.4411213463
 30
0.0
 11
6413.1479206517
 21
5072.4411213463
 31
0.0
  0
LINE
  5
CE
330
1F
100
AcDbEntity
  8
0
  6
Continuous
 62
     7
370
    25
100
AcDbLine
 10
6410.1479206517
 20
5072.4411213463
 30
0.0
 11
6410.1479206517
 21
4888.9411213463
 31
0.0
  0
LINE
  5
CF
330
1F
100
AcDbEntity
  8
0
  6
Continuous
 62
     7
370
    25
100
AcDbLine
 10
6409.8323530446
 20
4566.9411213463
 30
0.0
 11
6477.1739380762
 21
4566.9411213463
 31
0.0
  0
LINE
  5
D0
330
1F
100
AcDbEntity
  8
0
  6
Continuous
 62
     7
370
    25
100
AcDbLine
 10
6480.1739380762
 20
4566.9411213463
 30
0.0
 11
6487.1739380762
 21
4566.9411213463
 31
0.0
  0
LINE
  5
D1
330
1F
100
AcDbEntity
  8
0
  6
Continuous
 62
     7
370
    25
100
AcDbLine
 10
6490.1739380762
 20
4566.9411213463
 30
0.0
 11
6653.30633562
 21
4566.9411213463
 31
0.0
  0
LINE
  5
D2
330
1F
100
AcDbEntity
  8
0
  6
Continuous
 62
     7
370
    25
100
AcDbLine
 10
6656.30633562
 20
4566.9411213463
 30
0.0
 11
6663.30633562
 21
4566.9411213463
 31
0.0
  0
LINE
  5
D3
330
1F
100
AcDbEntity
  8
0
  6
Continuous
 62
     7
370
    25
100
AcDbLine
 10
6666.30633562
 20
4566.9411213463
 30
0.0
 11
6733.6479206517
 21
4566.9411213463
 31
0.0
  0
LINE
  5
D4
330
1F
100
AcDbEntity
  8
0
  6
Continuous
 62
     7
370
    25
100
AcDbLine
 10
6410.1479206517
 20
4569.9411213463
 30
0.0
 11
6409.8323530446
 21
4569.9411213463
 31
0.0
  0
LINE
  5
D5
330
1F
100
AcDbEntity
  8
0
  6
Continuous
 62
     7
370
    25
100
AcDbLine
 10
6474.1479206517
 20
4569.9411213463
 30
0.0
 11
6413.1479206517
 21
4569.9411213463
 31
0.0
  0
LINE
  5
D6
330
1F
100
AcDbEntity
  8
0
  6
Continuous
 62
     7
370
    25
100
AcDbLine
 10
6538.1479206517
 20
4569.9411213463
 30
0.0
 11
6490.1739380762
 21
4569.9411213463
 31
0.0
  0
LINE
  5
D7
330
1F
100
AcDbEntity
  8
0
  6
Continuous
 62
     7
370
    25
100
AcDbLine
 10
6487.1739380762
 20
4569.9411213463
 30
0.0
 11
6480.1739380762
 21
4569.9411213463
 31
0.0
  0
LINE
  5
D8
330
1F
100
AcDbEntity
  8
0
  6
Continuous
 62
     7
370
    25
100
AcDbLine
 10
6477.1739380762
 20
4569.9411213463
 30
0.0
 11
6477.1479206517
 21
4569.9411213463
 31
0.0
  0
LINE
  5
D9
330
1F
100
AcDbEntity
  8
0
  6
Continuous
 62
     7
370
    25
100
AcDbLine
 10
6602.1479206517
 20
4569.9411213463
 30
0.0
 11
6541.1479206517
 21
4569.9411213463
 31
0.0
  0
LINE
  5
DA
330
1F
100
AcDbEntity
  8
0
  6
Continuous
 62
     7
370
    25
100
AcDbLine
 10
6663.30633562
 20
4569.9411213463
 30
0.0
 11
6656.30633562
 21
4569.9411213463
 31
0.0
  0
LINE
  5
DB
330
1F
100
AcDbEntity
  8
0
  6
Continuous
 62
     7
370
    25
100
AcDbLine
 10
6653.30633562
 20
4569.9411213463
 30
0.0
 11
6605.1479206517
 21
4569.9411213463
 31
0.0
  0
LINE
  5
DC
330
1F
100
AcDbEntity
  8
0
  6
Continuous
 62
     7
370
    25
100
AcDbLine
 10
6730.1479206517
 20
4569.9411213463
 30
0.0
 11
6669.1479206517
 21
4569.9411213463
 31
0.0
  0
LINE
  5
DD
330
1F
100
AcDbEntity
  8
0
  6
Continuous
 62
     7
370
    25
100
AcDbLine
 10
6733.6479206517
 20
4569.9411213463
 30
0.0
 11
6733.1479206517
 21
4569.9411213463
 31
0.0
  0
LINE
  5
DE
330
1F
100
AcDbEntity
  8
0
  6
Continuous
 62
     7
370
    25
100
AcDbLine
 10
6733.1479206517
 20
5072.4411213463
 30
0.0
 11
6733.6479206517
 21
5072.4411213463
 31
0.0
  0
LINE
  5
DF
330
1F
100
AcDbEntity
  8
0
  6
Continuous
 62
     7
370
    25
100
AcDbLine
 10
6669.1479206517
 20
5072.4411213463
 30
0.0
 11
6730.1479206517
 21
5072.4411213463
 31
0.0
  0
LINE
  5
E0
330
1F
100
AcDbEntity
  8
0
  6
Continuous
 62
     7
370
    25
100
AcDbLine
 10
6605.1479206517
 20
5072.4411213463
 30
0.0
 11
6666.1479206517
 21
5072.4411213463
 31
0.0
  0
LINE
  5
E1
330
1F
100
AcDbEntity
  8
0
  6
Continuous
 62
     7
370
    25
100
AcDbLine
 10
6541.1479206517
 20
5072.4411213463
 30
0.0
 11
6602.1479206517
 21
5072.4411213463
 31
0.0
  0
LINE
  5
E2
330
1F
100
AcDbEntity
  8
0
  6
Continuous
 62
     7
370
    25
100
AcDbLine
 10
6477.1479206517
 20
5072.4411213463
 30
0.0
 11
6538.1479206517
 21
5072.4411213463
 31
0.0
  0
LINE
  5
E3
330
1F
100
AcDbEntity
  8
0
  6
Continuous
 62
     7
370
    25
100
AcDbLine
 10
6413.1479206517
 20
5072.4411213463
 30
0.0
 11
6474.1479206517
 21
5072.4411213463
 31
0.0
  0
LINE
  5
E4
330
1F
100
AcDbEntity
  8
0
  6
Continuous
 62
     7
370
    25
100
AcDbLine
 10
6409.8323530446
 20
5072.4411213463
 30
0.0
 11
6410.1479206517
 21
5072.4411213463
 31
0.0
  0
LINE
  5
E5
330
1F
100
AcDbEntity
  8
0
  6
Continuous
 62
     7
370
    25
100
AcDbLine
 10
6733.6479206517
 20
5075.4411213463
 30
0.0
 11
6409.8323530446
 21
5075.4411213463
 31
0.0
  0
LINE
  5
E6
330
1F
100
AcDbEntity
  8
0
  6
Continuous
 62
     7
370
    25
100
AcDbLine
 10
6413.1479206517
 20
4885.9411213463
 30
0.0
 11
6474.1479206517
 21
4885.9411213463
 31
0.0
  0
LINE
  5
E7
330
1F
100
AcDbEntity
  8
0
  6
Continuous
 62
     7
370
    25
100
AcDbLine
 10
6474.1479206517
 20
4888.9411213463
 30
0.0
 11
6413.1479206517
 21
4888.9411213463
 31
0.0
  0
LINE
  5
E8
330
1F
100
AcDbEntity
  8
0
  6
Continuous
 62
     7
370
    25
100
AcDbLine
 10
6733.6479206517
 20
4566.9411213463
 30
0.0
 11
6739.2802991987
 21
4566.9411213463
 31
0.0
  0
LINE
  5
E9
330
1F
100
AcDbEntity
  8
0
  6
Continuous
 62
     7
370
    25
100
AcDbLine
 10
6739.2802991987
 20
4569.9411213463
 30
0.0
 11
6733.6479206517
 21
4569.9411213463
 31
0.0
  0
LINE
  5
EA
330
1F
100
AcDbEntity
  8
0
  6
Continuous
 62
     7
370
    25
100
AcDbLine
 10
6404.1999744975
 20
4566.9411213463
 30
0.0
 11
6409.8323530446
 21
4566.9411213463
 31
0.0
  0
LINE
  5
EB
330
1F
100
AcDbEntity
  8
0
  6
Continuous
 62
     7
370
    25
100
AcDbLine
 10
6409.8323530446
 20
4569.9411213463
 30
0.0
 11
6404.1999744975
 21
4569.9411213463
 31
0.0
  0
LINE
  5
EC
330
1F
100
AcDbEntity
  8
0
  6
Continuous
 62
     7
370
    25
100
AcDbLine
 10
6404.1999744975
 20
4885.9411213463
 30
0.0
 11
6409.8323530446
 21
4885.9411213463
 31
0.0
  0
LINE
  5
ED
330
1F
100
AcDbEntity
  8
0
  6
Continuous
 62
     7
370
    25
100
AcDbLine
 10
6409.8323530446
 20
4888.9411213463
 30
0.0
 11
6404.1999744975
 21
4888.9411213463
 31
0.0
  0
LINE
  5
EE
330
1F
100
AcDbEntity
  8
0
  6
Continuous
 62
     7
370
    25
100
AcDbLine
 10
6409.8323530446
 20
4885.9411213463
 30
0.0
 11
6410.1479206517
 21
4885.9411213463
 31
0.0
  0
LINE
  5
EF
330
1F
100
AcDbEntity
  8
0
  6
Continuous
 62
     7
370
    25
100
AcDbLine
 10
6410.1479206517
 20
4888.9411213463
 30
0.0
 11
6409.8323530446
 21
4888.9411213463
 31
0.0
  0
LINE
  5
F0
330
1F
100
AcDbEntity
  8
0
  6
Continuous
 62
     7
370
    25
100
AcDbLine
 10
6541.1479206517
 20
4569.9411213463
 30
0.0
 11
6541.1479206517
 21
4660.4411213463
 31
0.0
  0
LINE
  5
F1
330
1F
100
AcDbEntity
  8
0
  6
Continuous
 62
     7
370
    25
100
AcDbLine
 10
6541.1479206517
 20
4663.4411213463
 30
0.0
 11
6541.1479206517
 21
4768.9411213463
 31
0.0
  0
LINE
  5
F2
330
1F
100
AcDbEntity
  8
0
  6
Continuous
 62
     7
370
    25
100
AcDbLine
 10
6541.1479206517
 20
4771.9411213463
 30
0.0
 11
6541.1479206517
 21
4885.9411213463
 31
0.0
  0
LINE
  5
F3
330
1F
100
AcDbEntity
  8
0
  6
Continuous
 62
     7
370
    25
100
AcDbLine
 10
6538.1479206517
 20
4885.9411213463
 30
0.0
 11
6538.1479206517
 21
4771.9411213463
 31
0.0
  0
LINE
  5
F4
330
1F
100
AcDbEntity
  8
0
  6
Continuous
 62
     7
370
    25
100
AcDbLine
 10
6538.1479206517
 20
4768.9411213463
 30
0.0
 11
6538.1479206517
 21
4663.4411213463
 31
0.0
  0
LINE
  5
F5
330
1F
100
AcDbEntity
  8
0
  6
Continuous
 62
     7
370
    25
100
AcDbLine
 10
6538.1479206517
 20
4660.4411213463
 30
0.0
 11
6538.1479206517
 21
4569.9411213463
 31
0.0
  0
LINE
  5
F6
330
1F
100
AcDbEntity
  8
0
  6
Continuous
 62
     7
370
    25
100
AcDbLine
 10
6409.8323530446
 20
5075.4411213463
 30
0.0
 11
6404.1999744975
 21
5075.4411213463
 31
0.0
  0
LINE
  5
F7
330
1F
100
AcDbEntity
  8
0
  6
Continuous
 62
     7
370
    25
100
AcDbLine
 10
6404.1999744975
 20
5072.4411213463
 30
0.0
 11
6409.8323530446
 21
5072.4411213463
 31
0.0
  0
LINE
  5
F8
330
1F
100
AcDbEntity
  8
0
  6
Continuous
 62
     7
370
    25
100
AcDbLine
 10
6733.1479206517
 20
4888.9411213463
 30
0.0
 11
6733.1479206517
 21
5072.4411213463
 31
0.0
  0
LINE
  5
F9
330
1F
100
AcDbEntity
  8
0
  6
Continuous
 62
     7
370
    25
100
AcDbLine
 10
6730.1479206517
 20
5072.4411213463
 30
0.0
 11
6730.1479206517
 21
4983.4411213463
 31
0.0
  0
LINE
  5
FA
330
1F
100
AcDbEntity
  8
0
  6
Continuous
 62
     7
370
    25
100
AcDbLine
 10
6730.1479206517
 20
4980.4411213463
 30
0.0
 11
6730.1479206517
 21
4888.9411213463
 31
0.0
  0
LINE
  5
FB
330
1F
100
AcDbEntity
  8
0
  6
Continuous
 62
     7
370
    25
100
AcDbLine
 10
6669.1479206517
 20
4888.9411213463
 30
0.0
 11
6669.1479206517
 21
4980.4411213463
 31
0.0
  0
LINE
  5
FC
330
1F
100
AcDbEntity
  8
0
  6
Continuous
 62
     7
370
    25
100
AcDbLine
 10
6669.1479206517
 20
4983.4411213463
 30
0.0
 11
6669.1479206517
 21
5072.4411213463
 31
0.0
  0
LINE
  5
FD
330
1F
100
AcDbEntity
  8
0
  6
Continuous
 62
     7
370
    25
100
AcDbLine
 10
6666.1479206517
 20
5072.4411213463
 30
0.0
 11
6666.1479206517
 21
4983.4411213463
 31
0.0
  0
LINE
  5
FE
330
1F
100
AcDbEntity
  8
0
  6
Continuous
 62
     7
370
    25
100
AcDbLine
 10
6666.1479206517
 20
4980.4411213463
 30
0.0
 11
6666.1479206517
 21
4888.9411213463
 31
0.0
  0
LINE
  5
FF
330
1F
100
AcDbEntity
  8
0
  6
Continuous
 62
     7
370
    25
100
AcDbLine
 10
6477.1479206517
 20
4885.9411213463
 30
0.0
 11
6538.1479206517
 21
4885.9411213463
 31
0.0
  0
LINE
  5
100
330
1F
100
AcDbEntity
  8
0
  6
Continuous
 62
     7
370
    25
100
AcDbLine
 10
6538.1479206517
 20
4888.9411213463
 30
0.0
 11
6477.1479206517
 21
4888.9411213463
 31
0.0
  0
LINE
  5
101
330
1F
100
AcDbEntity
  8
0
  6
Continuous
 62
     7
370
    25
100
AcDbLine
 10
6541.1479206517
 20
4885.9411213463
 30
0.0
 11
6602.1479206517
 21
4885.9411213463
 31
0.0
  0
LINE
  5
102
330
1F
100
AcDbEntity
  8
0
  6
Continuous
 62
     7
370
    25
100
AcDbLine
 10
6602.1479206517
 20
4888.9411213463
 30
0.0
 11
6541.1479206517
 21
4888.9411213463
 31
0.0
  0
LINE
  5
103
330
1F
100
AcDbEntity
  8
0
  6
Continuous
 62
     7
370
    25
100
AcDbLine
 10
6605.1479206517
 20
4885.9411213463
 30
0.0
 11
6666.1479206517
 21
4885.9411213463
 31
0.0
  0
LINE
  5
104
330
1F
100
AcDbEntity
  8
0
  6
Continuous
 62
     7
370
    25
100
AcDbLine
 10
6666.1479206517
 20
4888.9411213463
 30
0.0
 11
6605.1479206517
 21
4888.9411213463
 31
0.0
  0
LINE
  5
105
330
1F
100
AcDbEntity
  8
0
  6
Continuous
 62
     7
370
    25
100
AcDbLine
 10
6733.1479206517
 20
4885.9411213463
 30
0.0
 11
6733.6479206517
 21
4885.9411213463
 31
0.0
  0
LINE
  5
106
330
1F
100
AcDbEntity
  8
0
  6
Continuous
 62
     7
370
    25
100
AcDbLine
 10
6733.6479206517
 20
4888.9411213463
 30
0.0
 11
6733.1479206517
 21
4888.9411213463
 31
0.0
  0
LINE
  5
107
330
1F
100
AcDbEntity
  8
0
  6
Continuous
 62
     7
370
    25
100
AcDbLine
 10
6669.1479206517
 20
4569.9411213463
 30
0.0
 11
6669.1479206517
 21
4660.4411213463
 31
0.0
  0
LINE
  5
108
330
1F
100
AcDbEntity
  8
0
  6
Continuous
 62
     7
370
    25
100
AcDbLine
 10
6669.1479206517
 20
4663.4411213463
 30
0.0
 11
6669.1479206517
 21
4768.9411213463
 31
0.0
  0
LINE
  5
109
330
1F
100
AcDbEntity
  8
0
  6
Continuous
 62
     7
370
    25
100
AcDbLine
 10
6669.1479206517
 20
4771.9411213463
 30
0.0
 11
6669.1479206517
 21
4885.9411213463
 31
0.0
  0
LINE
  5
10A
330
1F
100
AcDbEntity
  8
0
  6
Continuous
 62
     7
370
    25
100
AcDbLine
 10
6666.1479206517
 20
4885.9411213463
 30
0.0
 11
6666.1479206517
 21
4771.9411213463
 31
0.0
  0
LINE
  5
10B
330
1F
100
AcDbEntity
  8
0
  6
Continuous
 62
     7
370
    25
100
AcDbLine
 10
6666.1479206517
 20
4768.9411213463
 30
0.0
 11
6666.1479206517
 21
4663.4411213463
 31
0.0
  0
LINE
  5
10C
330
1F
100
AcDbEntity
  8
0
  6
Continuous
 62
     7
370
    25
100
AcDbLine
 10
6666.1479206517
 20
4660.4411213463
 30
0.0
 11
6666.1479206517
 21
4572.0842681119
 31
0.0
  0
LINE
  5
10D
330
1F
100
AcDbEntity
  8
0
  6
Continuous
 62
     7
370
    25
100
AcDbLine
 10
6733.6479206517
 20
4885.9411213463
 30
0.0
 11
6739.2802991987
 21
4885.9411213463
 31
0.0
  0
LINE
  5
10E
330
1F
100
AcDbEntity
  8
0
  6
Continuous
 62
     7
370
    25
100
AcDbLine
 10
6739.2802991987
 20
4888.9411213463
 30
0.0
 11
6733.6479206517
 21
4888.9411213463
 31
0.0
  0
LINE
  5
10F
330
1F
100
AcDbEntity
  8
0
  6
Continuous
 62
     7
370
    25
100
AcDbLine
 10
6413.1479206517
 20
4569.9411213463
 30
0.0
 11
6413.1479206517
 21
4660.4411213463
 31
0.0
  0
LINE
  5
110
330
1F
100
AcDbEntity
  8
0
  6
Continuous
 62
     7
370
    25
100
AcDbLine
 10
6413.1479206517
 20
4663.4411213463
 30
0.0
 11
6413.1479206517
 21
4768.9411213463
 31
0.0
  0
LINE
  5
111
330
1F
100
AcDbEntity
  8
0
  6
Continuous
 62
     7
370
    25
100
AcDbLine
 10
6413.1479206517
 20
4771.9411213463
 30
0.0
 11
6413.1479206517
 21
4885.9411213463
 31
0.0
  0
LINE
  5
112
330
1F
100
AcDbEntity
  8
0
  6
Continuous
 62
     7
370
    25
100
AcDbLine
 10
6410.1479206517
 20
4885.9411213463
 30
0.0
 11
6410.1479206517
 21
4569.9411213463
 31
0.0
  0
LINE
  5
113
330
1F
100
AcDbEntity
  8
0
  6
Continuous
 62
     7
370
    25
100
AcDbLine
 10
6739.2802991987
 20
5075.4411213463
 30
0.0
 11
6733.6479206517
 21
5075.4411213463
 31
0.0
  0
LINE
  5
114
330
1F
100
AcDbEntity
  8
0
  6
Continuous
 62
     7
370
    25
100
AcDbLine
 10
6733.6479206517
 20
5072.4411213463
 30
0.0
 11
6739.2802991987
 21
5072.4411213463
 31
0.0
  0
LINE
  5
115
330
1F
100
AcDbEntity
  8
0
  6
Continuous
 62
     7
370
    25
100
AcDbLine
 10
6733.1479206517
 20
4569.9411213463
 30
0.0
 11
6733.1479206517
 21
4885.9411213463
 31
0.0
  0
LINE
  5
116
330
1F
100
AcDbEntity
  8
0
  6
Continuous
 62
     7
370
    25
100
AcDbLine
 10
6730.1479206517
 20
4885.9411213463
 30
0.0
 11
6730.1479206517
 21
4771.9411213463
 31
0.0
  0
LINE
  5
117
330
1F
100
AcDbEntity
  8
0
  6
Continuous
 62
     7
370
    25
100
AcDbLine
 10
6730.1479206517
 20
4768.9411213463
 30
0.0
 11
6730.1479206517
 21
4663.4411213463
 31
0.0
  0
LINE
  5
118
330
1F
100
AcDbEntity
  8
0
  6
Continuous
 62
     7
370
    25
100
AcDbLine
 10
6730.1479206517
 20
4660.4411213463
 30
0.0
 11
6730.1479206517
 21
4569.9411213463
 31
0.0
  0
LINE
  5
119
330
1F
100
AcDbEntity
  8
0
  6
Continuous
 62
     7
370
    25
100
AcDbLine
 10
6605.1479206517
 20
4888.9411213463
 30
0.0
 11
6605.1479206517
 21
4980.4411213463
 31
0.0
  0
LINE
  5
11A
330
1F
100
AcDbEntity
  8
0
  6
Continuous
 62
     7
370
    25
100
AcDbLine
 10
6605.1479206517
 20
4983.4411213463
 30
0.0
 11
6605.1479206517
 21
5072.4411213463
 31
0.0
  0
LINE
  5
11B
330
1F
100
AcDbEntity
  8
0
  6
Continuous
 62
     7
370
    25
100
AcDbLine
 10
6602.1479206517
 20
5072.4411213463
 30
0.0
 11
6602.1479206517
 21
4983.4411213463
 31
0.0
  0
LINE
  5
11C
330
1F
100
AcDbEntity
  8
0
  6
Continuous
 62
     7
370
    25
100
AcDbLine
 10
6602.1479206517
 20
4980.4411213463
 30
0.0
 11
6602.1479206517
 21
4888.9411213463
 31
0.0
  0
LINE
  5
11D
330
1F
100
AcDbEntity
  8
0
  6
Continuous
 62
     7
370
    25
100
AcDbLine
 10
6605.1479206517
 20
4569.9411213463
 30
0.0
 11
6605.1479206517
 21
4660.4411213463
 31
0.0
  0
LINE
  5
11E
330
1F
100
AcDbEntity
  8
0
  6
Continuous
 62
     7
370
    25
100
AcDbLine
 10
6605.1479206517
 20
4663.4411213463
 30
0.0
 11
6605.1479206517
 21
4768.9411213463
 31
0.0
  0
LINE
  5
11F
330
1F
100
AcDbEntity
  8
0
  6
Continuous
 62
     7
370
    25
100
AcDbLine
 10
6605.1479206517
 20
4771.9411213463
 30
0.0
 11
6605.1479206517
 21
4885.9411213463
 31
0.0
  0
LINE
  5
120
330
1F
100
AcDbEntity
  8
0
  6
Continuous
 62
     7
370
    25
100
AcDbLine
 10
6602.1479206517
 20
4885.9411213463
 30
0.0
 11
6602.1479206517
 21
4771.9411213463
 31
0.0
  0
LINE
  5
121
330
1F
100
AcDbEntity
  8
0
  6
Continuous
 62
     7
370
    25
100
AcDbLine
 10
6602.1479206517
 20
4768.9411213463
 30
0.0
 11
6602.1479206517
 21
4663.4411213463
 31
0.0
  0
LINE
  5
122
330
1F
100
AcDbEntity
  8
0
  6
Continuous
 62
     7
370
    25
100
AcDbLine
 10
6602.1479206517
 20
4660.4411213463
 30
0.0
 11
6602.1479206517
 21
4569.9411213463
 31
0.0
  0
LINE
  5
123
330
1F
100
AcDbEntity
  8
0
  6
Continuous
 62
     7
370
    25
100
AcDbLine
 10
6541.1479206517
 20
4888.9411213463
 30
0.0
 11
6541.1479206517
 21
4980.4411213463
 31
0.0
  0
LINE
  5
124
330
1F
100
AcDbEntity
  8
0
  6
Continuous
 62
     7
370
    25
100
AcDbLine
 10
6541.1479206517
 20
4983.4411213463
 30
0.0
 11
6541.1479206517
 21
5072.4411213463
 31
0.0
  0
LINE
  5
125
330
1F
100
AcDbEntity
  8
0
  6
Continuous
 62
     7
370
    25
100
AcDbLine
 10
6538.1479206517
 20
5072.4411213463
 30
0.0
 11
6538.1479206517
 21
4983.4411213463
 31
0.0
  0
LINE
  5
126
330
1F
100
AcDbEntity
  8
0
  6
Continuous
 62
     7
370
    25
100
AcDbLine
 10
6538.1479206517
 20
4980.4411213463
 30
0.0
 11
6538.1479206517
 21
4888.9411213463
 31
0.0
  0
LINE
  5
127
330
1F
100
AcDbEntity
  8
0
  6
Continuous
 62
     7
370
    25
100
AcDbLine
 10
6739.2802991987
 20
4566.9411213463
 30
0.0
 11
6743.4298504122
 21
4566.9411213463
 31
0.0
  0
LINE
  5
128
330
1F
100
AcDbEntity
  8
0
  6
Continuous
 62
     7
370
    25
100
AcDbLine
 10
6743.4298504122
 20
4569.9411213463
 30
0.0
 11
6739.2802991987
 21
4569.9411213463
 31
0.0
  0
LINE
  5
129
330
1F
100
AcDbEntity
  8
0
  6
Continuous
 62
     7
370
    25
100
AcDbLine
 10
6739.2802991987
 20
5072.4411213463
 30
0.0
 11
6743.4298504122
 21
5072.4411213463
 31
0.0
  0
LINE
  5
12A
330
1F
100
AcDbEntity
  8
0
  6
Continuous
 62
     7
370
    25
100
AcDbLine
 10
6743.4298504122
 20
5075.4411213463
 30
0.0
 11
6739.2802991987
 21
5075.4411213463
 31
0.0
  0
LINE
  5
12B
330
1F
100
AcDbEntity
  8
0
  6
Continuous
 62
     7
370
    25
100
AcDbLine
 10
6400.050423284
 20
4885.9411213463
 30
0.0
 11
6404.1999744975
 21
4885.9411213463
 31
0.0
  0
LINE
  5
12C
330
1F
100
AcDbEntity
  8
0
  6
Continuous
 62
     7
370
    25
100
AcDbLine
 10
6404.1999744975
 20
4888.9411213463
 30
0.0
 11
6400.050423284
 21
4888.9411213463
 31
0.0
  0
LINE
  5
12D
330
1F
100
AcDbEntity
  8
0
  6
Continuous
 62
     7
370
    25
100
AcDbLine
 10
6400.050423284
 20
4566.9411213463
 30
0.0
 11
6404.1999744975
 21
4566.9411213463
 31
0.0
  0
LINE
  5
12E
330
1F
100
AcDbEntity
  8
0
  6
Continuous
 62
     7
370
    25
100
AcDbLine
 10
6404.1999744975
 20
4569.9411213463
 30
0.0
 11
6400.050423284
 21
4569.9411213463
 31
0.0
  0
LINE
  5
12F
330
1F
100
AcDbEntity
  8
0
  6
Continuous
 62
     7
370
    25
100
AcDbLine
 10
6400.050423284
 20
5072.4411213463
 30
0.0
 11
6404.1999744975
 21
5072.4411213463
 31
0.0
  0
LINE
  5
130
330
1F
100
AcDbEntity
  8
0
  6
Continuous
 62
     7
370
    25
100
AcDbLine
 10
6404.1999744975
 20
5075.4411213463
 30
0.0
 11
6400.050423284
 21
5075.4411213463
 31
0.0
  0
LINE
  5
131
330
1F
100
AcDbEntity
  8
0
  6
Continuous
 62
     7
370
    25
100
AcDbLine
 10
6739.2802991987
 20
4885.9411213463
 30
0.0
 11
6743.4298504122
 21
4885.9411213463
 31
0.0
  0
LINE
  5
132
330
1F
100
AcDbEntity
  8
0
  6
Continuous
 62
     7
370
    25
100
AcDbLine
 10
6743.4298504122
 20
4888.9411213463
 30
0.0
 11
6739.2802991987
 21
4888.9411213463
 31
0.0
  0
ARC
  5
133
330
1F
100
AcDbEntity
  8
0
  6
Continuous
 62
     7
370
    25
100
AcDbCircle
 10
6744.7401368481
 20
4568.4411213463
 30
0.0
 40
1.5
100
AcDbArc
 50
270.0
 51
90.0
  0
LINE
  5
134
330
1F
100
AcDbEntity
  8
0
  6
Continuous
 62
     7
370
    25
100
AcDbLine
 10
6743.4298504122
 20
4566.9411213463
 30
0.0
 11
6744.7401368481
 21
4566.9411213463
 31
0.0
  0
LINE
  5
135
330
1F
100
AcDbEntity
  8
0
  6
Continuous
 62
     7
370
    25
100
AcDbLine
 10
6744.7401368481
 20
4569.9411213463
 30
0.0
 11
6743.4298504122
 21
4569.9411213463
 31
0.0
  0
ARC
  5
136
330
1F
100
AcDbEntity
  8
0
  6
Continuous
 62
     7
370
    25
100
AcDbCircle
 10
6744.7401368481
 20
5073.9411213463
 30
0.0
 40
1.500000000000909
100
AcDbArc
 50
270.0
 51
90.0
  0
LINE
  5
137
330
1F
100
AcDbEntity
  8
0
  6
Continuous
 62
     7
370
    25
100
AcDbLine
 10
6744.7401368481
 20
5075.4411213463
 30
0.0
 11
6743.4298504122
 21
5075.4411213463
 31
0.0
  0
LINE
  5
138
330
1F
100
AcDbEntity
  8
0
  6
Continuous
 62
     7
370
    25
100
AcDbLine
 10
6743.4298504122
 20
5072.4411213463
 30
0.0
 11
6744.7401368481
 21
5072.4411213463
 31
0.0
  0
ARC
  5
139
330
1F
100
AcDbEntity
  8
0
  6
Continuous
 62
     7
370
    25
100
AcDbCircle
 10
6744.7401368481
 20
4887.4411213463
 30
0.0
 40
1.5
100
AcDbArc
 50
270.0
 51
90.0
  0
LINE
  5
13A
330
1F
100
AcDbEntity
  8
0
  6
Continuous
 62
     7
370
    25
100
AcDbLine
 10
6743.4298504122
 20
4885.9411213463
 30
0.0
 11
6744.7401368481
 21
4885.9411213463
 31
0.0
  0
LINE
  5
13B
330
1F
100
AcDbEntity
  8
0
  6
Continuous
 62
     7
370
    25
100
AcDbLine
 10
6744.7401368481
 20
4888.9411213463
 30
0.0
 11
6743.4298504122
 21
4888.9411213463
 31
0.0
  0
ARC
  5
13C
330
1F
100
AcDbEntity
  8
0
  6
Continuous
 62
     7
370
    25
100
AcDbCircle
 10
6398.7401368481
 20
4887.4411213463
 30
0.0
 40
1.5
100
AcDbArc
 50
90.0
 51
270.0
  0
LINE
  5
13D
330
1F
100
AcDbEntity
  8
0
  6
Continuous
 62
     7
370
    25
100
AcDbLine
 10
6398.7401368481
 20
4885.9411213463
 30
0.0
 11
6400.050423284
 21
4885.9411213463
 31
0.0
  0
LINE
  5
13E
330
1F
100
AcDbEntity
  8
0
  6
Continuous
 62
     7
370
    25
100
AcDbLine
 10
6400.050423284
 20
4888.9411213463
 30
0.0
 11
6398.7401368481
 21
4888.9411213463
 31
0.0
  0
ARC
  5
13F
330
1F
100
AcDbEntity
  8
0
  6
Continuous
 62
     7
370
    25
100
AcDbCircle
 10
6398.7401368481
 20
5073.9411213463
 30
0.0
 40
1.500000000000909
100
AcDbArc
 50
90.0
 51
270.0
  0
LINE
  5
140
330
1F
100
AcDbEntity
  8
0
  6
Continuous
 62
     7
370
    25
100
AcDbLine
 10
6400.050423284
 20
5075.4411213463
 30
0.0
 11
6398.7401368481
 21
5075.4411213463
 31
0.0
  0
LINE
  5
141
330
1F
100
AcDbEntity
  8
0
  6
Continuous
 62
     7
370
    25
100
AcDbLine
 10
6398.7401368481
 20
5072.4411213463
 30
0.0
 11
6400.050423284
 21
5072.4411213463
 31
0.0
  0
ARC
  5
142
330
1F
100
AcDbEntity
  8
0
  6
Continuous
 62
     7
370
    25
100
AcDbCircle
 10
6398.7401368481
 20
4568.4411213463
 30
0.0
 40
1.5
100
AcDbArc
 50
90.0
 51
270.0
  0
LINE
  5
143
330
1F
100
AcDbEntity
  8
0
  6
Continuous
 62
     7
370
    25
100
AcDbLine
 10
6398.7401368481
 20
4566.9411213463
 30
0.0
 11
6400.050423284
 21
4566.9411213463
 31
0.0
  0
LINE
  5
144
330
1F
100
AcDbEntity
  8
0
  6
Continuous
 62
     7
370
    25
100
AcDbLine
 10
6400.050423284
 20
4569.9411213463
 30
0.0
 11
6398.7401368481
 21
4569.9411213463
 31
0.0
  0
LWPOLYLINE
  5
145
330
1F
100
AcDbEntity
  8
0
  6
Continuous
 62
     7
370
    25
100
AcDbPolyline
 90
        3
 70
   128
 43
0.0
 10
6739.2405093922
 20
4563.1911213463
 10
6739.8098930041
 20
4559.9841894705
 10
6740.1353045769
 20
4557.4899091227
  0
LWPOLYLINE
  5
146
330
1F
100
AcDbEntity
  8
0
  6
Continuous
 62
     7
370
    25
100
AcDbPolyline
 90
        3
 70
   128
 43
0.0
 10
6743.3449691192
 20
4557.4899091227
 10
6743.6703774441
 20
4559.9841894705
 10
6744.2397637881
 20
4563.1911213463
  0
ARC
  5
147
330
1F
100
AcDbEntity
  8
0
  6
Continuous
 62
     7
370
    25
100
AcDbCircle
 10
6741.4049474673
 20
4557.4503076422
 30
0.0
 40
1.277857155621304
100
AcDbArc
 50
176.0346927103
 51
279.806382941
  0
ARC
  5
148
330
1F
100
AcDbEntity
  8
0
  6
Continuous
 62
     7
370
    25
100
AcDbCircle
 10
6742.0753398761
 20
4557.4502400188
 30
0.0
 40
1.277792486931488
100
AcDbArc
 50
260.1925904761
 51
3.9611596868
  0
LINE
  5
149
330
1F
100
AcDbEntity
  8
0
  6
Continuous
 62
     7
370
    25
100
AcDbLine
 10
6740.2401368481
 20
5096.1911213463
 30
0.0
 11
6740.2401368481
 21
5076.1911213463
 31
0.0
  0
LINE
  5
14A
330
1F
100
AcDbEntity
  8
0
  6
Continuous
 62
     7
370
    25
100
AcDbLine
 10
6743.2401368481
 20
5076.1911213463
 30
0.0
 11
6743.2401368481
 21
5096.1911213463
 31
0.0
  0
LINE
  5
14B
330
1F
100
AcDbEntity
  8
0
  6
Continuous
 62
     7
370
    25
100
AcDbLine
 10
6740.2401368481
 20
4566.1911213463
 30
0.0
 11
6740.2401368481
 21
4563.1911213463
 31
0.0
  0
LINE
  5
14C
330
1F
100
AcDbEntity
  8
0
  6
Continuous
 62
     7
370
    25
100
AcDbLine
 10
6740.2401368481
 20
4672.1911213463
 30
0.0
 11
6740.2401368481
 21
4569.9411213463
 31
0.0
  0
LINE
  5
14D
330
1F
100
AcDbEntity
  8
0
  6
Continuous
 62
     7
370
    25
100
AcDbLine
 10
6740.2401368481
 20
4566.9411213463
 30
0.0
 11
6740.2401368481
 21
4566.1911213463
 31
0.0
  0
LINE
  5
14E
330
1F
100
AcDbEntity
  8
0
  6
Continuous
 62
     7
370
    25
100
AcDbLine
 10
6740.2401368481
 20
4778.1911213463
 30
0.0
 11
6740.2401368481
 21
4672.1911213463
 31
0.0
  0
LINE
  5
14F
330
1F
100
AcDbEntity
  8
0
  6
Continuous
 62
     7
370
    25
100
AcDbLine
 10
6740.2401368481
 20
4884.1911213463
 30
0.0
 11
6740.2401368481
 21
4778.1911213463
 31
0.0
  0
LINE
  5
150
330
1F
100
AcDbEntity
  8
0
  6
Continuous
 62
     7
370
    25
100
AcDbLine
 10
6740.2401368481
 20
4990.1911213463
 30
0.0
 11
6740.2401368481
 21
4888.9411213463
 31
0.0
  0
LINE
  5
151
330
1F
100
AcDbEntity
  8
0
  6
Continuous
 62
     7
370
    25
100
AcDbLine
 10
6740.2401368481
 20
4885.9411213463
 30
0.0
 11
6740.2401368481
 21
4884.1911213463
 31
0.0
  0
LINE
  5
152
330
1F
100
AcDbEntity
  8
0
  6
Continuous
 62
     7
370
    25
100
AcDbLine
 10
6740.2401368481
 20
5076.1911213463
 30
0.0
 11
6740.2401368481
 21
5075.4411213463
 31
0.0
  0
LINE
  5
153
330
1F
100
AcDbEntity
  8
0
  6
Continuous
 62
     7
370
    25
100
AcDbLine
 10
6740.2401368481
 20
5072.4411213463
 30
0.0
 11
6740.2401368481
 21
4990.1911213463
 31
0.0
  0
LINE
  5
154
330
1F
100
AcDbEntity
  8
0
  6
Continuous
 62
     7
370
    25
100
AcDbLine
 10
6743.2401368481
 20
4990.1911213463
 30
0.0
 11
6743.2401368481
 21
5072.4411213463
 31
0.0
  0
LINE
  5
155
330
1F
100
AcDbEntity
  8
0
  6
Continuous
 62
     7
370
    25
100
AcDbLine
 10
6743.2401368481
 20
5075.4411213463
 30
0.0
 11
6743.2401368481
 21
5076.1911213463
 31
0.0
  0
LINE
  5
156
330
1F
100
AcDbEntity
  8
0
  6
Continuous
 62
     7
370
    25
100
AcDbLine
 10
6743.2401368481
 20
4884.1911213463
 30
0.0
 11
6743.2401368481
 21
4885.9411213463
 31
0.0
  0
LINE
  5
157
330
1F
100
AcDbEntity
  8
0
  6
Continuous
 62
     7
370
    25
100
AcDbLine
 10
6743.2401368481
 20
4888.9411213463
 30
0.0
 11
6743.2401368481
 21
4990.1911213463
 31
0.0
  0
LINE
  5
158
330
1F
100
AcDbEntity
  8
0
  6
Continuous
 62
     7
370
    25
100
AcDbLine
 10
6743.2401368481
 20
4778.1911213463
 30
0.0
 11
6743.2401368481
 21
4884.1911213463
 31
0.0
  0
LINE
  5
159
330
1F
100
AcDbEntity
  8
0
  6
Continuous
 62
     7
370
    25
100
AcDbLine
 10
6743.2401368481
 20
4672.1911213463
 30
0.0
 11
6743.2401368481
 21
4778.1911213463
 31
0.0
  0
LINE
  5
15A
330
1F
100
AcDbEntity
  8
0
  6
Continuous
 62
     7
370
    25
100
AcDbLine
 10
6743.2401368481
 20
4566.1911213463
 30
0.0
 11
6743.2401368481
 21
4566.9411213463
 31
0.0
  0
LINE
  5
15B
330
1F
100
AcDbEntity
  8
0
  6
Continuous
 62
     7
370
    25
100
AcDbLine
 10
6743.2401368481
 20
4569.9411213463
 30
0.0
 11
6743.2401368481
 21
4672.1911213463
 31
0.0
  0
LINE
  5
15C
330
1F
100
AcDbEntity
  8
0
  6
Continuous
 62
     7
370
    25
100
AcDbLine
 10
6743.2401368481
 20
4563.1911213463
 30
0.0
 11
6743.2401368481
 21
4566.1911213463
 31
0.0
  0
LINE
  5
15D
330
1F
100
AcDbEntity
  8
0
  6
Continuous
 62
     7
370
    25
100
AcDbLine
 10
6739.2401225624
 20
4563.1912213463
 30
0.0
 11
6740.0632985673
 21
4557.428989312
 31
0.0
  0
LINE
  5
15E
330
1F
100
AcDbEntity
  8
0
  6
Continuous
 62
     7
370
    25
100
AcDbLine
 10
6743.4169751289
 20
4557.428989312
 30
0.0
 11
6744.2401511338
 21
4563.1912213463
 31
0.0
  0
ARC
  5
15F
330
1F
100
AcDbEntity
  8
0
  6
Continuous
 62
     7
370
    25
100
AcDbCircle
 10
6741.3316054866
 20
4557.44959526
 30
0.0
 40
1.275788439533833
100
AcDbArc
 50
178.6797935242
 51
279.4503088299
  0
ARC
  5
160
330
1F
100
AcDbEntity
  8
0
  6
Continuous
 62
     7
370
    25
100
AcDbCircle
 10
6742.1486682096
 20
4557.44959526
 30
0.0
 40
1.275788439532125
100
AcDbArc
 50
260.54969117
 51
1.3202064758
  0
LWPOLYLINE
  5
161
330
1F
100
AcDbEntity
  8
0
  6
Continuous
 62
     7
370
    25
100
AcDbPolyline
 90
        3
 70
   128
 43
0.0
 10
6399.2405099082
 20
4563.1911213463
 10
6399.8098962521
 20
4559.9841894705
 10
6400.135304577
 20
4557.4899091227
  0
LWPOLYLINE
  5
162
330
1F
100
AcDbEntity
  8
0
  6
Continuous
 62
     7
370
    25
100
AcDbPolyline
 90
        3
 70
   128
 43
0.0
 10
6403.3449691193
 20
4557.4899091227
 10
6403.6703806921
 20
4559.9841894705
 10
6404.239764304
 20
4563.1911213463
  0
ARC
  5
163
330
1F
100
AcDbEntity
  8
0
  6
Continuous
 62
     7
370
    25
100
AcDbCircle
 10
6401.4049338201
 20
4557.4502400188
 30
0.0
 40
1.277792486930644
100
AcDbArc
 50
176.0388403132
 51
279.8074095239
  0
ARC
  5
164
330
1F
100
AcDbEntity
  8
0
  6
Continuous
 62
     7
370
    25
100
AcDbCircle
 10
6402.0753262289
 20
4557.4503076422
 30
0.0
 40
1.277857155622942
100
AcDbArc
 50
260.193617059
 51
3.9653072896
  0
LINE
  5
165
330
1F
100
AcDbEntity
  8
0
  6
Continuous
 62
     7
370
    25
100
AcDbLine
 10
6403.2401368481
 20
5076.1911213463
 30
0.0
 11
6403.2401368481
 21
5096.1911213463
 31
0.0
  0
LINE
  5
166
330
1F
100
AcDbEntity
  8
0
  6
Continuous
 62
     7
370
    25
100
AcDbLine
 10
6400.2401368481
 20
5096.1911213463
 30
0.0
 11
6400.2401368481
 21
5076.1911213463
 31
0.0
  0
LINE
  5
167
330
1F
100
AcDbEntity
  8
0
  6
Continuous
 62
     7
370
    25
100
AcDbLine
 10
6400.2401368481
 20
4566.1911213463
 30
0.0
 11
6400.2401368481
 21
4563.1911213463
 31
0.0
  0
LINE
  5
168
330
1F
100
AcDbEntity
  8
0
  6
Continuous
 62
     7
370
    25
100
AcDbLine
 10
6400.2401368481
 20
4672.1911213463
 30
0.0
 11
6400.2401368481
 21
4569.9411213463
 31
0.0
  0
LINE
  5
169
330
1F
100
AcDbEntity
  8
0
  6
Continuous
 62
     7
370
    25
100
AcDbLine
 10
6400.2401368481
 20
4566.9411213463
 30
0.0
 11
6400.2401368481
 21
4566.1911213463
 31
0.0
  0
LINE
  5
16A
330
1F
100
AcDbEntity
  8
0
  6
Continuous
 62
     7
370
    25
100
AcDbLine
 10
6400.2401368481
 20
4778.1911213463
 30
0.0
 11
6400.2401368481
 21
4672.1911213463
 31
0.0
  0
LINE
  5
16B
330
1F
100
AcDbEntity
  8
0
  6
Continuous
 62
     7
370
    25
100
AcDbLine
 10
6400.2401368481
 20
4884.1911213463
 30
0.0
 11
6400.2401368481
 21
4778.1911213463
 31
0.0
  0
LINE
  5
16C
330
1F
100
AcDbEntity
  8
0
  6
Continuous
 62
     7
370
    25
100
AcDbLine
 10
6400.2401368481
 20
4990.1911213463
 30
0.0
 11
6400.2401368481
 21
4888.9411213463
 31
0.0
  0
LINE
  5
16D
330
1F
100
AcDbEntity
  8
0
  6
Continuous
 62
     7
370
    25
100
AcDbLine
 10
6400.2401368481
 20
4885.9411213463
 30
0.0
 11
6400.2401368481
 21
4884.1911213463
 31
0.0
  0
LINE
  5
16E
330
1F
100
AcDbEntity
  8
0
  6
Continuous
 62
     7
370
    25
100
AcDbLine
 10
6400.2401368481
 20
5076.1911213463
 30
0.0
 11
6400.2401368481
 21
5075.4411213463
 31
0.0
  0
LINE
  5
16F
330
1F
100
AcDbEntity
  8
0
  6
Continuous
 62
     7
370
    25
100
AcDbLine
 10
6400.2401368481
 20
5072.4411213463
 30
0.0
 11
6400.2401368481
 21
4990.1911213463
 31
0.0
  0
LINE
  5
170
330
1F
100
AcDbEntity
  8
0
  6
Continuous
 62
     7
370
    25
100
AcDbLine
 10
6403.2401368481
 20
4990.1911213463
 30
0.0
 11
6403.2401368481
 21
5072.4411213463
 31
0.0
  0
LINE
  5
171
330
1F
100
AcDbEntity
  8
0
  6
Continuous
 62
     7
370
    25
100
AcDbLine
 10
6403.2401368481
 20
5075.4411213463
 30
0.0
 11
6403.2401368481
 21
5076.1911213463
 31
0.0
  0
LINE
  5
172
330
1F
100
AcDbEntity
  8
0
  6
Continuous
 62
     7
370
    25
100
AcDbLine
 10
6403.2401368481
 20
4884.1911213463
 30
0.0
 11
6403.2401368481
 21
4885.9411213463
 31
0.0
  0
LINE
  5
173
330
1F
100
AcDbEntity
  8
0
  6
Continuous
 62
     7
370
    25
100
AcDbLine
 10
6403.2401368481
 20
4888.9411213463
 30
0.0
 11
6403.2401368481
 21
4990.1911213463
 31
0.0
  0
LINE
  5
174
330
1F
100
AcDbEntity
  8
0
  6
Continuous
 62
     7
370
    25
100
AcDbLine
 10
6403.2401368481
 20
4778.1911213463
 30
0.0
 11
6403.2401368481
 21
4884.1911213463
 31
0.0
  0
LINE
  5
175
330
1F
100
AcDbEntity
  8
0
  6
Continuous
 62
     7
370
    25
100
AcDbLine
 10
6403.2401368481
 20
4672.1911213463
 30
0.0
 11
6403.2401368481
 21
4778.1911213463
 31
0.0
  0
LINE
  5
176
330
1F
100
AcDbEntity
  8
0
  6
Continuous
 62
     7
370
    25
100
AcDbLine
 10
6403.2401368481
 20
4566.1911213463
 30
0.0
 11
6403.2401368481
 21
4566.9411213463
 31
0.0
  0
LINE
  5
177
330
1F
100
AcDbEntity
  8
0
  6
Continuous
 62
     7
370
    25
100
AcDbLine
 10
6403.2401368481
 20
4569.9411213463
 30
0.0
 11
6403.2401368481
 21
4672.1911213463
 31
0.0
  0
LINE
  5
178
330
1F
100
AcDbEntity
  8
0
  6
Continuous
 62
     7
370
    25
100
AcDbLine
 10
6403.2401368481
 20
4563.1911213463
 30
0.0
 11
6403.2401368481
 21
4566.1911213463
 31
0.0
  0
LINE
  5
179
330
1F
100
AcDbEntity
  8
0
  6
Continuous
 62
     7
370
    25
100
AcDbLine
 10
6399.2401225624
 20
4563.1912213463
 30
0.0
 11
6400.0632985673
 21
4557.428989312
 31
0.0
  0
LINE
  5
17A
330
1F
100
AcDbEntity
  8
0
  6
Continuous
 62
     7
370
    25
100
AcDbLine
 10
6403.4169751289
 20
4557.428989312
 30
0.0
 11
6404.2401511338
 21
4563.1912213463
 31
0.0
  0
ARC
  5
17B
330
1F
100
AcDbEntity
  8
0
  6
Continuous
 62
     7
370
    25
100
AcDbCircle
 10
6401.3316054866
 20
4557.44959526
 30
0.0
 40
1.275788439532274
100
AcDbArc
 50
178.6797935242
 51
279.4503088301
  0
ARC
  5
17C
330
1F
100
AcDbEntity
  8
0
  6
Continuous
 62
     7
370
    25
100
AcDbCircle
 10
6402.1486682096
 20
4557.44959526
 30
0.0
 40
1.275788439532125
100
AcDbArc
 50
260.54969117
 51
1.3202064758
  0
ARC
  5
17D
330
1F
100
AcDbEntity
  8
0
  6
Continuous
 62
     7
370
    25
100
AcDbCircle
 10
6664.80633562
 20
4571.4133362206
 30
0.0
 40
1.5
100
AcDbArc
 50
0.0
 51
180.0
  0
ARC
  5
17E
330
1F
100
AcDbEntity
  8
0
  6
Continuous
 62
     7
370
    25
100
AcDbCircle
 10
6654.80633562
 20
4571.4133362206
 30
0.0
 40
1.5
100
AcDbArc
 50
0.0
 51
180.0
  0
ARC
  5
17F
330
1F
100
AcDbEntity
  8
0
  6
Continuous
 62
     7
370
    25
100
AcDbCircle
 10
6488.6739380762
 20
4571.4133362206
 30
0.0
 40
1.5
100
AcDbArc
 50
0.0
 51
180.0
  0
ARC
  5
180
330
1F
100
AcDbEntity
  8
0
  6
Continuous
 62
     7
370
    25
100
AcDbCircle
 10
6478.6739380762
 20
4571.4133362206
 30
0.0
 40
1.5
100
AcDbArc
 50
0.0
 51
180.0
  0
LINE
  5
181
330
1F
100
AcDbEntity
  8
0
  6
Continuous
 62
     7
370
    25
100
AcDbLine
 10
6413.1479206517
 20
4572.938284054
 30
0.0
 11
6413.2401368481
 21
4572.9411213463
 31
0.0
  0
LINE
  5
182
330
1F
100
AcDbEntity
  8
0
  6
Continuous
 62
     7
370
    25
100
AcDbLine
 10
6413.2401368481
 20
4569.9411213463
 30
0.0
 11
6413.1479206517
 21
4569.9439586387
 31
0.0
  0
LINE
  5
183
330
1F
100
AcDbEntity
  8
0
  6
Continuous
 62
     7
370
    25
100
AcDbLine
 10
6411.8323530446
 20
4981.7566889535
 30
0.0
 11
6411.8323530446
 21
4982.1255537392
 31
0.0
  0
LINE
  5
184
330
1F
100
AcDbEntity
  8
0
  6
Continuous
 62
     7
370
    25
100
AcDbLine
 10
6411.8323530446
 20
4770.6255537392
 30
0.0
 11
6411.8323530446
 21
4770.2566889535
 31
0.0
  0
LINE
  5
185
330
1F
100
AcDbEntity
  8
0
  6
Continuous
 62
     7
370
    25
100
AcDbLine
 10
6411.8323530446
 20
4661.7566889535
 30
0.0
 11
6411.8323530446
 21
4662.1255537392
 31
0.0
  0
LINE
  5
186
330
1F
100
AcDbEntity
  8
0
  6
Continuous
 62
     7
370
    25
100
AcDbLine
 10
6475.6479206517
 20
4887.4411213463
 30
0.0
 11
6474.1479206517
 21
4885.9411213463
 31
0.0
  0
LINE
  5
187
330
1F
100
AcDbEntity
  8
0
  6
Continuous
 62
     7
370
    25
100
AcDbLine
 10
6477.1479206517
 20
4885.9411213463
 30
0.0
 11
6475.6479206517
 21
4887.4411213463
 31
0.0
  0
LINE
  5
188
330
1F
100
AcDbEntity
  8
0
  6
Continuous
 62
     7
370
    25
100
AcDbLine
 10
6475.6479206517
 20
4568.4411213463
 30
0.0
 11
6477.1479206517
 21
4569.9411213463
 31
0.0
  0
LINE
  5
189
330
1F
100
AcDbEntity
  8
0
  6
Continuous
 62
     7
370
    25
100
AcDbLine
 10
6474.1479206517
 20
4569.9411213463
 30
0.0
 11
6475.6479206517
 21
4568.4411213463
 31
0.0
  0
LINE
  5
18A
330
1F
100
AcDbEntity
  8
0
  6
Continuous
 62
     7
370
    25
100
AcDbLine
 10
6669.1479206517
 20
4885.9411213463
 30
0.0
 11
6667.6479206517
 21
4887.4411213463
 31
0.0
  0
LINE
  5
18B
330
1F
100
AcDbEntity
  8
0
  6
Continuous
 62
     7
370
    25
100
AcDbLine
 10
6667.6479206517
 20
4887.4411213463
 30
0.0
 11
6669.1479206517
 21
4888.9411213463
 31
0.0
  0
LINE
  5
18C
330
1F
100
AcDbEntity
  8
0
  6
Continuous
 62
     7
370
    25
100
AcDbLine
 10
6730.1479206517
 20
4885.9411213463
 30
0.0
 11
6731.6479206517
 21
4887.4411213463
 31
0.0
  0
LINE
  5
18D
330
1F
100
AcDbEntity
  8
0
  6
Continuous
 62
     7
370
    25
100
AcDbLine
 10
6731.6479206517
 20
4887.4411213463
 30
0.0
 11
6730.1479206517
 21
4888.9411213463
 31
0.0
  0
LINE
  5
18E
330
1F
100
AcDbEntity
  8
0
  6
Continuous
 62
     7
370
    25
100
AcDbLine
 10
6475.6479206517
 20
4887.4411213463
 30
0.0
 11
6477.1479206517
 21
4888.9411213463
 31
0.0
  0
LINE
  5
18F
330
1F
100
AcDbEntity
  8
0
  6
Continuous
 62
     7
370
    25
100
AcDbLine
 10
6474.1479206517
 20
4888.9411213463
 30
0.0
 11
6475.6479206517
 21
4887.4411213463
 31
0.0
  0
LINE
  5
190
330
1F
100
AcDbEntity
  8
0
  6
Continuous
 62
     7
370
    25
100
AcDbLine
 10
6475.6479206517
 20
5073.9411213463
 30
0.0
 11
6474.1479206517
 21
5072.4411213463
 31
0.0
  0
LINE
  5
191
330
1F
100
AcDbEntity
  8
0
  6
Continuous
 62
     7
370
    25
100
AcDbLine
 10
6477.1479206517
 20
5072.4411213463
 30
0.0
 11
6475.6479206517
 21
5073.9411213463
 31
0.0
  0
LINE
  5
192
330
1F
100
AcDbEntity
  8
0
  6
Continuous
 62
     7
370
    25
100
AcDbLine
 10
6411.6479206517
 20
4887.4411213463
 30
0.0
 11
6413.1479206517
 21
4888.9411213463
 31
0.0
  0
LINE
  5
193
330
1F
100
AcDbEntity
  8
0
  6
Continuous
 62
     7
370
    25
100
AcDbLine
 10
6410.1479206517
 20
4888.9411213463
 30
0.0
 11
6411.6479206517
 21
4887.4411213463
 31
0.0
  0
LINE
  5
194
330
1F
100
AcDbEntity
  8
0
  6
Continuous
 62
     7
370
    25
100
AcDbLine
 10
6411.6479206517
 20
5073.9411213463
 30
0.0
 11
6410.1479206517
 21
5072.4411213463
 31
0.0
  0
LINE
  5
195
330
1F
100
AcDbEntity
  8
0
  6
Continuous
 62
     7
370
    25
100
AcDbLine
 10
6413.1479206517
 20
5072.4411213463
 30
0.0
 11
6411.6479206517
 21
5073.9411213463
 31
0.0
  0
LINE
  5
196
330
1F
100
AcDbEntity
  8
0
  6
Continuous
 62
     7
370
    25
100
AcDbLine
 10
6410.1479206517
 20
4569.9411213463
 30
0.0
 11
6411.6479206517
 21
4568.4411213463
 31
0.0
  0
LINE
  5
197
330
1F
100
AcDbEntity
  8
0
  6
Continuous
 62
     7
370
    25
100
AcDbLine
 10
6411.6479206517
 20
4568.4411213463
 30
0.0
 11
6413.1479206517
 21
4569.9411213463
 31
0.0
  0
LINE
  5
198
330
1F
100
AcDbEntity
  8
0
  6
Continuous
 62
     7
370
    25
100
AcDbLine
 10
6538.1479206517
 20
4569.9411213463
 30
0.0
 11
6539.6479206517
 21
4568.4411213463
 31
0.0
  0
LINE
  5
199
330
1F
100
AcDbEntity
  8
0
  6
Continuous
 62
     7
370
    25
100
AcDbLine
 10
6539.6479206517
 20
4568.4411213463
 30
0.0
 11
6541.1479206517
 21
4569.9411213463
 31
0.0
  0
LINE
  5
19A
330
1F
100
AcDbEntity
  8
0
  6
Continuous
 62
     7
370
    25
100
AcDbLine
 10
6602.1479206517
 20
4569.9411213463
 30
0.0
 11
6603.6479206517
 21
4568.4411213463
 31
0.0
  0
LINE
  5
19B
330
1F
100
AcDbEntity
  8
0
  6
Continuous
 62
     7
370
    25
100
AcDbLine
 10
6603.6479206517
 20
4568.4411213463
 30
0.0
 11
6605.1479206517
 21
4569.9411213463
 31
0.0
  0
LINE
  5
19C
330
1F
100
AcDbEntity
  8
0
  6
Continuous
 62
     7
370
    25
100
AcDbLine
 10
6666.30633562
 20
4569.782706378
 30
0.0
 11
6667.6479206517
 21
4568.4411213463
 31
0.0
  0
LINE
  5
19D
330
1F
100
AcDbEntity
  8
0
  6
Continuous
 62
     7
370
    25
100
AcDbLine
 10
6667.6479206517
 20
4568.4411213463
 30
0.0
 11
6669.1479206517
 21
4569.9411213463
 31
0.0
  0
LINE
  5
19E
330
1F
100
AcDbEntity
  8
0
  6
Continuous
 62
     7
370
    25
100
AcDbLine
 10
6730.1479206517
 20
4569.9411213463
 30
0.0
 11
6731.6479206517
 21
4568.4411213463
 31
0.0
  0
LINE
  5
19F
330
1F
100
AcDbEntity
  8
0
  6
Continuous
 62
     7
370
    25
100
AcDbLine
 10
6731.6479206517
 20
4568.4411213463
 30
0.0
 11
6733.1479206517
 21
4569.9411213463
 31
0.0
  0
LINE
  5
1A0
330
1F
100
AcDbEntity
  8
0
  6
Continuous
 62
     7
370
    25
100
AcDbLine
 10
6541.1479206517
 20
5072.4411213463
 30
0.0
 11
6539.6479206517
 21
5073.9411213463
 31
0.0
  0
LINE
  5
1A1
330
1F
100
AcDbEntity
  8
0
  6
Continuous
 62
     7
370
    25
100
AcDbLine
 10
6539.6479206517
 20
5073.9411213463
 30
0.0
 11
6538.1479206517
 21
5072.4411213463
 31
0.0
  0
LINE
  5
1A2
330
1F
100
AcDbEntity
  8
0
  6
Continuous
 62
     7
370
    25
100
AcDbLine
 10
6605.1479206517
 20
5072.4411213463
 30
0.0
 11
6603.6479206517
 21
5073.9411213463
 31
0.0
  0
LINE
  5
1A3
330
1F
100
AcDbEntity
  8
0
  6
Continuous
 62
     7
370
    25
100
AcDbLine
 10
6603.6479206517
 20
5073.9411213463
 30
0.0
 11
6602.1479206517
 21
5072.4411213463
 31
0.0
  0
LINE
  5
1A4
330
1F
100
AcDbEntity
  8
0
  6
Continuous
 62
     7
370
    25
100
AcDbLine
 10
6669.1479206517
 20
5072.4411213463
 30
0.0
 11
6667.6479206517
 21
5073.9411213463
 31
0.0
  0
LINE
  5
1A5
330
1F
100
AcDbEntity
  8
0
  6
Continuous
 62
     7
370
    25
100
AcDbLine
 10
6667.6479206517
 20
5073.9411213463
 30
0.0
 11
6666.1479206517
 21
5072.4411213463
 31
0.0
  0
LINE
  5
1A6
330
1F
100
AcDbEntity
  8
0
  6
Continuous
 62
     7
370
    25
100
AcDbLine
 10
6730.1479206517
 20
5072.4411213463
 30
0.0
 11
6731.6479206517
 21
5073.9411213463
 31
0.0
  0
LINE
  5
1A7
330
1F
100
AcDbEntity
  8
0
  6
Continuous
 62
     7
370
    25
100
AcDbLine
 10
6731.6479206517
 20
5073.9411213463
 30
0.0
 11
6733.1479206517
 21
5072.4411213463
 31
0.0
  0
LINE
  5
1A8
330
1F
100
AcDbEntity
  8
0
  6
Continuous
 62
     7
370
    25
100
AcDbLine
 10
6413.1479206517
 20
4885.9411213463
 30
0.0
 11
6411.6479206517
 21
4887.4411213463
 31
0.0
  0
LINE
  5
1A9
330
1F
100
AcDbEntity
  8
0
  6
Continuous
 62
     7
370
    25
100
AcDbLine
 10
6411.6479206517
 20
4887.4411213463
 30
0.0
 11
6410.1479206517
 21
4885.9411213463
 31
0.0
  0
LINE
  5
1AA
330
1F
100
AcDbEntity
  8
0
  6
Continuous
 62
     7
370
    25
100
AcDbLine
 10
6539.6479206517
 20
4887.4411213463
 30
0.0
 11
6538.1479206517
 21
4885.9411213463
 31
0.0
  0
LINE
  5
1AB
330
1F
100
AcDbEntity
  8
0
  6
Continuous
 62
     7
370
    25
100
AcDbLine
 10
6541.1479206517
 20
4885.9411213463
 30
0.0
 11
6539.6479206517
 21
4887.4411213463
 31
0.0
  0
LINE
  5
1AC
330
1F
100
AcDbEntity
  8
0
  6
Continuous
 62
     7
370
    25
100
AcDbLine
 10
6733.1479206517
 20
4888.9411213463
 30
0.0
 11
6731.6479206517
 21
4887.4411213463
 31
0.0
  0
LINE
  5
1AD
330
1F
100
AcDbEntity
  8
0
  6
Continuous
 62
     7
370
    25
100
AcDbLine
 10
6666.1479206517
 20
4888.9411213463
 30
0.0
 11
6667.6479206517
 21
4887.4411213463
 31
0.0
  0
LINE
  5
1AE
330
1F
100
AcDbEntity
  8
0
  6
Continuous
 62
     7
370
    25
100
AcDbLine
 10
6538.1479206517
 20
4888.9411213463
 30
0.0
 11
6539.6479206517
 21
4887.4411213463
 31
0.0
  0
LINE
  5
1AF
330
1F
100
AcDbEntity
  8
0
  6
Continuous
 62
     7
370
    25
100
AcDbLine
 10
6539.6479206517
 20
4887.4411213463
 30
0.0
 11
6541.1479206517
 21
4888.9411213463
 31
0.0
  0
LINE
  5
1B0
330
1F
100
AcDbEntity
  8
0
  6
Continuous
 62
     7
370
    25
100
AcDbLine
 10
6602.1479206517
 20
4888.9411213463
 30
0.0
 11
6603.6479206517
 21
4887.4411213463
 31
0.0
  0
LINE
  5
1B1
330
1F
100
AcDbEntity
  8
0
  6
Continuous
 62
     7
370
    25
100
AcDbLine
 10
6603.6479206517
 20
4887.4411213463
 30
0.0
 11
6602.1479206517
 21
4885.9411213463
 31
0.0
  0
LINE
  5
1B2
330
1F
100
AcDbEntity
  8
0
  6
Continuous
 62
     7
370
    25
100
AcDbLine
 10
6605.1479206517
 20
4885.9411213463
 30
0.0
 11
6603.6479206517
 21
4887.4411213463
 31
0.0
  0
LINE
  5
1B3
330
1F
100
AcDbEntity
  8
0
  6
Continuous
 62
     7
370
    25
100
AcDbLine
 10
6603.6479206517
 20
4887.4411213463
 30
0.0
 11
6605.1479206517
 21
4888.9411213463
 31
0.0
  0
LINE
  5
1B4
330
1F
100
AcDbEntity
  8
0
  6
Continuous
 62
     7
370
    25
100
AcDbLine
 10
6667.6479206517
 20
4887.4411213463
 30
0.0
 11
6666.1479206517
 21
4885.9411213463
 31
0.0
  0
LINE
  5
1B5
330
1F
100
AcDbEntity
  8
0
  6
Continuous
 62
     7
370
    25
100
AcDbLine
 10
6731.6479206517
 20
4887.4411213463
 30
0.0
 11
6733.1479206517
 21
4885.9411213463
 31
0.0
  0
LINE
  5
1B6
330
1F
100
AcDbEntity
  8
0
  6
Continuous
 62
     7
370
    25
100
AcDbLine
 10
6739.2417274689
 20
4563.1911213463
 30
0.0
 11
6744.2401368481
 21
4563.1911213463
 31
0.0
  0
LINE
  5
1B7
330
1F
100
AcDbEntity
  8
0
  6
Continuous
 62
     7
370
    25
100
AcDbLine
 10
6741.8576846251
 20
4556.1911213463
 30
0.0
 11
6741.6225911727
 21
4556.1911213463
 31
0.0
  0
ARC
  5
1B8
330
1F
100
AcDbEntity
  8
0
  6
Continuous
 62
     7
370
    25
100
AcDbCircle
 10
6741.7401368481
 20
5096.1911213463
 30
0.0
 40
1.5
100
AcDbArc
 50
90.0
 51
180.0
  0
ARC
  5
1B9
330
1F
100
AcDbEntity
  8
0
  6
Continuous
 62
     7
370
    25
100
AcDbCircle
 10
6741.7401368481
 20
5096.1911213463
 30
0.0
 40
1.5
100
AcDbArc
 50
0.0
 51
90.0
  0
LINE
  5
1BA
330
1F
100
AcDbEntity
  8
0
  6
Continuous
 62
     7
370
    25
100
AcDbLine
 10
6404.2385462273
 20
4563.1911213463
 30
0.0
 11
6399.2401368481
 21
4563.1911213463
 31
0.0
  0
LINE
  5
1BB
330
1F
100
AcDbEntity
  8
0
  6
Continuous
 62
     7
370
    25
100
AcDbLine
 10
6401.8576825236
 20
4556.1911213463
 30
0.0
 11
6401.6225890711
 21
4556.1911213463
 31
0.0
  0
ARC
  5
1BC
330
1F
100
AcDbEntity
  8
0
  6
Continuous
 62
     7
370
    25
100
AcDbCircle
 10
6401.7401368481
 20
5096.1911213463
 30
0.0
 40
1.5
100
AcDbArc
 50
0.0
 51
90.0
  0
ARC
  5
1BD
330
1F
100
AcDbEntity
  8
0
  6
Continuous
 62
     7
370
    25
100
AcDbCircle
 10
6401.7401368481
 20
5096.1911213463
 30
0.0
 40
1.5
100
AcDbArc
 50
90.0
 51
180.0
  0
LINE
  5
1BE
330
1F
100
AcDbEntity
  8
0
  6
Continuous
 62
     8
370
    25
100
AcDbLine
 10
6663.30633562
 20
4569.4133362206
 30
0.0
 11
6666.30633562
 21
4569.4133362206
 31
0.0
  0
LINE
  5
1BF
330
1F
100
AcDbEntity
  8
0
  6
Continuous
 62
     8
370
    25
100
AcDbLine
 10
6663.30633562
 20
4566.2633362206
 30
0.0
 11
6666.30633562
 21
4566.2633362206
 31
0.0
  0
LINE
  5
1C0
330
1F
100
AcDbEntity
  8
0
  6
Continuous
 62
     8
370
    25
100
AcDbLine
 10
6659.65633562
 20
4562.9133362206
 30
0.0
 11
6659.65633562
 21
4559.9133362206
 31
0.0
  0
LINE
  5
1C1
330
1F
100
AcDbEntity
  8
0
  6
Continuous
 62
     8
370
    25
100
AcDbLine
 10
6656.30633562
 20
4566.2633362206
 30
0.0
 11
6653.30633562
 21
4566.2633362206
 31
0.0
  0
LINE
  5
1C2
330
1F
100
AcDbEntity
  8
0
  6
Continuous
 62
     8
370
    25
100
AcDbLine
 10
6659.95633562
 20
4562.9133362206
 30
0.0
 11
6659.95633562
 21
4559.9133362206
 31
0.0
  0
LINE
  5
1C3
330
1F
100
AcDbEntity
  8
0
  6
Continuous
 62
     8
370
    25
100
AcDbLine
 10
6656.30633562
 20
4569.4133362206
 30
0.0
 11
6653.30633562
 21
4569.4133362206
 31
0.0
  0
LINE
  5
1C4
330
1F
100
AcDbEntity
  8
0
  6
Continuous
 62
     8
370
    25
100
AcDbLine
 10
6487.1739380762
 20
4569.4133362206
 30
0.0
 11
6490.1739380762
 21
4569.4133362206
 31
0.0
  0
LINE
  5
1C5
330
1F
100
AcDbEntity
  8
0
  6
Continuous
 62
     8
370
    25
100
AcDbLine
 10
6480.1739380762
 20
4569.4133362206
 30
0.0
 11
6477.1739380762
 21
4569.4133362206
 31
0.0
  0
LINE
  5
1C6
330
1F
100
AcDbEntity
  8
0
  6
Continuous
 62
     8
370
    25
100
AcDbLine
 10
6480.1739380762
 20
4566.2633362206
 30
0.0
 11
6477.1739380762
 21
4566.2633362206
 31
0.0
  0
LINE
  5
1C7
330
1F
100
AcDbEntity
  8
0
  6
Continuous
 62
     8
370
    25
100
AcDbLine
 10
6483.5239380762
 20
4562.9133362206
 30
0.0
 11
6483.5239380762
 21
4559.9133362206
 31
0.0
  0
LINE
  5
1C8
330
1F
100
AcDbEntity
  8
0
  6
Continuous
 62
     8
370
    25
100
AcDbLine
 10
6483.8239380762
 20
4562.9133362206
 30
0.0
 11
6483.8239380762
 21
4559.9133362206
 31
0.0
  0
LINE
  5
1C9
330
1F
100
AcDbEntity
  8
0
  6
Continuous
 62
     8
370
    25
100
AcDbLine
 10
6487.1739380762
 20
4566.2633362206
 30
0.0
 11
6490.1739380762
 21
4566.2633362206
 31
0.0
  0
LINE
  5
1CA
330
1F
100
AcDbEntity
  8
0
  6
Continuous
 62
     8
370
    25
100
AcDbLine
 10
6720.2401368481
 20
4571.4411213463
 30
0.0
 11
6720.2401368481
 21
4572.9411213463
 31
0.0
  0
LINE
  5
1CB
330
1F
100
AcDbEntity
  8
0
  6
Continuous
 62
     8
370
    25
100
AcDbLine
 10
6720.2401368481
 20
4569.9411213463
 30
0.0
 11
6720.2401368481
 21
4571.4411213463
 31
0.0
  0
LINE
  5
1CC
330
1F
100
AcDbEntity
  8
0
  6
Continuous
 62
     8
370
    25
100
AcDbLine
 10
6423.2401368481
 20
4571.4411213463
 30
0.0
 11
6423.2401368481
 21
4572.9411213463
 31
0.0
  0
LINE
  5
1CD
330
1F
100
AcDbEntity
  8
0
  6
Continuous
 62
     8
370
    25
100
AcDbLine
 10
6423.2401368481
 20
4569.9411213463
 30
0.0
 11
6423.2401368481
 21
4571.4411213463
 31
0.0
  0
LINE
  5
1CE
330
1F
100
AcDbEntity
  8
0
  6
Continuous
 62
     8
370
    25
100
AcDbLine
 10
6733.6479206517
 20
4569.9411213463
 30
0.0
 11
6733.6479206517
 21
4566.9411213463
 31
0.0
  0
LINE
  5
1CF
330
1F
100
AcDbEntity
  8
0
  6
Continuous
 62
     8
370
    25
100
AcDbLine
 10
6409.8323530446
 20
4569.9411213463
 30
0.0
 11
6409.8323530446
 21
4566.9411213463
 31
0.0
  0
LINE
  5
1D0
330
1F
100
AcDbEntity
  8
0
  6
Continuous
 62
     8
370
    25
100
AcDbLine
 10
6409.8323530446
 20
5072.4411213463
 30
0.0
 11
6409.8323530446
 21
5075.4411213463
 31
0.0
  0
LINE
  5
1D1
330
1F
100
AcDbEntity
  8
0
  6
Continuous
 62
     8
370
    25
100
AcDbLine
 10
6733.6479206517
 20
5072.4411213463
 30
0.0
 11
6733.6479206517
 21
5075.4411213463
 31
0.0
  0
LWPOLYLINE
  5
1D2
330
1F
100
AcDbEntity
  8
0
  6
Continuous
 62
     8
370
    25
100
AcDbPolyline
 90
       10
 70
   128
 43
0.0
 10
6739.2802991987
 20
4569.9411213463
 10
6739.6036118919
 20
4569.8269406451
 10
6739.8777031585
 20
4569.5017815181
 10
6740.0608450876
 20
4569.0151464949
 10
6740.1251559808
 20
4568.4411213463
 10
6740.0608450876
 20
4567.8670961978
 10
6739.8777031585
 20
4567.3804611746
 10
6739.6036118919
 20
4567.0553020476
 10
6739.2802991987
 20
4566.9411213463
 10
6739.2802991987
 20
4566.9411213463
  0
LWPOLYLINE
  5
1D3
330
1F
100
AcDbEntity
  8
0
  6
Continuous
 62
     8
370
    25
100
AcDbPolyline
 90
        9
 70
   128
 43
0.0
 10
6404.1999744975
 20
4569.9411213463
 10
6403.8766618043
 20
4569.8269406451
 10
6403.6025705378
 20
4569.5017815181
 10
6403.4194286086
 20
4569.0151464949
 10
6403.3551177154
 20
4568.4411213463
 10
6403.4194286086
 20
4567.8670961978
 10
6403.6025705378
 20
4567.3804611746
 10
6403.8766618043
 20
4567.0553020476
 10
6404.1999744975
 20
4566.9411213463
  0
LINE
  5
1D4
330
1F
100
AcDbEntity
  8
0
  6
Continuous
 62
     8
370
    25
100
AcDbLine
 10
6409.8323530446
 20
4888.9411213463
 30
0.0
 11
6409.8323530446
 21
4885.9411213463
 31
0.0
  0
LWPOLYLINE
  5
1D5
330
1F
100
AcDbEntity
  8
0
  6
Continuous
 62
     8
370
    25
100
AcDbPolyline
 90
        9
 70
   128
 43
0.0
 10
6404.1999744975
 20
4888.9411213463
 10
6403.8766618043
 20
4888.8269406451
 10
6403.6025705378
 20
4888.5017815181
 10
6403.4194286086
 20
4888.0151464949
 10
6403.3551177154
 20
4887.4411213463
 10
6403.4194286086
 20
4886.8670961978
 10
6403.6025705378
 20
4886.3804611746
 10
6403.8766618043
 20
4886.0553020476
 10
6404.1999744975
 20
4885.9411213463
  0
LWPOLYLINE
  5
1D6
330
1F
100
AcDbEntity
  8
0
  6
Continuous
 62
     8
370
    25
100
AcDbPolyline
 90
        9
 70
   128
 43
0.0
 10
6404.1999744975
 20
5072.4411213463
 10
6403.8766618043
 20
5072.5553020476
 10
6403.6025705378
 20
5072.8804611746
 10
6403.4194286086
 20
5073.3670961978
 10
6403.3551177154
 20
5073.9411213463
 10
6403.4194286086
 20
5074.5151464949
 10
6403.6025705378
 20
5075.0017815181
 10
6403.8766618043
 20
5075.3269406451
 10
6404.1999744975
 20
5075.4411213463
  0
LINE
  5
1D7
330
1F
100
AcDbEntity
  8
0
  6
Continuous
 62
     8
370
    25
100
AcDbLine
 10
6733.6479206517
 20
4888.9411213463
 30
0.0
 11
6733.6479206517
 21
4885.9411213463
 31
0.0
  0
LWPOLYLINE
  5
1D8
330
1F
100
AcDbEntity
  8
0
  6
Continuous
 62
     8
370
    25
100
AcDbPolyline
 90
       10
 70
   128
 43
0.0
 10
6739.2802991987
 20
4888.9411213463
 10
6739.6036118919
 20
4888.8269406451
 10
6739.8777031585
 20
4888.5017815181
 10
6740.0608450876
 20
4888.0151464949
 10
6740.1251559808
 20
4887.4411213463
 10
6740.0608450876
 20
4886.8670961978
 10
6739.8777031585
 20
4886.3804611746
 10
6739.6036118919
 20
4886.0553020476
 10
6739.2802991987
 20
4885.9411213463
 10
6739.2802991987
 20
4885.9411213463
  0
LWPOLYLINE
  5
1D9
330
1F
100
AcDbEntity
  8
0
  6
Continuous
 62
     8
370
    25
100
AcDbPolyline
 90
        9
 70
   128
 43
0.0
 10
6739.2802991987
 20
5072.4411213463
 10
6739.6036118919
 20
5072.5553020476
 10
6739.8777031585
 20
5072.8804611746
 10
6740.0608450876
 20
5073.3670961978
 10
6740.1251559808
 20
5073.9411213463
 10
6740.0608450876
 20
5074.5151464949
 10
6739.8777031585
 20
5075.0017815181
 10
6739.6036118919
 20
5075.3269406451
 10
6739.2802991987
 20
5075.4411213463
  0
LWPOLYLINE
  5
1DA
330
1F
100
AcDbEntity
  8
0
  6
Continuous
 62
     8
370
    25
100
AcDbPolyline
 90
       10
 70
   128
 43
0.0
 10
6743.4298504122
 20
4569.9411213463
 10
6743.7531631054
 20
4569.8269406451
 10
6744.027254372
 20
4569.5017815181
 10
6744.2103963011
 20
4569.0151464949
 10
6744.2747071943
 20
4568.4411213463
 10
6744.2103963011
 20
4567.8670961978
 10
6744.027254372
 20
4567.3804611746
 10
6743.7531631054
 20
4567.0553020476
 10
6743.4298504122
 20
4566.9411213463
 10
6743.4298504122
 20
4566.9411213463
  0
LWPOLYLINE
  5
1DB
330
1F
100
AcDbEntity
  8
0
  6
Continuous
 62
     8
370
    25
100
AcDbPolyline
 90
        9
 70
   128
 43
0.0
 10
6743.4298504122
 20
5072.4411213463
 10
6743.7531631054
 20
5072.5553020476
 10
6744.027254372
 20
5072.8804611746
 10
6744.2103963011
 20
5073.3670961978
 10
6744.2747071943
 20
5073.9411213463
 10
6744.2103963011
 20
5074.5151464949
 10
6744.027254372
 20
5075.0017815181
 10
6743.7531631054
 20
5075.3269406451
 10
6743.4298504122
 20
5075.4411213463
  0
LWPOLYLINE
  5
1DC
330
1F
100
AcDbEntity
  8
0
  6
Continuous
 62
     8
370
    25
100
AcDbPolyline
 90
        9
 70
   128
 43
0.0
 10
6400.050423284
 20
4888.9411213463
 10
6399.7271105908
 20
4888.8269406451
 10
6399.4530193243
 20
4888.5017815181
 10
6399.2698773951
 20
4888.0151464949
 10
6399.2055665019
 20
4887.4411213463
 10
6399.2698773951
 20
4886.8670961978
 10
6399.4530193243
 20
4886.3804611746
 10
6399.7271105908
 20
4886.0553020476
 10
6400.050423284
 20
4885.9411213463
  0
LWPOLYLINE
  5
1DD
330
1F
100
AcDbEntity
  8
0
  6
Continuous
 62
     8
370
    25
100
AcDbPolyline
 90
        9
 70
   128
 43
0.0
 10
6400.050423284
 20
4569.9411213463
 10
6399.7271105908
 20
4569.8269406451
 10
6399.4530193243
 20
4569.5017815181
 10
6399.2698773951
 20
4569.0151464949
 10
6399.2055665019
 20
4568.4411213463
 10
6399.2698773951
 20
4567.8670961978
 10
6399.4530193243
 20
4567.3804611746
 10
6399.7271105908
 20
4567.0553020476
 10
6400.050423284
 20
4566.9411213463
  0
LWPOLYLINE
  5
1DE
330
1F
100
AcDbEntity
  8
0
  6
Continuous
 62
     8
370
    25
100
AcDbPolyline
 90
        9
 70
   128
 43
0.0
 10
6400.050423284
 20
5072.4411213463
 10
6399.7271105908
 20
5072.5553020476
 10
6399.4530193243
 20
5072.8804611746
 10
6399.2698773951
 20
5073.3670961978
 10
6399.2055665019
 20
5073.9411213463
 10
6399.2698773951
 20
5074.5151464949
 10
6399.4530193243
 20
5075.0017815181
 10
6399.7271105908
 20
5075.3269406451
 10
6400.050423284
 20
5075.4411213463
  0
LWPOLYLINE
  5
1DF
330
1F
100
AcDbEntity
  8
0
  6
Continuous
 62
     8
370
    25
100
AcDbPolyline
 90
       10
 70
   128
 43
0.0
 10
6743.4298504122
 20
4888.9411213463
 10
6743.7531631054
 20
4888.8269406451
 10
6744.027254372
 20
4888.5017815181
 10
6744.2103963011
 20
4888.0151464949
 10
6744.2747071943
 20
4887.4411213463
 10
6744.2103963011
 20
4886.8670961978
 10
6744.027254372
 20
4886.3804611746
 10
6743.7531631054
 20
4886.0553020476
 10
6743.4298504122
 20
4885.9411213463
 10
6743.4298504122
 20
4885.9411213463
  0
ARC
  5
1E0
330
1F
100
AcDbEntity
  8
0
  6
Continuous
 62
     8
370
    25
100
AcDbCircle
 10
6741.742647372
 20
4484.3326384722
 30
0.0
 40
73.22363750017466
100
AcDbArc
 50
88.7422760806
 51
91.2604818581
  0
LINE
  5
1E1
330
1F
100
AcDbEntity
  8
0
  6
Continuous
 62
     8
370
    25
100
AcDbLine
 10
6741.7401368481
 20
5076.1911213463
 30
0.0
 11
6740.2401368481
 21
5076.1911213463
 31
0.0
  0
LINE
  5
1E2
330
1F
100
AcDbEntity
  8
0
  6
Continuous
 62
     8
370
    25
100
AcDbLine
 10
6743.2401368481
 20
5076.1911213463
 30
0.0
 11
6741.7401368481
 21
5076.1911213463
 31
0.0
  0
LINE
  5
1E3
330
1F
100
AcDbEntity
  8
0
  6
Continuous
 62
     8
370
    25
100
AcDbLine
 10
6740.1408899745
 20
4557.478989312
 30
0.0
 11
6740.0561557102
 21
4557.478989312
 31
0.0
  0
ARC
  5
1E4
330
1F
100
AcDbEntity
  8
0
  6
Continuous
 62
     8
370
    25
100
AcDbCircle
 10
6401.7376263242
 20
4484.3326384721
 30
0.0
 40
73.2236375002083
100
AcDbArc
 50
88.7395181419
 51
91.2577239194
  0
LINE
  5
1E5
330
1F
100
AcDbEntity
  8
0
  6
Continuous
 62
     8
370
    25
100
AcDbLine
 10
6401.7401368481
 20
5076.1911213463
 30
0.0
 11
6403.2401368481
 21
5076.1911213463
 31
0.0
  0
LINE
  5
1E6
330
1F
100
AcDbEntity
  8
0
  6
Continuous
 62
     8
370
    25
100
AcDbLine
 10
6400.2401368481
 20
5076.1911213463
 30
0.0
 11
6401.7401368481
 21
5076.1911213463
 31
0.0
  0
LINE
  5
1E7
330
1F
100
AcDbEntity
  8
0
  6
Continuous
 62
     8
370
    25
100
AcDbLine
 10
6403.3393837217
 20
4557.478989312
 30
0.0
 11
6403.4241179861
 21
4557.478989312
 31
0.0
  0
LINE
  5
1E8
330
1F
100
AcDbEntity
  8
0
  6
Continuous
 62
     7
370
    25
100
AcDbLine
 10
6986.3349270051
 20
4566.2633362206
 30
0.0
 11
6986.3349270051
 21
4569.4133362206
 31
0.0
  0
LINE
  5
1E9
330
1F
100
AcDbEntity
  8
0
  6
Continuous
 62
     7
370
    25
100
AcDbLine
 10
6983.3349270051
 20
4569.4133362206
 30
0.0
 11
6983.3349270051
 21
4566.2633362206
 31
0.0
  0
ARC
  5
1EA
330
1F
100
AcDbEntity
  8
0
  6
Continuous
 62
     7
370
    25
100
AcDbCircle
 10
6986.8349270051
 20
4569.4133362206
 30
0.0
 40
0.5000000000002195
100
AcDbArc
 50
139.3540781438
 51
180.0
  0
ARC
  5
1EB
330
1F
100
AcDbEntity
  8
0
  6
Continuous
 62
     7
370
    25
100
AcDbCircle
 10
6986.8349270051
 20
4569.4133362206
 30
0.0
 40
3.500000000000516
100
AcDbArc
 50
96.2226747939
 51
180.0
  0
LINE
  5
1EC
330
1F
100
AcDbEntity
  8
0
  6
Continuous
 62
     7
370
    25
100
AcDbLine
 10
6986.3349270051
 20
4561.4133362206
 30
0.0
 11
6986.3349270051
 21
4566.2633362206
 31
0.0
  0
LINE
  5
1ED
330
1F
100
AcDbEntity
  8
0
  6
Continuous
 62
     7
370
    25
100
AcDbLine
 10
6983.3349270051
 20
4566.2633362206
 30
0.0
 11
6983.3349270051
 21
4561.4133362206
 31
0.0
  0
LINE
  5
1EE
330
1F
100
AcDbEntity
  8
0
  6
Continuous
 62
     7
370
    25
100
AcDbLine
 10
6998.287373214
 20
4569.9133362206
 30
0.0
 11
7058.5
 21
4569.9133362206
 31
0.0
  0
LINE
  5
1EF
330
1F
100
AcDbEntity
  8
0
  6
Continuous
 62
     7
370
    25
100
AcDbLine
 10
7061.5
 20
4569.9133362206
 30
0.0
 11
7123.5
 21
4569.9133362206
 31
0.0
  0
LINE
  5
1F0
330
1F
100
AcDbEntity
  8
0
  6
Continuous
 62
     7
370
    25
100
AcDbLine
 10
6999.1681790531
 20
4572.9133362206
 30
0.0
 11
6996.5
 21
4572.9133362206
 31
0.0
  0
LINE
  5
1F1
330
1F
100
AcDbEntity
  8
0
  6
Continuous
 62
     7
370
    25
100
AcDbLine
 10
6993.5
 20
4572.9133362206
 30
0.0
 11
6989.4555522671
 21
4572.9133362206
 31
0.0
  0
LINE
  5
1F2
330
1F
100
AcDbEntity
  8
0
  6
Continuous
 62
     7
370
    25
100
AcDbLine
 10
7260.5444477329
 20
4572.9133362206
 30
0.0
 11
7256.5
 21
4572.9133362206
 31
0.0
  0
LINE
  5
1F3
330
1F
100
AcDbEntity
  8
0
  6
Continuous
 62
     7
370
    25
100
AcDbLine
 10
7253.5
 20
4572.9133362206
 30
0.0
 11
7250.8318209469
 21
4572.9133362206
 31
0.0
  0
LINE
  5
1F4
330
1F
100
AcDbEntity
  8
0
  6
Continuous
 62
     7
370
    25
100
AcDbLine
 10
7126.5
 20
4569.9133362206
 30
0.0
 11
7188.5
 21
4569.9133362206
 31
0.0
  0
LINE
  5
1F5
330
1F
100
AcDbEntity
  8
0
  6
Continuous
 62
     7
370
    25
100
AcDbLine
 10
7191.5
 20
4569.9133362206
 30
0.0
 11
7251.712626786
 21
4569.9133362206
 31
0.0
  0
ARC
  5
1F6
330
1F
100
AcDbEntity
  8
0
  6
Continuous
 62
     7
370
    25
100
AcDbCircle
 10
7263.1650729949
 20
4569.4133362206
 30
0.0
 40
0.5000000000002195
100
AcDbArc
 50
0.0
 51
40.6459218562
  0
ARC
  5
1F7
330
1F
100
AcDbEntity
  8
0
  6
Continuous
 62
     7
370
    25
100
AcDbCircle
 10
7263.1650729949
 20
4569.4133362206
 30
0.0
 40
3.500000000000516
100
AcDbArc
 50
0.0
 51
83.7773252061
  0
LINE
  5
1F8
330
1F
100
AcDbEntity
  8
0
  6
Continuous
 62
     7
370
    25
100
AcDbLine
 10
7263.6650729949
 20
4566.2633362206
 30
0.0
 11
7263.6650729949
 21
4561.4133362206
 31
0.0
  0
LINE
  5
1F9
330
1F
100
AcDbEntity
  8
0
  6
Continuous
 62
     7
370
    25
100
AcDbLine
 10
7266.6650729949
 20
4561.4133362206
 30
0.0
 11
7266.6650729949
 21
4566.2633362206
 31
0.0
  0
LINE
  5
1FA
330
1F
100
AcDbEntity
  8
0
  6
Continuous
 62
     7
370
    25
100
AcDbLine
 10
7266.6650729949
 20
4566.2633362206
 30
0.0
 11
7266.6650729949
 21
4569.4133362206
 31
0.0
  0
LINE
  5
1FB
330
1F
100
AcDbEntity
  8
0
  6
Continuous
 62
     7
370
    25
100
AcDbLine
 10
7263.6650729949
 20
4569.4133362206
 30
0.0
 11
7263.6650729949
 21
4566.2633362206
 31
0.0
  0
LINE
  5
1FC
330
1F
100
AcDbEntity
  8
0
  6
Continuous
 62
     7
370
    25
100
AcDbLine
 10
7009.4555522671
 20
4572.9411213463
 30
0.0
 11
6999.4555522671
 21
4572.9411213463
 31
0.0
  0
LINE
  5
1FD
330
1F
100
AcDbEntity
  8
0
  6
Continuous
 62
     7
370
    25
100
AcDbLine
 10
6999.4555522671
 20
4569.9411213463
 30
0.0
 11
7009.4555522671
 21
4569.9411213463
 31
0.0
  0
LINE
  5
1FE
330
1F
100
AcDbEntity
  8
0
  6
Continuous
 62
     7
370
    25
100
AcDbLine
 10
7182.7055522671
 20
4569.9411213463
 30
0.0
 11
7188.5
 21
4569.9411213463
 31
0.0
  0
LINE
  5
1FF
330
1F
100
AcDbEntity
  8
0
  6
Continuous
 62
     7
370
    25
100
AcDbLine
 10
7191.5
 20
4569.9411213463
 30
0.0
 11
7240.5444477329
 21
4569.9411213463
 31
0.0
  0
LINE
  5
200
330
1F
100
AcDbEntity
  8
0
  6
Continuous
 62
     7
370
    25
100
AcDbLine
 10
7126.5
 20
4569.9411213463
 30
0.0
 11
7182.7055522671
 21
4569.9411213463
 31
0.0
  0
LINE
  5
201
330
1F
100
AcDbEntity
  8
0
  6
Continuous
 62
     7
370
    25
100
AcDbLine
 10
7067.2055522671
 20
4569.9411213463
 30
0.0
 11
7123.5
 21
4569.9411213463
 31
0.0
  0
LINE
  5
202
330
1F
100
AcDbEntity
  8
0
  6
Continuous
 62
     7
370
    25
100
AcDbLine
 10
7009.4555522671
 20
4569.9411213463
 30
0.0
 11
7058.5
 21
4569.9411213463
 31
0.0
  0
LINE
  5
203
330
1F
100
AcDbEntity
  8
0
  6
Continuous
 62
     7
370
    25
100
AcDbLine
 10
7061.5
 20
4569.9411213463
 30
0.0
 11
7067.2055522671
 21
4569.9411213463
 31
0.0
  0
LINE
  5
204
330
1F
100
AcDbEntity
  8
0
  6
Continuous
 62
     7
370
    25
100
AcDbLine
 10
7067.2055522671
 20
4572.9411213463
 30
0.0
 11
7061.5
 21
4572.9411213463
 31
0.0
  0
LINE
  5
205
330
1F
100
AcDbEntity
  8
0
  6
Continuous
 62
     7
370
    25
100
AcDbLine
 10
7058.5
 20
4572.9411213463
 30
0.0
 11
7009.4555522671
 21
4572.9411213463
 31
0.0
  0
LINE
  5
206
330
1F
100
AcDbEntity
  8
0
  6
Continuous
 62
     7
370
    25
100
AcDbLine
 10
7123.5
 20
4572.9411213463
 30
0.0
 11
7067.2055522671
 21
4572.9411213463
 31
0.0
  0
LINE
  5
207
330
1F
100
AcDbEntity
  8
0
  6
Continuous
 62
     7
370
    25
100
AcDbLine
 10
7182.7055522671
 20
4572.9411213463
 30
0.0
 11
7126.5
 21
4572.9411213463
 31
0.0
  0
LINE
  5
208
330
1F
100
AcDbEntity
  8
0
  6
Continuous
 62
     7
370
    25
100
AcDbLine
 10
7240.5444477329
 20
4572.9411213463
 30
0.0
 11
7191.5
 21
4572.9411213463
 31
0.0
  0
LINE
  5
209
330
1F
100
AcDbEntity
  8
0
  6
Continuous
 62
     7
370
    25
100
AcDbLine
 10
7188.5
 20
4572.9411213463
 30
0.0
 11
7182.7055522671
 21
4572.9411213463
 31
0.0
  0
LINE
  5
20A
330
1F
100
AcDbEntity
  8
0
  6
Continuous
 62
     7
370
    25
100
AcDbLine
 10
7250.5444477329
 20
4572.9411213463
 30
0.0
 11
7240.5444477329
 21
4572.9411213463
 31
0.0
  0
LINE
  5
20B
330
1F
100
AcDbEntity
  8
0
  6
Continuous
 62
     7
370
    25
100
AcDbLine
 10
7240.5444477329
 20
4569.9411213463
 30
0.0
 11
7250.5444477329
 21
4569.9411213463
 31
0.0
  0
ARC
  5
20C
330
1F
100
AcDbEntity
  8
0
  6
Continuous
 62
     7
370
    25
100
AcDbCircle
 10
7252.0
 20
4568.4411213463
 30
0.0
 40
1.5
100
AcDbArc
 50
90.0
 51
210.0
  0
LINE
  5
20D
330
1F
100
AcDbEntity
  8
0
  6
Continuous
 62
     7
370
    25
100
AcDbLine
 10
7252.2958365434
 20
4566.9411213463
 30
0.0
 11
7257.4788844409
 21
4566.9411213463
 31
0.0
  0
LINE
  5
20E
330
1F
100
AcDbEntity
  8
0
  6
Continuous
 62
     7
370
    25
100
AcDbLine
 10
7257.4788844409
 20
4569.9411213463
 30
0.0
 11
7252.0
 21
4569.9411213463
 31
0.0
  0
ARC
  5
20F
330
1F
100
AcDbEntity
  8
0
  6
Continuous
 62
     7
370
    25
100
AcDbCircle
 10
7252.0
 20
4887.4411213463
 30
0.0
 40
1.5
100
AcDbArc
 50
90.0
 51
270.0
  0
LINE
  5
210
330
1F
100
AcDbEntity
  8
0
  6
Continuous
 62
     7
370
    25
100
AcDbLine
 10
7252.0
 20
4885.9411213463
 30
0.0
 11
7257.4788844409
 21
4885.9411213463
 31
0.0
  0
LINE
  5
211
330
1F
100
AcDbEntity
  8
0
  6
Continuous
 62
     7
370
    25
100
AcDbLine
 10
7257.4788844409
 20
4888.9411213463
 30
0.0
 11
7252.0
 21
4888.9411213463
 31
0.0
  0
ARC
  5
212
330
1F
100
AcDbEntity
  8
0
  6
Continuous
 62
     7
370
    25
100
AcDbCircle
 10
7252.0
 20
5073.9411213463
 30
0.0
 40
1.500000000000909
100
AcDbArc
 50
90.0
 51
270.0
  0
LINE
  5
213
330
1F
100
AcDbEntity
  8
0
  6
Continuous
 62
     7
370
    25
100
AcDbLine
 10
7257.4788844409
 20
5075.4411213463
 30
0.0
 11
7252.0
 21
5075.4411213463
 31
0.0
  0
LINE
  5
214
330
1F
100
AcDbEntity
  8
0
  6
Continuous
 62
     7
370
    25
100
AcDbLine
 10
7252.0
 20
5072.4411213463
 30
0.0
 11
7257.4788844409
 21
5072.4411213463
 31
0.0
  0
LINE
  5
215
330
1F
100
AcDbEntity
  8
0
  6
Continuous
 62
     7
370
    25
100
AcDbLine
 10
7257.4788844409
 20
4566.9411213463
 30
0.0
 11
7260.3073958692
 21
4566.9411213463
 31
0.0
  0
LINE
  5
216
330
1F
100
AcDbEntity
  8
0
  6
Continuous
 62
     7
370
    25
100
AcDbLine
 10
7260.3073958692
 20
4569.9411213463
 30
0.0
 11
7257.4788844409
 21
4569.9411213463
 31
0.0
  0
LINE
  5
217
330
1F
100
AcDbEntity
  8
0
  6
Continuous
 62
     7
370
    25
100
AcDbLine
 10
7257.4788844409
 20
4885.9411213463
 30
0.0
 11
7260.3073958692
 21
4885.9411213463
 31
0.0
  0
LINE
  5
218
330
1F
100
AcDbEntity
  8
0
  6
Continuous
 62
     7
370
    25
100
AcDbLine
 10
7260.3073958692
 20
4888.9411213463
 30
0.0
 11
7257.4788844409
 21
4888.9411213463
 31
0.0
  0
LINE
  5
219
330
1F
100
AcDbEntity
  8
0
  6
Continuous
 62
     7
370
    25
100
AcDbLine
 10
7257.4788844409
 20
5072.4411213463
 30
0.0
 11
7260.3073958692
 21
5072.4411213463
 31
0.0
  0
LINE
  5
21A
330
1F
100
AcDbEntity
  8
0
  6
Continuous
 62
     7
370
    25
100
AcDbLine
 10
7260.3073958692
 20
5075.4411213463
 30
0.0
 11
7257.4788844409
 21
5075.4411213463
 31
0.0
  0
LINE
  5
21B
330
1F
100
AcDbEntity
  8
0
  6
Continuous
 62
     7
370
    25
100
AcDbLine
 10
7262.0444477329
 20
5075.4411213463
 30
0.0
 11
7260.3073958692
 21
5075.4411213463
 31
0.0
  0
LINE
  5
21C
330
1F
100
AcDbEntity
  8
0
  6
Continuous
 62
     7
370
    25
100
AcDbLine
 10
7260.3073958692
 20
5072.4411213463
 30
0.0
 11
7262.0444477329
 21
5072.4411213463
 31
0.0
  0
LINE
  5
21D
330
1F
100
AcDbEntity
  8
0
  6
Continuous
 62
     7
370
    25
100
AcDbLine
 10
7260.3073958692
 20
4566.9411213463
 30
0.0
 11
7262.0444477329
 21
4566.9411213463
 31
0.0
  0
LINE
  5
21E
330
1F
100
AcDbEntity
  8
0
  6
Continuous
 62
     7
370
    25
100
AcDbLine
 10
7262.0444477329
 20
4569.9411213463
 30
0.0
 11
7260.3073958692
 21
4569.9411213463
 31
0.0
  0
LINE
  5
21F
330
1F
100
AcDbEntity
  8
0
  6
Continuous
 62
     7
370
    25
100
AcDbLine
 10
7260.3073958692
 20
4885.9411213463
 30
0.0
 11
7262.0444477329
 21
4885.9411213463
 31
0.0
  0
LINE
  5
220
330
1F
100
AcDbEntity
  8
0
  6
Continuous
 62
     7
370
    25
100
AcDbLine
 10
7262.0444477329
 20
4888.9411213463
 30
0.0
 11
7260.3073958692
 21
4888.9411213463
 31
0.0
  0
LINE
  5
221
330
1F
100
AcDbEntity
  8
0
  6
Continuous
 62
     7
370
    25
100
AcDbLine
 10
7263.5444477329
 20
4887.4411213463
 30
0.0
 11
7263.5444477329
 21
5073.9411213463
 31
0.0
  0
LINE
  5
222
330
1F
100
AcDbEntity
  8
0
  6
Continuous
 62
     7
370
    25
100
AcDbLine
 10
7260.5444477329
 20
5072.4411213463
 30
0.0
 11
7260.5444477329
 21
4888.9411213463
 31
0.0
  0
LINE
  5
223
330
1F
100
AcDbEntity
  8
0
  6
Continuous
 62
     7
370
    25
100
AcDbLine
 10
7263.5444477329
 20
4568.4411213463
 30
0.0
 11
7263.5444477329
 21
4887.4411213463
 31
0.0
  0
LINE
  5
224
330
1F
100
AcDbEntity
  8
0
  6
Continuous
 62
     7
370
    25
100
AcDbLine
 10
7260.5444477329
 20
4885.9411213463
 30
0.0
 11
7260.5444477329
 21
4569.9411213463
 31
0.0
  0
ARC
  5
225
330
1F
100
AcDbEntity
  8
0
  6
Continuous
 62
     7
370
    25
100
AcDbCircle
 10
6998.0
 20
5073.9411213463
 30
0.0
 40
1.500000000000909
100
AcDbArc
 50
270.0
 51
90.0
  0
LINE
  5
226
330
1F
100
AcDbEntity
  8
0
  6
Continuous
 62
     7
370
    25
100
AcDbLine
 10
6998.0
 20
5075.4411213463
 30
0.0
 11
6992.5211155591
 21
5075.4411213463
 31
0.0
  0
LINE
  5
227
330
1F
100
AcDbEntity
  8
0
  6
Continuous
 62
     7
370
    25
100
AcDbLine
 10
6992.5211155591
 20
5072.4411213463
 30
0.0
 11
6998.0
 21
5072.4411213463
 31
0.0
  0
ARC
  5
228
330
1F
100
AcDbEntity
  8
0
  6
Continuous
 62
     7
370
    25
100
AcDbCircle
 10
6998.0
 20
4887.4411213463
 30
0.0
 40
1.5
100
AcDbArc
 50
270.0
 51
90.0
  0
LINE
  5
229
330
1F
100
AcDbEntity
  8
0
  6
Continuous
 62
     7
370
    25
100
AcDbLine
 10
6992.5211155591
 20
4885.9411213463
 30
0.0
 11
6998.0
 21
4885.9411213463
 31
0.0
  0
LINE
  5
22A
330
1F
100
AcDbEntity
  8
0
  6
Continuous
 62
     7
370
    25
100
AcDbLine
 10
6998.0
 20
4888.9411213463
 30
0.0
 11
6992.5211155591
 21
4888.9411213463
 31
0.0
  0
ARC
  5
22B
330
1F
100
AcDbEntity
  8
0
  6
Continuous
 62
     7
370
    25
100
AcDbCircle
 10
6998.0
 20
4568.4411213463
 30
0.0
 40
1.50000000000032
100
AcDbArc
 50
330.0
 51
90.0
  0
LINE
  5
22C
330
1F
100
AcDbEntity
  8
0
  6
Continuous
 62
     7
370
    25
100
AcDbLine
 10
6992.5211155591
 20
4566.9411213463
 30
0.0
 11
6997.7041634566
 21
4566.9411213463
 31
0.0
  0
LINE
  5
22D
330
1F
100
AcDbEntity
  8
0
  6
Continuous
 62
     7
370
    25
100
AcDbLine
 10
6998.0
 20
4569.9411213463
 30
0.0
 11
6992.5211155591
 21
4569.9411213463
 31
0.0
  0
LINE
  5
22E
330
1F
100
AcDbEntity
  8
0
  6
Continuous
 62
     7
370
    25
100
AcDbLine
 10
6992.5211155591
 20
4888.9411213463
 30
0.0
 11
6989.6926041308
 21
4888.9411213463
 31
0.0
  0
LINE
  5
22F
330
1F
100
AcDbEntity
  8
0
  6
Continuous
 62
     7
370
    25
100
AcDbLine
 10
6989.6926041308
 20
4885.9411213463
 30
0.0
 11
6992.5211155591
 21
4885.9411213463
 31
0.0
  0
LINE
  5
230
330
1F
100
AcDbEntity
  8
0
  6
Continuous
 62
     7
370
    25
100
AcDbLine
 10
6992.5211155591
 20
4569.9411213463
 30
0.0
 11
6989.6926041308
 21
4569.9411213463
 31
0.0
  0
LINE
  5
231
330
1F
100
AcDbEntity
  8
0
  6
Continuous
 62
     7
370
    25
100
AcDbLine
 10
6989.6926041308
 20
4566.9411213463
 30
0.0
 11
6992.5211155591
 21
4566.9411213463
 31
0.0
  0
LINE
  5
232
330
1F
100
AcDbEntity
  8
0
  6
Continuous
 62
     7
370
    25
100
AcDbLine
 10
6992.5211155591
 20
5075.4411213463
 30
0.0
 11
6989.6926041308
 21
5075.4411213463
 31
0.0
  0
LINE
  5
233
330
1F
100
AcDbEntity
  8
0
  6
Continuous
 62
     7
370
    25
100
AcDbLine
 10
6989.6926041308
 20
5072.4411213463
 30
0.0
 11
6992.5211155591
 21
5072.4411213463
 31
0.0
  0
LINE
  5
234
330
1F
100
AcDbEntity
  8
0
  6
Continuous
 62
     7
370
    25
100
AcDbLine
 10
6987.9555522671
 20
4566.9411213463
 30
0.0
 11
6989.6926041308
 21
4566.9411213463
 31
0.0
  0
LINE
  5
235
330
1F
100
AcDbEntity
  8
0
  6
Continuous
 62
     7
370
    25
100
AcDbLine
 10
6989.6926041308
 20
4569.9411213463
 30
0.0
 11
6987.9555522671
 21
4569.9411213463
 31
0.0
  0
LINE
  5
236
330
1F
100
AcDbEntity
  8
0
  6
Continuous
 62
     7
370
    25
100
AcDbLine
 10
6987.9555522671
 20
4885.9411213463
 30
0.0
 11
6989.6926041308
 21
4885.9411213463
 31
0.0
  0
LINE
  5
237
330
1F
100
AcDbEntity
  8
0
  6
Continuous
 62
     7
370
    25
100
AcDbLine
 10
6989.6926041308
 20
4888.9411213463
 30
0.0
 11
6987.9555522671
 21
4888.9411213463
 31
0.0
  0
LINE
  5
238
330
1F
100
AcDbEntity
  8
0
  6
Continuous
 62
     7
370
    25
100
AcDbLine
 10
6989.6926041308
 20
5075.4411213463
 30
0.0
 11
6987.9555522671
 21
5075.4411213463
 31
0.0
  0
LINE
  5
239
330
1F
100
AcDbEntity
  8
0
  6
Continuous
 62
     7
370
    25
100
AcDbLine
 10
6987.9555522671
 20
5072.4411213463
 30
0.0
 11
6989.6926041308
 21
5072.4411213463
 31
0.0
  0
LINE
  5
23A
330
1F
100
AcDbEntity
  8
0
  6
Continuous
 62
     7
370
    25
100
AcDbLine
 10
6989.4555522671
 20
4888.9411213463
 30
0.0
 11
6989.4555522671
 21
5072.4411213463
 31
0.0
  0
LINE
  5
23B
330
1F
100
AcDbEntity
  8
0
  6
Continuous
 62
     7
370
    25
100
AcDbLine
 10
6986.4555522671
 20
5073.9411213463
 30
0.0
 11
6986.4555522671
 21
4887.4411213463
 31
0.0
  0
LINE
  5
23C
330
1F
100
AcDbEntity
  8
0
  6
Continuous
 62
     7
370
    25
100
AcDbLine
 10
6989.4555522671
 20
4569.9411213463
 30
0.0
 11
6989.4555522671
 21
4885.9411213463
 31
0.0
  0
LINE
  5
23D
330
1F
100
AcDbEntity
  8
0
  6
Continuous
 62
     7
370
    25
100
AcDbLine
 10
6986.4555522671
 20
4887.4411213463
 30
0.0
 11
6986.4555522671
 21
4568.4411213463
 31
0.0
  0
LWPOLYLINE
  5
23E
330
1F
100
AcDbEntity
  8
0
  6
Continuous
 62
     7
370
    25
100
AcDbPolyline
 90
        3
 70
   128
 43
0.0
 10
7252.4409122246
 20
4563.1911213463
 10
7252.9148837893
 20
4560.6968409985
 10
7253.3846075393
 20
4557.4899091227
  0
LWPOLYLINE
  5
23F
330
1F
100
AcDbEntity
  8
0
  6
Continuous
 62
     7
370
    25
100
AcDbPolyline
 90
        3
 70
   128
 43
0.0
 10
7256.5933347617
 20
4557.4899091227
 10
7257.0085945249
 20
4560.6968409985
 10
7257.4402046915
 20
4563.1911213463
  0
LINE
  5
240
330
1F
100
AcDbEntity
  8
0
  6
Continuous
 62
     7
370
    25
100
AcDbLine
 10
6992.4999857143
 20
4563.1912213463
 30
0.0
 11
6993.3231617192
 21
4557.428989312
 31
0.0
  0
LINE
  5
241
330
1F
100
AcDbEntity
  8
0
  6
Continuous
 62
     7
370
    25
100
AcDbLine
 10
6996.6768382808
 20
4557.428989312
 30
0.0
 11
6997.5000142857
 21
4563.1912213463
 31
0.0
  0
ARC
  5
242
330
1F
100
AcDbEntity
  8
0
  6
Continuous
 62
     7
370
    25
100
AcDbCircle
 10
6994.5914686385
 20
4557.44959526
 30
0.0
 40
1.275788439532924
100
AcDbArc
 50
178.6797935242
 51
279.4503088299
  0
ARC
  5
243
330
1F
100
AcDbEntity
  8
0
  6
Continuous
 62
     7
370
    25
100
AcDbCircle
 10
6995.4085313615
 20
4557.44959526
 30
0.0
 40
1.275788439532125
100
AcDbArc
 50
260.54969117
 51
1.3202064758
  0
ARC
  5
244
330
1F
100
AcDbEntity
  8
0
  6
Continuous
 62
     7
370
    25
100
AcDbCircle
 10
7254.655573731
 20
4557.450009148
 30
0.0
 40
1.277274508117782
100
AcDbArc
 50
176.5801970165
 51
279.7335181155
  0
ARC
  5
245
330
1F
100
AcDbEntity
  8
0
  6
Continuous
 62
     7
370
    25
100
AcDbCircle
 10
7255.3248144851
 20
4557.4502373178
 30
0.0
 40
1.278056004263393
100
AcDbArc
 50
260.1237779248
 51
4.4879719729
  0
ARC
  5
246
330
1F
100
AcDbEntity
  8
0
  6
Continuous
 62
     7
370
    25
100
AcDbCircle
 10
7015.0
 20
5076.1911213463
 30
0.0
 40
18.50000000000091
100
AcDbArc
 50
90.0
 51
180.0
  0
ARC
  5
247
330
1F
100
AcDbEntity
  8
0
  6
Continuous
 62
     7
370
    25
100
AcDbCircle
 10
7015.0
 20
5076.1911213463
 30
0.0
 40
21.5
100
AcDbArc
 50
90.0
 51
180.0
  0
LINE
  5
248
330
1F
100
AcDbEntity
  8
0
  6
Continuous
 62
     7
370
    25
100
AcDbLine
 10
6996.5
 20
4991.6911213463
 30
0.0
 11
6996.5
 21
5072.4411213463
 31
0.0
  0
LINE
  5
249
330
1F
100
AcDbEntity
  8
0
  6
Continuous
 62
     7
370
    25
100
AcDbLine
 10
6996.5
 20
5075.4411213463
 30
0.0
 11
6996.5
 21
5076.1911213463
 31
0.0
  0
LINE
  5
24A
330
1F
100
AcDbEntity
  8
0
  6
Continuous
 62
     7
370
    25
100
AcDbLine
 10
6996.5
 20
4885.6911213463
 30
0.0
 11
6996.5
 21
4885.9411213463
 31
0.0
  0
LINE
  5
24B
330
1F
100
AcDbEntity
  8
0
  6
Continuous
 62
     7
370
    25
100
AcDbLine
 10
6996.5
 20
4888.9411213463
 30
0.0
 11
6996.5
 21
4988.6911213463
 31
0.0
  0
LINE
  5
24C
330
1F
100
AcDbEntity
  8
0
  6
Continuous
 62
     7
370
    25
100
AcDbLine
 10
6996.5
 20
4779.6911213463
 30
0.0
 11
6996.5
 21
4882.6911213463
 31
0.0
  0
LINE
  5
24D
330
1F
100
AcDbEntity
  8
0
  6
Continuous
 62
     7
370
    25
100
AcDbLine
 10
6996.5
 20
4673.6911213463
 30
0.0
 11
6996.5
 21
4776.6911213463
 31
0.0
  0
LINE
  5
24E
330
1F
100
AcDbEntity
  8
0
  6
Continuous
 62
     7
370
    25
100
AcDbLine
 10
6996.5
 20
4569.9411213463
 30
0.0
 11
6996.5
 21
4670.6911213463
 31
0.0
  0
LINE
  5
24F
330
1F
100
AcDbEntity
  8
0
  6
Continuous
 62
     7
370
    25
100
AcDbLine
 10
6996.5
 20
4563.1911213463
 30
0.0
 11
6996.5
 21
4564.6911213463
 31
0.0
  0
LINE
  5
250
330
1F
100
AcDbEntity
  8
0
  6
Continuous
 62
     7
370
    25
100
AcDbLine
 10
6993.5
 20
5076.1911213463
 30
0.0
 11
6993.5
 21
5075.4411213463
 31
0.0
  0
LINE
  5
251
330
1F
100
AcDbEntity
  8
0
  6
Continuous
 62
     7
370
    25
100
AcDbLine
 10
6993.5
 20
5072.4411213463
 30
0.0
 11
6993.5
 21
4888.9411213463
 31
0.0
  0
LINE
  5
252
330
1F
100
AcDbEntity
  8
0
  6
Continuous
 62
     7
370
    25
100
AcDbLine
 10
6993.5
 20
4885.9411213463
 30
0.0
 11
6993.5
 21
4569.9411213463
 31
0.0
  0
LINE
  5
253
330
1F
100
AcDbEntity
  8
0
  6
Continuous
 62
     7
370
    25
100
AcDbLine
 10
6993.5
 20
4566.9411213463
 30
0.0
 11
6993.5
 21
4563.1911213463
 31
0.0
  0
LINE
  5
254
330
1F
100
AcDbEntity
  8
0
  6
Continuous
 62
     7
370
    25
100
AcDbLine
 10
7058.5
 20
4567.6911213463
 30
0.0
 11
6999.2990381057
 21
4567.6911213463
 31
0.0
  0
LINE
  5
255
330
1F
100
AcDbEntity
  8
0
  6
Continuous
 62
     7
370
    25
100
AcDbLine
 10
7123.5
 20
4567.6911213463
 30
0.0
 11
7061.5
 21
4567.6911213463
 31
0.0
  0
LINE
  5
256
330
1F
100
AcDbEntity
  8
0
  6
Continuous
 62
     7
370
    25
100
AcDbLine
 10
7188.5
 20
4567.6911213463
 30
0.0
 11
7126.5
 21
4567.6911213463
 31
0.0
  0
LINE
  5
257
330
1F
100
AcDbEntity
  8
0
  6
Continuous
 62
     7
370
    25
100
AcDbLine
 10
7250.7009618943
 20
4567.6911213463
 30
0.0
 11
7191.5
 21
4567.6911213463
 31
0.0
  0
LINE
  5
258
330
1F
100
AcDbEntity
  8
0
  6
Continuous
 62
     7
370
    25
100
AcDbLine
 10
6996.5
 20
4564.6911213463
 30
0.0
 11
7253.5
 21
4564.6911213463
 31
0.0
  0
LINE
  5
259
330
1F
100
AcDbEntity
  8
0
  6
Continuous
 62
     7
370
    25
100
AcDbLine
 10
7058.5
 20
4673.6911213463
 30
0.0
 11
6996.5
 21
4673.6911213463
 31
0.0
  0
LINE
  5
25A
330
1F
100
AcDbEntity
  8
0
  6
Continuous
 62
     7
370
    25
100
AcDbLine
 10
6996.5
 20
4670.6911213463
 30
0.0
 11
7058.5
 21
4670.6911213463
 31
0.0
  0
LINE
  5
25B
330
1F
100
AcDbEntity
  8
0
  6
Continuous
 62
     7
370
    25
100
AcDbLine
 10
7058.5
 20
4991.6911213463
 30
0.0
 11
6996.5
 21
4991.6911213463
 31
0.0
  0
LINE
  5
25C
330
1F
100
AcDbEntity
  8
0
  6
Continuous
 62
     7
370
    25
100
AcDbLine
 10
6996.5
 20
4988.6911213463
 30
0.0
 11
7058.5
 21
4988.6911213463
 31
0.0
  0
LINE
  5
25D
330
1F
100
AcDbEntity
  8
0
  6
Continuous
 62
     7
370
    25
100
AcDbLine
 10
7058.5
 20
4779.6911213463
 30
0.0
 11
6996.5
 21
4779.6911213463
 31
0.0
  0
LINE
  5
25E
330
1F
100
AcDbEntity
  8
0
  6
Continuous
 62
     7
370
    25
100
AcDbLine
 10
6996.5
 20
4776.6911213463
 30
0.0
 11
7058.5
 21
4776.6911213463
 31
0.0
  0
LINE
  5
25F
330
1F
100
AcDbEntity
  8
0
  6
Continuous
 62
     7
370
    25
100
AcDbLine
 10
7058.5
 20
4885.6911213463
 30
0.0
 11
6996.5
 21
4885.6911213463
 31
0.0
  0
LINE
  5
260
330
1F
100
AcDbEntity
  8
0
  6
Continuous
 62
     7
370
    25
100
AcDbLine
 10
6996.5
 20
4882.6911213463
 30
0.0
 11
7058.5
 21
4882.6911213463
 31
0.0
  0
LINE
  5
261
330
1F
100
AcDbEntity
  8
0
  6
Continuous
 62
     7
370
    25
100
AcDbLine
 10
7191.5
 20
5094.6911213463
 30
0.0
 11
7235.0
 21
5094.6911213463
 31
0.0
  0
LINE
  5
262
330
1F
100
AcDbEntity
  8
0
  6
Continuous
 62
     7
370
    25
100
AcDbLine
 10
7126.5
 20
5094.6911213463
 30
0.0
 11
7188.5
 21
5094.6911213463
 31
0.0
  0
LINE
  5
263
330
1F
100
AcDbEntity
  8
0
  6
Continuous
 62
     7
370
    25
100
AcDbLine
 10
7061.5
 20
5094.6911213463
 30
0.0
 11
7123.5
 21
5094.6911213463
 31
0.0
  0
LINE
  5
264
330
1F
100
AcDbEntity
  8
0
  6
Continuous
 62
     7
370
    25
100
AcDbLine
 10
7015.0
 20
5094.6911213463
 30
0.0
 11
7058.5
 21
5094.6911213463
 31
0.0
  0
LINE
  5
265
330
1F
100
AcDbEntity
  8
0
  6
Continuous
 62
     7
370
    25
100
AcDbLine
 10
7235.0
 20
5097.6911213463
 30
0.0
 11
7015.0
 21
5097.6911213463
 31
0.0
  0
LINE
  5
266
330
1F
100
AcDbEntity
  8
0
  6
Continuous
 62
     7
370
    25
100
AcDbLine
 10
7058.5
 20
4670.6911213463
 30
0.0
 11
7058.5
 21
4567.6911213463
 31
0.0
  0
LINE
  5
267
330
1F
100
AcDbEntity
  8
0
  6
Continuous
 62
     7
370
    25
100
AcDbLine
 10
7061.5
 20
4567.6911213463
 30
0.0
 11
7061.5
 21
4670.6911213463
 31
0.0
  0
LINE
  5
268
330
1F
100
AcDbEntity
  8
0
  6
Continuous
 62
     7
370
    25
100
AcDbLine
 10
7058.5
 20
4882.6911213463
 30
0.0
 11
7058.5
 21
4779.6911213463
 31
0.0
  0
LINE
  5
269
330
1F
100
AcDbEntity
  8
0
  6
Continuous
 62
     7
370
    25
100
AcDbLine
 10
7061.5
 20
4779.6911213463
 30
0.0
 11
7061.5
 21
4882.6911213463
 31
0.0
  0
LINE
  5
26A
330
1F
100
AcDbEntity
  8
0
  6
Continuous
 62
     7
370
    25
100
AcDbLine
 10
7058.5
 20
4776.6911213463
 30
0.0
 11
7058.5
 21
4673.6911213463
 31
0.0
  0
LINE
  5
26B
330
1F
100
AcDbEntity
  8
0
  6
Continuous
 62
     7
370
    25
100
AcDbLine
 10
7061.5
 20
4673.6911213463
 30
0.0
 11
7061.5
 21
4776.6911213463
 31
0.0
  0
LINE
  5
26C
330
1F
100
AcDbEntity
  8
0
  6
Continuous
 62
     7
370
    25
100
AcDbLine
 10
7058.5
 20
5094.6911213463
 30
0.0
 11
7058.5
 21
4991.6911213463
 31
0.0
  0
LINE
  5
26D
330
1F
100
AcDbEntity
  8
0
  6
Continuous
 62
     7
370
    25
100
AcDbLine
 10
7061.5
 20
4991.6911213463
 30
0.0
 11
7061.5
 21
5094.6911213463
 31
0.0
  0
LINE
  5
26E
330
1F
100
AcDbEntity
  8
0
  6
Continuous
 62
     7
370
    25
100
AcDbLine
 10
7058.5
 20
4988.6911213463
 30
0.0
 11
7058.5
 21
4885.6911213463
 31
0.0
  0
LINE
  5
26F
330
1F
100
AcDbEntity
  8
0
  6
Continuous
 62
     7
370
    25
100
AcDbLine
 10
7061.5
 20
4885.6911213463
 30
0.0
 11
7061.5
 21
4988.6911213463
 31
0.0
  0
LINE
  5
270
330
1F
100
AcDbEntity
  8
0
  6
Continuous
 62
     7
370
    25
100
AcDbLine
 10
7123.5
 20
4885.6911213463
 30
0.0
 11
7061.5
 21
4885.6911213463
 31
0.0
  0
LINE
  5
271
330
1F
100
AcDbEntity
  8
0
  6
Continuous
 62
     7
370
    25
100
AcDbLine
 10
7061.5
 20
4882.6911213463
 30
0.0
 11
7123.5
 21
4882.6911213463
 31
0.0
  0
LINE
  5
272
330
1F
100
AcDbEntity
  8
0
  6
Continuous
 62
     7
370
    25
100
AcDbLine
 10
7123.5
 20
4673.6911213463
 30
0.0
 11
7061.5
 21
4673.6911213463
 31
0.0
  0
LINE
  5
273
330
1F
100
AcDbEntity
  8
0
  6
Continuous
 62
     7
370
    25
100
AcDbLine
 10
7061.5
 20
4670.6911213463
 30
0.0
 11
7123.5
 21
4670.6911213463
 31
0.0
  0
LINE
  5
274
330
1F
100
AcDbEntity
  8
0
  6
Continuous
 62
     7
370
    25
100
AcDbLine
 10
7123.5
 20
4991.6911213463
 30
0.0
 11
7061.5
 21
4991.6911213463
 31
0.0
  0
LINE
  5
275
330
1F
100
AcDbEntity
  8
0
  6
Continuous
 62
     7
370
    25
100
AcDbLine
 10
7061.5
 20
4988.6911213463
 30
0.0
 11
7123.5
 21
4988.6911213463
 31
0.0
  0
LINE
  5
276
330
1F
100
AcDbEntity
  8
0
  6
Continuous
 62
     7
370
    25
100
AcDbLine
 10
7123.5
 20
4779.6911213463
 30
0.0
 11
7061.5
 21
4779.6911213463
 31
0.0
  0
LINE
  5
277
330
1F
100
AcDbEntity
  8
0
  6
Continuous
 62
     7
370
    25
100
AcDbLine
 10
7061.5
 20
4776.6911213463
 30
0.0
 11
7123.5
 21
4776.6911213463
 31
0.0
  0
LINE
  5
278
330
1F
100
AcDbEntity
  8
0
  6
Continuous
 62
     7
370
    25
100
AcDbLine
 10
7123.5
 20
5094.6911213463
 30
0.0
 11
7123.5
 21
4991.6911213463
 31
0.0
  0
LINE
  5
279
330
1F
100
AcDbEntity
  8
0
  6
Continuous
 62
     7
370
    25
100
AcDbLine
 10
7126.5
 20
4991.6911213463
 30
0.0
 11
7126.5
 21
5094.6911213463
 31
0.0
  0
LINE
  5
27A
330
1F
100
AcDbEntity
  8
0
  6
Continuous
 62
     7
370
    25
100
AcDbLine
 10
7123.5
 20
4776.6911213463
 30
0.0
 11
7123.5
 21
4673.6911213463
 31
0.0
  0
LINE
  5
27B
330
1F
100
AcDbEntity
  8
0
  6
Continuous
 62
     7
370
    25
100
AcDbLine
 10
7126.5
 20
4673.6911213463
 30
0.0
 11
7126.5
 21
4776.6911213463
 31
0.0
  0
LINE
  5
27C
330
1F
100
AcDbEntity
  8
0
  6
Continuous
 62
     7
370
    25
100
AcDbLine
 10
7123.5
 20
4882.6911213463
 30
0.0
 11
7123.5
 21
4779.6911213463
 31
0.0
  0
LINE
  5
27D
330
1F
100
AcDbEntity
  8
0
  6
Continuous
 62
     7
370
    25
100
AcDbLine
 10
7126.5
 20
4779.6911213463
 30
0.0
 11
7126.5
 21
4882.6911213463
 31
0.0
  0
LINE
  5
27E
330
1F
100
AcDbEntity
  8
0
  6
Continuous
 62
     7
370
    25
100
AcDbLine
 10
7123.5
 20
4988.6911213463
 30
0.0
 11
7123.5
 21
4885.6911213463
 31
0.0
  0
LINE
  5
27F
330
1F
100
AcDbEntity
  8
0
  6
Continuous
 62
     7
370
    25
100
AcDbLine
 10
7126.5
 20
4885.6911213463
 30
0.0
 11
7126.5
 21
4988.6911213463
 31
0.0
  0
LINE
  5
280
330
1F
100
AcDbEntity
  8
0
  6
Continuous
 62
     7
370
    25
100
AcDbLine
 10
7123.5
 20
4670.6911213463
 30
0.0
 11
7123.5
 21
4567.6911213463
 31
0.0
  0
LINE
  5
281
330
1F
100
AcDbEntity
  8
0
  6
Continuous
 62
     7
370
    25
100
AcDbLine
 10
7126.5
 20
4567.6911213463
 30
0.0
 11
7126.5
 21
4670.6911213463
 31
0.0
  0
LINE
  5
282
330
1F
100
AcDbEntity
  8
0
  6
Continuous
 62
     7
370
    25
100
AcDbLine
 10
7188.5
 20
4991.6911213463
 30
0.0
 11
7126.5
 21
4991.6911213463
 31
0.0
  0
LINE
  5
283
330
1F
100
AcDbEntity
  8
0
  6
Continuous
 62
     7
370
    25
100
AcDbLine
 10
7126.5
 20
4988.6911213463
 30
0.0
 11
7188.5
 21
4988.6911213463
 31
0.0
  0
LINE
  5
284
330
1F
100
AcDbEntity
  8
0
  6
Continuous
 62
     7
370
    25
100
AcDbLine
 10
7188.5
 20
4779.6911213463
 30
0.0
 11
7126.5
 21
4779.6911213463
 31
0.0
  0
LINE
  5
285
330
1F
100
AcDbEntity
  8
0
  6
Continuous
 62
     7
370
    25
100
AcDbLine
 10
7126.5
 20
4776.6911213463
 30
0.0
 11
7188.5
 21
4776.6911213463
 31
0.0
  0
LINE
  5
286
330
1F
100
AcDbEntity
  8
0
  6
Continuous
 62
     7
370
    25
100
AcDbLine
 10
7188.5
 20
4673.6911213463
 30
0.0
 11
7126.5
 21
4673.6911213463
 31
0.0
  0
LINE
  5
287
330
1F
100
AcDbEntity
  8
0
  6
Continuous
 62
     7
370
    25
100
AcDbLine
 10
7126.5
 20
4670.6911213463
 30
0.0
 11
7188.5
 21
4670.6911213463
 31
0.0
  0
LINE
  5
288
330
1F
100
AcDbEntity
  8
0
  6
Continuous
 62
     7
370
    25
100
AcDbLine
 10
7188.5
 20
4885.6911213463
 30
0.0
 11
7126.5
 21
4885.6911213463
 31
0.0
  0
LINE
  5
289
330
1F
100
AcDbEntity
  8
0
  6
Continuous
 62
     7
370
    25
100
AcDbLine
 10
7126.5
 20
4882.6911213463
 30
0.0
 11
7188.5
 21
4882.6911213463
 31
0.0
  0
LINE
  5
28A
330
1F
100
AcDbEntity
  8
0
  6
Continuous
 62
     7
370
    25
100
AcDbLine
 10
7188.5
 20
4988.6911213463
 30
0.0
 11
7188.5
 21
4885.6911213463
 31
0.0
  0
LINE
  5
28B
330
1F
100
AcDbEntity
  8
0
  6
Continuous
 62
     7
370
    25
100
AcDbLine
 10
7191.5
 20
4885.6911213463
 30
0.0
 11
7191.5
 21
4988.6911213463
 31
0.0
  0
LINE
  5
28C
330
1F
100
AcDbEntity
  8
0
  6
Continuous
 62
     7
370
    25
100
AcDbLine
 10
7188.5
 20
4882.6911213463
 30
0.0
 11
7188.5
 21
4779.6911213463
 31
0.0
  0
LINE
  5
28D
330
1F
100
AcDbEntity
  8
0
  6
Continuous
 62
     7
370
    25
100
AcDbLine
 10
7191.5
 20
4779.6911213463
 30
0.0
 11
7191.5
 21
4882.6911213463
 31
0.0
  0
LINE
  5
28E
330
1F
100
AcDbEntity
  8
0
  6
Continuous
 62
     7
370
    25
100
AcDbLine
 10
7188.5
 20
4670.6911213463
 30
0.0
 11
7188.5
 21
4567.6911213463
 31
0.0
  0
LINE
  5
28F
330
1F
100
AcDbEntity
  8
0
  6
Continuous
 62
     7
370
    25
100
AcDbLine
 10
7191.5
 20
4567.6911213463
 30
0.0
 11
7191.5
 21
4670.6911213463
 31
0.0
  0
LINE
  5
290
330
1F
100
AcDbEntity
  8
0
  6
Continuous
 62
     7
370
    25
100
AcDbLine
 10
7188.5
 20
4776.6911213463
 30
0.0
 11
7188.5
 21
4673.6911213463
 31
0.0
  0
LINE
  5
291
330
1F
100
AcDbEntity
  8
0
  6
Continuous
 62
     7
370
    25
100
AcDbLine
 10
7191.5
 20
4673.6911213463
 30
0.0
 11
7191.5
 21
4776.6911213463
 31
0.0
  0
LINE
  5
292
330
1F
100
AcDbEntity
  8
0
  6
Continuous
 62
     7
370
    25
100
AcDbLine
 10
7188.5
 20
5094.6911213463
 30
0.0
 11
7188.5
 21
4991.6911213463
 31
0.0
  0
LINE
  5
293
330
1F
100
AcDbEntity
  8
0
  6
Continuous
 62
     7
370
    25
100
AcDbLine
 10
7191.5
 20
4991.6911213463
 30
0.0
 11
7191.5
 21
5094.6911213463
 31
0.0
  0
LINE
  5
294
330
1F
100
AcDbEntity
  8
0
  6
Continuous
 62
     7
370
    25
100
AcDbLine
 10
7253.5
 20
4991.6911213463
 30
0.0
 11
7191.5
 21
4991.6911213463
 31
0.0
  0
LINE
  5
295
330
1F
100
AcDbEntity
  8
0
  6
Continuous
 62
     7
370
    25
100
AcDbLine
 10
7191.5
 20
4988.6911213463
 30
0.0
 11
7253.5
 21
4988.6911213463
 31
0.0
  0
LINE
  5
296
330
1F
100
AcDbEntity
  8
0
  6
Continuous
 62
     7
370
    25
100
AcDbLine
 10
7253.5
 20
4673.6911213463
 30
0.0
 11
7191.5
 21
4673.6911213463
 31
0.0
  0
LINE
  5
297
330
1F
100
AcDbEntity
  8
0
  6
Continuous
 62
     7
370
    25
100
AcDbLine
 10
7191.5
 20
4670.6911213463
 30
0.0
 11
7253.5
 21
4670.6911213463
 31
0.0
  0
LINE
  5
298
330
1F
100
AcDbEntity
  8
0
  6
Continuous
 62
     7
370
    25
100
AcDbLine
 10
7253.5
 20
4885.6911213463
 30
0.0
 11
7191.5
 21
4885.6911213463
 31
0.0
  0
LINE
  5
299
330
1F
100
AcDbEntity
  8
0
  6
Continuous
 62
     7
370
    25
100
AcDbLine
 10
7191.5
 20
4882.6911213463
 30
0.0
 11
7253.5
 21
4882.6911213463
 31
0.0
  0
LINE
  5
29A
330
1F
100
AcDbEntity
  8
0
  6
Continuous
 62
     7
370
    25
100
AcDbLine
 10
7253.5
 20
4779.6911213463
 30
0.0
 11
7191.5
 21
4779.6911213463
 31
0.0
  0
LINE
  5
29B
330
1F
100
AcDbEntity
  8
0
  6
Continuous
 62
     7
370
    25
100
AcDbLine
 10
7191.5
 20
4776.6911213463
 30
0.0
 11
7253.5
 21
4776.6911213463
 31
0.0
  0
ARC
  5
29C
330
1F
100
AcDbEntity
  8
0
  6
Continuous
 62
     7
370
    25
100
AcDbCircle
 10
7235.0
 20
5076.1911213463
 30
0.0
 40
18.50000000000091
100
AcDbArc
 50
0.0
 51
90.0
  0
ARC
  5
29D
330
1F
100
AcDbEntity
  8
0
  6
Continuous
 62
     7
370
    25
100
AcDbCircle
 10
7235.0
 20
5076.1911213463
 30
0.0
 40
21.50000000000091
100
AcDbArc
 50
0.0
 51
90.0
  0
LINE
  5
29E
330
1F
100
AcDbEntity
  8
0
  6
Continuous
 62
     7
370
    25
100
AcDbLine
 10
7253.5
 20
4564.6911213463
 30
0.0
 11
7253.5
 21
4563.1911213463
 31
0.0
  0
LINE
  5
29F
330
1F
100
AcDbEntity
  8
0
  6
Continuous
 62
     7
370
    25
100
AcDbLine
 10
7253.5
 20
4670.6911213463
 30
0.0
 11
7253.5
 21
4569.9411213463
 31
0.0
  0
LINE
  5
2A0
330
1F
100
AcDbEntity
  8
0
  6
Continuous
 62
     7
370
    25
100
AcDbLine
 10
7253.5
 20
4776.6911213463
 30
0.0
 11
7253.5
 21
4673.6911213463
 31
0.0
  0
LINE
  5
2A1
330
1F
100
AcDbEntity
  8
0
  6
Continuous
 62
     7
370
    25
100
AcDbLine
 10
7253.5
 20
4882.6911213463
 30
0.0
 11
7253.5
 21
4779.6911213463
 31
0.0
  0
LINE
  5
2A2
330
1F
100
AcDbEntity
  8
0
  6
Continuous
 62
     7
370
    25
100
AcDbLine
 10
7253.5
 20
4988.6911213463
 30
0.0
 11
7253.5
 21
4888.9411213463
 31
0.0
  0
LINE
  5
2A3
330
1F
100
AcDbEntity
  8
0
  6
Continuous
 62
     7
370
    25
100
AcDbLine
 10
7253.5
 20
4885.9411213463
 30
0.0
 11
7253.5
 21
4885.6911213463
 31
0.0
  0
LINE
  5
2A4
330
1F
100
AcDbEntity
  8
0
  6
Continuous
 62
     7
370
    25
100
AcDbLine
 10
7253.5
 20
5076.1911213463
 30
0.0
 11
7253.5
 21
5075.4411213463
 31
0.0
  0
LINE
  5
2A5
330
1F
100
AcDbEntity
  8
0
  6
Continuous
 62
     7
370
    25
100
AcDbLine
 10
7253.5
 20
5072.4411213463
 30
0.0
 11
7253.5
 21
4991.6911213463
 31
0.0
  0
LINE
  5
2A6
330
1F
100
AcDbEntity
  8
0
  6
Continuous
 62
     7
370
    25
100
AcDbLine
 10
7256.5
 20
4563.1911213463
 30
0.0
 11
7256.5
 21
4566.9411213463
 31
0.0
  0
LINE
  5
2A7
330
1F
100
AcDbEntity
  8
0
  6
Continuous
 62
     7
370
    25
100
AcDbLine
 10
7256.5
 20
4569.9411213463
 30
0.0
 11
7256.5
 21
4885.9411213463
 31
0.0
  0
LINE
  5
2A8
330
1F
100
AcDbEntity
  8
0
  6
Continuous
 62
     7
370
    25
100
AcDbLine
 10
7256.5
 20
4888.9411213463
 30
0.0
 11
7256.5
 21
5072.4411213463
 31
0.0
  0
LINE
  5
2A9
330
1F
100
AcDbEntity
  8
0
  6
Continuous
 62
     7
370
    25
100
AcDbLine
 10
7256.5
 20
5075.4411213463
 30
0.0
 11
7256.5
 21
5076.1911213463
 31
0.0
  0
ARC
  5
2AA
330
1F
100
AcDbEntity
  8
0
  6
Continuous
 62
     7
370
    25
100
AcDbCircle
 10
6984.8349270051
 20
4561.4133362206
 30
0.0
 40
1.5
100
AcDbArc
 50
180.0
 51
0.0
  0
ARC
  5
2AB
330
1F
100
AcDbEntity
  8
0
  6
Continuous
 62
     7
370
    25
100
AcDbCircle
 10
7265.1650729949
 20
4561.4133362206
 30
0.0
 40
1.500000000000909
100
AcDbArc
 50
180.0
 51
0.0
  0
ARC
  5
2AC
330
1F
100
AcDbEntity
  8
0
  6
Continuous
 62
     7
370
    25
100
AcDbCircle
 10
6999.4555522671
 20
4571.4411213463
 30
0.0
 40
1.5
100
AcDbArc
 50
90.0
 51
180.0
  0
ARC
  5
2AD
330
1F
100
AcDbEntity
  8
0
  6
Continuous
 62
     7
370
    25
100
AcDbCircle
 10
6999.4555522671
 20
4571.4411213463
 30
0.0
 40
1.5
100
AcDbArc
 50
180.0
 51
270.0
  0
ARC
  5
2AE
330
1F
100
AcDbEntity
  8
0
  6
Continuous
 62
     7
370
    25
100
AcDbCircle
 10
7250.5444477329
 20
4571.4411213463
 30
0.0
 40
1.5
100
AcDbArc
 50
0.0
 51
90.0
  0
ARC
  5
2AF
330
1F
100
AcDbEntity
  8
0
  6
Continuous
 62
     7
370
    25
100
AcDbCircle
 10
7250.5444477329
 20
4571.4411213463
 30
0.0
 40
1.5
100
AcDbArc
 50
270.0
 51
0.0
  0
ARC
  5
2B0
330
1F
100
AcDbEntity
  8
0
  6
Continuous
 62
     7
370
    25
100
AcDbCircle
 10
7262.0444477329
 20
5073.9411213463
 30
0.0
 40
1.500000000000909
100
AcDbArc
 50
270.0
 51
90.0
  0
ARC
  5
2B1
330
1F
100
AcDbEntity
  8
0
  6
Continuous
 62
     7
370
    25
100
AcDbCircle
 10
7262.0444477329
 20
4568.4411213463
 30
0.0
 40
1.5
100
AcDbArc
 50
270.0
 51
90.0
  0
ARC
  5
2B2
330
1F
100
AcDbEntity
  8
0
  6
Continuous
 62
     7
370
    25
100
AcDbCircle
 10
7262.0444477329
 20
4887.4411213463
 30
0.0
 40
1.5
100
AcDbArc
 50
270.0
 51
90.0
  0
ARC
  5
2B3
330
1F
100
AcDbEntity
  8
0
  6
Continuous
 62
     7
370
    25
100
AcDbCircle
 10
6987.9555522671
 20
4568.4411213463
 30
0.0
 40
1.5
100
AcDbArc
 50
90.0
 51
270.0
  0
ARC
  5
2B4
330
1F
100
AcDbEntity
  8
0
  6
Continuous
 62
     7
370
    25
100
AcDbCircle
 10
6987.9555522671
 20
4887.4411213463
 30
0.0
 40
1.5
100
AcDbArc
 50
90.0
 51
270.0
  0
ARC
  5
2B5
330
1F
100
AcDbEntity
  8
0
  6
Continuous
 62
     7
370
    25
100
AcDbCircle
 10
6987.9555522671
 20
5073.9411213463
 30
0.0
 40
1.500000000000909
100
AcDbArc
 50
90.0
 51
270.0
  0
LINE
  5
2B6
330
1F
100
AcDbEntity
  8
0
  6
Continuous
 62
     7
370
    25
100
AcDbLine
 10
7255.1056019843
 20
4556.1911213463
 30
0.0
 11
7254.8715174085
 21
4556.1911213463
 31
0.0
  0
LINE
  5
2B7
330
1F
100
AcDbEntity
  8
0
  6
Continuous
 62
     7
370
    25
100
AcDbLine
 10
7252.4405584368
 20
4563.1911213463
 30
0.0
 11
7257.4405584368
 21
4563.1911213463
 31
0.0
  0
LINE
  5
2B8
330
1F
100
AcDbEntity
  8
0
  6
Continuous
 62
     7
370
    25
100
AcDbLine
 10
6997.5
 20
4563.1911213463
 30
0.0
 11
6992.5
 21
4563.1911213463
 31
0.0
  0
LINE
  5
2B9
330
1F
100
AcDbEntity
  8
0
  6
Continuous
 62
     7
370
    25
100
AcDbLine
 10
6995.1990568975
 20
4556.1911213463
 30
0.0
 11
6994.8009431025
 21
4556.1911213463
 31
0.0
  0
LINE
  5
2BA
330
1F
100
AcDbEntity
  8
0
  6
Continuous
 62
     7
370
    25
100
AcDbLine
 10
6995.0
 20
4990.1911213463
 30
0.0
 11
6996.5
 21
4988.6911213463
 31
0.0
  0
LINE
  5
2BB
330
1F
100
AcDbEntity
  8
0
  6
Continuous
 62
     7
370
    25
100
AcDbLine
 10
6996.5
 20
4991.6911213463
 30
0.0
 11
6995.0
 21
4990.1911213463
 31
0.0
  0
LINE
  5
2BC
330
1F
100
AcDbEntity
  8
0
  6
Continuous
 62
     7
370
    25
100
AcDbLine
 10
6995.0
 20
4884.1911213463
 30
0.0
 11
6996.5
 21
4882.6911213463
 31
0.0
  0
LINE
  5
2BD
330
1F
100
AcDbEntity
  8
0
  6
Continuous
 62
     7
370
    25
100
AcDbLine
 10
6996.5
 20
4885.6911213463
 30
0.0
 11
6995.0
 21
4884.1911213463
 31
0.0
  0
LINE
  5
2BE
330
1F
100
AcDbEntity
  8
0
  6
Continuous
 62
     7
370
    25
100
AcDbLine
 10
6995.0
 20
4778.1911213463
 30
0.0
 11
6996.5
 21
4776.6911213463
 31
0.0
  0
LINE
  5
2BF
330
1F
100
AcDbEntity
  8
0
  6
Continuous
 62
     7
370
    25
100
AcDbLine
 10
6996.5
 20
4779.6911213463
 30
0.0
 11
6995.0
 21
4778.1911213463
 31
0.0
  0
LINE
  5
2C0
330
1F
100
AcDbEntity
  8
0
  6
Continuous
 62
     7
370
    25
100
AcDbLine
 10
6995.0
 20
4672.1911213463
 30
0.0
 11
6996.5
 21
4670.6911213463
 31
0.0
  0
LINE
  5
2C1
330
1F
100
AcDbEntity
  8
0
  6
Continuous
 62
     7
370
    25
100
AcDbLine
 10
6996.5
 20
4673.6911213463
 30
0.0
 11
6995.0
 21
4672.1911213463
 31
0.0
  0
LINE
  5
2C2
330
1F
100
AcDbEntity
  8
0
  6
Continuous
 62
     7
370
    25
100
AcDbLine
 10
6995.0
 20
4566.1911213463
 30
0.0
 11
6996.5
 21
4564.6911213463
 31
0.0
  0
LINE
  5
2C3
330
1F
100
AcDbEntity
  8
0
  6
Continuous
 62
     7
370
    25
100
AcDbLine
 10
6995.75
 20
4566.9411213463
 30
0.0
 11
6995.0
 21
4566.1911213463
 31
0.0
  0
LINE
  5
2C4
330
1F
100
AcDbEntity
  8
0
  6
Continuous
 62
     7
370
    25
100
AcDbLine
 10
7255.0
 20
4566.1911213463
 30
0.0
 11
7254.25
 21
4566.9411213463
 31
0.0
  0
LINE
  5
2C5
330
1F
100
AcDbEntity
  8
0
  6
Continuous
 62
     7
370
    25
100
AcDbLine
 10
7253.5
 20
4564.6911213463
 30
0.0
 11
7255.0
 21
4566.1911213463
 31
0.0
  0
LINE
  5
2C6
330
1F
100
AcDbEntity
  8
0
  6
Continuous
 62
     7
370
    25
100
AcDbLine
 10
7060.0
 20
4566.1911213463
 30
0.0
 11
7061.5
 21
4567.6911213463
 31
0.0
  0
LINE
  5
2C7
330
1F
100
AcDbEntity
  8
0
  6
Continuous
 62
     7
370
    25
100
AcDbLine
 10
7058.5
 20
4567.6911213463
 30
0.0
 11
7060.0
 21
4566.1911213463
 31
0.0
  0
LINE
  5
2C8
330
1F
100
AcDbEntity
  8
0
  6
Continuous
 62
     7
370
    25
100
AcDbLine
 10
7125.0
 20
4566.1911213463
 30
0.0
 11
7126.5
 21
4567.6911213463
 31
0.0
  0
LINE
  5
2C9
330
1F
100
AcDbEntity
  8
0
  6
Continuous
 62
     7
370
    25
100
AcDbLine
 10
7123.5
 20
4567.6911213463
 30
0.0
 11
7125.0
 21
4566.1911213463
 31
0.0
  0
LINE
  5
2CA
330
1F
100
AcDbEntity
  8
0
  6
Continuous
 62
     7
370
    25
100
AcDbLine
 10
7190.0
 20
4566.1911213463
 30
0.0
 11
7191.5
 21
4567.6911213463
 31
0.0
  0
LINE
  5
2CB
330
1F
100
AcDbEntity
  8
0
  6
Continuous
 62
     7
370
    25
100
AcDbLine
 10
7188.5
 20
4567.6911213463
 30
0.0
 11
7190.0
 21
4566.1911213463
 31
0.0
  0
LINE
  5
2CC
330
1F
100
AcDbEntity
  8
0
  6
Continuous
 62
     7
370
    25
100
AcDbLine
 10
7060.0
 20
4672.1911213463
 30
0.0
 11
7058.5
 21
4670.6911213463
 31
0.0
  0
LINE
  5
2CD
330
1F
100
AcDbEntity
  8
0
  6
Continuous
 62
     7
370
    25
100
AcDbLine
 10
7058.5
 20
4673.6911213463
 30
0.0
 11
7060.0
 21
4672.1911213463
 31
0.0
  0
LINE
  5
2CE
330
1F
100
AcDbEntity
  8
0
  6
Continuous
 62
     7
370
    25
100
AcDbLine
 10
7060.0
 20
4990.1911213463
 30
0.0
 11
7058.5
 21
4988.6911213463
 31
0.0
  0
LINE
  5
2CF
330
1F
100
AcDbEntity
  8
0
  6
Continuous
 62
     7
370
    25
100
AcDbLine
 10
7058.5
 20
4991.6911213463
 30
0.0
 11
7060.0
 21
4990.1911213463
 31
0.0
  0
LINE
  5
2D0
330
1F
100
AcDbEntity
  8
0
  6
Continuous
 62
     7
370
    25
100
AcDbLine
 10
7060.0
 20
4778.1911213463
 30
0.0
 11
7058.5
 21
4776.6911213463
 31
0.0
  0
LINE
  5
2D1
330
1F
100
AcDbEntity
  8
0
  6
Continuous
 62
     7
370
    25
100
AcDbLine
 10
7058.5
 20
4779.6911213463
 30
0.0
 11
7060.0
 21
4778.1911213463
 31
0.0
  0
LINE
  5
2D2
330
1F
100
AcDbEntity
  8
0
  6
Continuous
 62
     7
370
    25
100
AcDbLine
 10
7060.0
 20
4884.1911213463
 30
0.0
 11
7058.5
 21
4882.6911213463
 31
0.0
  0
LINE
  5
2D3
330
1F
100
AcDbEntity
  8
0
  6
Continuous
 62
     7
370
    25
100
AcDbLine
 10
7058.5
 20
4885.6911213463
 30
0.0
 11
7060.0
 21
4884.1911213463
 31
0.0
  0
LINE
  5
2D4
330
1F
100
AcDbEntity
  8
0
  6
Continuous
 62
     7
370
    25
100
AcDbLine
 10
7061.5
 20
5094.6911213463
 30
0.0
 11
7060.0
 21
5096.1911213463
 31
0.0
  0
LINE
  5
2D5
330
1F
100
AcDbEntity
  8
0
  6
Continuous
 62
     7
370
    25
100
AcDbLine
 10
7060.0
 20
5096.1911213463
 30
0.0
 11
7058.5
 21
5094.6911213463
 31
0.0
  0
LINE
  5
2D6
330
1F
100
AcDbEntity
  8
0
  6
Continuous
 62
     7
370
    25
100
AcDbLine
 10
7126.5
 20
5094.6911213463
 30
0.0
 11
7125.0
 21
5096.1911213463
 31
0.0
  0
LINE
  5
2D7
330
1F
100
AcDbEntity
  8
0
  6
Continuous
 62
     7
370
    25
100
AcDbLine
 10
7125.0
 20
5096.1911213463
 30
0.0
 11
7123.5
 21
5094.6911213463
 31
0.0
  0
LINE
  5
2D8
330
1F
100
AcDbEntity
  8
0
  6
Continuous
 62
     7
370
    25
100
AcDbLine
 10
7191.5
 20
5094.6911213463
 30
0.0
 11
7190.0
 21
5096.1911213463
 31
0.0
  0
LINE
  5
2D9
330
1F
100
AcDbEntity
  8
0
  6
Continuous
 62
     7
370
    25
100
AcDbLine
 10
7190.0
 20
5096.1911213463
 30
0.0
 11
7188.5
 21
5094.6911213463
 31
0.0
  0
LINE
  5
2DA
330
1F
100
AcDbEntity
  8
0
  6
Continuous
 62
     7
370
    25
100
AcDbLine
 10
7061.5
 20
4670.6911213463
 30
0.0
 11
7060.0
 21
4672.1911213463
 31
0.0
  0
LINE
  5
2DB
330
1F
100
AcDbEntity
  8
0
  6
Continuous
 62
     7
370
    25
100
AcDbLine
 10
7060.0
 20
4778.1911213463
 30
0.0
 11
7061.5
 21
4779.6911213463
 31
0.0
  0
LINE
  5
2DC
330
1F
100
AcDbEntity
  8
0
  6
Continuous
 62
     7
370
    25
100
AcDbLine
 10
7061.5
 20
4882.6911213463
 30
0.0
 11
7060.0
 21
4884.1911213463
 31
0.0
  0
LINE
  5
2DD
330
1F
100
AcDbEntity
  8
0
  6
Continuous
 62
     7
370
    25
100
AcDbLine
 10
7060.0
 20
4672.1911213463
 30
0.0
 11
7061.5
 21
4673.6911213463
 31
0.0
  0
LINE
  5
2DE
330
1F
100
AcDbEntity
  8
0
  6
Continuous
 62
     7
370
    25
100
AcDbLine
 10
7061.5
 20
4776.6911213463
 30
0.0
 11
7060.0
 21
4778.1911213463
 31
0.0
  0
LINE
  5
2DF
330
1F
100
AcDbEntity
  8
0
  6
Continuous
 62
     7
370
    25
100
AcDbLine
 10
7060.0
 20
4990.1911213463
 30
0.0
 11
7061.5
 21
4991.6911213463
 31
0.0
  0
LINE
  5
2E0
330
1F
100
AcDbEntity
  8
0
  6
Continuous
 62
     7
370
    25
100
AcDbLine
 10
7060.0
 20
4884.1911213463
 30
0.0
 11
7061.5
 21
4885.6911213463
 31
0.0
  0
LINE
  5
2E1
330
1F
100
AcDbEntity
  8
0
  6
Continuous
 62
     7
370
    25
100
AcDbLine
 10
7061.5
 20
4988.6911213463
 30
0.0
 11
7060.0
 21
4990.1911213463
 31
0.0
  0
LINE
  5
2E2
330
1F
100
AcDbEntity
  8
0
  6
Continuous
 62
     7
370
    25
100
AcDbLine
 10
7125.0
 20
4884.1911213463
 30
0.0
 11
7123.5
 21
4882.6911213463
 31
0.0
  0
LINE
  5
2E3
330
1F
100
AcDbEntity
  8
0
  6
Continuous
 62
     7
370
    25
100
AcDbLine
 10
7123.5
 20
4885.6911213463
 30
0.0
 11
7125.0
 21
4884.1911213463
 31
0.0
  0
LINE
  5
2E4
330
1F
100
AcDbEntity
  8
0
  6
Continuous
 62
     7
370
    25
100
AcDbLine
 10
7125.0
 20
4672.1911213463
 30
0.0
 11
7123.5
 21
4670.6911213463
 31
0.0
  0
LINE
  5
2E5
330
1F
100
AcDbEntity
  8
0
  6
Continuous
 62
     7
370
    25
100
AcDbLine
 10
7123.5
 20
4673.6911213463
 30
0.0
 11
7125.0
 21
4672.1911213463
 31
0.0
  0
LINE
  5
2E6
330
1F
100
AcDbEntity
  8
0
  6
Continuous
 62
     7
370
    25
100
AcDbLine
 10
7125.0
 20
4990.1911213463
 30
0.0
 11
7123.5
 21
4988.6911213463
 31
0.0
  0
LINE
  5
2E7
330
1F
100
AcDbEntity
  8
0
  6
Continuous
 62
     7
370
    25
100
AcDbLine
 10
7123.5
 20
4991.6911213463
 30
0.0
 11
7125.0
 21
4990.1911213463
 31
0.0
  0
LINE
  5
2E8
330
1F
100
AcDbEntity
  8
0
  6
Continuous
 62
     7
370
    25
100
AcDbLine
 10
7125.0
 20
4778.1911213463
 30
0.0
 11
7123.5
 21
4776.6911213463
 31
0.0
  0
LINE
  5
2E9
330
1F
100
AcDbEntity
  8
0
  6
Continuous
 62
     7
370
    25
100
AcDbLine
 10
7123.5
 20
4779.6911213463
 30
0.0
 11
7125.0
 21
4778.1911213463
 31
0.0
  0
LINE
  5
2EA
330
1F
100
AcDbEntity
  8
0
  6
Continuous
 62
     7
370
    25
100
AcDbLine
 10
7125.0
 20
4990.1911213463
 30
0.0
 11
7126.5
 21
4991.6911213463
 31
0.0
  0
LINE
  5
2EB
330
1F
100
AcDbEntity
  8
0
  6
Continuous
 62
     7
370
    25
100
AcDbLine
 10
7125.0
 20
4672.1911213463
 30
0.0
 11
7126.5
 21
4673.6911213463
 31
0.0
  0
LINE
  5
2EC
330
1F
100
AcDbEntity
  8
0
  6
Continuous
 62
     7
370
    25
100
AcDbLine
 10
7126.5
 20
4776.6911213463
 30
0.0
 11
7125.0
 21
4778.1911213463
 31
0.0
  0
LINE
  5
2ED
330
1F
100
AcDbEntity
  8
0
  6
Continuous
 62
     7
370
    25
100
AcDbLine
 10
7125.0
 20
4778.1911213463
 30
0.0
 11
7126.5
 21
4779.6911213463
 31
0.0
  0
LINE
  5
2EE
330
1F
100
AcDbEntity
  8
0
  6
Continuous
 62
     7
370
    25
100
AcDbLine
 10
7126.5
 20
4882.6911213463
 30
0.0
 11
7125.0
 21
4884.1911213463
 31
0.0
  0
LINE
  5
2EF
330
1F
100
AcDbEntity
  8
0
  6
Continuous
 62
     7
370
    25
100
AcDbLine
 10
7125.0
 20
4884.1911213463
 30
0.0
 11
7126.5
 21
4885.6911213463
 31
0.0
  0
LINE
  5
2F0
330
1F
100
AcDbEntity
  8
0
  6
Continuous
 62
     7
370
    25
100
AcDbLine
 10
7126.5
 20
4988.6911213463
 30
0.0
 11
7125.0
 21
4990.1911213463
 31
0.0
  0
LINE
  5
2F1
330
1F
100
AcDbEntity
  8
0
  6
Continuous
 62
     7
370
    25
100
AcDbLine
 10
7126.5
 20
4670.6911213463
 30
0.0
 11
7125.0
 21
4672.1911213463
 31
0.0
  0
LINE
  5
2F2
330
1F
100
AcDbEntity
  8
0
  6
Continuous
 62
     7
370
    25
100
AcDbLine
 10
7190.0
 20
4990.1911213463
 30
0.0
 11
7188.5
 21
4988.6911213463
 31
0.0
  0
LINE
  5
2F3
330
1F
100
AcDbEntity
  8
0
  6
Continuous
 62
     7
370
    25
100
AcDbLine
 10
7188.5
 20
4991.6911213463
 30
0.0
 11
7190.0
 21
4990.1911213463
 31
0.0
  0
LINE
  5
2F4
330
1F
100
AcDbEntity
  8
0
  6
Continuous
 62
     7
370
    25
100
AcDbLine
 10
7190.0
 20
4778.1911213463
 30
0.0
 11
7188.5
 21
4776.6911213463
 31
0.0
  0
LINE
  5
2F5
330
1F
100
AcDbEntity
  8
0
  6
Continuous
 62
     7
370
    25
100
AcDbLine
 10
7188.5
 20
4779.6911213463
 30
0.0
 11
7190.0
 21
4778.1911213463
 31
0.0
  0
LINE
  5
2F6
330
1F
100
AcDbEntity
  8
0
  6
Continuous
 62
     7
370
    25
100
AcDbLine
 10
7190.0
 20
4672.1911213463
 30
0.0
 11
7188.5
 21
4670.6911213463
 31
0.0
  0
LINE
  5
2F7
330
1F
100
AcDbEntity
  8
0
  6
Continuous
 62
     7
370
    25
100
AcDbLine
 10
7188.5
 20
4673.6911213463
 30
0.0
 11
7190.0
 21
4672.1911213463
 31
0.0
  0
LINE
  5
2F8
330
1F
100
AcDbEntity
  8
0
  6
Continuous
 62
     7
370
    25
100
AcDbLine
 10
7190.0
 20
4884.1911213463
 30
0.0
 11
7188.5
 21
4882.6911213463
 31
0.0
  0
LINE
  5
2F9
330
1F
100
AcDbEntity
  8
0
  6
Continuous
 62
     7
370
    25
100
AcDbLine
 10
7188.5
 20
4885.6911213463
 30
0.0
 11
7190.0
 21
4884.1911213463
 31
0.0
  0
LINE
  5
2FA
330
1F
100
AcDbEntity
  8
0
  6
Continuous
 62
     7
370
    25
100
AcDbLine
 10
7190.0
 20
4884.1911213463
 30
0.0
 11
7191.5
 21
4885.6911213463
 31
0.0
  0
LINE
  5
2FB
330
1F
100
AcDbEntity
  8
0
  6
Continuous
 62
     7
370
    25
100
AcDbLine
 10
7191.5
 20
4988.6911213463
 30
0.0
 11
7190.0
 21
4990.1911213463
 31
0.0
  0
LINE
  5
2FC
330
1F
100
AcDbEntity
  8
0
  6
Continuous
 62
     7
370
    25
100
AcDbLine
 10
7190.0
 20
4778.1911213463
 30
0.0
 11
7191.5
 21
4779.6911213463
 31
0.0
  0
LINE
  5
2FD
330
1F
100
AcDbEntity
  8
0
  6
Continuous
 62
     7
370
    25
100
AcDbLine
 10
7191.5
 20
4882.6911213463
 30
0.0
 11
7190.0
 21
4884.1911213463
 31
0.0
  0
LINE
  5
2FE
330
1F
100
AcDbEntity
  8
0
  6
Continuous
 62
     7
370
    25
100
AcDbLine
 10
7191.5
 20
4670.6911213463
 30
0.0
 11
7190.0
 21
4672.1911213463
 31
0.0
  0
LINE
  5
2FF
330
1F
100
AcDbEntity
  8
0
  6
Continuous
 62
     7
370
    25
100
AcDbLine
 10
7190.0
 20
4672.1911213463
 30
0.0
 11
7191.5
 21
4673.6911213463
 31
0.0
  0
LINE
  5
300
330
1F
100
AcDbEntity
  8
0
  6
Continuous
 62
     7
370
    25
100
AcDbLine
 10
7191.5
 20
4776.6911213463
 30
0.0
 11
7190.0
 21
4778.1911213463
 31
0.0
  0
LINE
  5
301
330
1F
100
AcDbEntity
  8
0
  6
Continuous
 62
     7
370
    25
100
AcDbLine
 10
7190.0
 20
4990.1911213463
 30
0.0
 11
7191.5
 21
4991.6911213463
 31
0.0
  0
LINE
  5
302
330
1F
100
AcDbEntity
  8
0
  6
Continuous
 62
     7
370
    25
100
AcDbLine
 10
7255.0
 20
4990.1911213463
 30
0.0
 11
7253.5
 21
4991.6911213463
 31
0.0
  0
LINE
  5
303
330
1F
100
AcDbEntity
  8
0
  6
Continuous
 62
     7
370
    25
100
AcDbLine
 10
7253.5
 20
4988.6911213463
 30
0.0
 11
7255.0
 21
4990.1911213463
 31
0.0
  0
LINE
  5
304
330
1F
100
AcDbEntity
  8
0
  6
Continuous
 62
     7
370
    25
100
AcDbLine
 10
7255.0
 20
4672.1911213463
 30
0.0
 11
7253.5
 21
4673.6911213463
 31
0.0
  0
LINE
  5
305
330
1F
100
AcDbEntity
  8
0
  6
Continuous
 62
     7
370
    25
100
AcDbLine
 10
7253.5
 20
4670.6911213463
 30
0.0
 11
7255.0
 21
4672.1911213463
 31
0.0
  0
LINE
  5
306
330
1F
100
AcDbEntity
  8
0
  6
Continuous
 62
     7
370
    25
100
AcDbLine
 10
7255.0
 20
4884.1911213463
 30
0.0
 11
7253.5
 21
4885.6911213463
 31
0.0
  0
LINE
  5
307
330
1F
100
AcDbEntity
  8
0
  6
Continuous
 62
     7
370
    25
100
AcDbLine
 10
7253.5
 20
4882.6911213463
 30
0.0
 11
7255.0
 21
4884.1911213463
 31
0.0
  0
LINE
  5
308
330
1F
100
AcDbEntity
  8
0
  6
Continuous
 62
     7
370
    25
100
AcDbLine
 10
7255.0
 20
4778.1911213463
 30
0.0
 11
7253.5
 21
4779.6911213463
 31
0.0
  0
LINE
  5
309
330
1F
100
AcDbEntity
  8
0
  6
Continuous
 62
     7
370
    25
100
AcDbLine
 10
7253.5
 20
4776.6911213463
 30
0.0
 11
7255.0
 21
4778.1911213463
 31
0.0
  0
LINE
  5
30A
330
1F
100
AcDbEntity
  8
0
  6
Continuous
 62
     8
370
    25
100
AcDbLine
 10
6983.3349270051
 20
4569.4133362206
 30
0.0
 11
6986.3349270051
 21
4569.4133362206
 31
0.0
  0
LINE
  5
30B
330
1F
100
AcDbEntity
  8
0
  6
Continuous
 62
     8
370
    25
100
AcDbLine
 10
6983.3349270051
 20
4566.2633362206
 30
0.0
 11
6986.3349270051
 21
4566.2633362206
 31
0.0
  0
LINE
  5
30C
330
1F
100
AcDbEntity
  8
0
  6
Continuous
 62
     8
370
    25
100
AcDbLine
 10
7266.6650729949
 20
4569.4133362206
 30
0.0
 11
7263.6650729949
 21
4569.4133362206
 31
0.0
  0
LINE
  5
30D
330
1F
100
AcDbEntity
  8
0
  6
Continuous
 62
     8
370
    25
100
AcDbLine
 10
7266.6650729949
 20
4566.2633362206
 30
0.0
 11
7263.6650729949
 21
4566.2633362206
 31
0.0
  0
LINE
  5
30E
330
1F
100
AcDbEntity
  8
0
  6
Continuous
 62
     8
370
    25
100
AcDbLine
 10
7009.4555522671
 20
4571.4411213463
 30
0.0
 11
7009.4555522671
 21
4572.9411213463
 31
0.0
  0
LINE
  5
30F
330
1F
100
AcDbEntity
  8
0
  6
Continuous
 62
     8
370
    25
100
AcDbLine
 10
7009.4555522671
 20
4569.9411213463
 30
0.0
 11
7009.4555522671
 21
4571.4411213463
 31
0.0
  0
LINE
  5
310
330
1F
100
AcDbEntity
  8
0
  6
Continuous
 62
     8
370
    25
100
AcDbLine
 10
7240.5444477329
 20
4571.4411213463
 30
0.0
 11
7240.5444477329
 21
4572.9411213463
 31
0.0
  0
LINE
  5
311
330
1F
100
AcDbEntity
  8
0
  6
Continuous
 62
     8
370
    25
100
AcDbLine
 10
7240.5444477329
 20
4569.9411213463
 30
0.0
 11
7240.5444477329
 21
4571.4411213463
 31
0.0
  0
LWPOLYLINE
  5
312
330
1F
100
AcDbEntity
  8
0
  6
Continuous
 62
     8
370
    25
100
AcDbPolyline
 90
        9
 70
   128
 43
0.0
 10
7257.4788844409
 20
4569.9411213463
 10
7257.953198444
 20
4569.8269406451
 10
7258.3553024398
 20
4569.5017815181
 10
7258.6239797401
 20
4569.0151464949
 10
7258.7183266613
 20
4568.4411213463
 10
7258.6239797401
 20
4567.8670961978
 10
7258.3553024398
 20
4567.3804611746
 10
7257.953198444
 20
4567.0553020476
 10
7257.4788844409
 20
4566.9411213463
  0
LWPOLYLINE
  5
313
330
1F
100
AcDbEntity
  8
0
  6
Continuous
 62
     8
370
    25
100
AcDbPolyline
 90
        9
 70
   128
 43
0.0
 10
7257.4788844409
 20
4888.9411213463
 10
7257.953198444
 20
4888.8269406451
 10
7258.3553024398
 20
4888.5017815181
 10
7258.6239797401
 20
4888.0151464949
 10
7258.7183266613
 20
4887.4411213463
 10
7258.6239797401
 20
4886.8670961978
 10
7258.3553024398
 20
4886.3804611746
 10
7257.953198444
 20
4886.0553020476
 10
7257.4788844409
 20
4885.9411213463
  0
LWPOLYLINE
  5
314
330
1F
100
AcDbEntity
  8
0
  6
Continuous
 62
     8
370
    25
100
AcDbPolyline
 90
        9
 70
   128
 43
0.0
 10
7257.4788844409
 20
5072.4411213463
 10
7257.953198444
 20
5072.5553020476
 10
7258.3553024398
 20
5072.8804611746
 10
7258.6239797401
 20
5073.3670961978
 10
7258.7183266613
 20
5073.9411213463
 10
7258.6239797401
 20
5074.5151464949
 10
7258.3553024398
 20
5075.0017815181
 10
7257.953198444
 20
5075.3269406451
 10
7257.4788844409
 20
5075.4411213463
  0
LWPOLYLINE
  5
315
330
1F
100
AcDbEntity
  8
0
  6
Continuous
 62
     8
370
    25
100
AcDbPolyline
 90
       10
 70
   128
 43
0.0
 10
7260.3073958692
 20
4569.9411213463
 10
7260.7817098723
 20
4569.8269406451
 10
7261.1838138681
 20
4569.5017815181
 10
7261.4524911684
 20
4569.0151464949
 10
7261.5468380896
 20
4568.4411213463
 10
7261.4524911684
 20
4567.8670961978
 10
7261.1838138681
 20
4567.3804611746
 10
7260.7817098723
 20
4567.0553020476
 10
7260.3073958692
 20
4566.9411213463
 10
7260.3073958692
 20
4566.9411213463
  0
LWPOLYLINE
  5
316
330
1F
100
AcDbEntity
  8
0
  6
Continuous
 62
     8
370
    25
100
AcDbPolyline
 90
        9
 70
   128
 43
0.0
 10
7260.3073958692
 20
4888.9411213463
 10
7260.7817098723
 20
4888.8269406451
 10
7261.1838138681
 20
4888.5017815181
 10
7261.4524911684
 20
4888.0151464949
 10
7261.5468380896
 20
4887.4411213463
 10
7261.4524911684
 20
4886.8670961978
 10
7261.1838138681
 20
4886.3804611746
 10
7260.7817098723
 20
4886.0553020476
 10
7260.3073958692
 20
4885.9411213463
  0
LWPOLYLINE
  5
317
330
1F
100
AcDbEntity
  8
0
  6
Continuous
 62
     8
370
    25
100
AcDbPolyline
 90
        9
 70
   128
 43
0.0
 10
7260.3073958692
 20
5072.4411213463
 10
7260.7817098723
 20
5072.5553020476
 10
7261.1838138681
 20
5072.8804611746
 10
7261.4524911684
 20
5073.3670961978
 10
7261.5468380896
 20
5073.9411213463
 10
7261.4524911684
 20
5074.5151464949
 10
7261.1838138681
 20
5075.0017815181
 10
7260.7817098723
 20
5075.3269406451
 10
7260.3073958692
 20
5075.4411213463
  0
LWPOLYLINE
  5
318
330
1F
100
AcDbEntity
  8
0
  6
Continuous
 62
     8
370
    25
100
AcDbPolyline
 90
        9
 70
   128
 43
0.0
 10
6992.5211155591
 20
5072.4411213463
 10
6992.046801556
 20
5072.5553020476
 10
6991.6446975602
 20
5072.8804611746
 10
6991.3760202599
 20
5073.3670961978
 10
6991.2816733387
 20
5073.9411213463
 10
6991.3760202599
 20
5074.5151464949
 10
6991.6446975602
 20
5075.0017815181
 10
6992.046801556
 20
5075.3269406451
 10
6992.5211155591
 20
5075.4411213463
  0
LWPOLYLINE
  5
319
330
1F
100
AcDbEntity
  8
0
  6
Continuous
 62
     8
370
    25
100
AcDbPolyline
 90
        9
 70
   128
 43
0.0
 10
6992.5211155591
 20
4888.9411213463
 10
6992.046801556
 20
4888.8269406451
 10
6991.6446975602
 20
4888.5017815181
 10
6991.3760202599
 20
4888.0151464949
 10
6991.2816733387
 20
4887.4411213463
 10
6991.3760202599
 20
4886.8670961978
 10
6991.6446975602
 20
4886.3804611746
 10
6992.046801556
 20
4886.0553020476
 10
6992.5211155591
 20
4885.9411213463
  0
LWPOLYLINE
  5
31A
330
1F
100
AcDbEntity
  8
0
  6
Continuous
 62
     8
370
    25
100
AcDbPolyline
 90
        9
 70
   128
 43
0.0
 10
6992.5211155591
 20
4569.9411213463
 10
6992.046801556
 20
4569.8269406451
 10
6991.6446975602
 20
4569.5017815181
 10
6991.3760202599
 20
4569.0151464949
 10
6991.2816733387
 20
4568.4411213463
 10
6991.3760202599
 20
4567.8670961978
 10
6991.6446975602
 20
4567.3804611746
 10
6992.046801556
 20
4567.0553020476
 10
6992.5211155591
 20
4566.9411213463
  0
LWPOLYLINE
  5
31B
330
1F
100
AcDbEntity
  8
0
  6
Continuous
 62
     8
370
    25
100
AcDbPolyline
 90
        9
 70
   128
 43
0.0
 10
6989.6926041308
 20
4888.9411213463
 10
6989.2182901277
 20
4888.8269406451
 10
6988.8161861319
 20
4888.5017815181
 10
6988.5475088316
 20
4888.0151464949
 10
6988.4531619104
 20
4887.4411213463
 10
6988.5475088316
 20
4886.8670961978
 10
6988.8161861319
 20
4886.3804611746
 10
6989.2182901277
 20
4886.0553020476
 10
6989.6926041308
 20
4885.9411213463
  0
LWPOLYLINE
  5
31C
330
1F
100
AcDbEntity
  8
0
  6
Continuous
 62
     8
370
    25
100
AcDbPolyline
 90
       10
 70
   128
 43
0.0
 10
6989.6926041308
 20
4569.9411213463
 10
6989.2182901277
 20
4569.8269406451
 10
6988.8161861319
 20
4569.5017815181
 10
6988.5475088316
 20
4569.0151464949
 10
6988.4531619104
 20
4568.4411213463
 10
6988.5475088316
 20
4567.8670961978
 10
6988.8161861319
 20
4567.3804611746
 10
6989.2182901277
 20
4567.0553020476
 10
6989.6926041308
 20
4566.9411213463
 10
6989.6926041308
 20
4566.9411213463
  0
LWPOLYLINE
  5
31D
330
1F
100
AcDbEntity
  8
0
  6
Continuous
 62
     8
370
    25
100
AcDbPolyline
 90
        9
 70
   128
 43
0.0
 10
6989.6926041308
 20
5072.4411213463
 10
6989.2182901277
 20
5072.5553020476
 10
6988.8161861319
 20
5072.8804611746
 10
6988.5475088316
 20
5073.3670961978
 10
6988.4531619104
 20
5073.9411213463
 10
6988.5475088316
 20
5074.5151464949
 10
6988.8161861319
 20
5075.0017815181
 10
6989.2182901277
 20
5075.3269406451
 10
6989.6926041308
 20
5075.4411213463
  0
LWPOLYLINE
  5
31E
330
1F
100
AcDbEntity
  8
0
  6
Continuous
 62
     8
370
    25
100
AcDbPolyline
 90
        6
 70
   128
 43
0.0
 10
7254.9991705911
 20
4557.538634727
 10
7255.3131119663
 20
4557.5409731015
 10
7255.6405757453
 20
4557.5438265284
 10
7256.1392805165
 20
4557.5471646275
 10
7256.4688240315
 20
4557.548945764
 10
7256.5975274423
 20
4557.5502366972
  0
ARC
  5
31F
330
1F
100
AcDbEntity
  8
0
  6
Continuous
 62
     8
370
    25
100
AcDbCircle
 10
7253.7375270002
 20
4616.5827581736
 30
0.0
 40
59.05760118842748
100
AcDbArc
 50
269.6540418396
 51
271.2240990322
  0
LINE
  5
320
330
1F
100
AcDbEntity
  8
0
  6
Continuous
 62
     8
370
    25
100
AcDbLine
 10
6993.316018862
 20
4557.478989312
 30
0.0
 11
6996.6839811379
 21
4557.478989312
 31
0.0
  0
LINE
  5
321
330
1F
100
AcDbEntity
  8
0
  6
Continuous
 62
     8
370
    25
100
AcDbLine
 10
7015.0
 20
5094.6911213463
 30
0.0
 11
7015.0
 21
5097.6911213463
 31
0.0
  0
LINE
  5
322
330
1F
100
AcDbEntity
  8
0
  6
Continuous
 62
     8
370
    25
100
AcDbLine
 10
6996.5
 20
5076.1911213463
 30
0.0
 11
6993.5
 21
5076.1911213463
 31
0.0
  0
LINE
  5
323
330
1F
100
AcDbEntity
  8
0
  6
Continuous
 62
     8
370
    25
100
AcDbLine
 10
7235.0
 20
5094.6911213463
 30
0.0
 11
7235.0
 21
5097.6911213463
 31
0.0
  0
LINE
  5
324
330
1F
100
AcDbEntity
  8
0
  6
Continuous
 62
     8
370
    25
100
AcDbLine
 10
7253.5
 20
5076.1911213463
 30
0.0
 11
7256.5
 21
5076.1911213463
 31
0.0
  0
INSERT
  5
330
330
1F
100
AcDbEntity
  8
SLD-0
100
AcDbBlockReference
  2
SW_CENTERMARKSYMBOL_0
 10
7262.0444477329
 20
5073.9411213463
 30
0.0
  0
INSERT
  5
33C
330
1F
100
AcDbEntity
  8
SLD-0
100
AcDbBlockReference
  2
SW_CENTERMARKSYMBOL_1
 10
6987.9555522671
 20
5073.9411213463
 30
0.0
  0
CIRCLE
  5
33D
330
1F
100
AcDbEntity
  8
0
  6
Continuous
 62
     7
100
AcDbCircle
 10
6731.6479206517
 20
4355.7944477329
 30
0.0
 40
1.500000000000027
  0
ARC
  5
33E
330
1F
100
AcDbEntity
  8
0
  6
Continuous
 62
     7
100
AcDbCircle
 10
6720.2401368481
 20
4334.2944477329
 30
0.0
 40
10.0
100
AcDbArc
 50
0.0
 51
90.0
  0
ARC
  5
33F
330
1F
100
AcDbEntity
  8
0
  6
Continuous
 62
     7
100
AcDbCircle
 10
6720.2401368481
 20
4103.2055522671
 30
0.0
 40
10.0
100
AcDbArc
 50
270.0
 51
0.0
  0
ARC
  5
340
330
1F
100
AcDbEntity
  8
0
  6
Continuous
 62
     7
100
AcDbCircle
 10
6423.2401368481
 20
4103.2055522671
 30
0.0
 40
10.0
100
AcDbArc
 50
180.0
 51
270.0
  0
ARC
  5
341
330
1F
100
AcDbEntity
  8
0
  6
Continuous
 62
     7
100
AcDbCircle
 10
6423.2401368481
 20
4334.2944477329
 30
0.0
 40
10.0
100
AcDbArc
 50
90.0
 51
180.0
  0
LINE
  5
342
330
1F
100
AcDbEntity
  8
0
  6
Continuous
 62
     7
100
AcDbLine
 10
6423.2401368481
 20
4344.2944477329
 30
0.0
 11
6720.2401368481
 21
4344.2944477329
 31
0.0
  0
LINE
  5
343
330
1F
100
AcDbEntity
  8
0
  6
Continuous
 62
     7
100
AcDbLine
 10
6413.2401368481
 20
4334.2944477329
 30
0.0
 11
6413.2401368481
 21
4103.2055522671
 31
0.0
  0
LINE
  5
344
330
1F
100
AcDbEntity
  8
0
  6
Continuous
 62
     7
100
AcDbLine
 10
6423.2401368481
 20
4093.2055522671
 30
0.0
 11
6720.2401368481
 21
4093.2055522671
 31
0.0
  0
LINE
  5
345
330
1F
100
AcDbEntity
  8
0
  6
Continuous
 62
     7
100
AcDbLine
 10
6730.2401368481
 20
4334.2944477329
 30
0.0
 11
6730.2401368481
 21
4103.2055522671
 31
0.0
  0
LINE
  5
346
330
1F
100
AcDbEntity
  8
0
  6
Continuous
 62
     7
370
    25
100
AcDbLine
 10
6653.30633562
 20
4358.9150729949
 30
0.0
 11
6653.30633562
 21
4357.2944477329
 31
0.0
  0
LINE
  5
347
330
1F
100
AcDbEntity
  8
0
  6
Continuous
 62
     7
370
    25
100
AcDbLine
 10
6656.30633562
 20
4357.2944477329
 30
0.0
 11
6656.30633562
 21
4358.9150729949
 31
0.0
  0
LINE
  5
348
330
1F
100
AcDbEntity
  8
0
  6
Continuous
 62
     7
370
    25
100
AcDbLine
 10
6666.30633562
 20
4357.2944477329
 30
0.0
 11
6666.30633562
 21
4358.9150729949
 31
0.0
  0
LINE
  5
349
330
1F
100
AcDbEntity
  8
0
  6
Continuous
 62
     7
370
    25
100
AcDbLine
 10
6663.30633562
 20
4358.9150729949
 30
0.0
 11
6663.30633562
 21
4357.2944477329
 31
0.0
  0
LINE
  5
34A
330
1F
100
AcDbEntity
  8
0
  6
Continuous
 62
     7
370
    25
100
AcDbLine
 10
6656.30633562
 20
4329.5086906184
 30
0.0
 11
6656.30633562
 21
4342.7944477329
 31
0.0
  0
LINE
  5
34B
330
1F
100
AcDbEntity
  8
0
  6
Continuous
 62
     7
370
    25
100
AcDbLine
 10
6656.30633562
 20
4345.7944477329
 30
0.0
 11
6656.30633562
 21
4354.2944477329
 31
0.0
  0
LINE
  5
34C
330
1F
100
AcDbEntity
  8
0
  6
Continuous
 62
     7
370
    25
100
AcDbLine
 10
6653.30633562
 20
4354.2944477329
 30
0.0
 11
6653.30633562
 21
4345.7944477329
 31
0.0
  0
LINE
  5
34D
330
1F
100
AcDbEntity
  8
0
  6
Continuous
 62
     7
370
    25
100
AcDbLine
 10
6653.30633562
 20
4342.7944477329
 30
0.0
 11
6653.30633562
 21
4329.5086906184
 31
0.0
  0
LINE
  5
34E
330
1F
100
AcDbEntity
  8
0
  6
Continuous
 62
     7
370
    25
100
AcDbLine
 10
6663.30633562
 20
4354.2944477329
 30
0.0
 11
6663.30633562
 21
4345.7944477329
 31
0.0
  0
LINE
  5
34F
330
1F
100
AcDbEntity
  8
0
  6
Continuous
 62
     7
370
    25
100
AcDbLine
 10
6663.30633562
 20
4342.7944477329
 30
0.0
 11
6663.30633562
 21
4278.0444477329
 31
0.0
  0
LINE
  5
350
330
1F
100
AcDbEntity
  8
0
  6
Continuous
 62
     7
370
    25
100
AcDbLine
 10
6663.30633562
 20
4275.0444477329
 30
0.0
 11
6663.30633562
 21
4220.2944477329
 31
0.0
  0
LINE
  5
351
330
1F
100
AcDbEntity
  8
0
  6
Continuous
 62
     7
370
    25
100
AcDbLine
 10
6666.30633562
 20
4220.2944477329
 30
0.0
 11
6666.30633562
 21
4275.0444477329
 31
0.0
  0
LINE
  5
352
330
1F
100
AcDbEntity
  8
0
  6
Continuous
 62
     7
370
    25
100
AcDbLine
 10
6666.30633562
 20
4278.0444477329
 30
0.0
 11
6666.30633562
 21
4342.7944477329
 31
0.0
  0
LINE
  5
353
330
1F
100
AcDbEntity
  8
0
  6
Continuous
 62
     7
370
    25
100
AcDbLine
 10
6666.30633562
 20
4345.7944477329
 30
0.0
 11
6666.30633562
 21
4354.2944477329
 31
0.0
  0
LINE
  5
354
330
1F
100
AcDbEntity
  8
0
  6
Continuous
 62
     7
370
    25
100
AcDbLine
 10
6659.95633562
 20
4357.4150729949
 30
0.0
 11
6663.30633562
 21
4357.4150729949
 31
0.0
  0
LINE
  5
355
330
1F
100
AcDbEntity
  8
0
  6
Continuous
 62
     7
370
    25
100
AcDbLine
 10
6664.80633562
 20
4360.4150729949
 30
0.0
 11
6659.95633562
 21
4360.4150729949
 31
0.0
  0
LINE
  5
356
330
1F
100
AcDbEntity
  8
0
  6
Continuous
 62
     7
370
    25
100
AcDbLine
 10
6656.30633562
 20
4357.4150729949
 30
0.0
 11
6659.65633562
 21
4357.4150729949
 31
0.0
  0
LINE
  5
357
330
1F
100
AcDbEntity
  8
0
  6
Continuous
 62
     7
370
    25
100
AcDbLine
 10
6659.65633562
 20
4360.4150729949
 30
0.0
 11
6654.80633562
 21
4360.4150729949
 31
0.0
  0
LINE
  5
358
330
1F
100
AcDbEntity
  8
0
  6
Continuous
 62
     7
370
    25
100
AcDbLine
 10
6659.65633562
 20
4357.4150729949
 30
0.0
 11
6659.95633562
 21
4357.4150729949
 31
0.0
  0
LINE
  5
359
330
1F
100
AcDbEntity
  8
0
  6
Continuous
 62
     7
370
    25
100
AcDbLine
 10
6659.95633562
 20
4360.4150729949
 30
0.0
 11
6659.65633562
 21
4360.4150729949
 31
0.0
  0
LINE
  5
35A
330
1F
100
AcDbEntity
  8
0
  6
Continuous
 62
     7
370
    25
100
AcDbLine
 10
6490.1739380762
 20
4357.2944477329
 30
0.0
 11
6490.1739380762
 21
4358.9150729949
 31
0.0
  0
LINE
  5
35B
330
1F
100
AcDbEntity
  8
0
  6
Continuous
 62
     7
370
    25
100
AcDbLine
 10
6487.1739380762
 20
4358.9150729949
 30
0.0
 11
6487.1739380762
 21
4357.2944477329
 31
0.0
  0
LINE
  5
35C
330
1F
100
AcDbEntity
  8
0
  6
Continuous
 62
     7
370
    25
100
AcDbLine
 10
6477.1739380762
 20
4358.9150729949
 30
0.0
 11
6477.1739380762
 21
4357.2944477329
 31
0.0
  0
LINE
  5
35D
330
1F
100
AcDbEntity
  8
0
  6
Continuous
 62
     7
370
    25
100
AcDbLine
 10
6480.1739380762
 20
4357.2944477329
 30
0.0
 11
6480.1739380762
 21
4358.9150729949
 31
0.0
  0
LINE
  5
35E
330
1F
100
AcDbEntity
  8
0
  6
Continuous
 62
     7
370
    25
100
AcDbLine
 10
6490.1739380762
 20
4329.5086906184
 30
0.0
 11
6490.1739380762
 21
4342.7944477329
 31
0.0
  0
LINE
  5
35F
330
1F
100
AcDbEntity
  8
0
  6
Continuous
 62
     7
370
    25
100
AcDbLine
 10
6490.1739380762
 20
4345.7944477329
 30
0.0
 11
6490.1739380762
 21
4354.2944477329
 31
0.0
  0
LINE
  5
360
330
1F
100
AcDbEntity
  8
0
  6
Continuous
 62
     7
370
    25
100
AcDbLine
 10
6487.1739380762
 20
4354.2944477329
 30
0.0
 11
6487.1739380762
 21
4345.7944477329
 31
0.0
  0
LINE
  5
361
330
1F
100
AcDbEntity
  8
0
  6
Continuous
 62
     7
370
    25
100
AcDbLine
 10
6487.1739380762
 20
4342.7944477329
 30
0.0
 11
6487.1739380762
 21
4329.5086906184
 31
0.0
  0
LINE
  5
362
330
1F
100
AcDbEntity
  8
0
  6
Continuous
 62
     7
370
    25
100
AcDbLine
 10
6477.1739380762
 20
4354.2944477329
 30
0.0
 11
6477.1739380762
 21
4345.7944477329
 31
0.0
  0
LINE
  5
363
330
1F
100
AcDbEntity
  8
0
  6
Continuous
 62
     7
370
    25
100
AcDbLine
 10
6477.1739380762
 20
4342.7944477329
 30
0.0
 11
6477.1739380762
 21
4278.0444477329
 31
0.0
  0
LINE
  5
364
330
1F
100
AcDbEntity
  8
0
  6
Continuous
 62
     7
370
    25
100
AcDbLine
 10
6477.1739380762
 20
4275.0444477329
 30
0.0
 11
6477.1739380762
 21
4220.2944477329
 31
0.0
  0
LINE
  5
365
330
1F
100
AcDbEntity
  8
0
  6
Continuous
 62
     7
370
    25
100
AcDbLine
 10
6480.1739380762
 20
4220.2944477329
 30
0.0
 11
6480.1739380762
 21
4275.0444477329
 31
0.0
  0
LINE
  5
366
330
1F
100
AcDbEntity
  8
0
  6
Continuous
 62
     7
370
    25
100
AcDbLine
 10
6480.1739380762
 20
4278.0444477329
 30
0.0
 11
6480.1739380762
 21
4342.7944477329
 31
0.0
  0
LINE
  5
367
330
1F
100
AcDbEntity
  8
0
  6
Continuous
 62
     7
370
    25
100
AcDbLine
 10
6480.1739380762
 20
4345.7944477329
 30
0.0
 11
6480.1739380762
 21
4354.2944477329
 31
0.0
  0
LINE
  5
368
330
1F
100
AcDbEntity
  8
0
  6
Continuous
 62
     7
370
    25
100
AcDbLine
 10
6483.8239380762
 20
4357.4150729949
 30
0.0
 11
6487.1739380762
 21
4357.4150729949
 31
0.0
  0
LINE
  5
369
330
1F
100
AcDbEntity
  8
0
  6
Continuous
 62
     7
370
    25
100
AcDbLine
 10
6488.6739380762
 20
4360.4150729949
 30
0.0
 11
6483.8239380762
 21
4360.4150729949
 31
0.0
  0
LINE
  5
36A
330
1F
100
AcDbEntity
  8
0
  6
Continuous
 62
     7
370
    25
100
AcDbLine
 10
6480.1739380762
 20
4357.4150729949
 30
0.0
 11
6483.5239380762
 21
4357.4150729949
 31
0.0
  0
LINE
  5
36B
330
1F
100
AcDbEntity
  8
0
  6
Continuous
 62
     7
370
    25
100
AcDbLine
 10
6483.5239380762
 20
4360.4150729949
 30
0.0
 11
6478.6739380762
 21
4360.4150729949
 31
0.0
  0
LINE
  5
36C
330
1F
100
AcDbEntity
  8
0
  6
Continuous
 62
     7
370
    25
100
AcDbLine
 10
6483.8239380762
 20
4360.4150729949
 30
0.0
 11
6483.5239380762
 21
4360.4150729949
 31
0.0
  0
LINE
  5
36D
330
1F
100
AcDbEntity
  8
0
  6
Continuous
 62
     7
370
    25
100
AcDbLine
 10
6483.5239380762
 20
4357.4150729949
 30
0.0
 11
6483.8239380762
 21
4357.4150729949
 31
0.0
  0
LINE
  5
36E
330
1F
100
AcDbEntity
  8
0
  6
Continuous
 62
     7
370
    25
100
AcDbLine
 10
6666.30633562
 20
4083.2055522671
 30
0.0
 11
6666.30633562
 21
4091.7055522671
 31
0.0
  0
LINE
  5
36F
330
1F
100
AcDbEntity
  8
0
  6
Continuous
 62
     7
370
    25
100
AcDbLine
 10
6666.30633562
 20
4094.7055522671
 30
0.0
 11
6666.30633562
 21
4159.5444477329
 31
0.0
  0
LINE
  5
370
330
1F
100
AcDbEntity
  8
0
  6
Continuous
 62
     7
370
    25
100
AcDbLine
 10
6666.30633562
 20
4162.5444477329
 30
0.0
 11
6666.30633562
 21
4217.2944477329
 31
0.0
  0
LINE
  5
371
330
1F
100
AcDbEntity
  8
0
  6
Continuous
 62
     7
370
    25
100
AcDbLine
 10
6663.30633562
 20
4217.2944477329
 30
0.0
 11
6663.30633562
 21
4162.5444477329
 31
0.0
  0
LINE
  5
372
330
1F
100
AcDbEntity
  8
0
  6
Continuous
 62
     7
370
    25
100
AcDbLine
 10
6663.30633562
 20
4159.5444477329
 30
0.0
 11
6663.30633562
 21
4094.7055522671
 31
0.0
  0
LINE
  5
373
330
1F
100
AcDbEntity
  8
0
  6
Continuous
 62
     7
370
    25
100
AcDbLine
 10
6663.30633562
 20
4091.7055522671
 30
0.0
 11
6663.30633562
 21
4083.2055522671
 31
0.0
  0
LINE
  5
374
330
1F
100
AcDbEntity
  8
0
  6
Continuous
 62
     7
370
    25
100
AcDbLine
 10
6653.30633562
 20
4107.9913093816
 30
0.0
 11
6653.30633562
 21
4094.7055522671
 31
0.0
  0
LINE
  5
375
330
1F
100
AcDbEntity
  8
0
  6
Continuous
 62
     7
370
    25
100
AcDbLine
 10
6653.30633562
 20
4091.7055522671
 30
0.0
 11
6653.30633562
 21
4083.2055522671
 31
0.0
  0
LINE
  5
376
330
1F
100
AcDbEntity
  8
0
  6
Continuous
 62
     7
370
    25
100
AcDbLine
 10
6656.30633562
 20
4083.2055522671
 30
0.0
 11
6656.30633562
 21
4091.7055522671
 31
0.0
  0
LINE
  5
377
330
1F
100
AcDbEntity
  8
0
  6
Continuous
 62
     7
370
    25
100
AcDbLine
 10
6656.30633562
 20
4094.7055522671
 30
0.0
 11
6656.30633562
 21
4107.9913093816
 31
0.0
  0
LINE
  5
378
330
1F
100
AcDbEntity
  8
0
  6
Continuous
 62
     7
370
    25
100
AcDbLine
 10
6653.30633562
 20
4080.2055522671
 30
0.0
 11
6653.30633562
 21
4078.5849270051
 31
0.0
  0
LINE
  5
379
330
1F
100
AcDbEntity
  8
0
  6
Continuous
 62
     7
370
    25
100
AcDbLine
 10
6656.30633562
 20
4078.5849270051
 30
0.0
 11
6656.30633562
 21
4080.2055522671
 31
0.0
  0
LINE
  5
37A
330
1F
100
AcDbEntity
  8
0
  6
Continuous
 62
     7
370
    25
100
AcDbLine
 10
6666.30633562
 20
4078.5849270051
 30
0.0
 11
6666.30633562
 21
4080.2055522671
 31
0.0
  0
LINE
  5
37B
330
1F
100
AcDbEntity
  8
0
  6
Continuous
 62
     7
370
    25
100
AcDbLine
 10
6663.30633562
 20
4080.2055522671
 30
0.0
 11
6663.30633562
 21
4078.5849270051
 31
0.0
  0
LINE
  5
37C
330
1F
100
AcDbEntity
  8
0
  6
Continuous
 62
     7
370
    25
100
AcDbLine
 10
6663.30633562
 20
4080.0849270051
 30
0.0
 11
6659.95633562
 21
4080.0849270051
 31
0.0
  0
LINE
  5
37D
330
1F
100
AcDbEntity
  8
0
  6
Continuous
 62
     7
370
    25
100
AcDbLine
 10
6659.95633562
 20
4077.0849270051
 30
0.0
 11
6664.80633562
 21
4077.0849270051
 31
0.0
  0
LINE
  5
37E
330
1F
100
AcDbEntity
  8
0
  6
Continuous
 62
     7
370
    25
100
AcDbLine
 10
6659.65633562
 20
4080.0849270051
 30
0.0
 11
6656.30633562
 21
4080.0849270051
 31
0.0
  0
LINE
  5
37F
330
1F
100
AcDbEntity
  8
0
  6
Continuous
 62
     7
370
    25
100
AcDbLine
 10
6654.80633562
 20
4077.0849270051
 30
0.0
 11
6659.65633562
 21
4077.0849270051
 31
0.0
  0
LINE
  5
380
330
1F
100
AcDbEntity
  8
0
  6
Continuous
 62
     7
370
    25
100
AcDbLine
 10
6659.65633562
 20
4077.0849270051
 30
0.0
 11
6659.95633562
 21
4077.0849270051
 31
0.0
  0
LINE
  5
381
330
1F
100
AcDbEntity
  8
0
  6
Continuous
 62
     7
370
    25
100
AcDbLine
 10
6659.95633562
 20
4080.0849270051
 30
0.0
 11
6659.65633562
 21
4080.0849270051
 31
0.0
  0
LINE
  5
382
330
1F
100
AcDbEntity
  8
0
  6
Continuous
 62
     7
370
    25
100
AcDbLine
 10
6480.1739380762
 20
4083.2055522671
 30
0.0
 11
6480.1739380762
 21
4091.7055522671
 31
0.0
  0
LINE
  5
383
330
1F
100
AcDbEntity
  8
0
  6
Continuous
 62
     7
370
    25
100
AcDbLine
 10
6480.1739380762
 20
4094.7055522671
 30
0.0
 11
6480.1739380762
 21
4159.5444477329
 31
0.0
  0
LINE
  5
384
330
1F
100
AcDbEntity
  8
0
  6
Continuous
 62
     7
370
    25
100
AcDbLine
 10
6480.1739380762
 20
4162.5444477329
 30
0.0
 11
6480.1739380762
 21
4217.2944477329
 31
0.0
  0
LINE
  5
385
330
1F
100
AcDbEntity
  8
0
  6
Continuous
 62
     7
370
    25
100
AcDbLine
 10
6477.1739380762
 20
4217.2944477329
 30
0.0
 11
6477.1739380762
 21
4162.5444477329
 31
0.0
  0
LINE
  5
386
330
1F
100
AcDbEntity
  8
0
  6
Continuous
 62
     7
370
    25
100
AcDbLine
 10
6477.1739380762
 20
4159.5444477329
 30
0.0
 11
6477.1739380762
 21
4094.7055522671
 31
0.0
  0
LINE
  5
387
330
1F
100
AcDbEntity
  8
0
  6
Continuous
 62
     7
370
    25
100
AcDbLine
 10
6477.1739380762
 20
4091.7055522671
 30
0.0
 11
6477.1739380762
 21
4083.2055522671
 31
0.0
  0
LINE
  5
388
330
1F
100
AcDbEntity
  8
0
  6
Continuous
 62
     7
370
    25
100
AcDbLine
 10
6487.1739380762
 20
4107.9913093816
 30
0.0
 11
6487.1739380762
 21
4094.7055522671
 31
0.0
  0
LINE
  5
389
330
1F
100
AcDbEntity
  8
0
  6
Continuous
 62
     7
370
    25
100
AcDbLine
 10
6487.1739380762
 20
4091.7055522671
 30
0.0
 11
6487.1739380762
 21
4083.2055522671
 31
0.0
  0
LINE
  5
38A
330
1F
100
AcDbEntity
  8
0
  6
Continuous
 62
     7
370
    25
100
AcDbLine
 10
6490.1739380762
 20
4083.2055522671
 30
0.0
 11
6490.1739380762
 21
4091.7055522671
 31
0.0
  0
LINE
  5
38B
330
1F
100
AcDbEntity
  8
0
  6
Continuous
 62
     7
370
    25
100
AcDbLine
 10
6490.1739380762
 20
4094.7055522671
 30
0.0
 11
6490.1739380762
 21
4107.9913093816
 31
0.0
  0
LINE
  5
38C
330
1F
100
AcDbEntity
  8
0
  6
Continuous
 62
     7
370
    25
100
AcDbLine
 10
6490.1739380762
 20
4078.5849270051
 30
0.0
 11
6490.1739380762
 21
4080.2055522671
 31
0.0
  0
LINE
  5
38D
330
1F
100
AcDbEntity
  8
0
  6
Continuous
 62
     7
370
    25
100
AcDbLine
 10
6487.1739380762
 20
4080.2055522671
 30
0.0
 11
6487.1739380762
 21
4078.5849270051
 31
0.0
  0
LINE
  5
38E
330
1F
100
AcDbEntity
  8
0
  6
Continuous
 62
     7
370
    25
100
AcDbLine
 10
6477.1739380762
 20
4080.2055522671
 30
0.0
 11
6477.1739380762
 21
4078.5849270051
 31
0.0
  0
LINE
  5
38F
330
1F
100
AcDbEntity
  8
0
  6
Continuous
 62
     7
370
    25
100
AcDbLine
 10
6480.1739380762
 20
4078.5849270051
 30
0.0
 11
6480.1739380762
 21
4080.2055522671
 31
0.0
  0
LINE
  5
390
330
1F
100
AcDbEntity
  8
0
  6
Continuous
 62
     7
370
    25
100
AcDbLine
 10
6487.1739380762
 20
4080.0849270051
 30
0.0
 11
6483.8239380762
 21
4080.0849270051
 31
0.0
  0
LINE
  5
391
330
1F
100
AcDbEntity
  8
0
  6
Continuous
 62
     7
370
    25
100
AcDbLine
 10
6483.8239380762
 20
4077.0849270051
 30
0.0
 11
6488.6739380762
 21
4077.0849270051
 31
0.0
  0
LINE
  5
392
330
1F
100
AcDbEntity
  8
0
  6
Continuous
 62
     7
370
    25
100
AcDbLine
 10
6483.5239380762
 20
4080.0849270051
 30
0.0
 11
6480.1739380762
 21
4080.0849270051
 31
0.0
  0
LINE
  5
393
330
1F
100
AcDbEntity
  8
0
  6
Continuous
 62
     7
370
    25
100
AcDbLine
 10
6478.6739380762
 20
4077.0849270051
 30
0.0
 11
6483.5239380762
 21
4077.0849270051
 31
0.0
  0
LINE
  5
394
330
1F
100
AcDbEntity
  8
0
  6
Continuous
 62
     7
370
    25
100
AcDbLine
 10
6483.8239380762
 20
4080.0849270051
 30
0.0
 11
6483.5239380762
 21
4080.0849270051
 31
0.0
  0
LINE
  5
395
330
1F
100
AcDbEntity
  8
0
  6
Continuous
 62
     7
370
    25
100
AcDbLine
 10
6483.5239380762
 20
4077.0849270051
 30
0.0
 11
6483.8239380762
 21
4077.0849270051
 31
0.0
  0
LINE
  5
396
330
1F
100
AcDbEntity
  8
0
  6
Continuous
 62
     7
370
    25
100
AcDbLine
 10
6601.9401368481
 20
4159.5444477329
 30
0.0
 11
6601.9401368481
 21
4094.7055522671
 31
0.0
  0
LINE
  5
397
330
1F
100
AcDbEntity
  8
0
  6
Continuous
 62
     7
370
    25
100
AcDbLine
 10
6604.9401368481
 20
4094.7055522671
 30
0.0
 11
6604.9401368481
 21
4159.5444477329
 31
0.0
  0
LINE
  5
398
330
1F
100
AcDbEntity
  8
0
  6
Continuous
 62
     7
370
    25
100
AcDbLine
 10
6538.5401368481
 20
4159.5444477329
 30
0.0
 11
6538.5401368481
 21
4094.7055522671
 31
0.0
  0
LINE
  5
399
330
1F
100
AcDbEntity
  8
0
  6
Continuous
 62
     7
370
    25
100
AcDbLine
 10
6541.5401368481
 20
4094.7055522671
 30
0.0
 11
6541.5401368481
 21
4159.5444477329
 31
0.0
  0
LINE
  5
39A
330
1F
100
AcDbEntity
  8
0
  6
Continuous
 62
     7
370
    25
100
AcDbLine
 10
6423.2401368481
 20
4091.7055522671
 30
0.0
 11
6477.1741954361
 21
4091.7055522671
 31
0.0
  0
LINE
  5
39B
330
1F
100
AcDbEntity
  8
0
  6
Continuous
 62
     7
370
    25
100
AcDbLine
 10
6480.1736807164
 20
4091.7055522671
 30
0.0
 11
6487.1741954361
 21
4091.7055522671
 31
0.0
  0
LINE
  5
39C
330
1F
100
AcDbEntity
  8
0
  6
Continuous
 62
     7
370
    25
100
AcDbLine
 10
6490.1736807164
 20
4091.7055522671
 30
0.0
 11
6653.3065929798
 21
4091.7055522671
 31
0.0
  0
LINE
  5
39D
330
1F
100
AcDbEntity
  8
0
  6
Continuous
 62
     7
370
    25
100
AcDbLine
 10
6656.3060782602
 20
4091.7055522671
 30
0.0
 11
6663.3065929798
 21
4091.7055522671
 31
0.0
  0
LINE
  5
39E
330
1F
100
AcDbEntity
  8
0
  6
Continuous
 62
     7
370
    25
100
AcDbLine
 10
6666.3060782602
 20
4091.7055522671
 30
0.0
 11
6720.2401368481
 21
4091.7055522671
 31
0.0
  0
LINE
  5
39F
330
1F
100
AcDbEntity
  8
0
  6
Continuous
 62
     7
370
    25
100
AcDbLine
 10
6538.5401368481
 20
4094.7055522671
 30
0.0
 11
6490.1736807164
 21
4094.7055522671
 31
0.0
  0
LINE
  5
3A0
330
1F
100
AcDbEntity
  8
0
  6
Continuous
 62
     7
370
    25
100
AcDbLine
 10
6487.1741954361
 20
4094.7055522671
 30
0.0
 11
6480.1736807164
 21
4094.7055522671
 31
0.0
  0
LINE
  5
3A1
330
1F
100
AcDbEntity
  8
0
  6
Continuous
 62
     7
370
    25
100
AcDbLine
 10
6477.1741954361
 20
4094.7055522671
 30
0.0
 11
6423.2401368481
 21
4094.7055522671
 31
0.0
  0
LINE
  5
3A2
330
1F
100
AcDbEntity
  8
0
  6
Continuous
 62
     7
370
    25
100
AcDbLine
 10
6601.9401368481
 20
4094.7055522671
 30
0.0
 11
6541.5401368481
 21
4094.7055522671
 31
0.0
  0
LINE
  5
3A3
330
1F
100
AcDbEntity
  8
0
  6
Continuous
 62
     7
370
    25
100
AcDbLine
 10
6720.2401368481
 20
4094.7055522671
 30
0.0
 11
6666.3060782602
 21
4094.7055522671
 31
0.0
  0
LINE
  5
3A4
330
1F
100
AcDbEntity
  8
0
  6
Continuous
 62
     7
370
    25
100
AcDbLine
 10
6663.3065929798
 20
4094.7055522671
 30
0.0
 11
6656.3060782602
 21
4094.7055522671
 31
0.0
  0
LINE
  5
3A5
330
1F
100
AcDbEntity
  8
0
  6
Continuous
 62
     7
370
    25
100
AcDbLine
 10
6653.3065929798
 20
4094.7055522671
 30
0.0
 11
6604.9401368481
 21
4094.7055522671
 31
0.0
  0
LINE
  5
3A6
330
1F
100
AcDbEntity
  8
0
  6
Continuous
 62
     7
370
    25
100
AcDbLine
 10
6720.2401368481
 20
4345.7944477329
 30
0.0
 11
6666.3060782602
 21
4345.7944477329
 31
0.0
  0
LINE
  5
3A7
330
1F
100
AcDbEntity
  8
0
  6
Continuous
 62
     7
370
    25
100
AcDbLine
 10
6663.3065929798
 20
4345.7944477329
 30
0.0
 11
6656.3060782602
 21
4345.7944477329
 31
0.0
  0
LINE
  5
3A8
330
1F
100
AcDbEntity
  8
0
  6
Continuous
 62
     7
370
    25
100
AcDbLine
 10
6653.3065929798
 20
4345.7944477329
 30
0.0
 11
6490.1736807164
 21
4345.7944477329
 31
0.0
  0
LINE
  5
3A9
330
1F
100
AcDbEntity
  8
0
  6
Continuous
 62
     7
370
    25
100
AcDbLine
 10
6487.1741954361
 20
4345.7944477329
 30
0.0
 11
6480.1736807164
 21
4345.7944477329
 31
0.0
  0
LINE
  5
3AA
330
1F
100
AcDbEntity
  8
0
  6
Continuous
 62
     7
370
    25
100
AcDbLine
 10
6477.1741954361
 20
4345.7944477329
 30
0.0
 11
6423.2401368481
 21
4345.7944477329
 31
0.0
  0
LINE
  5
3AB
330
1F
100
AcDbEntity
  8
0
  6
Continuous
 62
     7
370
    25
100
AcDbLine
 10
6604.9401368481
 20
4342.7944477329
 30
0.0
 11
6653.3065929798
 21
4342.7944477329
 31
0.0
  0
LINE
  5
3AC
330
1F
100
AcDbEntity
  8
0
  6
Continuous
 62
     7
370
    25
100
AcDbLine
 10
6656.3060782602
 20
4342.7944477329
 30
0.0
 11
6663.3065929798
 21
4342.7944477329
 31
0.0
  0
LINE
  5
3AD
330
1F
100
AcDbEntity
  8
0
  6
Continuous
 62
     7
370
    25
100
AcDbLine
 10
6666.3060782602
 20
4342.7944477329
 30
0.0
 11
6720.2401368481
 21
4342.7944477329
 31
0.0
  0
LINE
  5
3AE
330
1F
100
AcDbEntity
  8
0
  6
Continuous
 62
     7
370
    25
100
AcDbLine
 10
6541.5401368481
 20
4342.7944477329
 30
0.0
 11
6601.9401368481
 21
4342.7944477329
 31
0.0
  0
LINE
  5
3AF
330
1F
100
AcDbEntity
  8
0
  6
Continuous
 62
     7
370
    25
100
AcDbLine
 10
6423.2401368481
 20
4342.7944477329
 30
0.0
 11
6477.1741954361
 21
4342.7944477329
 31
0.0
  0
LINE
  5
3B0
330
1F
100
AcDbEntity
  8
0
  6
Continuous
 62
     7
370
    25
100
AcDbLine
 10
6480.1736807164
 20
4342.7944477329
 30
0.0
 11
6487.1741954361
 21
4342.7944477329
 31
0.0
  0
LINE
  5
3B1
330
1F
100
AcDbEntity
  8
0
  6
Continuous
 62
     7
370
    25
100
AcDbLine
 10
6490.1736807164
 20
4342.7944477329
 30
0.0
 11
6538.5401368481
 21
4342.7944477329
 31
0.0
  0
ARC
  5
3B2
330
1F
100
AcDbEntity
  8
0
  6
Continuous
 62
     7
370
    25
100
AcDbCircle
 10
6423.2401368481
 20
4334.2944477329
 30
0.0
 40
8.50000000000091
100
AcDbArc
 50
90.0
 51
180.0
  0
ARC
  5
3B3
330
1F
100
AcDbEntity
  8
0
  6
Continuous
 62
     7
370
    25
100
AcDbCircle
 10
6423.2401368481
 20
4334.2944477329
 30
0.0
 40
11.50000000000091
100
AcDbArc
 50
90.0
 51
180.0
  0
ARC
  5
3B4
330
1F
100
AcDbEntity
  8
0
  6
Continuous
 62
     7
370
    25
100
AcDbCircle
 10
6720.2401368481
 20
4334.2944477329
 30
0.0
 40
8.50000000000091
100
AcDbArc
 50
0.0
 51
90.0
  0
ARC
  5
3B5
330
1F
100
AcDbEntity
  8
0
  6
Continuous
 62
     7
370
    25
100
AcDbCircle
 10
6720.2401368481
 20
4334.2944477329
 30
0.0
 40
11.5
100
AcDbArc
 50
0.0
 51
90.0
  0
LINE
  5
3B6
330
1F
100
AcDbEntity
  8
0
  6
Continuous
 62
     7
370
    25
100
AcDbLine
 10
6601.9401368481
 20
4342.7944477329
 30
0.0
 11
6601.9401368481
 21
4278.0444477329
 31
0.0
  0
LINE
  5
3B7
330
1F
100
AcDbEntity
  8
0
  6
Continuous
 62
     7
370
    25
100
AcDbLine
 10
6604.9401368481
 20
4278.0444477329
 30
0.0
 11
6604.9401368481
 21
4342.7944477329
 31
0.0
  0
LINE
  5
3B8
330
1F
100
AcDbEntity
  8
0
  6
Continuous
 62
     7
370
    25
100
AcDbLine
 10
6538.5401368481
 20
4342.7944477329
 30
0.0
 11
6538.5401368481
 21
4278.0444477329
 31
0.0
  0
LINE
  5
3B9
330
1F
100
AcDbEntity
  8
0
  6
Continuous
 62
     7
370
    25
100
AcDbLine
 10
6541.5401368481
 20
4278.0444477329
 30
0.0
 11
6541.5401368481
 21
4342.7944477329
 31
0.0
  0
LINE
  5
3BA
330
1F
100
AcDbEntity
  8
0
  6
Continuous
 62
     7
370
    25
100
AcDbLine
 10
6731.7401368481
 20
4103.2055522671
 30
0.0
 11
6731.7401368481
 21
4334.2944477329
 31
0.0
  0
LINE
  5
3BB
330
1F
100
AcDbEntity
  8
0
  6
Continuous
 62
     7
370
    25
100
AcDbLine
 10
6728.7401368481
 20
4159.5444477329
 30
0.0
 11
6728.7401368481
 21
4103.2055522671
 31
0.0
  0
LINE
  5
3BC
330
1F
100
AcDbEntity
  8
0
  6
Continuous
 62
     7
370
    25
100
AcDbLine
 10
6728.7401368481
 20
4217.2944477329
 30
0.0
 11
6728.7401368481
 21
4162.5444477329
 31
0.0
  0
LINE
  5
3BD
330
1F
100
AcDbEntity
  8
0
  6
Continuous
 62
     7
370
    25
100
AcDbLine
 10
6728.7401368481
 20
4275.0444477329
 30
0.0
 11
6728.7401368481
 21
4220.2944477329
 31
0.0
  0
LINE
  5
3BE
330
1F
100
AcDbEntity
  8
0
  6
Continuous
 62
     7
370
    25
100
AcDbLine
 10
6728.7401368481
 20
4334.2944477329
 30
0.0
 11
6728.7401368481
 21
4278.0444477329
 31
0.0
  0
LINE
  5
3BF
330
1F
100
AcDbEntity
  8
0
  6
Continuous
 62
     7
370
    25
100
AcDbLine
 10
6411.7401368481
 20
4334.2944477329
 30
0.0
 11
6411.7401368481
 21
4103.2055522671
 31
0.0
  0
LINE
  5
3C0
330
1F
100
AcDbEntity
  8
0
  6
Continuous
 62
     7
370
    25
100
AcDbLine
 10
6414.7401368481
 20
4278.0444477329
 30
0.0
 11
6414.7401368481
 21
4334.2944477329
 31
0.0
  0
LINE
  5
3C1
330
1F
100
AcDbEntity
  8
0
  6
Continuous
 62
     7
370
    25
100
AcDbLine
 10
6414.7401368481
 20
4220.2944477329
 30
0.0
 11
6414.7401368481
 21
4275.0444477329
 31
0.0
  0
LINE
  5
3C2
330
1F
100
AcDbEntity
  8
0
  6
Continuous
 62
     7
370
    25
100
AcDbLine
 10
6414.7401368481
 20
4162.5444477329
 30
0.0
 11
6414.7401368481
 21
4217.2944477329
 31
0.0
  0
LINE
  5
3C3
330
1F
100
AcDbEntity
  8
0
  6
Continuous
 62
     7
370
    25
100
AcDbLine
 10
6414.7401368481
 20
4103.2055522671
 30
0.0
 11
6414.7401368481
 21
4159.5444477329
 31
0.0
  0
LINE
  5
3C4
330
1F
100
AcDbEntity
  8
0
  6
Continuous
 62
     7
370
    25
100
AcDbLine
 10
6541.5401368481
 20
4275.0444477329
 30
0.0
 11
6601.9401368481
 21
4275.0444477329
 31
0.0
  0
LINE
  5
3C5
330
1F
100
AcDbEntity
  8
0
  6
Continuous
 62
     7
370
    25
100
AcDbLine
 10
6601.9401368481
 20
4278.0444477329
 30
0.0
 11
6541.5401368481
 21
4278.0444477329
 31
0.0
  0
LINE
  5
3C6
330
1F
100
AcDbEntity
  8
0
  6
Continuous
 62
     7
370
    25
100
AcDbLine
 10
6604.9401368481
 20
4275.0444477329
 30
0.0
 11
6663.3065929798
 21
4275.0444477329
 31
0.0
  0
LINE
  5
3C7
330
1F
100
AcDbEntity
  8
0
  6
Continuous
 62
     7
370
    25
100
AcDbLine
 10
6666.3060782602
 20
4275.0444477329
 30
0.0
 11
6728.7401368481
 21
4275.0444477329
 31
0.0
  0
LINE
  5
3C8
330
1F
100
AcDbEntity
  8
0
  6
Continuous
 62
     7
370
    25
100
AcDbLine
 10
6728.7401368481
 20
4278.0444477329
 30
0.0
 11
6666.3060782602
 21
4278.0444477329
 31
0.0
  0
LINE
  5
3C9
330
1F
100
AcDbEntity
  8
0
  6
Continuous
 62
     7
370
    25
100
AcDbLine
 10
6663.3065929798
 20
4278.0444477329
 30
0.0
 11
6604.9401368481
 21
4278.0444477329
 31
0.0
  0
LINE
  5
3CA
330
1F
100
AcDbEntity
  8
0
  6
Continuous
 62
     7
370
    25
100
AcDbLine
 10
6414.7401368481
 20
4275.0444477329
 30
0.0
 11
6477.1741954361
 21
4275.0444477329
 31
0.0
  0
LINE
  5
3CB
330
1F
100
AcDbEntity
  8
0
  6
Continuous
 62
     7
370
    25
100
AcDbLine
 10
6480.1736807164
 20
4275.0444477329
 30
0.0
 11
6538.5401368481
 21
4275.0444477329
 31
0.0
  0
LINE
  5
3CC
330
1F
100
AcDbEntity
  8
0
  6
Continuous
 62
     7
370
    25
100
AcDbLine
 10
6538.5401368481
 20
4278.0444477329
 30
0.0
 11
6480.1736807164
 21
4278.0444477329
 31
0.0
  0
LINE
  5
3CD
330
1F
100
AcDbEntity
  8
0
  6
Continuous
 62
     7
370
    25
100
AcDbLine
 10
6477.1741954361
 20
4278.0444477329
 30
0.0
 11
6414.7401368481
 21
4278.0444477329
 31
0.0
  0
LINE
  5
3CE
330
1F
100
AcDbEntity
  8
0
  6
Continuous
 62
     7
370
    25
100
AcDbLine
 10
6601.9401368481
 20
4275.0444477329
 30
0.0
 11
6601.9401368481
 21
4220.2944477329
 31
0.0
  0
LINE
  5
3CF
330
1F
100
AcDbEntity
  8
0
  6
Continuous
 62
     7
370
    25
100
AcDbLine
 10
6604.9401368481
 20
4220.2944477329
 30
0.0
 11
6604.9401368481
 21
4275.0444477329
 31
0.0
  0
LINE
  5
3D0
330
1F
100
AcDbEntity
  8
0
  6
Continuous
 62
     7
370
    25
100
AcDbLine
 10
6538.5401368481
 20
4275.0444477329
 30
0.0
 11
6538.5401368481
 21
4220.2944477329
 31
0.0
  0
LINE
  5
3D1
330
1F
100
AcDbEntity
  8
0
  6
Continuous
 62
     7
370
    25
100
AcDbLine
 10
6541.5401368481
 20
4220.2944477329
 30
0.0
 11
6541.5401368481
 21
4275.0444477329
 31
0.0
  0
LINE
  5
3D2
330
1F
100
AcDbEntity
  8
0
  6
Continuous
 62
     7
370
    25
100
AcDbLine
 10
6604.9401368481
 20
4217.2944477329
 30
0.0
 11
6663.3065929798
 21
4217.2944477329
 31
0.0
  0
LINE
  5
3D3
330
1F
100
AcDbEntity
  8
0
  6
Continuous
 62
     7
370
    25
100
AcDbLine
 10
6666.3060782602
 20
4217.2944477329
 30
0.0
 11
6728.7401368481
 21
4217.2944477329
 31
0.0
  0
LINE
  5
3D4
330
1F
100
AcDbEntity
  8
0
  6
Continuous
 62
     7
370
    25
100
AcDbLine
 10
6728.7401368481
 20
4220.2944477329
 30
0.0
 11
6666.3060782602
 21
4220.2944477329
 31
0.0
  0
LINE
  5
3D5
330
1F
100
AcDbEntity
  8
0
  6
Continuous
 62
     7
370
    25
100
AcDbLine
 10
6663.3065929798
 20
4220.2944477329
 30
0.0
 11
6604.9401368481
 21
4220.2944477329
 31
0.0
  0
LINE
  5
3D6
330
1F
100
AcDbEntity
  8
0
  6
Continuous
 62
     7
370
    25
100
AcDbLine
 10
6541.5401368481
 20
4217.2944477329
 30
0.0
 11
6601.9401368481
 21
4217.2944477329
 31
0.0
  0
LINE
  5
3D7
330
1F
100
AcDbEntity
  8
0
  6
Continuous
 62
     7
370
    25
100
AcDbLine
 10
6601.9401368481
 20
4220.2944477329
 30
0.0
 11
6541.5401368481
 21
4220.2944477329
 31
0.0
  0
LINE
  5
3D8
330
1F
100
AcDbEntity
  8
0
  6
Continuous
 62
     7
370
    25
100
AcDbLine
 10
6414.7401368481
 20
4217.2944477329
 30
0.0
 11
6477.1741954361
 21
4217.2944477329
 31
0.0
  0
LINE
  5
3D9
330
1F
100
AcDbEntity
  8
0
  6
Continuous
 62
     7
370
    25
100
AcDbLine
 10
6480.1736807164
 20
4217.2944477329
 30
0.0
 11
6538.5401368481
 21
4217.2944477329
 31
0.0
  0
LINE
  5
3DA
330
1F
100
AcDbEntity
  8
0
  6
Continuous
 62
     7
370
    25
100
AcDbLine
 10
6538.5401368481
 20
4220.2944477329
 30
0.0
 11
6480.1736807164
 21
4220.2944477329
 31
0.0
  0
LINE
  5
3DB
330
1F
100
AcDbEntity
  8
0
  6
Continuous
 62
     7
370
    25
100
AcDbLine
 10
6477.1741954361
 20
4220.2944477329
 30
0.0
 11
6414.7401368481
 21
4220.2944477329
 31
0.0
  0
LINE
  5
3DC
330
1F
100
AcDbEntity
  8
0
  6
Continuous
 62
     7
370
    25
100
AcDbLine
 10
6538.5401368481
 20
4217.2944477329
 30
0.0
 11
6538.5401368481
 21
4162.5444477329
 31
0.0
  0
LINE
  5
3DD
330
1F
100
AcDbEntity
  8
0
  6
Continuous
 62
     7
370
    25
100
AcDbLine
 10
6541.5401368481
 20
4162.5444477329
 30
0.0
 11
6541.5401368481
 21
4217.2944477329
 31
0.0
  0
LINE
  5
3DE
330
1F
100
AcDbEntity
  8
0
  6
Continuous
 62
     7
370
    25
100
AcDbLine
 10
6601.9401368481
 20
4217.2944477329
 30
0.0
 11
6601.9401368481
 21
4162.5444477329
 31
0.0
  0
LINE
  5
3DF
330
1F
100
AcDbEntity
  8
0
  6
Continuous
 62
     7
370
    25
100
AcDbLine
 10
6604.9401368481
 20
4162.5444477329
 30
0.0
 11
6604.9401368481
 21
4217.2944477329
 31
0.0
  0
LINE
  5
3E0
330
1F
100
AcDbEntity
  8
0
  6
Continuous
 62
     7
370
    25
100
AcDbLine
 10
6604.9401368481
 20
4159.5444477329
 30
0.0
 11
6663.3065929798
 21
4159.5444477329
 31
0.0
  0
LINE
  5
3E1
330
1F
100
AcDbEntity
  8
0
  6
Continuous
 62
     7
370
    25
100
AcDbLine
 10
6666.3060782602
 20
4159.5444477329
 30
0.0
 11
6728.7401368481
 21
4159.5444477329
 31
0.0
  0
LINE
  5
3E2
330
1F
100
AcDbEntity
  8
0
  6
Continuous
 62
     7
370
    25
100
AcDbLine
 10
6728.7401368481
 20
4162.5444477329
 30
0.0
 11
6666.3060782602
 21
4162.5444477329
 31
0.0
  0
LINE
  5
3E3
330
1F
100
AcDbEntity
  8
0
  6
Continuous
 62
     7
370
    25
100
AcDbLine
 10
6663.3065929798
 20
4162.5444477329
 30
0.0
 11
6604.9401368481
 21
4162.5444477329
 31
0.0
  0
LINE
  5
3E4
330
1F
100
AcDbEntity
  8
0
  6
Continuous
 62
     7
370
    25
100
AcDbLine
 10
6541.5401368481
 20
4159.5444477329
 30
0.0
 11
6601.9401368481
 21
4159.5444477329
 31
0.0
  0
LINE
  5
3E5
330
1F
100
AcDbEntity
  8
0
  6
Continuous
 62
     7
370
    25
100
AcDbLine
 10
6601.9401368481
 20
4162.5444477329
 30
0.0
 11
6541.5401368481
 21
4162.5444477329
 31
0.0
  0
LINE
  5
3E6
330
1F
100
AcDbEntity
  8
0
  6
Continuous
 62
     7
370
    25
100
AcDbLine
 10
6414.7401368481
 20
4159.5444477329
 30
0.0
 11
6477.1741954361
 21
4159.5444477329
 31
0.0
  0
LINE
  5
3E7
330
1F
100
AcDbEntity
  8
0
  6
Continuous
 62
     7
370
    25
100
AcDbLine
 10
6480.1736807164
 20
4159.5444477329
 30
0.0
 11
6538.5401368481
 21
4159.5444477329
 31
0.0
  0
LINE
  5
3E8
330
1F
100
AcDbEntity
  8
0
  6
Continuous
 62
     7
370
    25
100
AcDbLine
 10
6538.5401368481
 20
4162.5444477329
 30
0.0
 11
6480.1736807164
 21
4162.5444477329
 31
0.0
  0
LINE
  5
3E9
330
1F
100
AcDbEntity
  8
0
  6
Continuous
 62
     7
370
    25
100
AcDbLine
 10
6477.1741954361
 20
4162.5444477329
 30
0.0
 11
6414.7401368481
 21
4162.5444477329
 31
0.0
  0
ARC
  5
3EA
330
1F
100
AcDbEntity
  8
0
  6
Continuous
 62
     7
370
    25
100
AcDbCircle
 10
6720.2401368481
 20
4103.2055522671
 30
0.0
 40
8.5
100
AcDbArc
 50
270.0
 51
0.0
  0
ARC
  5
3EB
330
1F
100
AcDbEntity
  8
0
  6
Continuous
 62
     7
370
    25
100
AcDbCircle
 10
6720.2401368481
 20
4103.2055522671
 30
0.0
 40
11.5
100
AcDbArc
 50
270.0
 51
0.0
  0
ARC
  5
3EC
330
1F
100
AcDbEntity
  8
0
  6
Continuous
 62
     7
370
    25
100
AcDbCircle
 10
6423.2401368481
 20
4103.2055522671
 30
0.0
 40
8.5
100
AcDbArc
 50
180.0
 51
270.0
  0
ARC
  5
3ED
330
1F
100
AcDbEntity
  8
0
  6
Continuous
 62
     7
370
    25
100
AcDbCircle
 10
6423.2401368481
 20
4103.2055522671
 30
0.0
 40
11.5
100
AcDbArc
 50
180.0
 51
270.0
  0
LINE
  5
3EE
330
1F
100
AcDbEntity
  8
0
  6
Continuous
 62
     7
370
    25
100
AcDbLine
 10
6399.2055665019
 20
4085.0316733387
 30
0.0
 11
6403.3551177154
 21
4082.2031619104
 31
0.0
  0
LINE
  5
3EF
330
1F
100
AcDbEntity
  8
0
  6
Continuous
 62
     7
370
    25
100
AcDbLine
 10
6405.0448312796
 20
4084.6820463513
 30
0.0
 11
6400.8952800661
 21
4087.5105577796
 31
0.0
  0
ARC
  5
3F0
330
1F
100
AcDbEntity
  8
0
  6
Continuous
 62
     7
370
    25
100
AcDbCircle
 10
6401.7401368481
 20
4088.75
 30
0.0
 40
4.500000000001169
100
AcDbArc
 50
16.2596157225
 51
70.5287793655
  0
ARC
  5
3F1
330
1F
100
AcDbEntity
  8
0
  6
Continuous
 62
     7
370
    25
100
AcDbCircle
 10
6401.7401368481
 20
4088.75
 30
0.0
 40
4.499999999999818
100
AcDbArc
 50
109.4712206345
 51
235.7199859379
  0
LINE
  5
3F2
330
1F
100
AcDbEntity
  8
0
  6
Continuous
 62
     7
370
    25
100
AcDbLine
 10
6407.1502622616
 20
4086.2722842131
 30
0.0
 11
6406.0601498004
 21
4090.0099555915
 31
0.0
  0
LINE
  5
3F3
330
1F
100
AcDbEntity
  8
0
  6
Continuous
 62
     7
370
    25
100
AcDbLine
 10
6403.2401368481
 20
4088.9642778471
 30
0.0
 11
6404.2702536268
 21
4085.4323138188
 31
0.0
  0
LINE
  5
3F4
330
1F
100
AcDbEntity
  8
0
  6
Continuous
 62
     7
370
    25
100
AcDbLine
 10
6737.4201238959
 20
4090.0099555915
 30
0.0
 11
6736.3300114346
 21
4086.2722842131
 31
0.0
  0
LINE
  5
3F5
330
1F
100
AcDbEntity
  8
0
  6
Continuous
 62
     7
370
    25
100
AcDbLine
 10
6739.2100200694
 20
4085.4323138188
 30
0.0
 11
6740.2401368481
 21
4088.9642778471
 31
0.0
  0
ARC
  5
3F6
330
1F
100
AcDbEntity
  8
0
  6
Continuous
 62
     7
370
    25
100
AcDbCircle
 10
6733.6479206517
 20
4091.7055522671
 30
0.0
 40
8.500000000000755
100
AcDbArc
 50
270.0
 51
304.2800140621
  0
ARC
  5
3F7
330
1F
100
AcDbEntity
  8
0
  6
Continuous
 62
     7
370
    25
100
AcDbCircle
 10
6733.6479206517
 20
4091.7055522671
 30
0.0
 40
11.49999999999974
100
AcDbArc
 50
270.0
 51
304.2800140621
  0
ARC
  5
3F8
330
1F
100
AcDbEntity
  8
0
  6
Continuous
 62
     7
370
    25
100
AcDbCircle
 10
6741.7401368481
 20
4088.75
 30
0.0
 40
4.499999999998961
100
AcDbArc
 50
304.2800140621
 51
70.5287793655
  0
ARC
  5
3F9
330
1F
100
AcDbEntity
  8
0
  6
Continuous
 62
     7
370
    25
100
AcDbCircle
 10
6741.7401368481
 20
4088.75
 30
0.0
 40
4.500000000000041
100
AcDbArc
 50
109.4712206345
 51
163.7403842775
  0
LINE
  5
3FA
330
1F
100
AcDbEntity
  8
0
  6
Continuous
 62
     7
370
    25
100
AcDbLine
 10
6740.1251559808
 20
4082.2031619104
 30
0.0
 11
6744.2747071943
 21
4085.0316733387
 31
0.0
  0
LINE
  5
3FB
330
1F
100
AcDbEntity
  8
0
  6
Continuous
 62
     7
370
    25
100
AcDbLine
 10
6742.5849936302
 20
4087.5105577796
 30
0.0
 11
6738.4354424167
 21
4084.6820463513
 31
0.0
  0
LINE
  5
3FC
330
1F
100
AcDbEntity
  8
0
  6
Continuous
 62
     7
370
    25
100
AcDbLine
 10
6731.6479206517
 20
4080.2055522671
 30
0.0
 11
6733.6479206517
 21
4080.2055522671
 31
0.0
  0
LINE
  5
3FD
330
1F
100
AcDbEntity
  8
0
  6
Continuous
 62
     7
370
    25
100
AcDbLine
 10
6667.6479206517
 20
4080.2055522671
 30
0.0
 11
6731.6479206517
 21
4080.2055522671
 31
0.0
  0
LINE
  5
3FE
330
1F
100
AcDbEntity
  8
0
  6
Continuous
 62
     7
370
    25
100
AcDbLine
 10
6603.6479206517
 20
4080.2055522671
 30
0.0
 11
6667.6479206517
 21
4080.2055522671
 31
0.0
  0
LINE
  5
3FF
330
1F
100
AcDbEntity
  8
0
  6
Continuous
 62
     7
370
    25
100
AcDbLine
 10
6539.6479206517
 20
4080.2055522671
 30
0.0
 11
6603.6479206517
 21
4080.2055522671
 31
0.0
  0
LINE
  5
400
330
1F
100
AcDbEntity
  8
0
  6
Continuous
 62
     7
370
    25
100
AcDbLine
 10
6475.6479206517
 20
4080.2055522671
 30
0.0
 11
6539.6479206517
 21
4080.2055522671
 31
0.0
  0
LINE
  5
401
330
1F
100
AcDbEntity
  8
0
  6
Continuous
 62
     7
370
    25
100
AcDbLine
 10
6411.6479206517
 20
4080.2055522671
 30
0.0
 11
6475.6479206517
 21
4080.2055522671
 31
0.0
  0
LINE
  5
402
330
1F
100
AcDbEntity
  8
0
  6
Continuous
 62
     7
370
    25
100
AcDbLine
 10
6409.8323530446
 20
4080.2055522671
 30
0.0
 11
6411.6479206517
 21
4080.2055522671
 31
0.0
  0
LINE
  5
403
330
1F
100
AcDbEntity
  8
0
  6
Continuous
 62
     7
370
    25
100
AcDbLine
 10
6411.6479206517
 20
4083.2055522671
 30
0.0
 11
6409.8323530446
 21
4083.2055522671
 31
0.0
  0
LINE
  5
404
330
1F
100
AcDbEntity
  8
0
  6
Continuous
 62
     7
370
    25
100
AcDbLine
 10
6475.6479206517
 20
4083.2055522671
 30
0.0
 11
6411.6479206517
 21
4083.2055522671
 31
0.0
  0
LINE
  5
405
330
1F
100
AcDbEntity
  8
0
  6
Continuous
 62
     7
370
    25
100
AcDbLine
 10
6539.6479206517
 20
4083.2055522671
 30
0.0
 11
6475.6479206517
 21
4083.2055522671
 31
0.0
  0
LINE
  5
406
330
1F
100
AcDbEntity
  8
0
  6
Continuous
 62
     7
370
    25
100
AcDbLine
 10
6603.6479206517
 20
4083.2055522671
 30
0.0
 11
6539.6479206517
 21
4083.2055522671
 31
0.0
  0
LINE
  5
407
330
1F
100
AcDbEntity
  8
0
  6
Continuous
 62
     7
370
    25
100
AcDbLine
 10
6667.6479206517
 20
4083.2055522671
 30
0.0
 11
6603.6479206517
 21
4083.2055522671
 31
0.0
  0
LINE
  5
408
330
1F
100
AcDbEntity
  8
0
  6
Continuous
 62
     7
370
    25
100
AcDbLine
 10
6731.6479206517
 20
4083.2055522671
 30
0.0
 11
6667.6479206517
 21
4083.2055522671
 31
0.0
  0
LINE
  5
409
330
1F
100
AcDbEntity
  8
0
  6
Continuous
 62
     7
370
    25
100
AcDbLine
 10
6733.6479206517
 20
4083.2055522671
 30
0.0
 11
6731.6479206517
 21
4083.2055522671
 31
0.0
  0
ARC
  5
40A
330
1F
100
AcDbEntity
  8
0
  6
Continuous
 62
     7
370
    25
100
AcDbCircle
 10
6409.8323530446
 20
4091.7055522671
 30
0.0
 40
8.500000000000455
100
AcDbArc
 50
235.7199859379
 51
270.0
  0
ARC
  5
40B
330
1F
100
AcDbEntity
  8
0
  6
Continuous
 62
     7
370
    25
100
AcDbCircle
 10
6409.8323530446
 20
4091.7055522671
 30
0.0
 40
11.49999999999974
100
AcDbArc
 50
235.7199859379
 51
270.0
  0
LINE
  5
40C
330
1F
100
AcDbEntity
  8
0
  6
Continuous
 62
     7
370
    25
100
AcDbLine
 10
6731.6479206517
 20
4354.2944477329
 30
0.0
 11
6733.6479206517
 21
4354.2944477329
 31
0.0
  0
LINE
  5
40D
330
1F
100
AcDbEntity
  8
0
  6
Continuous
 62
     7
370
    25
100
AcDbLine
 10
6667.6479206517
 20
4354.2944477329
 30
0.0
 11
6731.6479206517
 21
4354.2944477329
 31
0.0
  0
LINE
  5
40E
330
1F
100
AcDbEntity
  8
0
  6
Continuous
 62
     7
370
    25
100
AcDbLine
 10
6603.6479206517
 20
4354.2944477329
 30
0.0
 11
6667.6479206517
 21
4354.2944477329
 31
0.0
  0
LINE
  5
40F
330
1F
100
AcDbEntity
  8
0
  6
Continuous
 62
     7
370
    25
100
AcDbLine
 10
6539.6479206517
 20
4354.2944477329
 30
0.0
 11
6603.6479206517
 21
4354.2944477329
 31
0.0
  0
LINE
  5
410
330
1F
100
AcDbEntity
  8
0
  6
Continuous
 62
     7
370
    25
100
AcDbLine
 10
6475.6479206517
 20
4354.2944477329
 30
0.0
 11
6539.6479206517
 21
4354.2944477329
 31
0.0
  0
LINE
  5
411
330
1F
100
AcDbEntity
  8
0
  6
Continuous
 62
     7
370
    25
100
AcDbLine
 10
6411.6479206517
 20
4354.2944477329
 30
0.0
 11
6475.6479206517
 21
4354.2944477329
 31
0.0
  0
LINE
  5
412
330
1F
100
AcDbEntity
  8
0
  6
Continuous
 62
     7
370
    25
100
AcDbLine
 10
6409.8323530446
 20
4354.2944477329
 30
0.0
 11
6411.6479206517
 21
4354.2944477329
 31
0.0
  0
LINE
  5
413
330
1F
100
AcDbEntity
  8
0
  6
Continuous
 62
     7
370
    25
100
AcDbLine
 10
6411.6479206517
 20
4357.2944477329
 30
0.0
 11
6409.8323530446
 21
4357.2944477329
 31
0.0
  0
LINE
  5
414
330
1F
100
AcDbEntity
  8
0
  6
Continuous
 62
     7
370
    25
100
AcDbLine
 10
6475.6479206517
 20
4357.2944477329
 30
0.0
 11
6411.6479206517
 21
4357.2944477329
 31
0.0
  0
LINE
  5
415
330
1F
100
AcDbEntity
  8
0
  6
Continuous
 62
     7
370
    25
100
AcDbLine
 10
6539.6479206517
 20
4357.2944477329
 30
0.0
 11
6475.6479206517
 21
4357.2944477329
 31
0.0
  0
LINE
  5
416
330
1F
100
AcDbEntity
  8
0
  6
Continuous
 62
     7
370
    25
100
AcDbLine
 10
6603.6479206517
 20
4357.2944477329
 30
0.0
 11
6539.6479206517
 21
4357.2944477329
 31
0.0
  0
LINE
  5
417
330
1F
100
AcDbEntity
  8
0
  6
Continuous
 62
     7
370
    25
100
AcDbLine
 10
6667.6479206517
 20
4357.2944477329
 30
0.0
 11
6603.6479206517
 21
4357.2944477329
 31
0.0
  0
LINE
  5
418
330
1F
100
AcDbEntity
  8
0
  6
Continuous
 62
     7
370
    25
100
AcDbLine
 10
6731.6479206517
 20
4357.2944477329
 30
0.0
 11
6667.6479206517
 21
4357.2944477329
 31
0.0
  0
LINE
  5
419
330
1F
100
AcDbEntity
  8
0
  6
Continuous
 62
     7
370
    25
100
AcDbLine
 10
6733.6479206517
 20
4357.2944477329
 30
0.0
 11
6731.6479206517
 21
4357.2944477329
 31
0.0
  0
ARC
  5
41A
330
1F
100
AcDbEntity
  8
0
  6
Continuous
 62
     7
370
    25
100
AcDbCircle
 10
6409.8323530446
 20
4345.7944477329
 30
0.0
 40
8.50000000000091
100
AcDbArc
 50
90.0
 51
124.2800140621
  0
ARC
  5
41B
330
1F
100
AcDbEntity
  8
0
  6
Continuous
 62
     7
370
    25
100
AcDbCircle
 10
6409.8323530446
 20
4345.7944477329
 30
0.0
 40
11.50000000000091
100
AcDbArc
 50
90.0
 51
124.2800140621
  0
LINE
  5
41C
330
1F
100
AcDbEntity
  8
0
  6
Continuous
 62
     7
370
    25
100
AcDbLine
 10
6404.2702536268
 20
4352.0676861812
 30
0.0
 11
6403.2401368481
 21
4348.5357221529
 31
0.0
  0
LINE
  5
41D
330
1F
100
AcDbEntity
  8
0
  6
Continuous
 62
     7
370
    25
100
AcDbLine
 10
6406.0601498004
 20
4347.4900444085
 30
0.0
 11
6407.1502622616
 21
4351.2277157869
 31
0.0
  0
ARC
  5
41E
330
1F
100
AcDbEntity
  8
0
  6
Continuous
 62
     7
370
    25
100
AcDbCircle
 10
6741.7401368481
 20
4348.75
 30
0.0
 40
4.499999999999914
100
AcDbArc
 50
196.2596157225
 51
250.5287793655
  0
ARC
  5
41F
330
1F
100
AcDbEntity
  8
0
  6
Continuous
 62
     7
370
    25
100
AcDbCircle
 10
6741.7401368481
 20
4348.75
 30
0.0
 40
4.499999999998961
100
AcDbArc
 50
289.4712206345
 51
55.7199859379
  0
LINE
  5
420
330
1F
100
AcDbEntity
  8
0
  6
Continuous
 62
     7
370
    25
100
AcDbLine
 10
6400.8952800661
 20
4349.9894422204
 30
0.0
 11
6405.0448312796
 21
4352.8179536487
 31
0.0
  0
LINE
  5
421
330
1F
100
AcDbEntity
  8
0
  6
Continuous
 62
     7
370
    25
100
AcDbLine
 10
6403.3551177154
 20
4355.2968380896
 30
0.0
 11
6399.2055665019
 21
4352.4683266613
 31
0.0
  0
LINE
  5
422
330
1F
100
AcDbEntity
  8
0
  6
Continuous
 62
     7
370
    25
100
AcDbLine
 10
6740.2401368481
 20
4348.5357221529
 30
0.0
 11
6739.2100200694
 21
4352.0676861812
 31
0.0
  0
LINE
  5
423
330
1F
100
AcDbEntity
  8
0
  6
Continuous
 62
     7
370
    25
100
AcDbLine
 10
6736.3300114346
 20
4351.2277157869
 30
0.0
 11
6737.4201238959
 21
4347.4900444085
 31
0.0
  0
LINE
  5
424
330
1F
100
AcDbEntity
  8
0
  6
Continuous
 62
     7
370
    25
100
AcDbLine
 10
6738.4354424167
 20
4352.8179536487
 30
0.0
 11
6742.5849936302
 21
4349.9894422204
 31
0.0
  0
LINE
  5
425
330
1F
100
AcDbEntity
  8
0
  6
Continuous
 62
     7
370
    25
100
AcDbLine
 10
6744.2747071943
 20
4352.4683266613
 30
0.0
 11
6740.1251559808
 21
4355.2968380896
 31
0.0
  0
ARC
  5
426
330
1F
100
AcDbEntity
  8
0
  6
Continuous
 62
     7
370
    25
100
AcDbCircle
 10
6401.7401368481
 20
4348.75
 30
0.0
 40
4.499999999999818
100
AcDbArc
 50
124.2800140621
 51
250.5287793655
  0
ARC
  5
427
330
1F
100
AcDbEntity
  8
0
  6
Continuous
 62
     7
370
    25
100
AcDbCircle
 10
6401.7401368481
 20
4348.75
 30
0.0
 40
4.500000000000787
100
AcDbArc
 50
289.4712206345
 51
343.7403842775
  0
ARC
  5
428
330
1F
100
AcDbEntity
  8
0
  6
Continuous
 62
     7
370
    25
100
AcDbCircle
 10
6733.6479206517
 20
4345.7944477329
 30
0.0
 40
8.50000000000091
100
AcDbArc
 50
55.7199859379
 51
90.0
  0
ARC
  5
429
330
1F
100
AcDbEntity
  8
0
  6
Continuous
 62
     7
370
    25
100
AcDbCircle
 10
6733.6479206517
 20
4345.7944477329
 30
0.0
 40
11.50000000000091
100
AcDbArc
 50
55.7199859379
 51
90.0
  0
LINE
  5
42A
330
1F
100
AcDbEntity
  8
0
  6
Continuous
 62
     7
370
    25
100
AcDbLine
 10
6740.2401368481
 20
4348.75
 30
0.0
 11
6740.2401368481
 21
4328.75
 31
0.0
  0
LINE
  5
42B
330
1F
100
AcDbEntity
  8
0
  6
Continuous
 62
     7
370
    25
100
AcDbLine
 10
6743.2401368481
 20
4328.75
 30
0.0
 11
6743.2401368481
 21
4348.75
 31
0.0
  0
LINE
  5
42C
330
1F
100
AcDbEntity
  8
0
  6
Continuous
 62
     7
370
    25
100
AcDbLine
 10
6740.2401368481
 20
4153.75
 30
0.0
 11
6740.2401368481
 21
4108.75
 31
0.0
  0
LINE
  5
42D
330
1F
100
AcDbEntity
  8
0
  6
Continuous
 62
     7
370
    25
100
AcDbLine
 10
6740.2401368481
 20
4218.75
 30
0.0
 11
6740.2401368481
 21
4153.75
 31
0.0
  0
LINE
  5
42E
330
1F
100
AcDbEntity
  8
0
  6
Continuous
 62
     7
370
    25
100
AcDbLine
 10
6740.2401368481
 20
4283.75
 30
0.0
 11
6740.2401368481
 21
4218.75
 31
0.0
  0
LINE
  5
42F
330
1F
100
AcDbEntity
  8
0
  6
Continuous
 62
     7
370
    25
100
AcDbLine
 10
6740.2401368481
 20
4328.75
 30
0.0
 11
6740.2401368481
 21
4283.75
 31
0.0
  0
LINE
  5
430
330
1F
100
AcDbEntity
  8
0
  6
Continuous
 62
     7
370
    25
100
AcDbLine
 10
6743.2401368481
 20
4283.75
 30
0.0
 11
6743.2401368481
 21
4328.75
 31
0.0
  0
LINE
  5
431
330
1F
100
AcDbEntity
  8
0
  6
Continuous
 62
     7
370
    25
100
AcDbLine
 10
6743.2401368481
 20
4218.75
 30
0.0
 11
6743.2401368481
 21
4283.75
 31
0.0
  0
LINE
  5
432
330
1F
100
AcDbEntity
  8
0
  6
Continuous
 62
     7
370
    25
100
AcDbLine
 10
6743.2401368481
 20
4153.75
 30
0.0
 11
6743.2401368481
 21
4218.75
 31
0.0
  0
LINE
  5
433
330
1F
100
AcDbEntity
  8
0
  6
Continuous
 62
     7
370
    25
100
AcDbLine
 10
6743.2401368481
 20
4108.75
 30
0.0
 11
6743.2401368481
 21
4153.75
 31
0.0
  0
LINE
  5
434
330
1F
100
AcDbEntity
  8
0
  6
Continuous
 62
     7
370
    25
100
AcDbLine
 10
6740.2401368481
 20
4108.75
 30
0.0
 11
6740.2401368481
 21
4088.75
 31
0.0
  0
LINE
  5
435
330
1F
100
AcDbEntity
  8
0
  6
Continuous
 62
     7
370
    25
100
AcDbLine
 10
6743.2401368481
 20
4088.75
 30
0.0
 11
6743.2401368481
 21
4108.75
 31
0.0
  0
LINE
  5
436
330
1F
100
AcDbEntity
  8
0
  6
Continuous
 62
     7
370
    25
100
AcDbLine
 10
6403.2401368481
 20
4328.75
 30
0.0
 11
6403.2401368481
 21
4348.75
 31
0.0
  0
LINE
  5
437
330
1F
100
AcDbEntity
  8
0
  6
Continuous
 62
     7
370
    25
100
AcDbLine
 10
6400.2401368481
 20
4348.75
 30
0.0
 11
6400.2401368481
 21
4328.75
 31
0.0
  0
LINE
  5
438
330
1F
100
AcDbEntity
  8
0
  6
Continuous
 62
     7
370
    25
100
AcDbLine
 10
6400.2401368481
 20
4153.75
 30
0.0
 11
6400.2401368481
 21
4108.75
 31
0.0
  0
LINE
  5
439
330
1F
100
AcDbEntity
  8
0
  6
Continuous
 62
     7
370
    25
100
AcDbLine
 10
6400.2401368481
 20
4218.75
 30
0.0
 11
6400.2401368481
 21
4153.75
 31
0.0
  0
LINE
  5
43A
330
1F
100
AcDbEntity
  8
0
  6
Continuous
 62
     7
370
    25
100
AcDbLine
 10
6400.2401368481
 20
4283.75
 30
0.0
 11
6400.2401368481
 21
4218.75
 31
0.0
  0
LINE
  5
43B
330
1F
100
AcDbEntity
  8
0
  6
Continuous
 62
     7
370
    25
100
AcDbLine
 10
6400.2401368481
 20
4328.75
 30
0.0
 11
6400.2401368481
 21
4283.75
 31
0.0
  0
LINE
  5
43C
330
1F
100
AcDbEntity
  8
0
  6
Continuous
 62
     7
370
    25
100
AcDbLine
 10
6403.2401368481
 20
4283.75
 30
0.0
 11
6403.2401368481
 21
4328.75
 31
0.0
  0
LINE
  5
43D
330
1F
100
AcDbEntity
  8
0
  6
Continuous
 62
     7
370
    25
100
AcDbLine
 10
6403.2401368481
 20
4218.75
 30
0.0
 11
6403.2401368481
 21
4283.75
 31
0.0
  0
LINE
  5
43E
330
1F
100
AcDbEntity
  8
0
  6
Continuous
 62
     7
370
    25
100
AcDbLine
 10
6403.2401368481
 20
4153.75
 30
0.0
 11
6403.2401368481
 21
4218.75
 31
0.0
  0
LINE
  5
43F
330
1F
100
AcDbEntity
  8
0
  6
Continuous
 62
     7
370
    25
100
AcDbLine
 10
6403.2401368481
 20
4108.75
 30
0.0
 11
6403.2401368481
 21
4153.75
 31
0.0
  0
LINE
  5
440
330
1F
100
AcDbEntity
  8
0
  6
Continuous
 62
     7
370
    25
100
AcDbLine
 10
6403.2401368481
 20
4088.75
 30
0.0
 11
6403.2401368481
 21
4108.75
 31
0.0
  0
LINE
  5
441
330
1F
100
AcDbEntity
  8
0
  6
Continuous
 62
     7
370
    25
100
AcDbLine
 10
6400.2401368481
 20
4108.75
 30
0.0
 11
6400.2401368481
 21
4088.75
 31
0.0
  0
ARC
  5
442
330
1F
100
AcDbEntity
  8
0
  6
Continuous
 62
     7
370
    25
100
AcDbCircle
 10
6654.80633562
 20
4358.9150729949
 30
0.0
 40
1.5
100
AcDbArc
 50
0.0
 51
180.0
  0
ARC
  5
443
330
1F
100
AcDbEntity
  8
0
  6
Continuous
 62
     7
370
    25
100
AcDbCircle
 10
6664.80633562
 20
4358.9150729949
 30
0.0
 40
1.5
100
AcDbArc
 50
0.0
 51
180.0
  0
LINE
  5
444
330
1F
100
AcDbEntity
  8
0
  6
Continuous
 62
     7
370
    25
100
AcDbLine
 10
6656.30633562
 20
4329.5086906184
 30
0.0
 11
6653.30633562
 21
4329.5086906184
 31
0.0
  0
LINE
  5
445
330
1F
100
AcDbEntity
  8
0
  6
Continuous
 62
     7
370
    25
100
AcDbLine
 10
6663.30633562
 20
4218.75
 30
0.0
 11
6666.30633562
 21
4218.75
 31
0.0
  0
ARC
  5
446
330
1F
100
AcDbEntity
  8
0
  6
Continuous
 62
     7
370
    25
100
AcDbCircle
 10
6488.6739380762
 20
4358.9150729949
 30
0.0
 40
1.5
100
AcDbArc
 50
0.0
 51
180.0
  0
ARC
  5
447
330
1F
100
AcDbEntity
  8
0
  6
Continuous
 62
     7
370
    25
100
AcDbCircle
 10
6478.6739380762
 20
4358.9150729949
 30
0.0
 40
1.5
100
AcDbArc
 50
0.0
 51
180.0
  0
LINE
  5
448
330
1F
100
AcDbEntity
  8
0
  6
Continuous
 62
     7
370
    25
100
AcDbLine
 10
6487.1739380762
 20
4329.5086906184
 30
0.0
 11
6490.1739380762
 21
4329.5086906184
 31
0.0
  0
LINE
  5
449
330
1F
100
AcDbEntity
  8
0
  6
Continuous
 62
     7
370
    25
100
AcDbLine
 10
6480.1739380762
 20
4218.75
 30
0.0
 11
6477.1739380762
 21
4218.75
 31
0.0
  0
LINE
  5
44A
330
1F
100
AcDbEntity
  8
0
  6
Continuous
 62
     7
370
    25
100
AcDbLine
 10
6656.30633562
 20
4107.9913093816
 30
0.0
 11
6653.30633562
 21
4107.9913093816
 31
0.0
  0
ARC
  5
44B
330
1F
100
AcDbEntity
  8
0
  6
Continuous
 62
     7
370
    25
100
AcDbCircle
 10
6654.80633562
 20
4078.5849270051
 30
0.0
 40
1.5
100
AcDbArc
 50
180.0
 51
0.0
  0
ARC
  5
44C
330
1F
100
AcDbEntity
  8
0
  6
Continuous
 62
     7
370
    25
100
AcDbCircle
 10
6664.80633562
 20
4078.5849270051
 30
0.0
 40
1.5
100
AcDbArc
 50
180.0
 51
0.0
  0
LINE
  5
44D
330
1F
100
AcDbEntity
  8
0
  6
Continuous
 62
     7
370
    25
100
AcDbLine
 10
6487.1739380762
 20
4107.9913093816
 30
0.0
 11
6490.1739380762
 21
4107.9913093816
 31
0.0
  0
ARC
  5
44E
330
1F
100
AcDbEntity
  8
0
  6
Continuous
 62
     7
370
    25
100
AcDbCircle
 10
6488.6739380762
 20
4078.5849270051
 30
0.0
 40
1.5
100
AcDbArc
 50
180.0
 51
0.0
  0
ARC
  5
44F
330
1F
100
AcDbEntity
  8
0
  6
Continuous
 62
     7
370
    25
100
AcDbCircle
 10
6478.6739380762
 20
4078.5849270051
 30
0.0
 40
1.5
100
AcDbArc
 50
180.0
 51
0.0
  0
LINE
  5
450
330
1F
100
AcDbEntity
  8
0
  6
Continuous
 62
     7
370
    25
100
AcDbLine
 10
6603.4401368481
 20
4161.0444477329
 30
0.0
 11
6601.9401368481
 21
4159.5444477329
 31
0.0
  0
LINE
  5
451
330
1F
100
AcDbEntity
  8
0
  6
Continuous
 62
     7
370
    25
100
AcDbLine
 10
6604.9401368481
 20
4159.5444477329
 30
0.0
 11
6603.4401368481
 21
4161.0444477329
 31
0.0
  0
LINE
  5
452
330
1F
100
AcDbEntity
  8
0
  6
Continuous
 62
     7
370
    25
100
AcDbLine
 10
6603.3512413823
 20
4093.2944477329
 30
0.0
 11
6603.5290323139
 21
4093.2944477329
 31
0.0
  0
LINE
  5
453
330
1F
100
AcDbEntity
  8
0
  6
Continuous
 62
     7
370
    25
100
AcDbLine
 10
6603.3512413823
 20
4093.2944477329
 30
0.0
 11
6601.9401368481
 21
4094.7055522671
 31
0.0
  0
LINE
  5
454
330
1F
100
AcDbEntity
  8
0
  6
Continuous
 62
     7
370
    25
100
AcDbLine
 10
6604.9401368481
 20
4094.7055522671
 30
0.0
 11
6603.5290323139
 21
4093.2944477329
 31
0.0
  0
LINE
  5
455
330
1F
100
AcDbEntity
  8
0
  6
Continuous
 62
     7
370
    25
100
AcDbLine
 10
6540.0401368481
 20
4161.0444477329
 30
0.0
 11
6538.5401368481
 21
4159.5444477329
 31
0.0
  0
LINE
  5
456
330
1F
100
AcDbEntity
  8
0
  6
Continuous
 62
     7
370
    25
100
AcDbLine
 10
6541.5401368481
 20
4159.5444477329
 30
0.0
 11
6540.0401368481
 21
4161.0444477329
 31
0.0
  0
LINE
  5
457
330
1F
100
AcDbEntity
  8
0
  6
Continuous
 62
     7
370
    25
100
AcDbLine
 10
6539.9512413823
 20
4093.2944477329
 30
0.0
 11
6540.1290323139
 21
4093.2944477329
 31
0.0
  0
LINE
  5
458
330
1F
100
AcDbEntity
  8
0
  6
Continuous
 62
     7
370
    25
100
AcDbLine
 10
6539.9512413823
 20
4093.2944477329
 30
0.0
 11
6538.5401368481
 21
4094.7055522671
 31
0.0
  0
LINE
  5
459
330
1F
100
AcDbEntity
  8
0
  6
Continuous
 62
     7
370
    25
100
AcDbLine
 10
6541.5401368481
 20
4094.7055522671
 30
0.0
 11
6540.1290323139
 21
4093.2944477329
 31
0.0
  0
LINE
  5
45A
330
1F
100
AcDbEntity
  8
0
  6
Continuous
 62
     7
370
    25
100
AcDbLine
 10
6603.4401368481
 20
4344.2944477329
 30
0.0
 11
6604.9401368481
 21
4342.7944477329
 31
0.0
  0
LINE
  5
45B
330
1F
100
AcDbEntity
  8
0
  6
Continuous
 62
     7
370
    25
100
AcDbLine
 10
6601.9401368481
 20
4342.7944477329
 30
0.0
 11
6603.4401368481
 21
4344.2944477329
 31
0.0
  0
LINE
  5
45C
330
1F
100
AcDbEntity
  8
0
  6
Continuous
 62
     7
370
    25
100
AcDbLine
 10
6540.0401368481
 20
4344.2944477329
 30
0.0
 11
6541.5401368481
 21
4342.7944477329
 31
0.0
  0
LINE
  5
45D
330
1F
100
AcDbEntity
  8
0
  6
Continuous
 62
     7
370
    25
100
AcDbLine
 10
6538.5401368481
 20
4342.7944477329
 30
0.0
 11
6540.0401368481
 21
4344.2944477329
 31
0.0
  0
LINE
  5
45E
330
1F
100
AcDbEntity
  8
0
  6
Continuous
 62
     7
370
    25
100
AcDbLine
 10
6603.4401368481
 20
4276.5444477329
 30
0.0
 11
6604.9401368481
 21
4278.0444477329
 31
0.0
  0
LINE
  5
45F
330
1F
100
AcDbEntity
  8
0
  6
Continuous
 62
     7
370
    25
100
AcDbLine
 10
6601.9401368481
 20
4278.0444477329
 30
0.0
 11
6603.4401368481
 21
4276.5444477329
 31
0.0
  0
LINE
  5
460
330
1F
100
AcDbEntity
  8
0
  6
Continuous
 62
     7
370
    25
100
AcDbLine
 10
6540.0401368481
 20
4276.5444477329
 30
0.0
 11
6541.5401368481
 21
4278.0444477329
 31
0.0
  0
LINE
  5
461
330
1F
100
AcDbEntity
  8
0
  6
Continuous
 62
     7
370
    25
100
AcDbLine
 10
6538.5401368481
 20
4278.0444477329
 30
0.0
 11
6540.0401368481
 21
4276.5444477329
 31
0.0
  0
LINE
  5
462
330
1F
100
AcDbEntity
  8
0
  6
Continuous
 62
     7
370
    25
100
AcDbLine
 10
6728.7401368481
 20
4278.0444477329
 30
0.0
 11
6730.2401368481
 21
4276.5444477329
 31
0.0
  0
LINE
  5
463
330
1F
100
AcDbEntity
  8
0
  6
Continuous
 62
     7
370
    25
100
AcDbLine
 10
6730.2401368481
 20
4276.5444477329
 30
0.0
 11
6728.7401368481
 21
4275.0444477329
 31
0.0
  0
LINE
  5
464
330
1F
100
AcDbEntity
  8
0
  6
Continuous
 62
     7
370
    25
100
AcDbLine
 10
6728.7401368481
 20
4220.2944477329
 30
0.0
 11
6730.2401368481
 21
4218.7944477329
 31
0.0
  0
LINE
  5
465
330
1F
100
AcDbEntity
  8
0
  6
Continuous
 62
     7
370
    25
100
AcDbLine
 10
6730.2401368481
 20
4218.7944477329
 30
0.0
 11
6728.7401368481
 21
4217.2944477329
 31
0.0
  0
LINE
  5
466
330
1F
100
AcDbEntity
  8
0
  6
Continuous
 62
     7
370
    25
100
AcDbLine
 10
6728.7401368481
 20
4162.5444477329
 30
0.0
 11
6730.2401368481
 21
4161.0444477329
 31
0.0
  0
LINE
  5
467
330
1F
100
AcDbEntity
  8
0
  6
Continuous
 62
     7
370
    25
100
AcDbLine
 10
6730.2401368481
 20
4161.0444477329
 30
0.0
 11
6728.7401368481
 21
4159.5444477329
 31
0.0
  0
LINE
  5
468
330
1F
100
AcDbEntity
  8
0
  6
Continuous
 62
     7
370
    25
100
AcDbLine
 10
6413.2401368481
 20
4276.5444477329
 30
0.0
 11
6414.7401368481
 21
4278.0444477329
 31
0.0
  0
LINE
  5
469
330
1F
100
AcDbEntity
  8
0
  6
Continuous
 62
     7
370
    25
100
AcDbLine
 10
6414.7401368481
 20
4275.0444477329
 30
0.0
 11
6413.2401368481
 21
4276.5444477329
 31
0.0
  0
LINE
  5
46A
330
1F
100
AcDbEntity
  8
0
  6
Continuous
 62
     7
370
    25
100
AcDbLine
 10
6413.2401368481
 20
4218.7944477329
 30
0.0
 11
6414.7401368481
 21
4220.2944477329
 31
0.0
  0
LINE
  5
46B
330
1F
100
AcDbEntity
  8
0
  6
Continuous
 62
     7
370
    25
100
AcDbLine
 10
6414.7401368481
 20
4217.2944477329
 30
0.0
 11
6413.2401368481
 21
4218.7944477329
 31
0.0
  0
LINE
  5
46C
330
1F
100
AcDbEntity
  8
0
  6
Continuous
 62
     7
370
    25
100
AcDbLine
 10
6413.2401368481
 20
4161.0444477329
 30
0.0
 11
6414.7401368481
 21
4162.5444477329
 31
0.0
  0
LINE
  5
46D
330
1F
100
AcDbEntity
  8
0
  6
Continuous
 62
     7
370
    25
100
AcDbLine
 10
6414.7401368481
 20
4159.5444477329
 30
0.0
 11
6413.2401368481
 21
4161.0444477329
 31
0.0
  0
LINE
  5
46E
330
1F
100
AcDbEntity
  8
0
  6
Continuous
 62
     7
370
    25
100
AcDbLine
 10
6603.4401368481
 20
4276.5444477329
 30
0.0
 11
6601.9401368481
 21
4275.0444477329
 31
0.0
  0
LINE
  5
46F
330
1F
100
AcDbEntity
  8
0
  6
Continuous
 62
     7
370
    25
100
AcDbLine
 10
6541.5401368481
 20
4275.0444477329
 30
0.0
 11
6540.0401368481
 21
4276.5444477329
 31
0.0
  0
LINE
  5
470
330
1F
100
AcDbEntity
  8
0
  6
Continuous
 62
     7
370
    25
100
AcDbLine
 10
6604.9401368481
 20
4275.0444477329
 30
0.0
 11
6603.4401368481
 21
4276.5444477329
 31
0.0
  0
LINE
  5
471
330
1F
100
AcDbEntity
  8
0
  6
Continuous
 62
     7
370
    25
100
AcDbLine
 10
6540.0401368481
 20
4276.5444477329
 30
0.0
 11
6538.5401368481
 21
4275.0444477329
 31
0.0
  0
LINE
  5
472
330
1F
100
AcDbEntity
  8
0
  6
Continuous
 62
     7
370
    25
100
AcDbLine
 10
6603.4401368481
 20
4218.7944477329
 30
0.0
 11
6604.9401368481
 21
4220.2944477329
 31
0.0
  0
LINE
  5
473
330
1F
100
AcDbEntity
  8
0
  6
Continuous
 62
     7
370
    25
100
AcDbLine
 10
6601.9401368481
 20
4220.2944477329
 30
0.0
 11
6603.4401368481
 21
4218.7944477329
 31
0.0
  0
LINE
  5
474
330
1F
100
AcDbEntity
  8
0
  6
Continuous
 62
     7
370
    25
100
AcDbLine
 10
6540.0401368481
 20
4218.7944477329
 30
0.0
 11
6541.5401368481
 21
4220.2944477329
 31
0.0
  0
LINE
  5
475
330
1F
100
AcDbEntity
  8
0
  6
Continuous
 62
     7
370
    25
100
AcDbLine
 10
6538.5401368481
 20
4220.2944477329
 30
0.0
 11
6540.0401368481
 21
4218.7944477329
 31
0.0
  0
LINE
  5
476
330
1F
100
AcDbEntity
  8
0
  6
Continuous
 62
     7
370
    25
100
AcDbLine
 10
6604.9401368481
 20
4217.2944477329
 30
0.0
 11
6603.4401368481
 21
4218.7944477329
 31
0.0
  0
LINE
  5
477
330
1F
100
AcDbEntity
  8
0
  6
Continuous
 62
     7
370
    25
100
AcDbLine
 10
6603.4401368481
 20
4218.7944477329
 30
0.0
 11
6601.9401368481
 21
4217.2944477329
 31
0.0
  0
LINE
  5
478
330
1F
100
AcDbEntity
  8
0
  6
Continuous
 62
     7
370
    25
100
AcDbLine
 10
6541.5401368481
 20
4217.2944477329
 30
0.0
 11
6540.0401368481
 21
4218.7944477329
 31
0.0
  0
LINE
  5
479
330
1F
100
AcDbEntity
  8
0
  6
Continuous
 62
     7
370
    25
100
AcDbLine
 10
6540.0401368481
 20
4218.7944477329
 30
0.0
 11
6538.5401368481
 21
4217.2944477329
 31
0.0
  0
LINE
  5
47A
330
1F
100
AcDbEntity
  8
0
  6
Continuous
 62
     7
370
    25
100
AcDbLine
 10
6540.0401368481
 20
4161.0444477329
 30
0.0
 11
6541.5401368481
 21
4162.5444477329
 31
0.0
  0
LINE
  5
47B
330
1F
100
AcDbEntity
  8
0
  6
Continuous
 62
     7
370
    25
100
AcDbLine
 10
6538.5401368481
 20
4162.5444477329
 30
0.0
 11
6540.0401368481
 21
4161.0444477329
 31
0.0
  0
LINE
  5
47C
330
1F
100
AcDbEntity
  8
0
  6
Continuous
 62
     7
370
    25
100
AcDbLine
 10
6603.4401368481
 20
4161.0444477329
 30
0.0
 11
6604.9401368481
 21
4162.5444477329
 31
0.0
  0
LINE
  5
47D
330
1F
100
AcDbEntity
  8
0
  6
Continuous
 62
     7
370
    25
100
AcDbLine
 10
6601.9401368481
 20
4162.5444477329
 30
0.0
 11
6603.4401368481
 21
4161.0444477329
 31
0.0
  0
LINE
  5
47E
330
1F
100
AcDbEntity
  8
0
  6
Continuous
 62
     7
370
    25
100
AcDbLine
 10
6407.1502622616
 20
4086.2722842131
 30
0.0
 11
6404.2702536268
 21
4085.4323138188
 31
0.0
  0
LINE
  5
47F
330
1F
100
AcDbEntity
  8
0
  6
Continuous
 62
     7
370
    25
100
AcDbLine
 10
6736.3300114346
 20
4086.2722842131
 30
0.0
 11
6739.2100200694
 21
4085.4323138188
 31
0.0
  0
LINE
  5
480
330
1F
100
AcDbEntity
  8
0
  6
Continuous
 62
     7
370
    25
100
AcDbLine
 10
6407.1502622616
 20
4351.2277157869
 30
0.0
 11
6404.2702536268
 21
4352.0676861812
 31
0.0
  0
LINE
  5
481
330
1F
100
AcDbEntity
  8
0
  6
Continuous
 62
     7
370
    25
100
AcDbLine
 10
6736.3300114346
 20
4351.2277157869
 30
0.0
 11
6739.2100200694
 21
4352.0676861812
 31
0.0
  0
ARC
  5
482
330
1F
100
AcDbEntity
  8
0
  6
Continuous
 62
     7
370
    25
100
AcDbCircle
 10
6741.7401368481
 20
4348.75
 30
0.0
 40
1.5
100
AcDbArc
 50
90.0
 51
180.0
  0
ARC
  5
483
330
1F
100
AcDbEntity
  8
0
  6
Continuous
 62
     7
370
    25
100
AcDbCircle
 10
6741.7401368481
 20
4348.75
 30
0.0
 40
1.5
100
AcDbArc
 50
0.0
 51
90.0
  0
ARC
  5
484
330
1F
100
AcDbEntity
  8
0
  6
Continuous
 62
     7
370
    25
100
AcDbCircle
 10
6741.7401368481
 20
4088.75
 30
0.0
 40
1.5
100
AcDbArc
 50
180.0
 51
270.0
  0
ARC
  5
485
330
1F
100
AcDbEntity
  8
0
  6
Continuous
 62
     7
370
    25
100
AcDbCircle
 10
6741.7401368481
 20
4088.75
 30
0.0
 40
1.5
100
AcDbArc
 50
270.0
 51
0.0
  0
ARC
  5
486
330
1F
100
AcDbEntity
  8
0
  6
Continuous
 62
     7
370
    25
100
AcDbCircle
 10
6741.2488920694
 20
4088.0948717486
 30
0.0
 40
1.65868852414115
100
AcDbArc
 50
206.8039089252
 51
262.4202480832
  0
ARC
  5
487
330
1F
100
AcDbEntity
  8
0
  6
Continuous
 62
     7
370
    25
100
AcDbCircle
 10
6741.2299424367
 20
4349.4793611848
 30
0.0
 40
1.637941888654315
100
AcDbArc
 50
99.3938909186
 51
154.1133310376
  0
ARC
  5
488
330
1F
100
AcDbEntity
  8
0
  6
Continuous
 62
     7
370
    25
100
AcDbCircle
 10
6401.7401368481
 20
4348.75
 30
0.0
 40
1.5
100
AcDbArc
 50
0.0
 51
90.0
  0
ARC
  5
489
330
1F
100
AcDbEntity
  8
0
  6
Continuous
 62
     7
370
    25
100
AcDbCircle
 10
6401.7401368481
 20
4348.75
 30
0.0
 40
1.5
100
AcDbArc
 50
90.0
 51
180.0
  0
ARC
  5
48A
330
1F
100
AcDbEntity
  8
0
  6
Continuous
 62
     7
370
    25
100
AcDbCircle
 10
6401.7401368481
 20
4088.75
 30
0.0
 40
1.5
100
AcDbArc
 50
270.0
 51
0.0
  0
ARC
  5
48B
330
1F
100
AcDbEntity
  8
0
  6
Continuous
 62
     7
370
    25
100
AcDbCircle
 10
6401.7401368481
 20
4088.75
 30
0.0
 40
1.5
100
AcDbArc
 50
180.0
 51
270.0
  0
ARC
  5
48C
330
1F
100
AcDbEntity
  8
0
  6
Continuous
 62
     7
370
    25
100
AcDbCircle
 10
6402.2313816268
 20
4088.0948717486
 30
0.0
 40
1.658688524137304
100
AcDbArc
 50
277.5797519167
 51
333.1960910749
  0
ARC
  5
48D
330
1F
100
AcDbEntity
  8
0
  6
Continuous
 62
     7
370
    25
100
AcDbCircle
 10
6402.2503312596
 20
4349.4793611848
 30
0.0
 40
1.637941888654315
100
AcDbArc
 50
25.8866689624
 51
80.6061090814
  0
LINE
  5
48E
330
1F
100
AcDbEntity
  8
0
  6
Continuous
 62
     8
370
    25
100
AcDbLine
 10
6659.95633562
 20
4358.9150729949
 30
0.0
 11
6659.95633562
 21
4360.4150729949
 31
0.0
  0
LINE
  5
48F
330
1F
100
AcDbEntity
  8
0
  6
Continuous
 62
     8
370
    25
100
AcDbLine
 10
6659.95633562
 20
4357.4150729949
 30
0.0
 11
6659.95633562
 21
4358.9150729949
 31
0.0
  0
LINE
  5
490
330
1F
100
AcDbEntity
  8
0
  6
Continuous
 62
     8
370
    25
100
AcDbLine
 10
6659.65633562
 20
4358.9150729949
 30
0.0
 11
6659.65633562
 21
4360.4150729949
 31
0.0
  0
LINE
  5
491
330
1F
100
AcDbEntity
  8
0
  6
Continuous
 62
     8
370
    25
100
AcDbLine
 10
6659.65633562
 20
4357.4150729949
 30
0.0
 11
6659.65633562
 21
4358.9150729949
 31
0.0
  0
LINE
  5
492
330
1F
100
AcDbEntity
  8
0
  6
Continuous
 62
     8
370
    25
100
AcDbLine
 10
6483.8239380762
 20
4358.9150729949
 30
0.0
 11
6483.8239380762
 21
4360.4150729949
 31
0.0
  0
LINE
  5
493
330
1F
100
AcDbEntity
  8
0
  6
Continuous
 62
     8
370
    25
100
AcDbLine
 10
6483.8239380762
 20
4357.4150729949
 30
0.0
 11
6483.8239380762
 21
4358.9150729949
 31
0.0
  0
LINE
  5
494
330
1F
100
AcDbEntity
  8
0
  6
Continuous
 62
     8
370
    25
100
AcDbLine
 10
6483.5239380762
 20
4358.9150729949
 30
0.0
 11
6483.5239380762
 21
4360.4150729949
 31
0.0
  0
LINE
  5
495
330
1F
100
AcDbEntity
  8
0
  6
Continuous
 62
     8
370
    25
100
AcDbLine
 10
6483.5239380762
 20
4357.4150729949
 30
0.0
 11
6483.5239380762
 21
4358.9150729949
 31
0.0
  0
LINE
  5
496
330
1F
100
AcDbEntity
  8
0
  6
Continuous
 62
     8
370
    25
100
AcDbLine
 10
6659.95633562
 20
4078.5849270051
 30
0.0
 11
6659.95633562
 21
4077.0849270051
 31
0.0
  0
LINE
  5
497
330
1F
100
AcDbEntity
  8
0
  6
Continuous
 62
     8
370
    25
100
AcDbLine
 10
6659.95633562
 20
4080.0849270051
 30
0.0
 11
6659.95633562
 21
4078.5849270051
 31
0.0
  0
LINE
  5
498
330
1F
100
AcDbEntity
  8
0
  6
Continuous
 62
     8
370
    25
100
AcDbLine
 10
6659.65633562
 20
4078.5849270051
 30
0.0
 11
6659.65633562
 21
4077.0849270051
 31
0.0
  0
LINE
  5
499
330
1F
100
AcDbEntity
  8
0
  6
Continuous
 62
     8
370
    25
100
AcDbLine
 10
6659.65633562
 20
4080.0849270051
 30
0.0
 11
6659.65633562
 21
4078.5849270051
 31
0.0
  0
LINE
  5
49A
330
1F
100
AcDbEntity
  8
0
  6
Continuous
 62
     8
370
    25
100
AcDbLine
 10
6483.8239380762
 20
4078.5849270051
 30
0.0
 11
6483.8239380762
 21
4077.0849270051
 31
0.0
  0
LINE
  5
49B
330
1F
100
AcDbEntity
  8
0
  6
Continuous
 62
     8
370
    25
100
AcDbLine
 10
6483.8239380762
 20
4080.0849270051
 30
0.0
 11
6483.8239380762
 21
4078.5849270051
 31
0.0
  0
LINE
  5
49C
330
1F
100
AcDbEntity
  8
0
  6
Continuous
 62
     8
370
    25
100
AcDbLine
 10
6483.5239380762
 20
4078.5849270051
 30
0.0
 11
6483.5239380762
 21
4077.0849270051
 31
0.0
  0
LINE
  5
49D
330
1F
100
AcDbEntity
  8
0
  6
Continuous
 62
     8
370
    25
100
AcDbLine
 10
6483.5239380762
 20
4080.0849270051
 30
0.0
 11
6483.5239380762
 21
4078.5849270051
 31
0.0
  0
LINE
  5
49E
330
1F
100
AcDbEntity
  8
0
  6
Continuous
 62
     8
370
    25
100
AcDbLine
 10
6720.2401368481
 20
4091.7055522671
 30
0.0
 11
6720.2401368481
 21
4094.7055522671
 31
0.0
  0
LINE
  5
49F
330
1F
100
AcDbEntity
  8
0
  6
Continuous
 62
     8
370
    25
100
AcDbLine
 10
6423.2401368481
 20
4091.7055522671
 30
0.0
 11
6423.2401368481
 21
4094.7055522671
 31
0.0
  0
LINE
  5
4A0
330
1F
100
AcDbEntity
  8
0
  6
Continuous
 62
     8
370
    25
100
AcDbLine
 10
6423.2401368481
 20
4345.7944477329
 30
0.0
 11
6423.2401368481
 21
4342.7944477329
 31
0.0
  0
LINE
  5
4A1
330
1F
100
AcDbEntity
  8
0
  6
Continuous
 62
     8
370
    25
100
AcDbLine
 10
6720.2401368481
 20
4345.7944477329
 30
0.0
 11
6720.2401368481
 21
4342.7944477329
 31
0.0
  0
LINE
  5
4A2
330
1F
100
AcDbEntity
  8
0
  6
Continuous
 62
     8
370
    25
100
AcDbLine
 10
6411.7401368481
 20
4334.2944477329
 30
0.0
 11
6414.7401368481
 21
4334.2944477329
 31
0.0
  0
LINE
  5
4A3
330
1F
100
AcDbEntity
  8
0
  6
Continuous
 62
     8
370
    25
100
AcDbLine
 10
6731.7401368481
 20
4334.2944477329
 30
0.0
 11
6728.7401368481
 21
4334.2944477329
 31
0.0
  0
LINE
  5
4A4
330
1F
100
AcDbEntity
  8
0
  6
Continuous
 62
     8
370
    25
100
AcDbLine
 10
6731.7401368481
 20
4103.2055522671
 30
0.0
 11
6728.7401368481
 21
4103.2055522671
 31
0.0
  0
LINE
  5
4A5
330
1F
100
AcDbEntity
  8
0
  6
Continuous
 62
     8
370
    25
100
AcDbLine
 10
6411.7401368481
 20
4103.2055522671
 30
0.0
 11
6414.7401368481
 21
4103.2055522671
 31
0.0
  0
LINE
  5
4A6
330
1F
100
AcDbEntity
  8
0
  6
Continuous
 62
     8
370
    25
100
AcDbLine
 10
6403.3551177154
 20
4082.2031619104
 30
0.0
 11
6405.0448312796
 21
4084.6820463513
 31
0.0
  0
LINE
  5
4A7
330
1F
100
AcDbEntity
  8
0
  6
Continuous
 62
     8
370
    25
100
AcDbLine
 10
6399.2055665019
 20
4085.0316733387
 30
0.0
 11
6400.8952800661
 21
4087.5105577796
 31
0.0
  0
LINE
  5
4A8
330
1F
100
AcDbEntity
  8
0
  6
Continuous
 62
     8
370
    25
100
AcDbLine
 10
6406.0601498004
 20
4090.0099555915
 30
0.0
 11
6403.2401368481
 21
4089.1874832687
 31
0.0
  0
LINE
  5
4A9
330
1F
100
AcDbEntity
  8
0
  6
Continuous
 62
     8
370
    25
100
AcDbLine
 10
6737.4201238959
 20
4090.0099555915
 30
0.0
 11
6740.2401368481
 21
4089.1874832687
 31
0.0
  0
LINE
  5
4AA
330
1F
100
AcDbEntity
  8
0
  6
Continuous
 62
     8
370
    25
100
AcDbLine
 10
6740.1251559808
 20
4082.2031619104
 30
0.0
 11
6738.4354424167
 21
4084.6820463513
 31
0.0
  0
LINE
  5
4AB
330
1F
100
AcDbEntity
  8
0
  6
Continuous
 62
     8
370
    25
100
AcDbLine
 10
6733.6479206517
 20
4080.2055522671
 30
0.0
 11
6733.6479206517
 21
4083.2055522671
 31
0.0
  0
LINE
  5
4AC
330
1F
100
AcDbEntity
  8
0
  6
Continuous
 62
     8
370
    25
100
AcDbLine
 10
6744.2747071943
 20
4085.0316733387
 30
0.0
 11
6742.5849936302
 21
4087.5105577796
 31
0.0
  0
LINE
  5
4AD
330
1F
100
AcDbEntity
  8
0
  6
Continuous
 62
     8
370
    25
100
AcDbLine
 10
6409.8323530446
 20
4080.2055522671
 30
0.0
 11
6409.8323530446
 21
4083.2055522671
 31
0.0
  0
LINE
  5
4AE
330
1F
100
AcDbEntity
  8
0
  6
Continuous
 62
     8
370
    25
100
AcDbLine
 10
6409.8323530446
 20
4357.2944477329
 30
0.0
 11
6409.8323530446
 21
4354.2944477329
 31
0.0
  0
LINE
  5
4AF
330
1F
100
AcDbEntity
  8
0
  6
Continuous
 62
     8
370
    25
100
AcDbLine
 10
6733.6479206517
 20
4357.2944477329
 30
0.0
 11
6733.6479206517
 21
4354.2944477329
 31
0.0
  0
LINE
  5
4B0
330
1F
100
AcDbEntity
  8
0
  6
Continuous
 62
     8
370
    25
100
AcDbLine
 10
6403.3551177154
 20
4355.2968380896
 30
0.0
 11
6405.0448312796
 21
4352.8179536487
 31
0.0
  0
LINE
  5
4B1
330
1F
100
AcDbEntity
  8
0
  6
Continuous
 62
     8
370
    25
100
AcDbLine
 10
6406.0601498004
 20
4347.4900444085
 30
0.0
 11
6403.2401368481
 21
4348.3125167313
 31
0.0
  0
LINE
  5
4B2
330
1F
100
AcDbEntity
  8
0
  6
Continuous
 62
     8
370
    25
100
AcDbLine
 10
6737.4201238959
 20
4347.4900444085
 30
0.0
 11
6740.2401368481
 21
4348.3125167313
 31
0.0
  0
LINE
  5
4B3
330
1F
100
AcDbEntity
  8
0
  6
Continuous
 62
     8
370
    25
100
AcDbLine
 10
6744.2747071943
 20
4352.4683266613
 30
0.0
 11
6742.5849936302
 21
4349.9894422204
 31
0.0
  0
LINE
  5
4B4
330
1F
100
AcDbEntity
  8
0
  6
Continuous
 62
     8
370
    25
100
AcDbLine
 10
6399.2055665019
 20
4352.4683266613
 30
0.0
 11
6400.8952800661
 21
4349.9894422204
 31
0.0
  0
LINE
  5
4B5
330
1F
100
AcDbEntity
  8
0
  6
Continuous
 62
     8
370
    25
100
AcDbLine
 10
6740.1251559808
 20
4355.2968380896
 30
0.0
 11
6738.4354424167
 21
4352.8179536487
 31
0.0
  0
LINE
  5
4B6
330
1F
100
AcDbEntity
  8
0
  6
Continuous
 62
     8
370
    25
100
AcDbLine
 10
6741.7401368481
 20
4328.75
 30
0.0
 11
6740.2401368481
 21
4328.75
 31
0.0
  0
LINE
  5
4B7
330
1F
100
AcDbEntity
  8
0
  6
Continuous
 62
     8
370
    25
100
AcDbLine
 10
6743.2401368481
 20
4328.75
 30
0.0
 11
6741.7401368481
 21
4328.75
 31
0.0
  0
LINE
  5
4B8
330
1F
100
AcDbEntity
  8
0
  6
Continuous
 62
     8
370
    25
100
AcDbLine
 10
6741.7401368481
 20
4108.75
 30
0.0
 11
6740.2401368481
 21
4108.75
 31
0.0
  0
LINE
  5
4B9
330
1F
100
AcDbEntity
  8
0
  6
Continuous
 62
     8
370
    25
100
AcDbLine
 10
6743.2401368481
 20
4108.75
 30
0.0
 11
6741.7401368481
 21
4108.75
 31
0.0
  0
LINE
  5
4BA
330
1F
100
AcDbEntity
  8
0
  6
Continuous
 62
     8
370
    25
100
AcDbLine
 10
6401.7401368481
 20
4328.75
 30
0.0
 11
6403.2401368481
 21
4328.75
 31
0.0
  0
LINE
  5
4BB
330
1F
100
AcDbEntity
  8
0
  6
Continuous
 62
     8
370
    25
100
AcDbLine
 10
6400.2401368481
 20
4328.75
 30
0.0
 11
6401.7401368481
 21
4328.75
 31
0.0
  0
LINE
  5
4BC
330
1F
100
AcDbEntity
  8
0
  6
Continuous
 62
     8
370
    25
100
AcDbLine
 10
6401.7401368481
 20
4108.75
 30
0.0
 11
6403.2401368481
 21
4108.75
 31
0.0
  0
LINE
  5
4BD
330
1F
100
AcDbEntity
  8
0
  6
Continuous
 62
     8
370
    25
100
AcDbLine
 10
6400.2401368481
 20
4108.75
 30
0.0
 11
6401.7401368481
 21
4108.75
 31
0.0
  0
INSERT
  5
4C9
330
1F
100
AcDbEntity
  8
SLD-0
100
AcDbBlockReference
  2
SW_CENTERMARKSYMBOL_2
 10
6401.7401368481
 20
4088.75
 30
0.0
  0
INSERT
  5
4D5
330
1F
100
AcDbEntity
  8
SLD-0
100
AcDbBlockReference
  2
SW_CENTERMARKSYMBOL_3
 10
6401.7401368481
 20
4348.75
 30
0.0
  0
INSERT
  5
4E1
330
1F
100
AcDbEntity
  8
SLD-0
100
AcDbBlockReference
  2
SW_CENTERMARKSYMBOL_4
 10
6741.7401368481
 20
4088.75
 30
0.0
  0
INSERT
  5
4ED
330
1F
100
AcDbEntity
  8
SLD-0
100
AcDbBlockReference
  2
SW_CENTERMARKSYMBOL_5
 10
6741.7401368481
 20
4348.75
 30
0.0
  0
ENDSEC
  0
SECTION
  2
OBJECTS
  0
DICTIONARY
  5
C
330
0
100
AcDbDictionary
281
     1
  3
ACAD_GROUP
350
D
  3
ACAD_LAYOUT
350
1A
  3
ACAD_MLINESTYLE
350
17
  3
ACAD_PLOTSETTINGS
350
19
  3
ACAD_PLOTSTYLENAME
350
E
  3
ACAD_SCALELIST
350
47
  3
DWGPROPS
350
4EE
  0
DICTIONARY
  5
D
102
{ACAD_REACTORS
330
C
102
}
330
C
100
AcDbDictionary
281
     1
  0
DICTIONARY
  5
1A
102
{ACAD_REACTORS
330
C
102
}
330
C
100
AcDbDictionary
281
     1
  3
Layout1
350
1E
  3
Layout2
350
26
  3
Model
350
22
  0
DICTIONARY
  5
17
102
{ACAD_REACTORS
330
C
102
}
330
C
100
AcDbDictionary
281
     1
  3
Standard
350
18
  0
DICTIONARY
  5
19
102
{ACAD_REACTORS
330
C
102
}
330
C
100
AcDbDictionary
281
     1
  0
ACDBDICTIONARYWDFLT
  5
E
102
{ACAD_REACTORS
330
C
102
}
330
C
100
AcDbDictionary
281
     1
  3
Normal
350
F
100
AcDbDictionaryWithDefault
340
F
  0
DICTIONARY
  5
47
102
{ACAD_REACTORS
330
C
102
}
330
C
100
AcDbDictionary
281
     1
  3
A0
350
48
  3
A1
350
49
  3
A2
350
4A
  3
A3
350
4B
  3
A4
350
4C
  3
A5
350
4D
  3
A6
350
4E
  3
A7
350
4F
  3
A8
350
50
  3
A9
350
51
  3
B0
350
52
  3
B1
350
53
  3
B2
350
54
  3
B3
350
55
  3
B4
350
56
  3
B5
350
57
  3
B6
350
58
  3
B7
350
59
  3
B8
350
5A
  3
B9
350
5B
  3
C0
350
5C
  3
C1
350
5D
  3
C2
350
5E
  3
C3
350
5F
  3
C4
350
60
  3
C5
350
61
  3
C6
350
62
  3
C7
350
63
  3
C8
350
64
  3
C9
350
65
  3
D0
350
66
  3
D1
350
67
  3
D2
350
68
  0
XRECORD
  5
4EE
102
{ACAD_REACTORS
330
C
102
}
330
C
100
AcDbXrecord
280
     1
  1
DWGPROPS COOKIE
  2

  3

  4

  6

  7

  8
radek.stransky
  9

300
=
301
=
302
=
303
=
304
=
305
=
306
=
307
=
308
=
309
=
 40
0.0
 41
2459129.330147835
 42
2459129.330148137
  1

 90
        0
  0
LAYOUT
  5
1E
102
{ACAD_REACTORS
330
1A
102
}
330
1A
100
AcDbPlotSettings
  1

  2
none_device
  4

  6

 40
0.0
 41
0.0
 42
0.0
 43
0.0
 44
0.0
 45
0.0
 46
0.0
 47
0.0
 48
0.0
 49
0.0
140
0.0
141
0.0
142
1.0
143
1.0
 70
   688
 72
     1
 73
     0
 74
     5
  7

 75
    16
147
1.0
148
0.0
149
0.0
100
AcDbLayout
  1
Layout1
 70
     1
 71
     1
 10
0.0
 20
0.0
 11
420.0
 21
297.0
 12
0.0
 22
0.0
 32
0.0
 14
1.0000000000E+20
 24
1.0000000000E+20
 34
1.0000000000E+20
 15
-1.0000000000E+20
 25
-1.0000000000E+20
 35
-1.0000000000E+20
146
0.0
 13
0.0
 23
0.0
 33
0.0
 16
1.0
 26
0.0
 36
0.0
 17
0.0
 27
1.0
 37
0.0
 76
     0
330
1B
  0
LAYOUT
  5
26
102
{ACAD_REACTORS
330
1A
102
}
330
1A
100
AcDbPlotSettings
  1

  2
none_device
  4

  6

 40
0.0
 41
0.0
 42
0.0
 43
0.0
 44
0.0
 45
0.0
 46
0.0
 47
0.0
 48
0.0
 49
0.0
140
0.0
141
0.0
142
1.0
143
1.0
 70
   688
 72
     1
 73
     0
 74
     5
  7

 75
    16
147
1.0
148
0.0
149
0.0
100
AcDbLayout
  1
Layout2
 70
     1
 71
     2
 10
0.0
 20
0.0
 11
0.0
 21
0.0
 12
0.0
 22
0.0
 32
0.0
 14
0.0
 24
0.0
 34
0.0
 15
0.0
 25
0.0
 35
0.0
146
0.0
 13
0.0
 23
0.0
 33
0.0
 16
1.0
 26
0.0
 36
0.0
 17
0.0
 27
1.0
 37
0.0
 76
     0
330
23
  0
LAYOUT
  5
22
102
{ACAD_REACTORS
330
1A
102
}
330
1A
100
AcDbPlotSettings
  1

  2
none_device
  4
Letter_(8.50_x_11.00_Inches)
  6

 40
6.35
 41
6.35
 42
6.35000508
 43
6.35000508
 44
215.9
 45
279.4
 46
0.0
 47
0.0
 48
0.0
 49
0.0
140
0.0
141
0.0
142
1.0
143
1.0
 70
  1712
 72
     1
 73
     0
 74
     0
  7

 75
     0
147
1.0
148
0.0
149
0.0
100
AcDbLayout
  1
Model
 70
     1
 71
     0
 10
0.0
 20
0.0
 11
20000.0
 21
10000.0
 12
0.0
 22
0.0
 32
0.0
 14
0.0
 24
0.0
 34
0.0
 15
20000.0
 25
10000.0
 35
0.0
146
0.0
 13
0.0
 23
0.0
 33
0.0
 16
1.0
 26
0.0
 36
0.0
 17
0.0
 27
1.0
 37
0.0
 76
     0
330
1F
331
29
  0
MLINESTYLE
  5
18
102
{ACAD_REACTORS
330
17
102
}
330
17
100
AcDbMlineStyle
  2
Standard
 70
     0
  3

 62
   256
 51
90.0
 52
90.0
 71
     2
 49
0.5
 62
   256
  6
BYLAYER
 49
-0.5
 62
   256
  6
BYLAYER
  0
ACDBPLACEHOLDER
  5
F
102
{ACAD_REACTORS
330
E
102
}
330
E
  0
SCALE
  5
48
102
{ACAD_REACTORS
330
47
102
}
330
47
100
AcDbScale
 70
     0
300
1:1
140
1.0
141
1.0
290
     1
  0
SCALE
  5
49
102
{ACAD_REACTORS
330
47
102
}
330
47
100
AcDbScale
 70
     0
300
1:2
140
1.0
141
2.0
290
     0
  0
SCALE
  5
4A
102
{ACAD_REACTORS
330
47
102
}
330
47
100
AcDbScale
 70
     0
300
1:4
140
1.0
141
4.0
290
     0
  0
SCALE
  5
4B
102
{ACAD_REACTORS
330
47
102
}
330
47
100
AcDbScale
 70
     0
300
1:5
140
1.0
141
5.0
290
     0
  0
SCALE
  5
4C
102
{ACAD_REACTORS
330
47
102
}
330
47
100
AcDbScale
 70
     0
300
1:8
140
1.0
141
8.0
290
     0
  0
SCALE
  5
4D
102
{ACAD_REACTORS
330
47
102
}
330
47
100
AcDbScale
 70
     0
300
1:10
140
1.0
141
10.0
290
     0
  0
SCALE
  5
4E
102
{ACAD_REACTORS
330
47
102
}
330
47
100
AcDbScale
 70
     0
300
1:16
140
1.0
141
16.0
290
     0
  0
SCALE
  5
4F
102
{ACAD_REACTORS
330
47
102
}
330
47
100
AcDbScale
 70
     0
300
1:20
140
1.0
141
20.0
290
     0
  0
SCALE
  5
50
102
{ACAD_REACTORS
330
47
102
}
330
47
100
AcDbScale
 70
     0
300
1:30
140
1.0
141
30.0
290
     0
  0
SCALE
  5
51
102
{ACAD_REACTORS
330
47
102
}
330
47
100
AcDbScale
 70
     0
300
1:40
140
1.0
141
40.0
290
     0
  0
SCALE
  5
52
102
{ACAD_REACTORS
330
47
102
}
330
47
100
AcDbScale
 70
     0
300
1:50
140
1.0
141
50.0
290
     0
  0
SCALE
  5
53
102
{ACAD_REACTORS
330
47
102
}
330
47
100
AcDbScale
 70
     0
300
1:100
140
1.0
141
100.0
290
     0
  0
SCALE
  5
54
102
{ACAD_REACTORS
330
47
102
}
330
47
100
AcDbScale
 70
     0
300
2:1
140
2.0
141
1.0
290
     0
  0
SCALE
  5
55
102
{ACAD_REACTORS
330
47
102
}
330
47
100
AcDbScale
 70
     0
300
4:1
140
4.0
141
1.0
290
     0
  0
SCALE
  5
56
102
{ACAD_REACTORS
330
47
102
}
330
47
100
AcDbScale
 70
     0
300
8:1
140
8.0
141
1.0
290
     0
  0
SCALE
  5
57
102
{ACAD_REACTORS
330
47
102
}
330
47
100
AcDbScale
 70
     0
300
10:1
140
10.0
141
1.0
290
     0
  0
SCALE
  5
58
102
{ACAD_REACTORS
330
47
102
}
330
47
100
AcDbScale
 70
     0
300
100:1
140
100.0
141
1.0
290
     0
  0
SCALE
  5
59
102
{ACAD_REACTORS
330
47
102
}
330
47
100
AcDbScale
 70
     0
300
1/128" = 1'-0"
140
0.0078125
141
12.0
290
     0
  0
SCALE
  5
5A
102
{ACAD_REACTORS
330
47
102
}
330
47
100
AcDbScale
 70
     0
300
1/64" = 1'-0"
140
0.015625
141
12.0
290
     0
  0
SCALE
  5
5B
102
{ACAD_REACTORS
330
47
102
}
330
47
100
AcDbScale
 70
     0
300
1/32" = 1'-0"
140
0.03125
141
12.0
290
     0
  0
SCALE
  5
5C
102
{ACAD_REACTORS
330
47
102
}
330
47
100
AcDbScale
 70
     0
300
1/16" = 1'-0"
140
0.0625
141
12.0
290
     0
  0
SCALE
  5
5D
102
{ACAD_REACTORS
330
47
102
}
330
47
100
AcDbScale
 70
     0
300
3/32" = 1'-0"
140
0.09375
141
12.0
290
     0
  0
SCALE
  5
5E
102
{ACAD_REACTORS
330
47
102
}
330
47
100
AcDbScale
 70
     0
300
1/8" = 1'-0"
140
0.125
141
12.0
290
     0
  0
SCALE
  5
5F
102
{ACAD_REACTORS
330
47
102
}
330
47
100
AcDbScale
 70
     0
300
3/16" = 1'-0"
140
0.1875
141
12.0
290
     0
  0
SCALE
  5
60
102
{ACAD_REACTORS
330
47
102
}
330
47
100
AcDbScale
 70
     0
300
1/4" = 1'-0"
140
0.25
141
12.0
290
     0
  0
SCALE
  5
61
102
{ACAD_REACTORS
330
47
102
}
330
47
100
AcDbScale
 70
     0
300
3/8" = 1'-0"
140
0.375
141
12.0
290
     0
  0
SCALE
  5
62
102
{ACAD_REACTORS
330
47
102
}
330
47
100
AcDbScale
 70
     0
300
1/2" = 1'-0"
140
0.5
141
12.0
290
     0
  0
SCALE
  5
63
102
{ACAD_REACTORS
330
47
102
}
330
47
100
AcDbScale
 70
     0
300
3/4" = 1'-0"
140
0.75
141
12.0
290
     0
  0
SCALE
  5
64
102
{ACAD_REACTORS
330
47
102
}
330
47
100
AcDbScale
 70
     0
300
1" = 1'-0"
140
1.0
141
12.0
290
     0
  0
SCALE
  5
65
102
{ACAD_REACTORS
330
47
102
}
330
47
100
AcDbScale
 70
     0
300
1-1/2" = 1'-0"
140
1.5
141
12.0
290
     0
  0
SCALE
  5
66
102
{ACAD_REACTORS
330
47
102
}
330
47
100
AcDbScale
 70
     0
300
3" = 1'-0"
140
3.0
141
12.0
290
     0
  0
SCALE
  5
67
102
{ACAD_REACTORS
330
47
102
}
330
47
100
AcDbScale
 70
     0
300
6" = 1'-0"
140
6.0
141
12.0
290
     0
  0
SCALE
  5
68
102
{ACAD_REACTORS
330
47
102
}
330
47
100
AcDbScale
 70
     0
300
1'-0" = 1'-0"
140
12.0
141
12.0
290
     0
  0
ENDSEC
  0
EOF
