  0
SECTION
  2
HEADER
  9
$ACADVER
  1
AC1015
  9
$ACADMAINTVER
 70
     6
  9
$DWGCODEPAGE
  3
ANSI_1250
  9
$INSBASE
 10
0.0
 20
0.0
 30
0.0
  9
$EXTMIN
 10
0.0
 20
0.0
 30
0.0
  9
$EXTMAX
 10
20000.0
 20
10000.0
 30
0.0
  9
$LIMMIN
 10
0.0
 20
0.0
  9
$LIMMAX
 10
20000.0
 20
10000.0
  9
$ORTHOMODE
 70
     0
  9
$REGENMODE
 70
     1
  9
$FILLMODE
 70
     1
  9
$QTEXTMODE
 70
     0
  9
$MIRRTEXT
 70
     1
  9
$LTSCALE
 40
1.0
  9
$ATTMODE
 70
     1
  9
$TEXTSIZE
 40
2.0
  9
$TRACEWID
 40
1.0
  9
$TEXTSTYLE
  7
Standard
  9
$CLAYER
  8
0
  9
$CELTYPE
  6
ByLayer
  9
$CECOLOR
 62
   256
  9
$CELTSCALE
 40
1.0
  9
$DISPSILH
 70
     0
  9
$DIMSCALE
 40
1.0
  9
$DIMASZ
 40
2.0
  9
$DIMEXO
 40
1.0
  9
$DIMDLI
 40
3.75
  9
$DIMRND
 40
0.0
  9
$DIMDLE
 40
0.0
  9
$DIMEXE
 40
1.0
  9
$DIMTP
 40
0.0
  9
$DIMTM
 40
0.0
  9
$DIMTXT
 40
2.0
  9
$DIMCEN
 40
2.5
  9
$DIMTSZ
 40
0.0
  9
$DIMTOL
 70
     0
  9
$DIMLIM
 70
     0
  9
$DIMTIH
 70
     1
  9
$DIMTOH
 70
     1
  9
$DIMSE1
 70
     0
  9
$DIMSE2
 70
     0
  9
$DIMTAD
 70
     1
  9
$DIMZIN
 70
     0
  9
$DIMBLK
  1

  9
$DIMASO
 70
     1
  9
$DIMSHO
 70
     1
  9
$DIMPOST
  1

  9
$DIMAPOST
  1

  9
$DIMALT
 70
     0
  9
$DIMALTD
 70
     3
  9
$DIMALTF
 40
0.0393700787
  9
$DIMLFAC
 40
1.0
  9
$DIMTOFL
 70
     1
  9
$DIMTVP
 40
0.0
  9
$DIMTIX
 70
     0
  9
$DIMSOXD
 70
     0
  9
$DIMSAH
 70
     0
  9
$DIMBLK1
  1

  9
$DIMBLK2
  1

  9
$DIMSTYLE
  2
ISO-25
  9
$DIMCLRD
 70
     0
  9
$DIMCLRE
 70
     0
  9
$DIMCLRT
 70
     0
  9
$DIMTFAC
 40
1.0
  9
$DIMGAP
 40
1.524
  9
$DIMJUST
 70
     0
  9
$DIMSD1
 70
     0
  9
$DIMSD2
 70
     0
  9
$DIMTOLJ
 70
     0
  9
$DIMTZIN
 70
     0
  9
$DIMALTZ
 70
     0
  9
$DIMALTTZ
 70
     0
  9
$DIMUPT
 70
     0
  9
$DIMDEC
 70
     2
  9
$DIMTDEC
 70
     0
  9
$DIMALTU
 70
     2
  9
$DIMALTTD
 70
     3
  9
$DIMTXSTY
  7
Standard
  9
$DIMAUNIT
 70
     0
  9
$DIMADEC
 70
     2
  9
$DIMALTRND
 40
0.0
  9
$DIMAZIN
 70
     0
  9
$DIMDSEP
 70
    44
  9
$DIMATFIT
 70
     3
  9
$DIMFRAC
 70
     0
  9
$DIMLDRBLK
  1

  9
$DIMLUNIT
 70
     2
  9
$DIMLWD
 70
    -2
  9
$DIMLWE
 70
    -2
  9
$DIMTMOVE
 70
     0
  9
$LUNITS
 70
     2
  9
$LUPREC
 70
     3
  9
$SKETCHINC
 40
1.0
  9
$FILLETRAD
 40
10.0
  9
$AUNITS
 70
     0
  9
$AUPREC
 70
     2
  9
$MENU
  1
.
  9
$ELEVATION
 40
0.0
  9
$PELEVATION
 40
0.0
  9
$THICKNESS
 40
0.0
  9
$LIMCHECK
 70
     0
  9
$CHAMFERA
 40
0.0
  9
$CHAMFERB
 40
0.0
  9
$CHAMFERC
 40
0.0
  9
$CHAMFERD
 40
0.0
  9
$SKPOLY
 70
     0
  9
$TDCREATE
 40
2459593.590127558
  9
$TDUCREATE
 40
2459593.548460891
  9
$TDUPDATE
 40
2459593.590127836
  9
$TDUUPDATE
 40
2459593.548461169
  9
$TDINDWG
 40
0.0000000116
  9
$TDUSRTIMER
 40
0.0000000116
  9
$USRTIMER
 70
     1
  9
$ANGBASE
 50
0.0
  9
$ANGDIR
 70
     0
  9
$PDMODE
 70
     0
  9
$PDSIZE
 40
-1.0
  9
$PLINEWID
 40
0.0
  9
$SPLFRAME
 70
     0
  9
$SPLINETYPE
 70
     6
  9
$SPLINESEGS
 70
     8
  9
$HANDSEED
  5
14D
  9
$SURFTAB1
 70
     6
  9
$SURFTAB2
 70
     6
  9
$SURFTYPE
 70
     6
  9
$SURFU
 70
     6
  9
$SURFV
 70
     6
  9
$UCSBASE
  2

  9
$UCSNAME
  2

  9
$UCSORG
 10
0.0
 20
0.0
 30
0.0
  9
$UCSXDIR
 10
1.0
 20
0.0
 30
0.0
  9
$UCSYDIR
 10
0.0
 20
1.0
 30
0.0
  9
$UCSORTHOREF
  2

  9
$UCSORTHOVIEW
 70
     0
  9
$UCSORGTOP
 10
0.0
 20
0.0
 30
0.0
  9
$UCSORGBOTTOM
 10
0.0
 20
0.0
 30
0.0
  9
$UCSORGLEFT
 10
0.0
 20
0.0
 30
0.0
  9
$UCSORGRIGHT
 10
0.0
 20
0.0
 30
0.0
  9
$UCSORGFRONT
 10
0.0
 20
0.0
 30
0.0
  9
$UCSORGBACK
 10
0.0
 20
0.0
 30
0.0
  9
$PUCSBASE
  2

  9
$PUCSNAME
  2

  9
$PUCSORG
 10
0.0
 20
0.0
 30
0.0
  9
$PUCSXDIR
 10
1.0
 20
0.0
 30
0.0
  9
$PUCSYDIR
 10
0.0
 20
1.0
 30
0.0
  9
$PUCSORTHOREF
  2

  9
$PUCSORTHOVIEW
 70
     0
  9
$PUCSORGTOP
 10
0.0
 20
0.0
 30
0.0
  9
$PUCSORGBOTTOM
 10
0.0
 20
0.0
 30
0.0
  9
$PUCSORGLEFT
 10
0.0
 20
0.0
 30
0.0
  9
$PUCSORGRIGHT
 10
0.0
 20
0.0
 30
0.0
  9
$PUCSORGFRONT
 10
0.0
 20
0.0
 30
0.0
  9
$PUCSORGBACK
 10
0.0
 20
0.0
 30
0.0
  9
$USERI1
 70
     0
  9
$USERI2
 70
     0
  9
$USERI3
 70
     0
  9
$USERI4
 70
     0
  9
$USERI5
 70
     0
  9
$USERR1
 40
0.0
  9
$USERR2
 40
0.0
  9
$USERR3
 40
0.0
  9
$USERR4
 40
0.0
  9
$USERR5
 40
0.0
  9
$WORLDVIEW
 70
     1
  9
$SHADEDGE
 70
     3
  9
$SHADEDIF
 70
    70
  9
$TILEMODE
 70
     1
  9
$MAXACTVP
 70
    64
  9
$PINSBASE
 10
0.0
 20
0.0
 30
0.0
  9
$PLIMCHECK
 70
     0
  9
$PEXTMIN
 10
1.0000000000E+20
 20
1.0000000000E+20
 30
1.0000000000E+20
  9
$PEXTMAX
 10
-1.0000000000E+20
 20
-1.0000000000E+20
 30
-1.0000000000E+20
  9
$PLIMMIN
 10
0.0
 20
0.0
  9
$PLIMMAX
 10
420.0
 20
297.0
  9
$UNITMODE
 70
     0
  9
$VISRETAIN
 70
     1
  9
$PLINEGEN
 70
     0
  9
$PSLTSCALE
 70
     1
  9
$TREEDEPTH
 70
  3020
  9
$CMLSTYLE
  2
Standard
  9
$CMLJUST
 70
     0
  9
$CMLSCALE
 40
20.0
  9
$PROXYGRAPHICS
 70
     1
  9
$MEASUREMENT
 70
     1
  9
$CELWEIGHT
370
    -1
  9
$ENDCAPS
280
     0
  9
$JOINSTYLE
280
     0
  9
$LWDISPLAY
290
     1
  9
$INSUNITS
 70
     4
  9
$HYPERLINKBASE
  1

  9
$STYLESHEET
  1

  9
$XEDIT
290
     1
  9
$CEPSNTYPE
380
     0
  9
$PSTYLEMODE
290
     1
  9
$FINGERPRINTGUID
  2
{4fb8bfa2-2a6d-424f-8eaf-5fb2fb80da00}
  9
$VERSIONGUID
  2
{FAEB1C32-E019-11D5-929B-00C0DF256EC4}
  9
$EXTNAMES
290
     1
  9
$PSVPSCALE
 40
0.0
  9
$OLESTARTUP
290
     0
  0
ENDSEC
  0
SECTION
  2
CLASSES
  0
CLASS
  1
ACDBDICTIONARYWDFLT
  2
AcDbDictionaryWithDefault
  3
ObjectDBX Classes
 90
        0
280
     0
281
     0
  0
CLASS
  1
VISUALSTYLE
  2
AcDbVisualStyle
  3
ObjectDBX Classes
 90
     4095
280
     0
281
     0
  0
CLASS
  1
MATERIAL
  2
AcDbMaterial
  3
ObjectDBX Classes
 90
     1153
280
     0
281
     0
  0
CLASS
  1
SCALE
  2
AcDbScale
  3
ObjectDBX Classes
 90
     1153
280
     0
281
     0
  0
CLASS
  1
TABLESTYLE
  2
AcDbTableStyle
  3
ObjectDBX Classes
 90
     4095
280
     0
281
     0
  0
CLASS
  1
MLEADERSTYLE
  2
AcDbMLeaderStyle
  3
ACDB_MLEADERSTYLE_CLASS
 90
     4095
280
     0
281
     0
  0
CLASS
  1
SUN
  2
AcDbSun
  3
SCENEOE
 90
     1153
280
     0
281
     0
  0
CLASS
  1
ACDBPLACEHOLDER
  2
AcDbPlaceHolder
  3
ObjectDBX Classes
 90
        0
280
     0
281
     0
  0
CLASS
  1
LAYOUT
  2
AcDbLayout
  3
ObjectDBX Classes
 90
        0
280
     0
281
     0
  0
ENDSEC
  0
SECTION
  2
TABLES
  0
TABLE
  2
VPORT
  5
8
330
0
100
AcDbSymbolTable
 70
     1
  0
VPORT
  5
29
330
8
100
AcDbSymbolTableRecord
100
AcDbViewportTableRecord
  2
*Active
 70
     0
 10
0.0
 20
0.0
 11
1.0
 21
1.0
 12
10000.0
 22
5000.0
 13
0.0
 23
0.0
 14
10.0
 24
10.0
 15
10.0
 25
10.0
 16
0.0
 26
0.0
 36
1.0
 17
0.0
 27
0.0
 37
0.0
 40
10000.0
 41
2.0
 42
50.0
 43
0.0
 44
0.0
 50
0.0
 51
0.0
 71
     0
 72
  2000
 73
     1
 74
     3
 75
     0
 76
     0
 77
     0
 78
     0
281
     0
 65
     1
110
0.0
120
0.0
130
0.0
111
1.0
121
0.0
131
0.0
112
0.0
122
1.0
132
0.0
 79
     0
146
0.0
  0
ENDTAB
  0
TABLE
  2
LTYPE
  5
5
330
0
100
AcDbSymbolTable
 70
     6
  0
LTYPE
  5
14
330
5
100
AcDbSymbolTableRecord
100
AcDbLinetypeTableRecord
  2
ByBlock
 70
     0
  3

 72
    65
 73
     0
 40
0.0
  0
LTYPE
  5
15
330
5
100
AcDbSymbolTableRecord
100
AcDbLinetypeTableRecord
  2
ByLayer
 70
     0
  3

 72
    65
 73
     0
 40
0.0
  0
LTYPE
  5
16
330
5
100
AcDbSymbolTableRecord
100
AcDbLinetypeTableRecord
  2
Continuous
 70
     0
  3
Solid line
 72
    65
 73
     0
 40
0.0
  0
LTYPE
  5
6E
330
5
100
AcDbSymbolTableRecord
100
AcDbLinetypeTableRecord
  2
HIDDEN
 70
     0
  3
Hidden __ __ __ __ __ __ __ __ __ __ __ __ __ __
 72
    65
 73
     2
 40
1.905
 49
1.27
 74
     0
 49
-0.635
 74
     0
  0
LTYPE
  5
6F
330
5
100
AcDbSymbolTableRecord
100
AcDbLinetypeTableRecord
  2
PHANTOM
 70
     0
  3
Phantom ______  __  __  ______  __  __  ______
 72
    65
 73
     6
 40
12.7
 49
6.35
 74
     0
 49
-1.27
 74
     0
 49
1.27
 74
     0
 49
-1.27
 74
     0
 49
1.27
 74
     0
 49
-1.27
 74
     0
  0
LTYPE
  5
70
330
5
100
AcDbSymbolTableRecord
100
AcDbLinetypeTableRecord
  2
CENTER
 70
     0
  3
Center ____ _ ____ _ ____ _ ____ _ ____ _ ____
 72
    65
 73
     4
 40
10.16
 49
6.35
 74
     0
 49
-1.27
 74
     0
 49
1.27
 74
     0
 49
-1.27
 74
     0
  0
LTYPE
  5
71
330
5
100
AcDbSymbolTableRecord
100
AcDbLinetypeTableRecord
  2
CENTERX2
 70
     0
  3
Center (2x) ________  __  ________  __  _____
 72
    65
 73
     4
 40
20.32
 49
12.7
 74
     0
 49
-2.54
 74
     0
 49
2.54
 74
     0
 49
-2.54
 74
     0
  0
LTYPE
  5
72
330
5
100
AcDbSymbolTableRecord
100
AcDbLinetypeTableRecord
  2
DOT2
 70
     0
  3
Dot (.5x) ........................................
 72
    65
 73
     2
 40
0.635
 49
0.0
 74
     0
 49
-0.635
 74
     0
  0
ENDTAB
  0
TABLE
  2
LAYER
  5
2
330
0
100
AcDbSymbolTable
 70
    13
  0
LAYER
  5
10
330
2
100
AcDbSymbolTableRecord
100
AcDbLayerTableRecord
  2
0
 70
     0
 62
     7
  6
Continuous
370
    -3
390
F
  0
LAYER
  5
73
330
2
100
AcDbSymbolTableRecord
100
AcDbLayerTableRecord
  2
FORMAT
 70
     0
 62
     7
  6
Continuous
370
    -3
390
F
  0
LAYER
  5
74
330
2
100
AcDbSymbolTableRecord
100
AcDbLayerTableRecord
  2
OSA
 70
     0
 62
     7
  6
CENTER
370
    -3
390
F
  0
LAYER
  5
75
330
2
100
AcDbSymbolTableRecord
100
AcDbLayerTableRecord
  2
0_35
 70
     0
 62
     7
  6
Continuous
370
    35
390
F
  0
LAYER
  5
76
330
2
100
AcDbSymbolTableRecord
100
AcDbLayerTableRecord
  2
0_5
 70
     0
 62
     7
  6
Continuous
370
    50
390
F
  0
LAYER
  5
77
330
2
100
AcDbSymbolTableRecord
100
AcDbLayerTableRecord
  2
0_25
 70
     0
 62
     7
  6
Continuous
370
    25
390
F
  0
LAYER
  5
78
330
2
100
AcDbSymbolTableRecord
100
AcDbLayerTableRecord
  2
0_18
 70
     0
 62
     7
  6
Continuous
370
    -3
390
F
  0
LAYER
  5
79
330
2
100
AcDbSymbolTableRecord
100
AcDbLayerTableRecord
  2
SLD-0
 70
     0
 62
   179
  6
Continuous
370
    -3
390
F
  0
LAYER
  5
7A
330
2
100
AcDbSymbolTableRecord
100
AcDbLayerTableRecord
  2
KOTY
 70
     0
 62
     7
  6
Continuous
370
    -3
390
F
  0
LAYER
  5
7B
330
2
100
AcDbSymbolTableRecord
100
AcDbLayerTableRecord
  2
SILNA
 70
     0
 62
   179
  6
Continuous
370
    -3
390
F
  0
LAYER
  5
7C
330
2
100
AcDbSymbolTableRecord
100
AcDbLayerTableRecord
  2
0_18_1
 70
     0
 62
   179
  6
Continuous
370
    -3
390
F
  0
LAYER
  5
7D
330
2
100
AcDbSymbolTableRecord
100
AcDbLayerTableRecord
  2
0_35_1
 70
     0
 62
   179
  6
Continuous
370
    35
390
F
  0
LAYER
  5
7E
330
2
100
AcDbSymbolTableRecord
100
AcDbLayerTableRecord
  2
0_5_1
 70
     0
 62
   179
  6
Continuous
370
    50
390
F
  0
ENDTAB
  0
TABLE
  2
STYLE
  5
3
330
0
100
AcDbSymbolTable
 70
     1
  0
STYLE
  5
11
330
3
100
AcDbSymbolTableRecord
100
AcDbTextStyleTableRecord
  2
Standard
 70
     0
 40
0.0
 41
1.0
 50
0.0
 71
     0
 42
2.0
  3
txt
  4

  0
ENDTAB
  0
TABLE
  2
VIEW
  5
6
330
0
100
AcDbSymbolTable
 70
     0
  0
ENDTAB
  0
TABLE
  2
UCS
  5
7
330
0
100
AcDbSymbolTable
 70
     0
  0
ENDTAB
  0
TABLE
  2
APPID
  5
9
330
0
100
AcDbSymbolTable
 70
     1
  0
APPID
  5
12
330
9
100
AcDbSymbolTableRecord
100
AcDbRegAppTableRecord
  2
ACAD
 70
     0
  0
ENDTAB
  0
TABLE
  2
DIMSTYLE
  5
A
330
0
100
AcDbSymbolTable
 70
     1
100
AcDbDimStyleTable
  0
DIMSTYLE
105
27
330
A
100
AcDbSymbolTableRecord
100
AcDbDimStyleTableRecord
  2
ISO-25
 70
     0
 41
2.5
 42
0.625
 43
3.75
 44
1.25
 73
     0
 74
     0
 77
     1
 78
     8
140
2.5
141
2.5
143
0.0393700787
147
0.625
171
     3
172
     1
178
     0
271
     2
272
     2
274
     3
278
    44
283
     0
284
     8
340
11
  0
ENDTAB
  0
TABLE
  2
BLOCK_RECORD
  5
1
330
0
100
AcDbSymbolTable
 70
     1
  0
BLOCK_RECORD
  5
1F
330
1
100
AcDbSymbolTableRecord
100
AcDbBlockTableRecord
  2
*Model_Space
340
22
  0
BLOCK_RECORD
  5
1B
330
1
100
AcDbSymbolTableRecord
100
AcDbBlockTableRecord
  2
*Paper_Space
340
1E
  0
BLOCK_RECORD
  5
23
330
1
100
AcDbSymbolTableRecord
100
AcDbBlockTableRecord
  2
*Paper_Space0
340
26
  0
ENDTAB
  0
ENDSEC
  0
SECTION
  2
BLOCKS
  0
BLOCK
  5
20
330
1F
100
AcDbEntity
  8
0
100
AcDbBlockBegin
  2
*Model_Space
 70
     0
 10
0.0
 20
0.0
 30
0.0
  3
*Model_Space
  1

  0
ENDBLK
  5
21
330
1F
100
AcDbEntity
  8
0
100
AcDbBlockEnd
  0
BLOCK
  5
1C
330
1B
100
AcDbEntity
 67
     1
  8
0
100
AcDbBlockBegin
  2
*Paper_Space
 70
     0
 10
0.0
 20
0.0
 30
0.0
  3
*Paper_Space
  1

  0
ENDBLK
  5
1D
330
1B
100
AcDbEntity
 67
     1
  8
0
100
AcDbBlockEnd
  0
BLOCK
  5
24
330
23
100
AcDbEntity
  8
0
100
AcDbBlockBegin
  2
*Paper_Space0
 70
     0
 10
0.0
 20
0.0
 30
0.0
  3
*Paper_Space0
  1

  0
ENDBLK
  5
25
330
23
100
AcDbEntity
  8
0
100
AcDbBlockEnd
  0
ENDSEC
  0
SECTION
  2
ENTITIES
  0
LINE
  5
7F
330
1F
100
AcDbEntity
  8
0
  6
Continuous
 62
     7
370
    25
100
AcDbLine
 10
6276.3187553361
 20
5164.5994545927
 30
0.0
 11
6276.3187553361
 21
5164.6994545927
 31
0.0
  0
LINE
  5
80
330
1F
100
AcDbEntity
  8
0
  6
Continuous
 62
     7
370
    25
100
AcDbLine
 10
6257.7187553361
 20
5164.6994545927
 30
0.0
 11
6257.7187553361
 21
5164.5994545927
 31
0.0
  0
LINE
  5
81
330
1F
100
AcDbEntity
  8
0
  6
Continuous
 62
     7
370
    25
100
AcDbLine
 10
6281.5187553361
 20
5162.7994545927
 30
0.0
 11
6281.5187553361
 21
5164.0994545927
 31
0.0
  0
LINE
  5
82
330
1F
100
AcDbEntity
  8
0
  6
Continuous
 62
     7
370
    25
100
AcDbLine
 10
6281.5187553361
 20
5144.1994545927
 30
0.0
 11
6281.5187553361
 21
5147.1994545927
 31
0.0
  0
LINE
  5
83
330
1F
100
AcDbEntity
  8
0
  6
Continuous
 62
     7
370
    25
100
AcDbLine
 10
6252.5187553361
 20
5147.1994545927
 30
0.0
 11
6252.5187553361
 21
5144.1994545927
 31
0.0
  0
LINE
  5
84
330
1F
100
AcDbEntity
  8
0
  6
Continuous
 62
     7
370
    25
100
AcDbLine
 10
6252.5187553361
 20
5164.0994545927
 30
0.0
 11
6252.5187553361
 21
5162.7994545927
 31
0.0
  0
ARC
  5
85
330
1F
100
AcDbEntity
  8
0
  6
Continuous
 62
     7
370
    25
100
AcDbCircle
 10
6281.0187553361
 20
5164.0994545927
 30
0.0
 40
0.5
100
AcDbArc
 50
0.0
 51
90.0
  0
ARC
  5
86
330
1F
100
AcDbEntity
  8
0
  6
Continuous
 62
     7
370
    25
100
AcDbCircle
 10
6253.0187553361
 20
5164.0994545927
 30
0.0
 40
0.5
100
AcDbArc
 50
90.0
 51
180.0
  0
LINE
  5
87
330
1F
100
AcDbEntity
  8
0
  6
Continuous
 62
     7
370
    25
100
AcDbLine
 10
6277.0187553361
 20
5259.6994545927
 30
0.0
 11
6277.0187553361
 21
5275.5528995887
 31
0.0
  0
LINE
  5
88
330
1F
100
AcDbEntity
  8
0
  6
Continuous
 62
     7
370
    25
100
AcDbLine
 10
6257.0187553361
 20
5275.5528995887
 30
0.0
 11
6257.0187553361
 21
5259.6994545927
 31
0.0
  0
LINE
  5
89
330
1F
100
AcDbEntity
  8
0
  6
Continuous
 62
     7
370
    25
100
AcDbLine
 10
6277.0187553361
 20
5275.5528995887
 30
0.0
 11
6277.0187553361
 21
5291.4063445848
 31
0.0
  0
LINE
  5
8A
330
1F
100
AcDbEntity
  8
0
  6
Continuous
 62
     7
370
    25
100
AcDbLine
 10
6257.0187553361
 20
5291.4063445848
 30
0.0
 11
6257.0187553361
 21
5275.5528995887
 31
0.0
  0
ARC
  5
8B
330
1F
100
AcDbEntity
  8
0
  6
Continuous
 62
     7
370
    25
100
AcDbCircle
 10
6267.0187553361
 20
5354.6994545927
 30
0.0
 40
10.0
100
AcDbArc
 50
0.0
 51
180.0
  0
LINE
  5
8C
330
1F
100
AcDbEntity
  8
0
  6
Continuous
 62
     7
370
    25
100
AcDbLine
 10
6257.0187553361
 20
5354.6994545927
 30
0.0
 11
6257.0187553361
 21
5291.4063445848
 31
0.0
  0
LINE
  5
8D
330
1F
100
AcDbEntity
  8
0
  6
Continuous
 62
     7
370
    25
100
AcDbLine
 10
6277.0187553361
 20
5291.4063445848
 30
0.0
 11
6277.0187553361
 21
5354.6994545927
 31
0.0
  0
LINE
  5
8E
330
1F
100
AcDbEntity
  8
0
  6
Continuous
 62
     7
370
    25
100
AcDbLine
 10
6257.0187553361
 20
5259.6994545927
 30
0.0
 11
6257.0187553361
 21
5164.6994545927
 31
0.0
  0
LINE
  5
8F
330
1F
100
AcDbEntity
  8
0
  6
Continuous
 62
     7
370
    25
100
AcDbLine
 10
6277.0187553361
 20
5164.6994545927
 30
0.0
 11
6277.0187553361
 21
5259.6994545927
 31
0.0
  0
LINE
  5
90
330
1F
100
AcDbEntity
  8
0
  6
Continuous
 62
     7
370
    25
100
AcDbLine
 10
6274.5187553361
 20
5259.6994545927
 30
0.0
 11
6274.5187553361
 21
5260.0753866824
 31
0.0
  0
LINE
  5
91
330
1F
100
AcDbEntity
  8
0
  6
Continuous
 62
     7
370
    25
100
AcDbLine
 10
6259.5187553361
 20
5260.0753866824
 30
0.0
 11
6259.5187553361
 21
5259.6994545927
 31
0.0
  0
ARC
  5
92
330
1F
100
AcDbEntity
  8
0
  6
Continuous
 62
     7
370
    25
100
AcDbCircle
 10
6303.0187553361
 20
5082.0494545927
 30
0.0
 40
1.0
100
AcDbArc
 50
270.0
 51
0.0
  0
LINE
  5
93
330
1F
100
AcDbEntity
  8
0
  6
Continuous
 62
     7
370
    25
100
AcDbLine
 10
6292.0065769017
 20
5081.0494545927
 30
0.0
 11
6303.0187553361
 21
5081.0494545927
 31
0.0
  0
ARC
  5
94
330
1F
100
AcDbEntity
  8
0
  6
Continuous
 62
     7
370
    25
100
AcDbCircle
 10
6292.0187553361
 20
5095.3494545927
 30
0.0
 40
2.000000000000909
100
AcDbArc
 50
270.0
 51
0.0
  0
ARC
  5
95
330
1F
100
AcDbEntity
  8
0
  6
Continuous
 62
     7
370
    25
100
AcDbCircle
 10
6295.0230634697
 20
5109.432738408
 30
0.0
 40
1.004310207856637
100
AcDbArc
 50
90.245779269
 51
180.116449326
  0
ARC
  5
96
330
1F
100
AcDbEntity
  8
0
  6
Continuous
 62
     7
370
    25
100
AcDbCircle
 10
6303.0187553361
 20
5109.4371022422
 30
0.0
 40
1.0
100
AcDbArc
 50
0.0
 51
90.0
  0
LINE
  5
97
330
1F
100
AcDbEntity
  8
0
  6
Continuous
 62
     7
370
    25
100
AcDbLine
 10
6303.0187553361
 20
5110.4371022422
 30
0.0
 11
6295.0187553361
 21
5110.4371022422
 31
0.0
  0
LINE
  5
98
330
1F
100
AcDbEntity
  8
0
  6
Continuous
 62
     7
370
    25
100
AcDbLine
 10
6304.5884694504
 20
5091.7994545927
 30
0.0
 11
6304.0187553361
 21
5091.7994545927
 31
0.0
  0
LINE
  5
99
330
1F
100
AcDbEntity
  8
0
  6
Continuous
 62
     7
370
    25
100
AcDbLine
 10
6304.0187553361
 20
5082.5994545927
 30
0.0
 11
6304.5884694504
 21
5082.5994545927
 31
0.0
  0
ARC
  5
9A
330
1F
100
AcDbEntity
  8
0
  6
Continuous
 62
     7
370
    25
100
AcDbCircle
 10
6304.5884694504
 20
5091.2994545927
 30
0.0
 40
0.5000000000008824
100
AcDbArc
 50
25.567805911
 51
90.0
  0
ARC
  5
9B
330
1F
100
AcDbEntity
  8
0
  6
Continuous
 62
     7
370
    25
100
AcDbCircle
 10
6304.5884694504
 20
5083.0994545927
 30
0.0
 40
0.5000000000009095
100
AcDbArc
 50
270.0
 51
334.432194089
  0
ARC
  5
9C
330
1F
100
AcDbEntity
  8
0
  6
Continuous
 62
     7
370
    25
100
AcDbCircle
 10
6296.0187553361
 20
5087.1994545927
 30
0.0
 40
10.0000000000006
100
AcDbArc
 50
334.432194089
 51
25.567805911
  0
LINE
  5
9D
330
1F
100
AcDbEntity
  8
0
  6
Continuous
 62
     7
370
    25
100
AcDbLine
 10
6292.0187553361
 20
5093.3494545927
 30
0.0
 11
6292.0187553361
 21
5140.7021584546
 31
0.0
  0
LINE
  5
9E
330
1F
100
AcDbEntity
  8
0
  6
Continuous
 62
     7
370
    25
100
AcDbLine
 10
6292.0187553361
 20
5062.6994545927
 30
0.0
 11
6292.0187553361
 21
5080.9994545927
 31
0.0
  0
LINE
  5
9F
330
1F
100
AcDbEntity
  8
0
  6
Continuous
 62
     7
370
    25
100
AcDbLine
 10
6242.0187553361
 20
5140.7021584546
 30
0.0
 11
6242.0187553361
 21
5062.6994545927
 31
0.0
  0
ARC
  5
A0
330
1F
100
AcDbEntity
  8
0
  6
Continuous
 62
     7
370
    25
100
AcDbCircle
 10
6290.0187553361
 20
5140.7021584546
 30
0.0
 40
2.000000000000107
100
AcDbArc
 50
0.0
 51
83.0
  0
ARC
  5
A1
330
1F
100
AcDbEntity
  8
0
  6
Continuous
 62
     7
370
    25
100
AcDbCircle
 10
6244.0187553361
 20
5140.7021584546
 30
0.0
 40
2.0
100
AcDbArc
 50
97.0
 51
180.0
  0
LINE
  5
A2
330
1F
100
AcDbEntity
  8
0
  6
Continuous
 62
     7
370
    25
100
AcDbLine
 10
6290.2624940229
 20
5142.6872507579
 30
0.0
 11
6282.0187553361
 21
5143.6994545927
 31
0.0
  0
LINE
  5
A3
330
1F
100
AcDbEntity
  8
0
  6
Continuous
 62
     7
370
    25
100
AcDbLine
 10
6252.0187553361
 20
5143.6994545927
 30
0.0
 11
6243.7750166493
 21
5142.6872507579
 31
0.0
  0
LINE
  5
A4
330
1F
100
AcDbEntity
  8
0
  6
Continuous
 62
     7
370
    25
100
AcDbLine
 10
6279.2687553361
 20
5143.6994545927
 30
0.0
 11
6279.2687553361
 21
5144.1994545927
 31
0.0
  0
LINE
  5
A5
330
1F
100
AcDbEntity
  8
0
  6
Continuous
 62
     7
370
    25
100
AcDbLine
 10
6254.7687553361
 20
5144.1994545927
 30
0.0
 11
6254.7687553361
 21
5143.6994545927
 31
0.0
  0
LINE
  5
A6
330
1F
100
AcDbEntity
  8
0
  6
Continuous
 62
     7
370
    25
100
AcDbLine
 10
6281.5187553361
 20
5144.1994545927
 30
0.0
 11
6252.5187553361
 21
5144.1994545927
 31
0.0
  0
LINE
  5
A7
330
1F
100
AcDbEntity
  8
0
  6
Continuous
 62
     7
370
    25
100
AcDbLine
 10
6280.9687553361
 20
5162.7994545927
 30
0.0
 11
6281.5187553361
 21
5162.7994545927
 31
0.0
  0
LINE
  5
A8
330
1F
100
AcDbEntity
  8
0
  6
Continuous
 62
     7
370
    25
100
AcDbLine
 10
6280.9687553361
 20
5147.1994545927
 30
0.0
 11
6280.9687553361
 21
5162.7994545927
 31
0.0
  0
LINE
  5
A9
330
1F
100
AcDbEntity
  8
0
  6
Continuous
 62
     7
370
    25
100
AcDbLine
 10
6281.5187553361
 20
5147.1994545927
 30
0.0
 11
6280.9687553361
 21
5147.1994545927
 31
0.0
  0
LINE
  5
AA
330
1F
100
AcDbEntity
  8
0
  6
Continuous
 62
     7
370
    25
100
AcDbLine
 10
6253.0687553361
 20
5147.1994545927
 30
0.0
 11
6252.5187553361
 21
5147.1994545927
 31
0.0
  0
LINE
  5
AB
330
1F
100
AcDbEntity
  8
0
  6
Continuous
 62
     7
370
    25
100
AcDbLine
 10
6253.0687553361
 20
5162.7994545927
 30
0.0
 11
6253.0687553361
 21
5147.1994545927
 31
0.0
  0
LINE
  5
AC
330
1F
100
AcDbEntity
  8
0
  6
Continuous
 62
     7
370
    25
100
AcDbLine
 10
6252.5187553361
 20
5162.7994545927
 30
0.0
 11
6253.0687553361
 21
5162.7994545927
 31
0.0
  0
LINE
  5
AD
330
1F
100
AcDbEntity
  8
0
  6
Continuous
 62
     7
370
    25
100
AcDbLine
 10
6281.0187553361
 20
5164.5994545927
 30
0.0
 11
6253.0187553361
 21
5164.5994545927
 31
0.0
  0
LWPOLYLINE
  5
AE
330
1F
100
AcDbEntity
  8
0
  6
Continuous
 62
     7
370
    25
100
AcDbPolyline
 90
       41
 70
   128
 43
0.0
 10
6267.0187553361
 20
5258.3490666626
 10
6268.5830999865
 20
5258.3656921789
 10
6270.1089252798
 20
5258.4151593523
 10
6271.5586603335
 20
5258.4962501368
 10
6272.896607859
 20
5258.6069678083
 10
6274.089823148
 20
5258.7445861301
 10
6275.1089252798
 20
5258.9057164825
 10
6275.928820578
 20
5259.0863913015
 10
6276.5293204991
 20
5259.2821617733
 10
6276.8956387421
 20
5259.4882073793
 10
6277.0187553361
 20
5259.6994545927
 10
6276.8956387421
 20
5259.9107018062
 10
6276.5293204991
 20
5260.1167474121
 10
6275.928820578
 20
5260.312517884
 10
6275.1089252798
 20
5260.4931927029
 10
6274.089823148
 20
5260.6543230553
 10
6272.896607859
 20
5260.7919413772
 10
6271.5586603335
 20
5260.9026590486
 10
6270.1089252798
 20
5260.9837498332
 10
6268.5830999865
 20
5261.0332170066
 10
6267.0187553361
 20
5261.0498425228
 10
6265.4544106857
 20
5261.0332170066
 10
6263.9285853924
 20
5260.9837498332
 10
6262.4788503387
 20
5260.9026590486
 10
6261.1409028132
 20
5260.7919413772
 10
6259.9476875242
 20
5260.6543230553
 10
6258.9285853924
 20
5260.4931927029
 10
6258.1086900942
 20
5260.312517884
 10
6257.5081901731
 20
5260.1167474121
 10
6257.1418719301
 20
5259.9107018062
 10
6257.0187553361
 20
5259.6994545927
 10
6257.1418719301
 20
5259.4882073793
 10
6257.5081901731
 20
5259.2821617733
 10
6258.1086900942
 20
5259.0863913015
 10
6258.9285853924
 20
5258.9057164825
 10
6259.9476875242
 20
5258.7445861301
 10
6261.1409028132
 20
5258.6069678083
 10
6262.4788503387
 20
5258.4962501368
 10
6263.9285853924
 20
5258.4151593523
 10
6265.4544106857
 20
5258.3656921789
 10
6267.0187553361
 20
5258.3490666626
  0
LWPOLYLINE
  5
AF
330
1F
100
AcDbEntity
  8
0
  6
Continuous
 62
     7
370
    25
100
AcDbPolyline
 90
       36
 70
   128
 43
0.0
 10
6267.0187553361
 20
5258.6191442486
 10
6268.4472104945
 20
5258.6365052803
 10
6269.8297539288
 20
5258.6880303775
 10
6271.1219495553
 20
5258.7720634811
 10
6272.2822651436
 20
5258.8859036982
 10
6273.2734071958
 20
5259.0258921103
 10
6274.063519591
 20
5259.1875293749
 10
6274.6272074665
 20
5259.3656203372
 10
6274.9463534302
 20
5259.5544410071
 10
6275.0106998684
 20
5259.747922533
 10
6274.8181786336
 20
5259.9398462594
 10
6274.3749775165
 20
5260.1240435999
 10
6273.6953413659
 20
5260.2945943003
 10
6272.8011142467
 20
5260.4460167208
 10
6271.7210373544
 20
5260.5734440203
 10
6270.489825249
 20
5260.6727805804
 10
6269.1470501006
 20
5260.7408336425
 10
6267.7358698073
 20
5260.775415925
 10
6266.3016408649
 20
5260.775415925
 10
6264.8904605716
 20
5260.7408336425
 10
6263.5476854232
 20
5260.6727805804
 10
6262.3164733178
 20
5260.5734440203
 10
6261.2363964255
 20
5260.4460167208
 10
6260.3421693063
 20
5260.2945943003
 10
6259.6625331557
 20
5260.1240435999
 10
6259.2193320386
 20
5259.9398462594
 10
6259.0268108038
 20
5259.747922533
 10
6259.091157242
 20
5259.5544410071
 10
6259.4103032057
 20
5259.3656203372
 10
6259.9739910812
 20
5259.1875293749
 10
6260.7641034764
 20
5259.0258921103
 10
6261.7552455286
 20
5258.8859036982
 10
6262.9155611169
 20
5258.7720634811
 10
6264.2077567434
 20
5258.6880303775
 10
6265.5903001777
 20
5258.6365052803
 10
6267.0187553361
 20
5258.6191442486
  0
LINE
  5
B0
330
1F
100
AcDbEntity
  8
0
  6
Continuous
 62
     7
370
    25
100
AcDbLine
 10
6267.0187553361
 20
5164.6994545927
 30
0.0
 11
6277.0187553361
 21
5164.6994545927
 31
0.0
  0
LINE
  5
B1
330
1F
100
AcDbEntity
  8
0
  6
Continuous
 62
     7
370
    25
100
AcDbLine
 10
6257.0187553361
 20
5164.6994545927
 30
0.0
 11
6267.0187553361
 21
5164.6994545927
 31
0.0
  0
LWPOLYLINE
  5
B2
330
1F
100
AcDbEntity
  8
0
  6
Continuous
 62
     7
370
    25
100
AcDbPolyline
 90
       35
 70
   128
 43
0.0
 10
6267.0187553361
 20
5258.6866636451
 10
6268.3968767197
 20
5258.7039083356
 10
6269.7280678325
 20
5258.7550551599
 10
6270.9669965577
 20
5258.8383623742
 10
6272.0714726634
 20
5258.9509930512
 10
6273.0038845407
 20
5259.0891116883
 10
6273.7324800213
 20
5259.248014821
 10
6274.2324476599
 20
5259.4222911937
 10
6274.4867616583
 20
5259.6060060335
 10
6274.4867616583
 20
5259.7929031519
 10
6274.2324476599
 20
5259.9766179918
 10
6273.7324800213
 20
5260.1508943644
 10
6273.0038845407
 20
5260.3097974971
 10
6272.0714726634
 20
5260.4479161343
 10
6270.9669965577
 20
5260.5605468113
 10
6269.7280678325
 20
5260.6438540255
 10
6268.3968767197
 20
5260.6950008498
 10
6267.0187553361
 20
5260.7122455403
 10
6265.6406339525
 20
5260.6950008498
 10
6264.3094428397
 20
5260.6438540255
 10
6263.0705141145
 20
5260.5605468113
 10
6261.9660380088
 20
5260.4479161343
 10
6261.0336261315
 20
5260.3097974971
 10
6260.3050306509
 20
5260.1508943644
 10
6259.8050630123
 20
5259.9766179918
 10
6259.5507490139
 20
5259.7929031519
 10
6259.5507490139
 20
5259.6060060335
 10
6259.8050630123
 20
5259.4222911937
 10
6260.3050306509
 20
5259.248014821
 10
6261.0336261315
 20
5259.0891116883
 10
6261.9660380088
 20
5258.9509930512
 10
6263.0705141145
 20
5258.8383623742
 10
6264.3094428397
 20
5258.7550551599
 10
6265.6406339525
 20
5258.7039083356
 10
6267.0187553361
 20
5258.6866636451
  0
LINE
  5
B3
330
1F
100
AcDbEntity
  8
0
  6
Continuous
 62
     7
370
    25
100
AcDbLine
 10
6304.0187553361
 20
5090.3815556854
 30
0.0
 11
6304.0187553361
 21
5082.0494545927
 31
0.0
  0
LWPOLYLINE
  5
B4
330
1F
100
AcDbEntity
  8
0
  6
Continuous
 62
     7
370
    25
100
AcDbPolyline
 90
        9
 70
   128
 43
0.0
 10
6304.0187553361
 20
5090.3815556854
 10
6303.9995406165
 20
5090.5020988168
 10
6303.9426348686
 20
5090.6180095433
 10
6303.8502249484
 20
5090.7248334806
 10
6303.7258621173
 20
5090.8184654448
 10
6303.5743255691
 20
5090.8953072119
 10
6303.4014387685
 20
5090.952405796
 10
6303.2138456581
 20
5090.9875669305
 10
6303.0187553361
 20
5090.9994393927
  0
LINE
  5
B5
330
1F
100
AcDbEntity
  8
0
  6
Continuous
 62
     7
370
    25
100
AcDbLine
 10
6303.0187553361
 20
5090.9994393927
 30
0.0
 11
6292.0187553361
 21
5090.9994393927
 31
0.0
  0
ARC
  5
B6
330
1F
100
AcDbEntity
  8
0
  6
Continuous
 62
     7
370
    25
100
AcDbCircle
 10
6285.0767734745
 20
5096.8813607947
 30
0.0
 40
9.098797258241246
100
AcDbArc
 50
319.7254889516
 51
349.3471524284
  0
LINE
  5
B7
330
1F
100
AcDbEntity
  8
0
  6
Continuous
 62
     7
370
    25
100
AcDbLine
 10
6303.0187553361
 20
5090.9994393927
 30
0.0
 11
6303.0187553361
 21
5108.9546608005
 31
0.0
  0
ARC
  5
B8
330
1F
100
AcDbEntity
  8
0
  6
Continuous
 62
     7
370
    25
100
AcDbCircle
 10
6303.2520136573
 20
5107.7945020835
 30
0.0
 40
1.183375550275945
100
AcDbArc
 50
49.6144666676
 51
101.3681667307
  0
LINE
  5
B9
330
1F
100
AcDbEntity
  8
0
  6
Continuous
 62
     7
370
    25
100
AcDbLine
 10
6304.0187553361
 20
5108.6958815213
 30
0.0
 11
6304.0187553361
 21
5090.3815556854
 31
0.0
  0
ARC
  5
BA
330
1F
100
AcDbEntity
  8
0
  6
Continuous
 62
     7
370
    25
100
AcDbCircle
 10
6286.9232699144
 20
5096.4212642728
 30
0.0
 40
7.440440626318423
100
AcDbArc
 50
313.2227512646
 51
351.6492889286
  0
LWPOLYLINE
  5
BB
330
1F
100
AcDbEntity
  8
0
  6
Continuous
 62
     7
370
    25
100
AcDbPolyline
 90
        5
 70
   128
 43
0.0
 10
6295.0187553361
 20
5108.9546608005
 10
6294.904078608
 20
5105.3946839194
 10
6294.6517898063
 20
5101.926294229
 10
6294.3995010046
 20
5098.5687450905
 10
6294.2848242765
 20
5095.3406745789
  0
LINE
  5
BC
330
1F
100
AcDbEntity
  8
0
  6
Continuous
 62
     7
370
    25
100
AcDbLine
 10
6303.0187553361
 20
5108.9546608005
 30
0.0
 11
6295.0187553361
 21
5108.9546608005
 31
0.0
  0
LWPOLYLINE
  5
BD
330
1F
100
AcDbEntity
  8
0
  6
Continuous
 62
     7
370
    25
100
AcDbPolyline
 90
        7
 70
   128
 43
0.0
 10
6294.0187553361
 20
5095.1993762725
 10
6294.0374364884
 20
5095.2513874316
 10
6294.0621257677
 20
5095.2766960839
 10
6294.0966851245
 20
5095.2992892631
 10
6294.1392287573
 20
5095.3176423207
 10
6294.1868857072
 20
5095.3307537848
 10
6294.2848242765
 20
5095.3406745789
  0
ARC
  5
BE
330
1F
100
AcDbEntity
  8
0
  6
Continuous
 62
     7
370
    25
100
AcDbCircle
 10
6294.7854970149
 20
5107.7945020835
 30
0.0
 40
1.183375550272585
100
AcDbArc
 50
78.6318332693
 51
130.3855333325
  0
LINE
  5
BF
330
1F
100
AcDbEntity
  8
0
  6
Continuous
 62
     7
370
    25
100
AcDbLine
 10
6294.0187553361
 20
5095.1993762725
 30
0.0
 11
6294.0187553361
 21
5108.6958815213
 31
0.0
  0
LINE
  5
C0
330
1F
100
AcDbEntity
  8
0
  6
Continuous
 62
     7
370
    25
100
AcDbLine
 10
6294.0187553361
 20
5108.6958815213
 30
0.0
 11
6294.0187553361
 21
5109.4306972251
 31
0.0
  0
LINE
  5
C1
330
1F
100
AcDbEntity
  8
0
  6
Continuous
 62
     7
370
    25
100
AcDbLine
 10
6304.0187553361
 20
5109.4371022422
 30
0.0
 11
6304.0187553361
 21
5108.6958815213
 31
0.0
  0
LWPOLYLINE
  5
C2
330
1F
100
AcDbEntity
  8
0
  6
Continuous
 62
     7
370
    25
100
AcDbPolyline
 90
       20
 70
   128
 43
0.0
 10
6305.8057809025
 20
5087.0386296223
 10
6305.7513555496
 20
5086.9374804785
 10
6305.6879459189
 20
5086.9213154768
 10
6305.6212466034
 20
5086.9925336113
 10
6305.5594934616
 20
5087.1459189754
 10
6305.5113364624
 20
5087.3614860257
 10
6305.4828749437
 20
5087.6086056383
 10
6305.4763334004
 20
5087.8559782809
 10
6305.4909680357
 20
5088.0785550515
 10
6305.5246397601
 20
5088.2571438529
 10
6305.5743584811
 20
5088.375036807
 10
6305.6357501823
 20
5088.4170638435
 10
6305.702360291
 20
5088.3729434671
 10
6305.7658491376
 20
5088.2433973405
 10
6305.8176614087
 20
5088.0443146002
 10
6305.8514323513
 20
5087.8038882578
 10
6305.8643141622
 20
5087.5536176089
 10
6305.8563736029
 20
5087.3206102372
 10
6305.8292053259
 20
5087.1260894694
 10
6305.8057809025
 20
5087.0386296223
  0
LWPOLYLINE
  5
C3
330
1F
100
AcDbEntity
  8
0
  6
Continuous
 62
     7
370
    25
100
AcDbPolyline
 90
        9
 70
   128
 43
0.0
 10
6305.8312391352
 20
5087.1409261741
 10
6305.8569988086
 20
5087.3417880007
 10
6305.8629523981
 20
5087.5789432809
 10
6305.8485806672
 20
5087.8227555118
 10
6305.8156717412
 20
5088.049286996
 10
6305.7669113258
 20
5088.2373750871
 10
6305.7062870113
 20
5088.3661186665
 10
6305.6398199577
 20
5088.4167954437
 10
6305.6349454799
 20
5088.41387608
  0
LWPOLYLINE
  5
C4
330
1F
100
AcDbEntity
  8
0
  6
Continuous
 62
     7
370
    25
100
AcDbPolyline
 90
        4
 70
   128
 43
0.0
 10
6305.7066717412
 20
5086.9278188087
 10
6305.7469055558
 20
5086.9342485203
 10
6305.8029792429
 20
5087.0334398501
 10
6305.8312391352
 20
5087.1409261741
  0
ARC
  5
C5
330
1F
100
AcDbEntity
  8
0
  6
Continuous
 62
     7
370
    25
100
AcDbCircle
 10
6267.0096208052
 20
5087.1999846935
 30
0.0
 40
10.91112159113028
100
AcDbArc
 50
359.9999832788
 51
359.9976114691
  0
LINE
  5
C6
330
1F
100
AcDbEntity
  8
0
  6
Continuous
 62
     7
370
    25
100
AcDbLine
 10
6277.9207423963
 20
5087.1999815092
 30
0.0
 11
6277.6421390527
 21
5087.1999815207
 31
0.0
  0
LWPOLYLINE
  5
C7
330
1F
100
AcDbEntity
  8
0
  6
Continuous
 62
     7
370
    25
100
AcDbPolyline
 90
       40
 70
   128
 43
0.0
 10
6277.6421390527
 20
5087.1999815207
 10
6277.5158698922
 20
5088.8013632037
 10
6277.1274432331
 20
5090.4027448944
 10
6276.5177947483
 20
5091.863894431
 10
6275.6754034941
 20
5093.2374228946
 10
6274.5867106866
 20
5094.509448442
 10
6273.274234736
 20
5095.6180118478
 10
6271.7262867951
 20
5096.5365932963
 10
6269.9764998147
 20
5097.2028258485
 10
6268.2539617232
 20
5097.54399398
 10
6266.4343302142
 20
5097.5986925707
 10
6264.794860547
 20
5097.3838018396
 10
6263.1721733177
 20
5096.9080674542
 10
6261.680794866
 20
5096.2046744963
 10
6260.2920918791
 20
5095.2615341577
 10
6259.0280649484
 20
5094.0634137387
 10
6257.9531423841
 20
5092.629957798
 10
6257.1399819426
 20
5091.0308972814
 10
6256.6004495233
 20
5089.2365286789
 10
6256.4025627101
 20
5087.5829528996
 10
6256.4835099305
 20
5085.8593361549
 10
6256.7956275386
 20
5084.3663380508
 10
6257.3377297895
 20
5082.9100907027
 10
6258.1053594915
 20
5081.5319354555
 10
6259.0920892464
 20
5080.2643220748
 10
6260.359697087
 20
5079.0838090051
 10
6261.8510922952
 20
5078.099081145
 10
6263.5025154202
 20
5077.3712789558
 10
6265.3265106259
 20
5076.9173651627
 10
6267.0366301866
 20
5076.7844557399
 10
6268.7999664561
 20
5076.9317769069
 10
6270.3896863496
 20
5077.322460367
 10
6271.9302639846
 20
5077.9637977076
 10
6273.3588735658
 20
5078.8418767045
 10
6274.6552480372
 20
5079.958289996
 10
6275.7892741936
 20
5081.3215438873
 10
6276.7017112013
 20
5082.9141948527
 10
6277.3002106364
 20
5084.5776526106
 10
6277.6106859164
 20
5086.3987242891
 10
6277.6421390435
 20
5087.1995506366
  0
LWPOLYLINE
  5
C8
330
1F
100
AcDbEntity
  8
0
  6
Continuous
 62
     7
370
    25
100
AcDbPolyline
 90
        9
 70
   128
 43
0.0
 10
6277.6421390435
 20
5087.1995506366
 10
6277.7012351919
 20
5087.1995474437
 10
6277.7550878981
 20
5087.1995443104
 10
6277.8026901834
 20
5087.1995412955
 10
6277.8431519443
 20
5087.1995384552
 10
6277.8757165963
 20
5087.1995358427
 10
6277.899775221
 20
5087.1995335068
 10
6277.9148779519
 20
5087.1995314912
 10
6277.9207423869
 20
5087.1995298336
  0
CIRCLE
  5
C9
330
1F
100
AcDbEntity
  8
0
  6
Continuous
 62
     7
370
    25
100
AcDbCircle
 10
6267.0194824164
 20
5087.1992855925
 30
0.0
 40
10.94988857882268
  0
LINE
  5
CA
330
1F
100
AcDbEntity
  8
0
  6
Continuous
 62
     7
370
    25
100
AcDbLine
 10
6277.9207423963
 20
5087.1999815092
 30
0.0
 11
6277.9207423869
 21
5087.1995298336
 31
0.0
  0
LINE
  5
CB
330
1F
100
AcDbEntity
  8
0
  6
Continuous
 62
     7
370
    25
100
AcDbLine
 10
6277.6421390435
 20
5087.1995506366
 30
0.0
 11
6277.6421390527
 21
5087.1999815207
 31
0.0
  0
ARC
  5
CC
330
1F
100
AcDbEntity
  8
0
  6
Continuous
 62
     7
370
    25
100
AcDbCircle
 10
6316.6055369942
 20
5087.1987686075
 30
0.0
 40
25.35628771248228
100
AcDbArc
 50
166.0375392815
 51
194.1515920012
  0
LINE
  5
CD
330
1F
100
AcDbEntity
  8
0
  6
Continuous
 62
     7
370
    25
100
AcDbLine
 10
6292.0187553361
 20
5062.6994545927
 30
0.0
 11
6242.0187553361
 21
5062.6994545927
 31
0.0
  0
CIRCLE
  5
CE
330
1F
100
AcDbEntity
  8
0
  6
Continuous
 62
     7
370
    25
100
AcDbCircle
 10
6267.0187553361
 20
5087.1994545927
 30
0.0
 40
11.05000000000018
  0
LINE
  5
CF
330
1F
100
AcDbEntity
  8
0
  6
Continuous
 62
     7
370
    25
100
AcDbLine
 10
6282.0187553361
 20
5143.6994545927
 30
0.0
 11
6252.0187553361
 21
5143.6994545927
 31
0.0
  0
LINE
  5
D0
330
1F
100
AcDbEntity
  8
0
  6
Continuous
 62
     8
370
    25
100
AcDbLine
 10
6281.5187553361
 20
5164.0994545927
 30
0.0
 11
6252.5187553361
 21
5164.0994545927
 31
0.0
  0
LWPOLYLINE
  5
D1
330
1F
100
AcDbEntity
  8
0
  6
Continuous
 62
     8
370
    25
100
AcDbPolyline
 90
       21
 70
   128
 43
0.0
 10
6277.0187553361
 20
5275.5528995887
 10
6276.8956387421
 20
5275.7641468022
 10
6276.5293204991
 20
5275.9701924081
 10
6275.928820578
 20
5276.16596288
 10
6275.1089252798
 20
5276.3466376989
 10
6274.089823148
 20
5276.5077680514
 10
6272.896607859
 20
5276.6453863732
 10
6271.5586603335
 20
5276.7561040447
 10
6270.1089252798
 20
5276.8371948292
 10
6268.5830999865
 20
5276.8866620026
 10
6267.0187553361
 20
5276.9032875189
 10
6265.4544106857
 20
5276.8866620026
 10
6263.9285853924
 20
5276.8371948292
 10
6262.4788503387
 20
5276.7561040447
 10
6261.1409028132
 20
5276.6453863732
 10
6259.9476875242
 20
5276.5077680514
 10
6258.9285853924
 20
5276.3466376989
 10
6258.1086900942
 20
5276.16596288
 10
6257.5081901731
 20
5275.9701924081
 10
6257.1418719301
 20
5275.7641468022
 10
6257.0187553361
 20
5275.5528995887
  0
LWPOLYLINE
  5
D2
330
1F
100
AcDbEntity
  8
0
  6
Continuous
 62
     8
370
    25
100
AcDbPolyline
 90
       21
 70
   128
 43
0.0
 10
6277.0187553361
 20
5291.4063445848
 10
6276.8956387421
 20
5291.6175917982
 10
6276.5293204991
 20
5291.8236374042
 10
6275.928820578
 20
5292.019407876
 10
6275.1089252798
 20
5292.200082695
 10
6274.089823148
 20
5292.3612130474
 10
6272.896607859
 20
5292.4988313692
 10
6271.5586603335
 20
5292.6095490407
 10
6270.1089252798
 20
5292.6906398252
 10
6268.5830999865
 20
5292.7401069986
 10
6267.0187553361
 20
5292.7567325149
 10
6265.4544106857
 20
5292.7401069986
 10
6263.9285853924
 20
5292.6906398252
 10
6262.4788503387
 20
5292.6095490407
 10
6261.1409028132
 20
5292.4988313692
 10
6259.9476875242
 20
5292.3612130474
 10
6258.9285853924
 20
5292.200082695
 10
6258.1086900942
 20
5292.019407876
 10
6257.5081901731
 20
5291.8236374042
 10
6257.1418719301
 20
5291.6175917982
 10
6257.0187553361
 20
5291.4063445848
  0
LINE
  5
D3
330
1F
100
AcDbEntity
  8
0
  6
Continuous
 62
     8
370
    25
100
AcDbLine
 10
6303.0187553361
 20
5081.0494545927
 30
0.0
 11
6303.0187553361
 21
5090.9994393927
 31
0.0
  0
LINE
  5
D4
330
1F
100
AcDbEntity
  8
0
  6
Continuous
 62
     8
370
    25
100
AcDbLine
 10
6292.0187553361
 20
5090.9994393927
 30
0.0
 11
6292.0187553361
 21
5093.3494545927
 31
0.0
  0
LINE
  5
D5
330
1F
100
AcDbEntity
  8
0
  6
Continuous
 62
     8
370
    25
100
AcDbLine
 10
6295.0187553361
 20
5110.4098004451
 30
0.0
 11
6295.0187553361
 21
5108.9546608005
 31
0.0
  0
LINE
  5
D6
330
1F
100
AcDbEntity
  8
0
  6
Continuous
 62
     8
370
    25
100
AcDbLine
 10
6303.0187553361
 20
5108.9546608005
 30
0.0
 11
6303.0187553361
 21
5110.4371022422
 31
0.0
  0
LINE
  5
D7
330
1F
100
AcDbEntity
  8
0
  6
Continuous
 62
     8
370
    25
100
AcDbLine
 10
6304.5884694504
 20
5091.7994545927
 30
0.0
 11
6304.5884694504
 21
5082.5994545927
 31
0.0
  0
LINE
  5
D8
330
1F
100
AcDbEntity
  8
0
  6
Continuous
 62
     8
370
    25
100
AcDbLine
 10
6305.0395070353
 20
5091.5152440664
 30
0.0
 11
6305.0395070353
 21
5082.883665119
 31
0.0
  0
LINE
  5
D9
330
1F
100
AcDbEntity
  8
0
  6
Continuous
 62
     8
370
    25
100
AcDbLine
 10
6292.0187553361
 20
5140.7021584546
 30
0.0
 11
6242.0187553361
 21
5140.7021584546
 31
0.0
  0
LINE
  5
DA
330
1F
100
AcDbEntity
  8
0
  6
Continuous
 62
     8
370
    25
100
AcDbLine
 10
6290.2624940229
 20
5142.6872507579
 30
0.0
 11
6243.7750166493
 21
5142.6872507579
 31
0.0
  0
LINE
  5
DB
330
1F
100
AcDbEntity
  8
0
  6
Continuous
 62
     7
370
    25
100
AcDbLine
 10
6485.815897034
 20
5164.5994545927
 30
0.0
 11
6485.815897034
 21
5164.6994545927
 31
0.0
  0
LINE
  5
DC
330
1F
100
AcDbEntity
  8
0
  6
Continuous
 62
     7
370
    25
100
AcDbLine
 10
6467.215897034
 20
5164.6994545927
 30
0.0
 11
6467.215897034
 21
5164.5994545927
 31
0.0
  0
LINE
  5
DD
330
1F
100
AcDbEntity
  8
0
  6
Continuous
 62
     7
370
    25
100
AcDbLine
 10
6491.015897034
 20
5144.1994545927
 30
0.0
 11
6491.015897034
 21
5164.0994545927
 31
0.0
  0
LINE
  5
DE
330
1F
100
AcDbEntity
  8
0
  6
Continuous
 62
     7
370
    25
100
AcDbLine
 10
6462.015897034
 20
5164.0994545927
 30
0.0
 11
6462.015897034
 21
5144.1994545927
 31
0.0
  0
ARC
  5
DF
330
1F
100
AcDbEntity
  8
0
  6
Continuous
 62
     7
370
    25
100
AcDbCircle
 10
6490.515897034
 20
5164.0994545927
 30
0.0
 40
0.4999999999990905
100
AcDbArc
 50
0.0
 51
90.0
  0
ARC
  5
E0
330
1F
100
AcDbEntity
  8
0
  6
Continuous
 62
     7
370
    25
100
AcDbCircle
 10
6462.515897034
 20
5164.0994545927
 30
0.0
 40
0.5
100
AcDbArc
 50
90.0
 51
180.0
  0
LINE
  5
E1
330
1F
100
AcDbEntity
  8
0
  6
Continuous
 62
     7
370
    25
100
AcDbLine
 10
6466.515897034
 20
5281.5249474627
 30
0.0
 11
6466.515897034
 21
5164.6994545927
 31
0.0
  0
LINE
  5
E2
330
1F
100
AcDbEntity
  8
0
  6
Continuous
 62
     7
370
    25
100
AcDbLine
 10
6486.515897034
 20
5164.6994545927
 30
0.0
 11
6486.515897034
 21
5281.5249474627
 31
0.0
  0
ARC
  5
E3
330
1F
100
AcDbEntity
  8
0
  6
Continuous
 62
     7
370
    25
100
AcDbCircle
 10
6549.690404164
 20
5281.5249474627
 30
0.0
 40
63.17450713005434
100
AcDbArc
 50
7.7608631057
 51
180.0
  0
ARC
  5
E4
330
1F
100
AcDbEntity
  8
0
  6
Continuous
 62
     7
370
    25
100
AcDbCircle
 10
6549.690404164
 20
5281.5249474627
 30
0.0
 40
83.17450713005445
100
AcDbArc
 50
7.7608631057
 51
180.0
  0
LINE
  5
E5
330
1F
100
AcDbEntity
  8
0
  6
Continuous
 62
     7
370
    25
100
AcDbLine
 10
6634.2636794683
 20
5276.9032875189
 30
0.0
 11
6632.1030587801
 21
5292.7567325149
 31
0.0
  0
LINE
  5
E6
330
1F
100
AcDbEntity
  8
0
  6
Continuous
 62
     7
370
    25
100
AcDbLine
 10
6612.2862525351
 20
5290.0559566546
 30
0.0
 11
6614.4468732233
 21
5274.2025116586
 31
0.0
  0
LINE
  5
E7
330
1F
100
AcDbEntity
  8
0
  6
Continuous
 62
     7
370
    25
100
AcDbLine
 10
6636.4243001565
 20
5261.0498425228
 30
0.0
 11
6634.2636794683
 21
5276.9032875189
 31
0.0
  0
LINE
  5
E8
330
1F
100
AcDbEntity
  8
0
  6
Continuous
 62
     7
370
    25
100
AcDbLine
 10
6614.4468732233
 20
5274.2025116586
 30
0.0
 11
6616.6074939115
 21
5258.3490666626
 31
0.0
  0
LINE
  5
E9
330
1F
100
AcDbEntity
  8
0
  6
Continuous
 62
     7
370
    25
100
AcDbLine
 10
6501.515897034
 20
5076.7890616894
 30
0.0
 11
6501.515897034
 21
5097.581447898
 31
0.0
  0
LINE
  5
EA
330
1F
100
AcDbEntity
  8
0
  6
Continuous
 62
     7
370
    25
100
AcDbLine
 10
6501.515897034
 20
5098.2217807311
 30
0.0
 11
6501.515897034
 21
5140.7021584546
 31
0.0
  0
LINE
  5
EB
330
1F
100
AcDbEntity
  8
0
  6
Continuous
 62
     7
370
    25
100
AcDbLine
 10
6501.515897034
 20
5062.6994545927
 30
0.0
 11
6501.515897034
 21
5076.1494545927
 31
0.0
  0
LINE
  5
EC
330
1F
100
AcDbEntity
  8
0
  6
Continuous
 62
     7
370
    25
100
AcDbLine
 10
6451.515897034
 20
5140.7021584546
 30
0.0
 11
6451.515897034
 21
5062.6994545927
 31
0.0
  0
ARC
  5
ED
330
1F
100
AcDbEntity
  8
0
  6
Continuous
 62
     7
370
    25
100
AcDbCircle
 10
6499.515897034
 20
5140.7021584546
 30
0.0
 40
2.0
100
AcDbArc
 50
0.0
 51
83.0
  0
ARC
  5
EE
330
1F
100
AcDbEntity
  8
0
  6
Continuous
 62
     7
370
    25
100
AcDbCircle
 10
6453.515897034
 20
5140.7021584546
 30
0.0
 40
2.000000000000107
100
AcDbArc
 50
97.0
 51
180.0
  0
LINE
  5
EF
330
1F
100
AcDbEntity
  8
0
  6
Continuous
 62
     7
370
    25
100
AcDbLine
 10
6499.7596357208
 20
5142.6872507579
 30
0.0
 11
6491.515897034
 21
5143.6994545927
 31
0.0
  0
LINE
  5
F0
330
1F
100
AcDbEntity
  8
0
  6
Continuous
 62
     7
370
    25
100
AcDbLine
 10
6461.515897034
 20
5143.6994545927
 30
0.0
 11
6453.2721583472
 21
5142.6872507579
 31
0.0
  0
LINE
  5
F1
330
1F
100
AcDbEntity
  8
0
  6
Continuous
 62
     7
370
    25
100
AcDbLine
 10
6488.765897034
 20
5143.6994545927
 30
0.0
 11
6488.765897034
 21
5144.1994545927
 31
0.0
  0
LINE
  5
F2
330
1F
100
AcDbEntity
  8
0
  6
Continuous
 62
     7
370
    25
100
AcDbLine
 10
6464.265897034
 20
5144.1994545927
 30
0.0
 11
6464.265897034
 21
5143.6994545927
 31
0.0
  0
LINE
  5
F3
330
1F
100
AcDbEntity
  8
0
  6
Continuous
 62
     7
370
    25
100
AcDbLine
 10
6491.015897034
 20
5144.1994545927
 30
0.0
 11
6462.015897034
 21
5144.1994545927
 31
0.0
  0
LINE
  5
F4
330
1F
100
AcDbEntity
  8
0
  6
Continuous
 62
     7
370
    25
100
AcDbLine
 10
6480.4715891353
 20
5147.1994545927
 30
0.0
 11
6472.5602049327
 21
5147.1994545927
 31
0.0
  0
LINE
  5
F5
330
1F
100
AcDbEntity
  8
0
  6
Continuous
 62
     7
370
    25
100
AcDbLine
 10
6480.4715891353
 20
5162.7994545927
 30
0.0
 11
6480.4715891353
 21
5147.1994545927
 31
0.0
  0
LINE
  5
F6
330
1F
100
AcDbEntity
  8
0
  6
Continuous
 62
     7
370
    25
100
AcDbLine
 10
6472.5602049327
 20
5162.7994545927
 30
0.0
 11
6480.4715891353
 21
5162.7994545927
 31
0.0
  0
LINE
  5
F7
330
1F
100
AcDbEntity
  8
0
  6
Continuous
 62
     7
370
    25
100
AcDbLine
 10
6472.5602049327
 20
5147.1994545927
 30
0.0
 11
6472.5602049327
 21
5162.7994545927
 31
0.0
  0
LINE
  5
F8
330
1F
100
AcDbEntity
  8
0
  6
Continuous
 62
     7
370
    25
100
AcDbLine
 10
6490.5158968999
 20
5164.5994545927
 30
0.0
 11
6462.515897034
 21
5164.5994545927
 31
0.0
  0
LINE
  5
F9
330
1F
100
AcDbEntity
  8
0
  6
Continuous
 62
     7
370
    25
100
AcDbLine
 10
6466.515897034
 20
5164.6994545927
 30
0.0
 11
6486.515897034
 21
5164.6994545927
 31
0.0
  0
LINE
  5
FA
330
1F
100
AcDbEntity
  8
0
  6
Continuous
 62
     7
370
    25
100
AcDbLine
 10
6636.4243001565
 20
5261.0498425228
 30
0.0
 11
6616.6074939115
 21
5258.3490666626
 31
0.0
  0
LWPOLYLINE
  5
FB
330
1F
100
AcDbEntity
  8
0
  6
Continuous
 62
     7
370
    25
100
AcDbPolyline
 90
       21
 70
   128
 43
0.0
 10
6501.5007398601
 20
5097.5811063617
 10
6501.5087803086
 20
5097.5986925707
 10
6501.4098196742
 20
5097.3781216221
 10
6501.2056376491
 20
5096.9080674542
 10
6500.9102609022
 20
5096.1938279453
 10
6500.5539526181
 20
5095.2615341577
 10
6500.1408302296
 20
5094.0449994819
 10
6499.7378382268
 20
5092.629957798
 10
6499.3838974707
 20
5091.0007337564
 10
6499.1366952118
 20
5089.2365286789
 10
6499.0409115376
 20
5087.5537844517
 10
6499.0799554231
 20
5085.8593361549
 10
6499.2328937101
 20
5084.347495317
 10
6499.4767201862
 20
5082.9100907027
 10
6499.8034636391
 20
5081.5167501776
 10
6500.1691081132
 20
5080.2643220748
 10
6500.5786816429
 20
5079.0696987249
 10
6500.9529459861
 20
5078.099081145
 10
6501.2603017503
 20
5077.3625564906
 10
6501.4561624761
 20
5076.9173651627
 10
6501.5132170689
 20
5076.7895526809
  0
LWPOLYLINE
  5
FC
330
1F
100
AcDbEntity
  8
0
  6
Continuous
 62
     7
370
    25
100
AcDbPolyline
 90
       22
 70
   128
 43
0.0
 10
6501.503696817
 20
5098.2217807311
 10
6501.4762212181
 20
5098.1593945275
 10
6501.3287278423
 20
5097.8192037762
 10
6501.0778024575
 20
5097.2189205481
 10
6500.7476022282
 20
5096.3797615931
 10
6500.3590182662
 20
5095.2986477681
 10
6499.9342442175
 20
5093.9464157463
 10
6499.527027647
 20
5092.3583917011
 10
6499.2007474859
 20
5090.6207029067
 10
6498.9914970671
 20
5088.7011525807
 10
6498.9426530363
 20
5086.9506880624
 10
6499.0346141503
 20
5085.1512552458
 10
6499.2342901481
 20
5083.5624385511
 10
6499.5297291538
 20
5082.028480909
 10
6499.9000883771
 20
5080.5720188314
 10
6500.3079714121
 20
5079.2517943574
 10
6500.7270111065
 20
5078.0736371151
 10
6501.0992550019
 20
5077.1275139169
 10
6501.3600461083
 20
5076.5067354237
 10
6501.5006686171
 20
5076.1839513786
 10
6501.515897034
 20
5076.1494545927
 10
6501.515897034
 20
5076.1494545927
  0
LINE
  5
FD
330
1F
100
AcDbEntity
  8
0
  6
Continuous
 62
     7
370
    25
100
AcDbLine
 10
6501.515897034
 20
5062.6994545927
 30
0.0
 11
6451.515897034
 21
5062.6994545927
 31
0.0
  0
LINE
  5
FE
330
1F
100
AcDbEntity
  8
0
  6
Continuous
 62
     7
370
    25
100
AcDbLine
 10
6491.515897034
 20
5143.6994545927
 30
0.0
 11
6461.515897034
 21
5143.6994545927
 31
0.0
  0
LINE
  5
FF
330
1F
100
AcDbEntity
  8
0
  6
Continuous
 62
     8
370
    25
100
AcDbLine
 10
6491.015897034
 20
5164.0994545927
 30
0.0
 11
6462.015897034
 21
5164.0994545927
 31
0.0
  0
LINE
  5
100
330
1F
100
AcDbEntity
  8
0
  6
Continuous
 62
     8
370
    25
100
AcDbLine
 10
6466.515897034
 20
5281.5249474627
 30
0.0
 11
6486.515897034
 21
5281.5249474627
 31
0.0
  0
LINE
  5
101
330
1F
100
AcDbEntity
  8
0
  6
Continuous
 62
     8
370
    25
100
AcDbLine
 10
6632.1030587801
 20
5292.7567325149
 30
0.0
 11
6612.2862525351
 21
5290.0559566546
 31
0.0
  0
LINE
  5
102
330
1F
100
AcDbEntity
  8
0
  6
Continuous
 62
     8
370
    25
100
AcDbLine
 10
6634.2636794683
 20
5276.9032875189
 30
0.0
 11
6614.4468732233
 21
5274.2025116586
 31
0.0
  0
LINE
  5
103
330
1F
100
AcDbEntity
  8
0
  6
Continuous
 62
     8
370
    25
100
AcDbLine
 10
6501.515897034
 20
5140.7021584546
 30
0.0
 11
6451.515897034
 21
5140.7021584546
 31
0.0
  0
LINE
  5
104
330
1F
100
AcDbEntity
  8
0
  6
Continuous
 62
     8
370
    25
100
AcDbLine
 10
6499.7596357208
 20
5142.6872507579
 30
0.0
 11
6453.2721583472
 21
5142.6872507579
 31
0.0
  0
LINE
  5
105
330
1F
100
AcDbEntity
  8
0
  6
Continuous
 62
     7
370
    25
100
AcDbLine
 10
6257.0187553361
 20
4890.2461532382
 30
0.0
 11
6257.0187553361
 21
4744.5673946146
 31
0.0
  0
LINE
  5
106
330
1F
100
AcDbEntity
  8
0
  6
Continuous
 62
     7
370
    25
100
AcDbLine
 10
6277.0187553361
 20
4744.5673946146
 30
0.0
 11
6277.0187553361
 21
4890.2461532382
 31
0.0
  0
LINE
  5
107
330
1F
100
AcDbEntity
  8
0
  6
Continuous
 62
     7
370
    25
100
AcDbLine
 10
6277.0187553361
 20
4742.4067739264
 30
0.0
 11
6277.0187553361
 21
4744.5673946146
 31
0.0
  0
LINE
  5
108
330
1F
100
AcDbEntity
  8
0
  6
Continuous
 62
     7
370
    25
100
AcDbLine
 10
6257.0187553361
 20
4744.5673946146
 30
0.0
 11
6257.0187553361
 21
4742.4067739264
 31
0.0
  0
LINE
  5
109
330
1F
100
AcDbEntity
  8
0
  6
Continuous
 62
     7
370
    25
100
AcDbLine
 10
6277.0187553361
 20
4740.2461532382
 30
0.0
 11
6277.0187553361
 21
4742.4067739264
 31
0.0
  0
LINE
  5
10A
330
1F
100
AcDbEntity
  8
0
  6
Continuous
 62
     7
370
    25
100
AcDbLine
 10
6257.0187553361
 20
4742.4067739264
 30
0.0
 11
6257.0187553361
 21
4740.2461532382
 31
0.0
  0
LWPOLYLINE
  5
10B
330
1F
100
AcDbEntity
  8
0
  6
Continuous
 62
     7
370
    25
100
AcDbPolyline
 90
        3
 70
   128
 43
0.0
 10
6294.9326710596
 20
4898.3795651389
 10
6294.248506962
 20
4898.1054642957
 10
6294.0187553361
 20
4897.597258133
  0
ARC
  5
10C
330
1F
100
AcDbEntity
  8
0
  6
Continuous
 62
     7
370
    25
100
AcDbCircle
 10
6303.0187553361
 20
4897.3805606217
 30
0.0
 40
1.0
100
AcDbArc
 50
0.0
 51
90.0
  0
LINE
  5
10D
330
1F
100
AcDbEntity
  8
0
  6
Continuous
 62
     7
370
    25
100
AcDbLine
 10
6303.0187553361
 20
4898.3805606217
 30
0.0
 11
6294.9317409814
 21
4898.3805606217
 31
0.0
  0
ARC
  5
10E
330
1F
100
AcDbEntity
  8
0
  6
Continuous
 62
     7
370
    25
100
AcDbCircle
 10
6292.0187553361
 20
4898.3961532382
 30
0.0
 40
2.000000000000977
100
AcDbArc
 50
270.0
 51
290.8154900929
  0
LINE
  5
10F
330
1F
100
AcDbEntity
  8
0
  6
Continuous
 62
     7
370
    25
100
AcDbLine
 10
6292.0187553361
 20
4896.3961532382
 30
0.0
 11
6291.2505010429
 21
4896.3961532382
 31
0.0
  0
LINE
  5
110
330
1F
100
AcDbEntity
  8
0
  6
Continuous
 62
     7
370
    25
100
AcDbLine
 10
6291.2505010429
 20
4884.0961532382
 30
0.0
 11
6303.0187553361
 21
4884.0961532382
 31
0.0
  0
ARC
  5
111
330
1F
100
AcDbEntity
  8
0
  6
Continuous
 62
     7
370
    25
100
AcDbCircle
 10
6303.0187553361
 20
4885.0961532382
 30
0.0
 40
1.0
100
AcDbArc
 50
270.0
 51
0.0
  0
LINE
  5
112
330
1F
100
AcDbEntity
  8
0
  6
Continuous
 62
     7
370
    25
100
AcDbLine
 10
6304.5884694504
 20
4894.8461532382
 30
0.0
 11
6304.0187553361
 21
4894.8461532382
 31
0.0
  0
LINE
  5
113
330
1F
100
AcDbEntity
  8
0
  6
Continuous
 62
     7
370
    25
100
AcDbLine
 10
6304.0187553361
 20
4885.6461532382
 30
0.0
 11
6304.5884694504
 21
4885.6461532382
 31
0.0
  0
ARC
  5
114
330
1F
100
AcDbEntity
  8
0
  6
Continuous
 62
     7
370
    25
100
AcDbCircle
 10
6304.5884694504
 20
4894.3461532382
 30
0.0
 40
0.5000000000004898
100
AcDbArc
 50
25.567805911
 51
90.0
  0
ARC
  5
115
330
1F
100
AcDbEntity
  8
0
  6
Continuous
 62
     7
370
    25
100
AcDbCircle
 10
6304.5884694504
 20
4886.1461532382
 30
0.0
 40
0.5000000000004898
100
AcDbArc
 50
270.0
 51
334.432194089
  0
ARC
  5
116
330
1F
100
AcDbEntity
  8
0
  6
Continuous
 62
     7
370
    25
100
AcDbCircle
 10
6296.0187553361
 20
4890.2461532382
 30
0.0
 40
10.0000000000002
100
AcDbArc
 50
17.6296842757
 51
25.567805911
  0
ARC
  5
117
330
1F
100
AcDbEntity
  8
0
  6
Continuous
 62
     7
370
    25
100
AcDbCircle
 10
6296.0187553361
 20
4890.2461532382
 30
0.0
 40
10.00000000000019
100
AcDbArc
 50
349.1379269777
 51
10.8636690253
  0
ARC
  5
118
330
1F
100
AcDbEntity
  8
0
  6
Continuous
 62
     7
370
    25
100
AcDbCircle
 10
6296.0187553361
 20
4890.2461532382
 30
0.0
 40
10.0000000000002
100
AcDbArc
 50
334.432194089
 51
342.3446563478
  0
ARC
  5
119
330
1F
100
AcDbEntity
  8
0
  6
Continuous
 62
     7
370
    25
100
AcDbCircle
 10
6296.0187553361
 20
4890.2461532382
 30
0.0
 40
9.999000000000239
100
AcDbArc
 50
10.8842925865
 51
17.6434312174
  0
LINE
  5
11A
330
1F
100
AcDbEntity
  8
0
  6
Continuous
 62
     7
370
    25
100
AcDbLine
 10
6291.2377561413
 20
4884.0461532382
 30
0.0
 11
6291.2460350624
 21
4884.0461532382
 31
0.0
  0
LINE
  5
11B
330
1F
100
AcDbEntity
  8
0
  6
Continuous
 62
     7
370
    25
100
AcDbLine
 10
6291.2563316447
 20
4896.4461532382
 30
0.0
 11
6291.2377561413
 21
4896.4461532382
 31
0.0
  0
ARC
  5
11C
330
1F
100
AcDbEntity
  8
0
  6
Continuous
 62
     7
370
    25
100
AcDbCircle
 10
6267.0187553361
 20
4890.2461532382
 30
0.0
 40
14.5
100
AcDbArc
 50
313.6028189727
 51
90.0
  0
ARC
  5
11D
330
1F
100
AcDbEntity
  8
0
  6
Continuous
 62
     7
370
    25
100
AcDbCircle
 10
6267.0187553361
 20
4890.2461532382
 30
0.0
 40
14.5
100
AcDbArc
 50
90.0
 51
226.3971810273
  0
ARC
  5
11E
330
1F
100
AcDbEntity
  8
0
  6
Continuous
 62
     7
370
    25
100
AcDbCircle
 10
6267.0187553361
 20
4890.2461532382
 30
0.0
 40
10.0
100
AcDbArc
 50
0.0
 51
180.0
  0
ARC
  5
11F
330
1F
100
AcDbEntity
  8
0
  6
Continuous
 62
     7
370
    25
100
AcDbCircle
 10
6267.0187553361
 20
4740.3202054207
 30
0.0
 40
10.00027418252845
100
AcDbArc
 50
180.4242799965
 51
359.5757200035
  0
LINE
  5
120
330
1F
100
AcDbEntity
  8
0
  6
Continuous
 62
     7
370
    25
100
AcDbLine
 10
6294.0187553361
 20
4895.3598814126
 30
0.0
 11
6294.0187553361
 21
4897.3251958168
 31
0.0
  0
ARC
  5
121
330
1F
100
AcDbEntity
  8
0
  6
Continuous
 62
     7
370
    25
100
AcDbCircle
 10
6295.0184443946
 20
4897.3248846818
 30
0.0
 40
0.9996891069337552
100
AcDbArc
 50
89.9821788246
 51
179.9821677314
  0
LINE
  5
122
330
1F
100
AcDbEntity
  8
0
  6
Continuous
 62
     7
370
    25
100
AcDbLine
 10
6295.0187553361
 20
4898.3245737403
 30
0.0
 11
6295.0187553361
 21
4894.3939449319
 31
0.0
  0
ARC
  5
123
330
1F
100
AcDbEntity
  8
0
  6
Continuous
 62
     7
370
    25
100
AcDbCircle
 10
6295.0020136573
 20
4895.3772134827
 30
0.0
 40
0.9834110670530084
100
AcDbArc
 50
181.0098583594
 51
270.9754556472
  0
LINE
  5
124
330
1F
100
AcDbEntity
  8
0
  6
Continuous
 62
     7
370
    25
100
AcDbLine
 10
6303.0187553361
 20
4894.3939449319
 30
0.0
 11
6303.0187553361
 21
4898.3245737403
 31
0.0
  0
LINE
  5
125
330
1F
100
AcDbEntity
  8
0
  6
Continuous
 62
     7
370
    25
100
AcDbLine
 10
6303.0187553361
 20
4894.3939449319
 30
0.0
 11
6295.0187553361
 21
4894.3939449319
 31
0.0
  0
LINE
  5
126
330
1F
100
AcDbEntity
  8
0
  6
Continuous
 62
     7
370
    25
100
AcDbLine
 10
6303.0187553361
 20
4898.3245737403
 30
0.0
 11
6295.0187553361
 21
4898.3245737403
 31
0.0
  0
LINE
  5
127
330
1F
100
AcDbEntity
  8
0
  6
Continuous
 62
     7
370
    25
100
AcDbLine
 10
6304.0187553361
 20
4897.3251958168
 30
0.0
 11
6304.0187553361
 21
4895.3598814126
 31
0.0
  0
ARC
  5
128
330
1F
100
AcDbEntity
  8
0
  6
Continuous
 62
     7
370
    25
100
AcDbCircle
 10
6303.0354970149
 20
4895.3772134827
 30
0.0
 40
0.9834110670547961
100
AcDbArc
 50
269.0245443529
 51
358.9901416405
  0
ARC
  5
129
330
1F
100
AcDbEntity
  8
0
  6
Continuous
 62
     7
370
    25
100
AcDbCircle
 10
6303.0190662776
 20
4897.3248846818
 30
0.0
 40
0.9996891069346647
100
AcDbArc
 50
0.0178322686
 51
90.0178211754
  0
LINE
  5
12A
330
1F
100
AcDbEntity
  8
0
  6
Continuous
 62
     7
370
    25
100
AcDbLine
 10
6303.0187553361
 20
4885.4105958226
 30
0.0
 11
6303.0187553361
 21
4894.3939449319
 31
0.0
  0
LINE
  5
12B
330
1F
100
AcDbEntity
  8
0
  6
Continuous
 62
     7
370
    25
100
AcDbLine
 10
6303.0187553361
 20
4885.4105958226
 30
0.0
 11
6292.0187553361
 21
4885.4105958226
 31
0.0
  0
ARC
  5
12C
330
1F
100
AcDbEntity
  8
0
  6
Continuous
 62
     7
370
    25
100
AcDbCircle
 10
6289.0122193028
 20
4890.0095292104
 30
0.0
 40
5.494492444761474
100
AcDbArc
 50
303.1745066983
 51
343.6614803555
  0
LWPOLYLINE
  5
12D
330
1F
100
AcDbEntity
  8
0
  6
Continuous
 62
     7
370
    25
100
AcDbPolyline
 90
        5
 70
   128
 43
0.0
 10
6295.0187553361
 20
4894.3939449319
 10
6294.904078608
 20
4893.2965377509
 10
6294.6517898063
 20
4891.9371221152
 10
6294.3995010046
 20
4890.3232442703
 10
6294.2848242765
 20
4888.4638630058
  0
ARC
  5
12E
330
1F
100
AcDbEntity
  8
0
  6
Continuous
 62
     7
370
    25
100
AcDbCircle
 10
6303.114200405
 20
4886.3182550852
 30
0.0
 40
0.9126637377128523
100
AcDbArc
 50
263.9971132517
 51
352.3566670064
  0
LINE
  5
12F
330
1F
100
AcDbEntity
  8
0
  6
Continuous
 62
     7
370
    25
100
AcDbLine
 10
6304.0187553361
 20
4895.3598814126
 30
0.0
 11
6304.0187553361
 21
4886.1968653211
 31
0.0
  0
ARC
  5
130
330
1F
100
AcDbEntity
  8
0
  6
Continuous
 62
     7
370
    25
100
AcDbCircle
 10
6294.2660648421
 20
4888.7114518298
 30
0.0
 40
0.2482984940351304
100
AcDbArc
 50
185.1155268342
 51
274.3329364716
  0
LINE
  5
131
330
1F
100
AcDbEntity
  8
0
  6
Continuous
 62
     7
370
    25
100
AcDbLine
 10
6294.0187553361
 20
4888.6893124894
 30
0.0
 11
6294.0187553361
 21
4895.3598814126
 31
0.0
  0
LINE
  5
132
330
1F
100
AcDbEntity
  8
0
  6
Continuous
 62
     7
370
    25
100
AcDbLine
 10
6294.9186116671
 20
4898.3674258012
 30
0.0
 11
6294.9317409814
 21
4898.3618076909
 31
0.0
  0
LINE
  5
133
330
1F
100
AcDbEntity
  8
0
  6
Continuous
 62
     7
370
    25
100
AcDbLine
 10
6294.0187553361
 20
4897.3251958168
 30
0.0
 11
6294.0187553361
 21
4897.597258133
 31
0.0
  0
LINE
  5
134
330
1F
100
AcDbEntity
  8
0
  6
Continuous
 62
     7
370
    25
100
AcDbLine
 10
6304.0187553361
 20
4897.3805606217
 30
0.0
 11
6304.0187553361
 21
4897.3251958168
 31
0.0
  0
ARC
  5
135
330
1F
100
AcDbEntity
  8
0
  6
Continuous
 62
     7
370
    25
100
AcDbCircle
 10
6287.5564482288
 20
4890.3819328918
 30
0.0
 40
6.680297671238169
100
AcDbArc
 50
311.9113725662
 51
345.3226825937
  0
ARC
  5
136
330
1F
100
AcDbEntity
  8
0
  6
Continuous
 62
     7
370
    25
100
AcDbCircle
 10
6278.9279156315
 20
4935.5982309381
 30
0.0
 40
41.43755451858213
100
AcDbArc
 50
289.4549608709
 51
291.0689897951
  0
LINE
  5
137
330
1F
100
AcDbEntity
  8
0
  6
Continuous
 62
     7
370
    25
100
AcDbLine
 10
6304.0187553361
 20
4886.1968653211
 30
0.0
 11
6304.0187553361
 21
4885.0961532382
 31
0.0
  0
LWPOLYLINE
  5
138
330
1F
100
AcDbEntity
  8
0
  6
Continuous
 62
     7
370
    25
100
AcDbPolyline
 90
       17
 70
   128
 43
0.0
 10
6305.5472525354
 20
4887.2139142285
 10
6305.5113364624
 20
4887.1053493004
 10
6305.4828749437
 20
4887.0425559672
 10
6305.4763334004
 20
4887.0644565516
 10
6305.4909680357
 20
4887.1632375799
 10
6305.5246397601
 20
4887.3273427363
 10
6305.5743584811
 20
4887.5427378073
 10
6305.6357501823
 20
4887.7903768152
 10
6305.702360291
 20
4888.0437184631
 10
6305.7658491376
 20
4888.2702114467
 10
6305.8176614087
 20
4888.4384886264
 10
6305.8514323513
 20
4888.5276880337
 10
6305.8643141622
 20
4888.5316445739
 10
6305.8563736029
 20
4888.4554583599
 10
6305.8292053259
 20
4888.3097419813
 10
6305.8057809025
 20
4888.1996279169
 10
6305.8057809025
 20
4888.1996279169
  0
ARC
  5
139
330
1F
100
AcDbEntity
  8
0
  6
Continuous
 62
     7
370
    25
100
AcDbCircle
 10
6295.403613049
 20
4890.0871924138
 30
0.0
 40
10.63357173705615
100
AcDbArc
 50
11.0729442129
 51
17.441130681
  0
LWPOLYLINE
  5
13A
330
1F
100
AcDbEntity
  8
0
  6
Continuous
 62
     7
370
    25
100
AcDbPolyline
 90
        4
 70
   128
 43
0.0
 10
6305.8312391352
 20
4888.3247638668
 10
6305.8569988086
 20
4888.4660668423
 10
6305.8629523981
 20
4888.5350794407
 10
6305.8577828452
 20
4888.5310712479
  0
LWPOLYLINE
  5
13B
330
1F
100
AcDbEntity
  8
0
  6
Continuous
 62
     7
370
    25
100
AcDbPolyline
 90
        4
 70
   128
 43
0.0
 10
6305.4806643369
 20
4887.0491500371
 10
6305.4834917213
 20
4887.0446797776
 10
6305.5118082295
 20
4887.1095031722
 10
6305.5458444635
 20
4887.2125071054
  0
ARC
  5
13C
330
1F
100
AcDbEntity
  8
0
  6
Continuous
 62
     7
370
    25
100
AcDbCircle
 10
6267.0187553361
 20
4890.2461532382
 30
0.0
 40
15.00000000000006
100
AcDbArc
 50
311.8103148958
 51
90.0
  0
ARC
  5
13D
330
1F
100
AcDbEntity
  8
0
  6
Continuous
 62
     7
370
    25
100
AcDbCircle
 10
6267.0187553361
 20
4890.2461532382
 30
0.0
 40
15.00000000000006
100
AcDbArc
 50
90.0
 51
228.1896851042
  0
ARC
  5
13E
330
1F
100
AcDbEntity
  8
0
  6
Continuous
 62
     7
370
    25
100
AcDbCircle
 10
6267.0187553361
 20
4890.2461532382
 30
0.0
 40
25.00000000000014
100
AcDbArc
 50
293.6129509829
 51
90.0
  0
ARC
  5
13F
330
1F
100
AcDbEntity
  8
0
  6
Continuous
 62
     7
370
    25
100
AcDbCircle
 10
6267.0187553361
 20
4890.2461532382
 30
0.0
 40
25.0
100
AcDbArc
 50
90.0
 51
246.4218215218
  0
ARC
  5
140
330
1F
100
AcDbEntity
  8
0
  6
Continuous
 62
     8
370
    25
100
AcDbCircle
 10
6267.0187553361
 20
4890.2461532382
 30
0.0
 40
14.00000000000026
100
AcDbArc
 50
315.5846914028
 51
90.0
  0
ARC
  5
141
330
1F
100
AcDbEntity
  8
0
  6
Continuous
 62
     8
370
    25
100
AcDbCircle
 10
6267.0187553361
 20
4890.2461532382
 30
0.0
 40
14.00000000000026
100
AcDbArc
 50
90.0
 51
224.4153085972
  0
ARC
  5
142
330
1F
100
AcDbEntity
  8
0
  6
Continuous
 62
     8
370
    25
100
AcDbCircle
 10
6267.0187553361
 20
4744.6414467971
 30
0.0
 40
10.00027418252753
100
AcDbArc
 50
180.4242799965
 51
359.5757200035
  0
ARC
  5
143
330
1F
100
AcDbEntity
  8
0
  6
Continuous
 62
     8
370
    25
100
AcDbCircle
 10
6267.0187553361
 20
4742.4808261089
 30
0.0
 40
10.00027418252753
100
AcDbArc
 50
180.4242799965
 51
359.5757200035
  0
LINE
  5
144
330
1F
100
AcDbEntity
  8
0
  6
Continuous
 62
     8
370
    25
100
AcDbLine
 10
6294.9317409814
 20
4898.3618076909
 30
0.0
 11
6295.0187553361
 21
4898.3245737403
 31
0.0
  0
LINE
  5
145
330
1F
100
AcDbEntity
  8
0
  6
Continuous
 62
     8
370
    25
100
AcDbLine
 10
6303.0187553361
 20
4898.3245737403
 30
0.0
 11
6303.0187553361
 21
4898.3805606217
 31
0.0
  0
LINE
  5
146
330
1F
100
AcDbEntity
  8
0
  6
Continuous
 62
     8
370
    25
100
AcDbLine
 10
6292.0187553361
 20
4885.4105958226
 30
0.0
 11
6292.0187553361
 21
4896.3961532382
 31
0.0
  0
LINE
  5
147
330
1F
100
AcDbEntity
  8
0
  6
Continuous
 62
     8
370
    25
100
AcDbLine
 10
6303.0187553361
 20
4884.0961532382
 30
0.0
 11
6303.0187553361
 21
4885.4105958226
 31
0.0
  0
LINE
  5
148
330
1F
100
AcDbEntity
  8
0
  6
Continuous
 62
     8
370
    25
100
AcDbLine
 10
6304.5884694504
 20
4894.8461532382
 30
0.0
 11
6304.5884694504
 21
4885.6461532382
 31
0.0
  0
LINE
  5
149
330
1F
100
AcDbEntity
  8
0
  6
Continuous
 62
     8
370
    25
100
AcDbLine
 10
6305.0395070353
 20
4894.5619427119
 30
0.0
 11
6305.0395070353
 21
4885.9303637646
 31
0.0
  0
ARC
  5
14A
330
1F
100
AcDbEntity
  8
0
  6
Continuous
 62
     8
370
    25
100
AcDbCircle
 10
6267.0187553361
 20
4890.2461532382
 30
0.0
 40
23.2437386868105
100
AcDbArc
 50
295.4817377185
 51
90.0
  0
ARC
  5
14B
330
1F
100
AcDbEntity
  8
0
  6
Continuous
 62
     8
370
    25
100
AcDbCircle
 10
6267.0187553361
 20
4890.2461532382
 30
0.0
 40
23.2437386868105
100
AcDbArc
 50
90.0
 51
244.5182622815
  0
ENDSEC
  0
SECTION
  2
OBJECTS
  0
DICTIONARY
  5
C
330
0
100
AcDbDictionary
281
     1
  3
ACAD_GROUP
350
D
  3
ACAD_LAYOUT
350
1A
  3
ACAD_MLINESTYLE
350
17
  3
ACAD_PLOTSETTINGS
350
19
  3
ACAD_PLOTSTYLENAME
350
E
  3
ACAD_SCALELIST
350
47
  3
DWGPROPS
350
14C
  0
DICTIONARY
  5
D
102
{ACAD_REACTORS
330
C
102
}
330
C
100
AcDbDictionary
281
     1
  0
DICTIONARY
  5
1A
102
{ACAD_REACTORS
330
C
102
}
330
C
100
AcDbDictionary
281
     1
  3
Layout1
350
1E
  3
Layout2
350
26
  3
Model
350
22
  0
DICTIONARY
  5
17
102
{ACAD_REACTORS
330
C
102
}
330
C
100
AcDbDictionary
281
     1
  3
Standard
350
18
  0
DICTIONARY
  5
19
102
{ACAD_REACTORS
330
C
102
}
330
C
100
AcDbDictionary
281
     1
  0
ACDBDICTIONARYWDFLT
  5
E
102
{ACAD_REACTORS
330
C
102
}
330
C
100
AcDbDictionary
281
     1
  3
Normal
350
F
100
AcDbDictionaryWithDefault
340
F
  0
DICTIONARY
  5
47
102
{ACAD_REACTORS
330
C
102
}
330
C
100
AcDbDictionary
281
     1
  3
A0
350
48
  3
A1
350
49
  3
A2
350
4A
  3
A3
350
4B
  3
A4
350
4C
  3
A5
350
4D
  3
A6
350
4E
  3
A7
350
4F
  3
A8
350
50
  3
A9
350
51
  3
B0
350
52
  3
B1
350
53
  3
B2
350
54
  3
B3
350
55
  3
B4
350
56
  3
B5
350
57
  3
B6
350
58
  3
B7
350
59
  3
B8
350
5A
  3
B9
350
5B
  3
C0
350
5C
  3
C1
350
5D
  3
C2
350
5E
  3
C3
350
5F
  3
C4
350
60
  3
C5
350
61
  3
C6
350
62
  3
C7
350
63
  3
C8
350
64
  3
C9
350
65
  3
D0
350
66
  3
D1
350
67
  3
D2
350
68
  0
XRECORD
  5
14C
102
{ACAD_REACTORS
330
C
102
}
330
C
100
AcDbXrecord
280
     1
  1
DWGPROPS COOKIE
  2

  3

  4

  6

  7

  8
radek.stransky
  9

300
=
301
=
302
=
303
=
304
=
305
=
306
=
307
=
308
=
309
=
 40
0.0
 41
2459593.548460891
 42
2459593.548461169
  1

 90
        0
  0
LAYOUT
  5
1E
102
{ACAD_REACTORS
330
1A
102
}
330
1A
100
AcDbPlotSettings
  1

  2
none_device
  4

  6

 40
0.0
 41
0.0
 42
0.0
 43
0.0
 44
0.0
 45
0.0
 46
0.0
 47
0.0
 48
0.0
 49
0.0
140
0.0
141
0.0
142
1.0
143
1.0
 70
   688
 72
     1
 73
     0
 74
     5
  7

 75
    16
147
1.0
148
0.0
149
0.0
100
AcDbLayout
  1
Layout1
 70
     1
 71
     1
 10
0.0
 20
0.0
 11
420.0
 21
297.0
 12
0.0
 22
0.0
 32
0.0
 14
1.0000000000E+20
 24
1.0000000000E+20
 34
1.0000000000E+20
 15
-1.0000000000E+20
 25
-1.0000000000E+20
 35
-1.0000000000E+20
146
0.0
 13
0.0
 23
0.0
 33
0.0
 16
1.0
 26
0.0
 36
0.0
 17
0.0
 27
1.0
 37
0.0
 76
     0
330
1B
  0
LAYOUT
  5
26
102
{ACAD_REACTORS
330
1A
102
}
330
1A
100
AcDbPlotSettings
  1

  2
none_device
  4

  6

 40
0.0
 41
0.0
 42
0.0
 43
0.0
 44
0.0
 45
0.0
 46
0.0
 47
0.0
 48
0.0
 49
0.0
140
0.0
141
0.0
142
1.0
143
1.0
 70
   688
 72
     1
 73
     0
 74
     5
  7

 75
    16
147
1.0
148
0.0
149
0.0
100
AcDbLayout
  1
Layout2
 70
     1
 71
     2
 10
0.0
 20
0.0
 11
0.0
 21
0.0
 12
0.0
 22
0.0
 32
0.0
 14
0.0
 24
0.0
 34
0.0
 15
0.0
 25
0.0
 35
0.0
146
0.0
 13
0.0
 23
0.0
 33
0.0
 16
1.0
 26
0.0
 36
0.0
 17
0.0
 27
1.0
 37
0.0
 76
     0
330
23
  0
LAYOUT
  5
22
102
{ACAD_REACTORS
330
1A
102
}
330
1A
100
AcDbPlotSettings
  1

  2
none_device
  4
Letter_(8.50_x_11.00_Inches)
  6

 40
6.35
 41
6.35
 42
6.35000508
 43
6.35000508
 44
215.9
 45
279.4
 46
0.0
 47
0.0
 48
0.0
 49
0.0
140
0.0
141
0.0
142
1.0
143
1.0
 70
  1712
 72
     1
 73
     0
 74
     0
  7

 75
     0
147
1.0
148
0.0
149
0.0
100
AcDbLayout
  1
Model
 70
     1
 71
     0
 10
0.0
 20
0.0
 11
20000.0
 21
10000.0
 12
0.0
 22
0.0
 32
0.0
 14
0.0
 24
0.0
 34
0.0
 15
20000.0
 25
10000.0
 35
0.0
146
0.0
 13
0.0
 23
0.0
 33
0.0
 16
1.0
 26
0.0
 36
0.0
 17
0.0
 27
1.0
 37
0.0
 76
     0
330
1F
331
29
  0
MLINESTYLE
  5
18
102
{ACAD_REACTORS
330
17
102
}
330
17
100
AcDbMlineStyle
  2
Standard
 70
     0
  3

 62
   256
 51
90.0
 52
90.0
 71
     2
 49
0.5
 62
   256
  6
BYLAYER
 49
-0.5
 62
   256
  6
BYLAYER
  0
ACDBPLACEHOLDER
  5
F
102
{ACAD_REACTORS
330
E
102
}
330
E
  0
SCALE
  5
48
102
{ACAD_REACTORS
330
47
102
}
330
47
100
AcDbScale
 70
     0
300
1:1
140
1.0
141
1.0
290
     1
  0
SCALE
  5
49
102
{ACAD_REACTORS
330
47
102
}
330
47
100
AcDbScale
 70
     0
300
1:2
140
1.0
141
2.0
290
     0
  0
SCALE
  5
4A
102
{ACAD_REACTORS
330
47
102
}
330
47
100
AcDbScale
 70
     0
300
1:4
140
1.0
141
4.0
290
     0
  0
SCALE
  5
4B
102
{ACAD_REACTORS
330
47
102
}
330
47
100
AcDbScale
 70
     0
300
1:5
140
1.0
141
5.0
290
     0
  0
SCALE
  5
4C
102
{ACAD_REACTORS
330
47
102
}
330
47
100
AcDbScale
 70
     0
300
1:8
140
1.0
141
8.0
290
     0
  0
SCALE
  5
4D
102
{ACAD_REACTORS
330
47
102
}
330
47
100
AcDbScale
 70
     0
300
1:10
140
1.0
141
10.0
290
     0
  0
SCALE
  5
4E
102
{ACAD_REACTORS
330
47
102
}
330
47
100
AcDbScale
 70
     0
300
1:16
140
1.0
141
16.0
290
     0
  0
SCALE
  5
4F
102
{ACAD_REACTORS
330
47
102
}
330
47
100
AcDbScale
 70
     0
300
1:20
140
1.0
141
20.0
290
     0
  0
SCALE
  5
50
102
{ACAD_REACTORS
330
47
102
}
330
47
100
AcDbScale
 70
     0
300
1:30
140
1.0
141
30.0
290
     0
  0
SCALE
  5
51
102
{ACAD_REACTORS
330
47
102
}
330
47
100
AcDbScale
 70
     0
300
1:40
140
1.0
141
40.0
290
     0
  0
SCALE
  5
52
102
{ACAD_REACTORS
330
47
102
}
330
47
100
AcDbScale
 70
     0
300
1:50
140
1.0
141
50.0
290
     0
  0
SCALE
  5
53
102
{ACAD_REACTORS
330
47
102
}
330
47
100
AcDbScale
 70
     0
300
1:100
140
1.0
141
100.0
290
     0
  0
SCALE
  5
54
102
{ACAD_REACTORS
330
47
102
}
330
47
100
AcDbScale
 70
     0
300
2:1
140
2.0
141
1.0
290
     0
  0
SCALE
  5
55
102
{ACAD_REACTORS
330
47
102
}
330
47
100
AcDbScale
 70
     0
300
4:1
140
4.0
141
1.0
290
     0
  0
SCALE
  5
56
102
{ACAD_REACTORS
330
47
102
}
330
47
100
AcDbScale
 70
     0
300
8:1
140
8.0
141
1.0
290
     0
  0
SCALE
  5
57
102
{ACAD_REACTORS
330
47
102
}
330
47
100
AcDbScale
 70
     0
300
10:1
140
10.0
141
1.0
290
     0
  0
SCALE
  5
58
102
{ACAD_REACTORS
330
47
102
}
330
47
100
AcDbScale
 70
     0
300
100:1
140
100.0
141
1.0
290
     0
  0
SCALE
  5
59
102
{ACAD_REACTORS
330
47
102
}
330
47
100
AcDbScale
 70
     0
300
1/128" = 1'-0"
140
0.0078125
141
12.0
290
     0
  0
SCALE
  5
5A
102
{ACAD_REACTORS
330
47
102
}
330
47
100
AcDbScale
 70
     0
300
1/64" = 1'-0"
140
0.015625
141
12.0
290
     0
  0
SCALE
  5
5B
102
{ACAD_REACTORS
330
47
102
}
330
47
100
AcDbScale
 70
     0
300
1/32" = 1'-0"
140
0.03125
141
12.0
290
     0
  0
SCALE
  5
5C
102
{ACAD_REACTORS
330
47
102
}
330
47
100
AcDbScale
 70
     0
300
1/16" = 1'-0"
140
0.0625
141
12.0
290
     0
  0
SCALE
  5
5D
102
{ACAD_REACTORS
330
47
102
}
330
47
100
AcDbScale
 70
     0
300
3/32" = 1'-0"
140
0.09375
141
12.0
290
     0
  0
SCALE
  5
5E
102
{ACAD_REACTORS
330
47
102
}
330
47
100
AcDbScale
 70
     0
300
1/8" = 1'-0"
140
0.125
141
12.0
290
     0
  0
SCALE
  5
5F
102
{ACAD_REACTORS
330
47
102
}
330
47
100
AcDbScale
 70
     0
300
3/16" = 1'-0"
140
0.1875
141
12.0
290
     0
  0
SCALE
  5
60
102
{ACAD_REACTORS
330
47
102
}
330
47
100
AcDbScale
 70
     0
300
1/4" = 1'-0"
140
0.25
141
12.0
290
     0
  0
SCALE
  5
61
102
{ACAD_REACTORS
330
47
102
}
330
47
100
AcDbScale
 70
     0
300
3/8" = 1'-0"
140
0.375
141
12.0
290
     0
  0
SCALE
  5
62
102
{ACAD_REACTORS
330
47
102
}
330
47
100
AcDbScale
 70
     0
300
1/2" = 1'-0"
140
0.5
141
12.0
290
     0
  0
SCALE
  5
63
102
{ACAD_REACTORS
330
47
102
}
330
47
100
AcDbScale
 70
     0
300
3/4" = 1'-0"
140
0.75
141
12.0
290
     0
  0
SCALE
  5
64
102
{ACAD_REACTORS
330
47
102
}
330
47
100
AcDbScale
 70
     0
300
1" = 1'-0"
140
1.0
141
12.0
290
     0
  0
SCALE
  5
65
102
{ACAD_REACTORS
330
47
102
}
330
47
100
AcDbScale
 70
     0
300
1-1/2" = 1'-0"
140
1.5
141
12.0
290
     0
  0
SCALE
  5
66
102
{ACAD_REACTORS
330
47
102
}
330
47
100
AcDbScale
 70
     0
300
3" = 1'-0"
140
3.0
141
12.0
290
     0
  0
SCALE
  5
67
102
{ACAD_REACTORS
330
47
102
}
330
47
100
AcDbScale
 70
     0
300
6" = 1'-0"
140
6.0
141
12.0
290
     0
  0
SCALE
  5
68
102
{ACAD_REACTORS
330
47
102
}
330
47
100
AcDbScale
 70
     0
300
1'-0" = 1'-0"
140
12.0
141
12.0
290
     0
  0
ENDSEC
  0
EOF
