  0
SECTION
  2
HEADER
  9
$ACADVER
  1
AC1015
  9
$ACADMAINTVER
 70
     6
  9
$DWGCODEPAGE
  3
ANSI_1250
  9
$INSBASE
 10
0.0
 20
0.0
 30
0.0
  9
$EXTMIN
 10
0.0
 20
0.0
 30
0.0
  9
$EXTMAX
 10
20000.0
 20
10000.0
 30
0.0
  9
$LIMMIN
 10
0.0
 20
0.0
  9
$LIMMAX
 10
20000.0
 20
10000.0
  9
$ORTHOMODE
 70
     0
  9
$REGENMODE
 70
     1
  9
$FILLMODE
 70
     1
  9
$QTEXTMODE
 70
     0
  9
$MIRRTEXT
 70
     1
  9
$LTSCALE
 40
1.0
  9
$ATTMODE
 70
     1
  9
$TEXTSIZE
 40
2.0
  9
$TRACEWID
 40
1.0
  9
$TEXTSTYLE
  7
Standard
  9
$CLAYER
  8
0
  9
$CELTYPE
  6
ByLayer
  9
$CECOLOR
 62
   256
  9
$CELTSCALE
 40
1.0
  9
$DISPSILH
 70
     0
  9
$DIMSCALE
 40
1.0
  9
$DIMASZ
 40
2.0
  9
$DIMEXO
 40
1.0
  9
$DIMDLI
 40
3.75
  9
$DIMRND
 40
0.0
  9
$DIMDLE
 40
0.0
  9
$DIMEXE
 40
1.0
  9
$DIMTP
 40
0.0
  9
$DIMTM
 40
0.0
  9
$DIMTXT
 40
2.0
  9
$DIMCEN
 40
2.5
  9
$DIMTSZ
 40
0.0
  9
$DIMTOL
 70
     0
  9
$DIMLIM
 70
     0
  9
$DIMTIH
 70
     1
  9
$DIMTOH
 70
     1
  9
$DIMSE1
 70
     0
  9
$DIMSE2
 70
     0
  9
$DIMTAD
 70
     1
  9
$DIMZIN
 70
     0
  9
$DIMBLK
  1

  9
$DIMASO
 70
     1
  9
$DIMSHO
 70
     1
  9
$DIMPOST
  1

  9
$DIMAPOST
  1

  9
$DIMALT
 70
     0
  9
$DIMALTD
 70
     3
  9
$DIMALTF
 40
0.0393700787
  9
$DIMLFAC
 40
1.0
  9
$DIMTOFL
 70
     1
  9
$DIMTVP
 40
0.0
  9
$DIMTIX
 70
     0
  9
$DIMSOXD
 70
     0
  9
$DIMSAH
 70
     0
  9
$DIMBLK1
  1

  9
$DIMBLK2
  1

  9
$DIMSTYLE
  2
ISO-25
  9
$DIMCLRD
 70
     0
  9
$DIMCLRE
 70
     0
  9
$DIMCLRT
 70
     0
  9
$DIMTFAC
 40
1.0
  9
$DIMGAP
 40
1.524
  9
$DIMJUST
 70
     0
  9
$DIMSD1
 70
     0
  9
$DIMSD2
 70
     0
  9
$DIMTOLJ
 70
     0
  9
$DIMTZIN
 70
     0
  9
$DIMALTZ
 70
     0
  9
$DIMALTTZ
 70
     0
  9
$DIMUPT
 70
     0
  9
$DIMDEC
 70
     2
  9
$DIMTDEC
 70
     0
  9
$DIMALTU
 70
     2
  9
$DIMALTTD
 70
     3
  9
$DIMTXSTY
  7
Standard
  9
$DIMAUNIT
 70
     0
  9
$DIMADEC
 70
     2
  9
$DIMALTRND
 40
0.0
  9
$DIMAZIN
 70
     0
  9
$DIMDSEP
 70
    44
  9
$DIMATFIT
 70
     3
  9
$DIMFRAC
 70
     0
  9
$DIMLDRBLK
  1

  9
$DIMLUNIT
 70
     2
  9
$DIMLWD
 70
    -2
  9
$DIMLWE
 70
    -2
  9
$DIMTMOVE
 70
     0
  9
$LUNITS
 70
     2
  9
$LUPREC
 70
     3
  9
$SKETCHINC
 40
1.0
  9
$FILLETRAD
 40
10.0
  9
$AUNITS
 70
     0
  9
$AUPREC
 70
     2
  9
$MENU
  1
.
  9
$ELEVATION
 40
0.0
  9
$PELEVATION
 40
0.0
  9
$THICKNESS
 40
0.0
  9
$LIMCHECK
 70
     0
  9
$CHAMFERA
 40
0.0
  9
$CHAMFERB
 40
0.0
  9
$CHAMFERC
 40
0.0
  9
$CHAMFERD
 40
0.0
  9
$SKPOLY
 70
     0
  9
$TDCREATE
 40
2459594.519781586
  9
$TDUCREATE
 40
2459594.478114919
  9
$TDUPDATE
 40
2459594.519782002
  9
$TDUUPDATE
 40
2459594.478115336
  9
$TDINDWG
 40
0.0000000116
  9
$TDUSRTIMER
 40
0.0000000116
  9
$USRTIMER
 70
     1
  9
$ANGBASE
 50
0.0
  9
$ANGDIR
 70
     0
  9
$PDMODE
 70
     0
  9
$PDSIZE
 40
-1.0
  9
$PLINEWID
 40
0.0
  9
$SPLFRAME
 70
     0
  9
$SPLINETYPE
 70
     6
  9
$SPLINESEGS
 70
     8
  9
$HANDSEED
  5
1AF
  9
$SURFTAB1
 70
     6
  9
$SURFTAB2
 70
     6
  9
$SURFTYPE
 70
     6
  9
$SURFU
 70
     6
  9
$SURFV
 70
     6
  9
$UCSBASE
  2

  9
$UCSNAME
  2

  9
$UCSORG
 10
0.0
 20
0.0
 30
0.0
  9
$UCSXDIR
 10
1.0
 20
0.0
 30
0.0
  9
$UCSYDIR
 10
0.0
 20
1.0
 30
0.0
  9
$UCSORTHOREF
  2

  9
$UCSORTHOVIEW
 70
     0
  9
$UCSORGTOP
 10
0.0
 20
0.0
 30
0.0
  9
$UCSORGBOTTOM
 10
0.0
 20
0.0
 30
0.0
  9
$UCSORGLEFT
 10
0.0
 20
0.0
 30
0.0
  9
$UCSORGRIGHT
 10
0.0
 20
0.0
 30
0.0
  9
$UCSORGFRONT
 10
0.0
 20
0.0
 30
0.0
  9
$UCSORGBACK
 10
0.0
 20
0.0
 30
0.0
  9
$PUCSBASE
  2

  9
$PUCSNAME
  2

  9
$PUCSORG
 10
0.0
 20
0.0
 30
0.0
  9
$PUCSXDIR
 10
1.0
 20
0.0
 30
0.0
  9
$PUCSYDIR
 10
0.0
 20
1.0
 30
0.0
  9
$PUCSORTHOREF
  2

  9
$PUCSORTHOVIEW
 70
     0
  9
$PUCSORGTOP
 10
0.0
 20
0.0
 30
0.0
  9
$PUCSORGBOTTOM
 10
0.0
 20
0.0
 30
0.0
  9
$PUCSORGLEFT
 10
0.0
 20
0.0
 30
0.0
  9
$PUCSORGRIGHT
 10
0.0
 20
0.0
 30
0.0
  9
$PUCSORGFRONT
 10
0.0
 20
0.0
 30
0.0
  9
$PUCSORGBACK
 10
0.0
 20
0.0
 30
0.0
  9
$USERI1
 70
     0
  9
$USERI2
 70
     0
  9
$USERI3
 70
     0
  9
$USERI4
 70
     0
  9
$USERI5
 70
     0
  9
$USERR1
 40
0.0
  9
$USERR2
 40
0.0
  9
$USERR3
 40
0.0
  9
$USERR4
 40
0.0
  9
$USERR5
 40
0.0
  9
$WORLDVIEW
 70
     1
  9
$SHADEDGE
 70
     3
  9
$SHADEDIF
 70
    70
  9
$TILEMODE
 70
     1
  9
$MAXACTVP
 70
    64
  9
$PINSBASE
 10
0.0
 20
0.0
 30
0.0
  9
$PLIMCHECK
 70
     0
  9
$PEXTMIN
 10
1.0000000000E+20
 20
1.0000000000E+20
 30
1.0000000000E+20
  9
$PEXTMAX
 10
-1.0000000000E+20
 20
-1.0000000000E+20
 30
-1.0000000000E+20
  9
$PLIMMIN
 10
0.0
 20
0.0
  9
$PLIMMAX
 10
420.0
 20
297.0
  9
$UNITMODE
 70
     0
  9
$VISRETAIN
 70
     1
  9
$PLINEGEN
 70
     0
  9
$PSLTSCALE
 70
     1
  9
$TREEDEPTH
 70
  3020
  9
$CMLSTYLE
  2
Standard
  9
$CMLJUST
 70
     0
  9
$CMLSCALE
 40
20.0
  9
$PROXYGRAPHICS
 70
     1
  9
$MEASUREMENT
 70
     1
  9
$CELWEIGHT
370
    -1
  9
$ENDCAPS
280
     0
  9
$JOINSTYLE
280
     0
  9
$LWDISPLAY
290
     1
  9
$INSUNITS
 70
     4
  9
$HYPERLINKBASE
  1

  9
$STYLESHEET
  1

  9
$XEDIT
290
     1
  9
$CEPSNTYPE
380
     0
  9
$PSTYLEMODE
290
     1
  9
$FINGERPRINTGUID
  2
{531dbceb-777b-452f-a8d5-7ea30eadc4b5}
  9
$VERSIONGUID
  2
{FAEB1C32-E019-11D5-929B-00C0DF256EC4}
  9
$EXTNAMES
290
     1
  9
$PSVPSCALE
 40
0.0
  9
$OLESTARTUP
290
     0
  0
ENDSEC
  0
SECTION
  2
CLASSES
  0
CLASS
  1
ACDBDICTIONARYWDFLT
  2
AcDbDictionaryWithDefault
  3
ObjectDBX Classes
 90
        0
280
     0
281
     0
  0
CLASS
  1
VISUALSTYLE
  2
AcDbVisualStyle
  3
ObjectDBX Classes
 90
     4095
280
     0
281
     0
  0
CLASS
  1
MATERIAL
  2
AcDbMaterial
  3
ObjectDBX Classes
 90
     1153
280
     0
281
     0
  0
CLASS
  1
SCALE
  2
AcDbScale
  3
ObjectDBX Classes
 90
     1153
280
     0
281
     0
  0
CLASS
  1
TABLESTYLE
  2
AcDbTableStyle
  3
ObjectDBX Classes
 90
     4095
280
     0
281
     0
  0
CLASS
  1
MLEADERSTYLE
  2
AcDbMLeaderStyle
  3
ACDB_MLEADERSTYLE_CLASS
 90
     4095
280
     0
281
     0
  0
CLASS
  1
SUN
  2
AcDbSun
  3
SCENEOE
 90
     1153
280
     0
281
     0
  0
CLASS
  1
ACDBPLACEHOLDER
  2
AcDbPlaceHolder
  3
ObjectDBX Classes
 90
        0
280
     0
281
     0
  0
CLASS
  1
LAYOUT
  2
AcDbLayout
  3
ObjectDBX Classes
 90
        0
280
     0
281
     0
  0
ENDSEC
  0
SECTION
  2
TABLES
  0
TABLE
  2
VPORT
  5
8
330
0
100
AcDbSymbolTable
 70
     1
  0
VPORT
  5
29
330
8
100
AcDbSymbolTableRecord
100
AcDbViewportTableRecord
  2
*Active
 70
     0
 10
0.0
 20
0.0
 11
1.0
 21
1.0
 12
10000.0
 22
5000.0
 13
0.0
 23
0.0
 14
10.0
 24
10.0
 15
10.0
 25
10.0
 16
0.0
 26
0.0
 36
1.0
 17
0.0
 27
0.0
 37
0.0
 40
10000.0
 41
2.0
 42
50.0
 43
0.0
 44
0.0
 50
0.0
 51
0.0
 71
     0
 72
  2000
 73
     1
 74
     3
 75
     0
 76
     0
 77
     0
 78
     0
281
     0
 65
     1
110
0.0
120
0.0
130
0.0
111
1.0
121
0.0
131
0.0
112
0.0
122
1.0
132
0.0
 79
     0
146
0.0
  0
ENDTAB
  0
TABLE
  2
LTYPE
  5
5
330
0
100
AcDbSymbolTable
 70
     6
  0
LTYPE
  5
14
330
5
100
AcDbSymbolTableRecord
100
AcDbLinetypeTableRecord
  2
ByBlock
 70
     0
  3

 72
    65
 73
     0
 40
0.0
  0
LTYPE
  5
15
330
5
100
AcDbSymbolTableRecord
100
AcDbLinetypeTableRecord
  2
ByLayer
 70
     0
  3

 72
    65
 73
     0
 40
0.0
  0
LTYPE
  5
16
330
5
100
AcDbSymbolTableRecord
100
AcDbLinetypeTableRecord
  2
Continuous
 70
     0
  3
Solid line
 72
    65
 73
     0
 40
0.0
  0
LTYPE
  5
6E
330
5
100
AcDbSymbolTableRecord
100
AcDbLinetypeTableRecord
  2
HIDDEN
 70
     0
  3
Hidden __ __ __ __ __ __ __ __ __ __ __ __ __ __
 72
    65
 73
     2
 40
1.905
 49
1.27
 74
     0
 49
-0.635
 74
     0
  0
LTYPE
  5
6F
330
5
100
AcDbSymbolTableRecord
100
AcDbLinetypeTableRecord
  2
PHANTOM
 70
     0
  3
Phantom ______  __  __  ______  __  __  ______
 72
    65
 73
     6
 40
12.7
 49
6.35
 74
     0
 49
-1.27
 74
     0
 49
1.27
 74
     0
 49
-1.27
 74
     0
 49
1.27
 74
     0
 49
-1.27
 74
     0
  0
LTYPE
  5
70
330
5
100
AcDbSymbolTableRecord
100
AcDbLinetypeTableRecord
  2
CENTER
 70
     0
  3
Center ____ _ ____ _ ____ _ ____ _ ____ _ ____
 72
    65
 73
     4
 40
10.16
 49
6.35
 74
     0
 49
-1.27
 74
     0
 49
1.27
 74
     0
 49
-1.27
 74
     0
  0
LTYPE
  5
71
330
5
100
AcDbSymbolTableRecord
100
AcDbLinetypeTableRecord
  2
CENTERX2
 70
     0
  3
Center (2x) ________  __  ________  __  _____
 72
    65
 73
     4
 40
20.32
 49
12.7
 74
     0
 49
-2.54
 74
     0
 49
2.54
 74
     0
 49
-2.54
 74
     0
  0
LTYPE
  5
72
330
5
100
AcDbSymbolTableRecord
100
AcDbLinetypeTableRecord
  2
DOT2
 70
     0
  3
Dot (.5x) ........................................
 72
    65
 73
     2
 40
0.635
 49
0.0
 74
     0
 49
-0.635
 74
     0
  0
ENDTAB
  0
TABLE
  2
LAYER
  5
2
330
0
100
AcDbSymbolTable
 70
    13
  0
LAYER
  5
10
330
2
100
AcDbSymbolTableRecord
100
AcDbLayerTableRecord
  2
0
 70
     0
 62
     7
  6
Continuous
370
    -3
390
F
  0
LAYER
  5
73
330
2
100
AcDbSymbolTableRecord
100
AcDbLayerTableRecord
  2
FORMAT
 70
     0
 62
     7
  6
Continuous
370
    -3
390
F
  0
LAYER
  5
74
330
2
100
AcDbSymbolTableRecord
100
AcDbLayerTableRecord
  2
OSA
 70
     0
 62
     7
  6
CENTER
370
    -3
390
F
  0
LAYER
  5
75
330
2
100
AcDbSymbolTableRecord
100
AcDbLayerTableRecord
  2
0_35
 70
     0
 62
     7
  6
Continuous
370
    35
390
F
  0
LAYER
  5
76
330
2
100
AcDbSymbolTableRecord
100
AcDbLayerTableRecord
  2
0_5
 70
     0
 62
     7
  6
Continuous
370
    50
390
F
  0
LAYER
  5
77
330
2
100
AcDbSymbolTableRecord
100
AcDbLayerTableRecord
  2
0_25
 70
     0
 62
     7
  6
Continuous
370
    25
390
F
  0
LAYER
  5
78
330
2
100
AcDbSymbolTableRecord
100
AcDbLayerTableRecord
  2
0_18
 70
     0
 62
     7
  6
Continuous
370
    -3
390
F
  0
LAYER
  5
79
330
2
100
AcDbSymbolTableRecord
100
AcDbLayerTableRecord
  2
SLD-0
 70
     0
 62
   179
  6
Continuous
370
    -3
390
F
  0
LAYER
  5
7A
330
2
100
AcDbSymbolTableRecord
100
AcDbLayerTableRecord
  2
KOTY
 70
     0
 62
     7
  6
Continuous
370
    -3
390
F
  0
LAYER
  5
7B
330
2
100
AcDbSymbolTableRecord
100
AcDbLayerTableRecord
  2
SILNA
 70
     0
 62
   179
  6
Continuous
370
    -3
390
F
  0
LAYER
  5
7C
330
2
100
AcDbSymbolTableRecord
100
AcDbLayerTableRecord
  2
0_18_1
 70
     0
 62
   179
  6
Continuous
370
    -3
390
F
  0
LAYER
  5
7D
330
2
100
AcDbSymbolTableRecord
100
AcDbLayerTableRecord
  2
0_35_1
 70
     0
 62
   179
  6
Continuous
370
    35
390
F
  0
LAYER
  5
7E
330
2
100
AcDbSymbolTableRecord
100
AcDbLayerTableRecord
  2
0_5_1
 70
     0
 62
   179
  6
Continuous
370
    50
390
F
  0
ENDTAB
  0
TABLE
  2
STYLE
  5
3
330
0
100
AcDbSymbolTable
 70
     1
  0
STYLE
  5
11
330
3
100
AcDbSymbolTableRecord
100
AcDbTextStyleTableRecord
  2
Standard
 70
     0
 40
0.0
 41
1.0
 50
0.0
 71
     0
 42
2.0
  3
txt
  4

  0
ENDTAB
  0
TABLE
  2
VIEW
  5
6
330
0
100
AcDbSymbolTable
 70
     0
  0
ENDTAB
  0
TABLE
  2
UCS
  5
7
330
0
100
AcDbSymbolTable
 70
     0
  0
ENDTAB
  0
TABLE
  2
APPID
  5
9
330
0
100
AcDbSymbolTable
 70
     1
  0
APPID
  5
12
330
9
100
AcDbSymbolTableRecord
100
AcDbRegAppTableRecord
  2
ACAD
 70
     0
  0
ENDTAB
  0
TABLE
  2
DIMSTYLE
  5
A
330
0
100
AcDbSymbolTable
 70
     1
100
AcDbDimStyleTable
  0
DIMSTYLE
105
27
330
A
100
AcDbSymbolTableRecord
100
AcDbDimStyleTableRecord
  2
ISO-25
 70
     0
 41
2.5
 42
0.625
 43
3.75
 44
1.25
 73
     0
 74
     0
 77
     1
 78
     8
140
2.5
141
2.5
143
0.0393700787
147
0.625
171
     3
172
     1
178
     0
271
     2
272
     2
274
     3
278
    44
283
     0
284
     8
340
11
  0
ENDTAB
  0
TABLE
  2
BLOCK_RECORD
  5
1
330
0
100
AcDbSymbolTable
 70
     1
  0
BLOCK_RECORD
  5
1F
330
1
100
AcDbSymbolTableRecord
100
AcDbBlockTableRecord
  2
*Model_Space
340
22
  0
BLOCK_RECORD
  5
1B
330
1
100
AcDbSymbolTableRecord
100
AcDbBlockTableRecord
  2
*Paper_Space
340
1E
  0
BLOCK_RECORD
  5
23
330
1
100
AcDbSymbolTableRecord
100
AcDbBlockTableRecord
  2
*Paper_Space0
340
26
  0
ENDTAB
  0
ENDSEC
  0
SECTION
  2
BLOCKS
  0
BLOCK
  5
20
330
1F
100
AcDbEntity
  8
0
100
AcDbBlockBegin
  2
*Model_Space
 70
     0
 10
0.0
 20
0.0
 30
0.0
  3
*Model_Space
  1

  0
ENDBLK
  5
21
330
1F
100
AcDbEntity
  8
0
100
AcDbBlockEnd
  0
BLOCK
  5
1C
330
1B
100
AcDbEntity
 67
     1
  8
0
100
AcDbBlockBegin
  2
*Paper_Space
 70
     0
 10
0.0
 20
0.0
 30
0.0
  3
*Paper_Space
  1

  0
ENDBLK
  5
1D
330
1B
100
AcDbEntity
 67
     1
  8
0
100
AcDbBlockEnd
  0
BLOCK
  5
24
330
23
100
AcDbEntity
  8
0
100
AcDbBlockBegin
  2
*Paper_Space0
 70
     0
 10
0.0
 20
0.0
 30
0.0
  3
*Paper_Space0
  1

  0
ENDBLK
  5
25
330
23
100
AcDbEntity
  8
0
100
AcDbBlockEnd
  0
ENDSEC
  0
SECTION
  2
ENTITIES
  0
ARC
  5
7F
330
1F
100
AcDbEntity
  8
0
  6
Continuous
 62
     7
370
    25
100
AcDbCircle
 10
6153.7311335661
 20
5185.0909429303
 30
0.0
 40
5.0
100
AcDbArc
 50
90.0
 51
180.0
  0
ARC
  5
80
330
1F
100
AcDbEntity
  8
0
  6
Continuous
 62
     7
370
    25
100
AcDbCircle
 10
6153.7311335661
 20
5149.0909429303
 30
0.0
 40
5.0
100
AcDbArc
 50
180.0
 51
270.0
  0
LINE
  5
81
330
1F
100
AcDbEntity
  8
0
  6
Continuous
 62
     7
370
    25
100
AcDbLine
 10
6169.1311335661
 20
5190.0909429303
 30
0.0
 11
6153.7311335661
 21
5190.0909429303
 31
0.0
  0
LINE
  5
82
330
1F
100
AcDbEntity
  8
0
  6
Continuous
 62
     7
370
    25
100
AcDbLine
 10
6153.7311335661
 20
5144.0909429303
 30
0.0
 11
6169.1311335661
 21
5144.0909429303
 31
0.0
  0
LINE
  5
83
330
1F
100
AcDbEntity
  8
0
  6
Continuous
 62
     7
370
    25
100
AcDbLine
 10
6169.2311335661
 20
5187.0909429303
 30
0.0
 11
6169.1311335661
 21
5187.0909429303
 31
0.0
  0
LINE
  5
84
330
1F
100
AcDbEntity
  8
0
  6
Continuous
 62
     7
370
    25
100
AcDbLine
 10
6169.1311335661
 20
5147.0909429303
 30
0.0
 11
6169.2311335661
 21
5147.0909429303
 31
0.0
  0
LINE
  5
85
330
1F
100
AcDbEntity
  8
0
  6
Continuous
 62
     7
370
    25
100
AcDbLine
 10
6276.7311335661
 20
5111.8409429303
 30
0.0
 11
6276.7311335661
 21
5126.8409429303
 31
0.0
  0
LINE
  5
86
330
1F
100
AcDbEntity
  8
0
  6
Continuous
 62
     7
370
    25
100
AcDbLine
 10
6251.7311335661
 20
5126.8409429303
 30
0.0
 11
6251.7311335661
 21
5111.8409429303
 31
0.0
  0
LINE
  5
87
330
1F
100
AcDbEntity
  8
0
  6
Continuous
 62
     7
370
    25
100
AcDbLine
 10
6254.2311335661
 20
5111.8409429303
 30
0.0
 11
6254.2311335661
 21
5106.8409429303
 31
0.0
  0
LINE
  5
88
330
1F
100
AcDbEntity
  8
0
  6
Continuous
 62
     7
370
    25
100
AcDbLine
 10
6274.2311335661
 20
5106.8409429303
 30
0.0
 11
6274.2311335661
 21
5111.8409429303
 31
0.0
  0
LINE
  5
89
330
1F
100
AcDbEntity
  8
0
  6
Continuous
 62
     7
370
    25
100
AcDbLine
 10
6276.7311335661
 20
5128.8409429303
 30
0.0
 11
6276.7311335661
 21
5143.8409429303
 31
0.0
  0
LINE
  5
8A
330
1F
100
AcDbEntity
  8
0
  6
Continuous
 62
     7
370
    25
100
AcDbLine
 10
6251.7311335661
 20
5143.8409429303
 30
0.0
 11
6251.7311335661
 21
5128.8409429303
 31
0.0
  0
ARC
  5
8B
330
1F
100
AcDbEntity
  8
0
  6
Continuous
 62
     7
370
    25
100
AcDbCircle
 10
6409.4832928854
 20
5174.638783611
 30
0.0
 40
0.7521593192820855
100
AcDbArc
 50
15.3083338787
 51
70.7612320047
  0
ARC
  5
8C
330
1F
100
AcDbEntity
  8
0
  6
Continuous
 62
     7
370
    25
100
AcDbCircle
 10
6409.4832928854
 20
5159.5431022495
 30
0.0
 40
0.7521593192820428
100
AcDbArc
 50
289.2387679954
 51
344.6916661213
  0
ARC
  5
8D
330
1F
100
AcDbEntity
  8
0
  6
Continuous
 62
     7
370
    25
100
AcDbCircle
 10
6381.908793066
 20
5167.0909429303
 30
0.0
 40
29.34101972379658
100
AcDbArc
 50
344.6916661213
 51
15.3083338787
  0
ARC
  5
8E
330
1F
100
AcDbEntity
  8
0
  6
Continuous
 62
     7
370
    25
100
AcDbCircle
 10
6375.7311335661
 20
5289.0909429303
 30
0.0
 40
145.000000000001
100
AcDbArc
 50
270.0
 51
273.5351003694
  0
ARC
  5
8F
330
1F
100
AcDbEntity
  8
0
  6
Continuous
 62
     7
370
    25
100
AcDbCircle
 10
6375.7311335661
 20
5045.0909429303
 30
0.0
 40
144.9999999999995
100
AcDbArc
 50
86.4654818722
 51
90.0
  0
LINE
  5
90
330
1F
100
AcDbEntity
  8
0
  6
Continuous
 62
     7
370
    25
100
AcDbLine
 10
6370.7311335661
 20
5190.1909429303
 30
0.0
 11
6359.7311335661
 21
5190.1909429303
 31
0.0
  0
LINE
  5
91
330
1F
100
AcDbEntity
  8
0
  6
Continuous
 62
     7
370
    25
100
AcDbLine
 10
6359.7311335661
 20
5143.9909429303
 30
0.0
 11
6370.7311335661
 21
5143.9909429303
 31
0.0
  0
LINE
  5
92
330
1F
100
AcDbEntity
  8
0
  6
Continuous
 62
     7
370
    25
100
AcDbLine
 10
6375.7311335661
 20
5190.0909429303
 30
0.0
 11
6370.7311335661
 21
5190.0909429303
 31
0.0
  0
LINE
  5
93
330
1F
100
AcDbEntity
  8
0
  6
Continuous
 62
     7
370
    25
100
AcDbLine
 10
6370.7311335661
 20
5144.0909429303
 30
0.0
 11
6375.7311335661
 21
5144.0909429303
 31
0.0
  0
ARC
  5
94
330
1F
100
AcDbEntity
  8
0
  6
Continuous
 62
     7
370
    25
100
AcDbCircle
 10
6401.7311335661
 20
5179.6011655901
 30
0.0
 40
8.000000000000199
100
AcDbArc
 50
0.0
 51
28.7551283623
  0
ARC
  5
95
330
1F
100
AcDbEntity
  8
0
  6
Continuous
 62
     7
370
    25
100
AcDbCircle
 10
6401.7311335661
 20
5154.5807202704
 30
0.0
 40
8.0
100
AcDbArc
 50
331.2128420821
 51
0.0
  0
LINE
  5
96
330
1F
100
AcDbEntity
  8
0
  6
Continuous
 62
     7
370
    25
100
AcDbLine
 10
6148.7311335661
 20
5185.0909429303
 30
0.0
 11
6148.7311335661
 21
5149.0909429303
 31
0.0
  0
LINE
  5
97
330
1F
100
AcDbEntity
  8
0
  6
Continuous
 62
     7
370
    25
100
AcDbLine
 10
6169.1311335661
 20
5190.0909429303
 30
0.0
 11
6169.1311335661
 21
5144.0909429303
 31
0.0
  0
LINE
  5
98
330
1F
100
AcDbEntity
  8
0
  6
Continuous
 62
     7
370
    25
100
AcDbLine
 10
6251.7311335661
 20
5128.8409429303
 30
0.0
 11
6251.7311335661
 21
5126.8409429303
 31
0.0
  0
LINE
  5
99
330
1F
100
AcDbEntity
  8
0
  6
Continuous
 62
     7
370
    25
100
AcDbLine
 10
6276.7311335661
 20
5128.8409429303
 30
0.0
 11
6251.7311335661
 21
5128.8409429303
 31
0.0
  0
LINE
  5
9A
330
1F
100
AcDbEntity
  8
0
  6
Continuous
 62
     7
370
    25
100
AcDbLine
 10
6276.7311335661
 20
5128.8409429303
 30
0.0
 11
6276.7311335661
 21
5126.8409429303
 31
0.0
  0
LINE
  5
9B
330
1F
100
AcDbEntity
  8
0
  6
Continuous
 62
     7
370
    25
100
AcDbLine
 10
6251.7311335661
 20
5111.8409429303
 30
0.0
 11
6276.7311335661
 21
5111.8409429303
 31
0.0
  0
LINE
  5
9C
330
1F
100
AcDbEntity
  8
0
  6
Continuous
 62
     7
370
    25
100
AcDbLine
 10
6256.7311335661
 20
5133.8409429303
 30
0.0
 11
6271.7311335661
 21
5133.8409429303
 31
0.0
  0
ARC
  5
9D
330
1F
100
AcDbEntity
  8
0
  6
Continuous
 62
     7
370
    25
100
AcDbCircle
 10
6271.7311335661
 20
5128.8409429303
 30
0.0
 40
5.000000000000909
100
AcDbArc
 50
0.0
 51
90.0
  0
ARC
  5
9E
330
1F
100
AcDbEntity
  8
0
  6
Continuous
 62
     7
370
    25
100
AcDbCircle
 10
6256.7311335661
 20
5128.8409429303
 30
0.0
 40
5.0
100
AcDbArc
 50
90.0
 51
180.0
  0
LINE
  5
9F
330
1F
100
AcDbEntity
  8
0
  6
Continuous
 62
     7
370
    25
100
AcDbLine
 10
6274.2311335661
 20
5106.8409429303
 30
0.0
 11
6254.2311335661
 21
5106.8409429303
 31
0.0
  0
LINE
  5
A0
330
1F
100
AcDbEntity
  8
0
  6
Continuous
 62
     7
370
    25
100
AcDbLine
 10
6214.2316596483
 20
5156.2118476261
 30
0.0
 11
6214.2312120138
 21
5156.2118476354
 31
0.0
  0
LINE
  5
A1
330
1F
100
AcDbEntity
  8
0
  6
Continuous
 62
     7
370
    25
100
AcDbLine
 10
6214.2312120138
 20
5156.2118476354
 30
0.0
 11
6214.2316596483
 21
5156.2118476261
 31
0.0
  0
CIRCLE
  5
A2
330
1F
100
AcDbEntity
  8
0
  6
Continuous
 62
     7
370
    25
100
AcDbCircle
 10
6214.2300599148
 20
5167.0902217126
 30
0.0
 40
10.94898660924484
  0
ARC
  5
A3
330
1F
100
AcDbEntity
  8
0
  6
Continuous
 62
     7
370
    25
100
AcDbCircle
 10
6384.7554516648
 20
5174.2436375093
 30
0.0
 40
3.024969633870136
100
AcDbArc
 50
181.1891971524
 51
269.539387301
  0
LWPOLYLINE
  5
A4
330
1F
100
AcDbEntity
  8
0
  6
Continuous
 62
     7
370
    25
100
AcDbPolyline
 90
        3
 70
   128
 43
0.0
 10
6393.7311335661
 20
5170.955409244
 10
6389.3391568533
 20
5171.1060706836
 10
6384.7311335661
 20
5171.218765625
  0
ARC
  5
A5
330
1F
100
AcDbEntity
  8
0
  6
Continuous
 62
     7
370
    25
100
AcDbCircle
 10
6393.886068326
 20
5173.7967135133
 30
0.0
 40
2.845525387430443
100
AcDbArc
 50
266.8787837959
 51
358.9695885251
  0
ARC
  5
A6
330
1F
100
AcDbEntity
  8
0
  6
Continuous
 62
     7
370
    25
100
AcDbCircle
 10
6371.152094967
 20
5035.8254039143
 30
0.0
 40
154.5752629569154
100
AcDbArc
 50
78.0154293271
 51
84.9828063203
  0
LINE
  5
A7
330
1F
100
AcDbEntity
  8
0
  6
Continuous
 62
     7
370
    25
100
AcDbLine
 10
6403.2493817413
 20
5187.0314755514
 30
0.0
 11
6403.2493817413
 21
5153.4184252057
 31
0.0
  0
LWPOLYLINE
  5
A8
330
1F
100
AcDbEntity
  8
0
  6
Continuous
 62
     7
370
    25
100
AcDbPolyline
 90
       21
 70
   128
 43
0.0
 10
6403.2493817413
 20
5147.1504103092
 10
6397.0773295097
 20
5146.0189430836
 10
6393.9508148076
 20
5145.504487383
 10
6390.8659402116
 20
5145.0448583633
 10
6388.6000831553
 20
5144.7471313607
 10
6386.3873639934
 20
5144.504535815
 10
6384.3076198205
 20
5144.3457796832
 10
6382.382604638
 20
5144.3101076067
 10
6380.7350550784
 20
5144.4886013284
 10
6380.1627380933
 20
5144.6914748819
 10
6379.8089324925
 20
5144.9969499743
 10
6379.8684939317
 20
5145.7129124325
 10
6380.5602036087
 20
5146.4713395265
 10
6381.3489592712
 20
5147.0479429018
 10
6382.3378116578
 20
5147.6354562294
 10
6384.083136828
 20
5148.4924039655
 10
6386.0625662609
 20
5149.3032318727
 10
6389.8140730945
 20
5150.5553519513
 10
6393.826838517
 20
5151.6203201978
 10
6398.5029496774
 20
5152.6128401236
 10
6403.2493817413
 20
5153.4184252057
  0
LINE
  5
A9
330
1F
100
AcDbEntity
  8
0
  6
Continuous
 62
     7
370
    25
100
AcDbLine
 10
6370.7311335661
 20
5190.1909429303
 30
0.0
 11
6370.7311335661
 21
5143.9909429303
 31
0.0
  0
LINE
  5
AA
330
1F
100
AcDbEntity
  8
0
  6
Continuous
 62
     7
370
    25
100
AcDbLine
 10
6359.7311335661
 20
5190.1909429303
 30
0.0
 11
6359.7311335661
 21
5143.9909429303
 31
0.0
  0
LINE
  5
AB
330
1F
100
AcDbEntity
  8
0
  6
Continuous
 62
     7
370
    25
100
AcDbLine
 10
6384.7311335661
 20
5172.2894884724
 30
0.0
 11
6384.7311335661
 21
5171.218765625
 31
0.0
  0
ARC
  5
AC
330
1F
100
AcDbEntity
  8
0
  6
Continuous
 62
     7
370
    25
100
AcDbCircle
 10
6390.4607988096
 20
5070.5263362944
 30
0.0
 40
101.9243258746754
100
AcDbArc
 50
88.1612971852
 51
93.2225750169
  0
LINE
  5
AD
330
1F
100
AcDbEntity
  8
0
  6
Continuous
 62
     7
370
    25
100
AcDbLine
 10
6393.7311335661
 20
5170.955409244
 30
0.0
 11
6393.7311335661
 21
5172.3981828252
 31
0.0
  0
ARC
  5
AE
330
1F
100
AcDbEntity
  8
0
  6
Continuous
 62
     7
370
    25
100
AcDbCircle
 10
6384.4595476482
 20
5175.0055561527
 30
0.0
 40
2.729612161928085
100
AcDbArc
 50
181.6976412333
 51
275.7101576552
  0
ARC
  5
AF
330
1F
100
AcDbEntity
  8
0
  6
Continuous
 62
     7
370
    25
100
AcDbCircle
 10
6384.8824854148
 20
5174.8453278942
 30
0.0
 40
3.152351027159982
100
AcDbArc
 50
92.7519642433
 51
178.5573753511
  0
ARC
  5
B0
330
1F
100
AcDbEntity
  8
0
  6
Continuous
 62
     7
370
    25
100
AcDbCircle
 10
6390.4607988096
 20
5076.2308912664
 30
0.0
 40
101.9243258746754
100
AcDbArc
 50
88.1612971852
 51
93.2225750169
  0
ARC
  5
B1
330
1F
100
AcDbEntity
  8
0
  6
Continuous
 62
     7
370
    25
100
AcDbCircle
 10
6393.6528175057
 20
5175.0242446477
 30
0.0
 40
3.079489158385725
100
AcDbArc
 50
1.5815365181
 51
88.5427246768
  0
ARC
  5
B2
330
1F
100
AcDbEntity
  8
0
  6
Continuous
 62
     7
370
    25
100
AcDbCircle
 10
6393.952003042
 20
5175.1691709553
 30
0.0
 40
2.779776707302821
100
AcDbArc
 50
265.4427122623
 51
358.7645677618
  0
LINE
  5
B3
330
1F
100
AcDbEntity
  8
0
  6
Continuous
 62
     7
370
    25
100
AcDbLine
 10
6396.7311335661
 20
5175.109237053
 30
0.0
 11
6396.7311335661
 21
5173.7455421358
 31
0.0
  0
LINE
  5
B4
330
1F
100
AcDbEntity
  8
0
  6
Continuous
 62
     7
370
    25
100
AcDbLine
 10
6381.7311335661
 20
5174.1808575448
 30
0.0
 11
6381.7311335661
 21
5174.924691136
 31
0.0
  0
ARC
  5
B5
330
1F
100
AcDbEntity
  8
0
  6
Continuous
 62
     7
370
    25
100
AcDbCircle
 10
6402.3294118542
 20
5179.6743922289
 30
0.0
 40
7.414379246272649
100
AcDbArc
 50
30.4886375797
 51
82.8724189269
  0
LWPOLYLINE
  5
B6
330
1F
100
AcDbEntity
  8
0
  6
Continuous
 62
     7
370
    25
100
AcDbPolyline
 90
       14
 70
   128
 43
0.0
 10
6403.2493817413
 20
5153.4184252057
 10
6405.1673929506
 20
5153.7113738042
 10
6406.7841189541
 20
5153.9352510435
 10
6407.9788727511
 20
5154.0193680486
 10
6408.5718260823
 20
5153.9635710501
 10
6408.9680456307
 20
5153.7978280707
 10
6409.2507818533
 20
5153.4075266313
 10
6409.3338310345
 20
5152.8295555003
 10
6409.1900745557
 20
5151.8271642853
 10
6408.6188880753
 20
5150.5169465155
 10
6407.5902536132
 20
5149.2723602358
 10
6405.9111624376
 20
5148.0857344822
 10
6403.945769881
 20
5147.3125709415
 10
6403.2493817413
 20
5147.1504103092
  0
LINE
  5
B7
330
1F
100
AcDbEntity
  8
0
  6
Continuous
 62
     7
370
    25
100
AcDbLine
 10
6409.7311335661
 20
5179.6011655901
 30
0.0
 11
6409.7311335661
 21
5154.5807202704
 31
0.0
  0
ARC
  5
B8
330
1F
100
AcDbEntity
  8
0
  6
Continuous
 62
     7
370
    25
100
AcDbCircle
 10
6189.2311335661
 20
5167.0909429303
 30
0.0
 40
40.00000000000078
100
AcDbArc
 50
215.0996321954
 51
324.4614909118
  0
ARC
  5
B9
330
1F
100
AcDbEntity
  8
0
  6
Continuous
 62
     7
370
    25
100
AcDbCircle
 10
6189.2311335661
 20
5167.0909429303
 30
0.0
 40
40.0000000000002
100
AcDbArc
 50
35.5385090882
 51
144.9003678046
  0
ARC
  5
BA
330
1F
100
AcDbEntity
  8
0
  6
Continuous
 62
     7
370
    25
100
AcDbCircle
 10
6339.2311335661
 20
5167.0909429303
 30
0.0
 40
40.00000000000152
100
AcDbArc
 50
267.2175530615
 51
324.9003678046
  0
ARC
  5
BB
330
1F
100
AcDbEntity
  8
0
  6
Continuous
 62
     7
370
    25
100
AcDbCircle
 10
6339.2311335661
 20
5167.0909429303
 30
0.0
 40
39.99999999999973
100
AcDbArc
 50
35.0996321954
 51
144.4614909118
  0
ARC
  5
BC
330
1F
100
AcDbEntity
  8
0
  6
Continuous
 62
     7
370
    25
100
AcDbCircle
 10
6339.2311335661
 20
5167.0909429303
 30
0.0
 40
40.00000000000023
100
AcDbArc
 50
215.5385090882
 51
267.2175530615
  0
LINE
  5
BD
330
1F
100
AcDbEntity
  8
0
  6
Continuous
 62
     7
370
    25
100
AcDbLine
 10
6169.2311335661
 20
5143.8409429303
 30
0.0
 11
6359.2311335661
 21
5143.8409429303
 31
0.0
  0
LINE
  5
BE
330
1F
100
AcDbEntity
  8
0
  6
Continuous
 62
     7
370
    25
100
AcDbLine
 10
6169.2311335661
 20
5143.8409429303
 30
0.0
 11
6169.2311335661
 21
5190.3409429303
 31
0.0
  0
LINE
  5
BF
330
1F
100
AcDbEntity
  8
0
  6
Continuous
 62
     7
370
    25
100
AcDbLine
 10
6169.2311335661
 20
5190.3409429303
 30
0.0
 11
6359.2311335661
 21
5190.3409429303
 31
0.0
  0
LINE
  5
C0
330
1F
100
AcDbEntity
  8
0
  6
Continuous
 62
     7
370
    25
100
AcDbLine
 10
6359.2311335661
 20
5143.8409429303
 30
0.0
 11
6359.2311335661
 21
5190.3409429303
 31
0.0
  0
LINE
  5
C1
330
1F
100
AcDbEntity
  8
0
  6
Continuous
 62
     8
370
    25
100
AcDbLine
 10
6153.7311335661
 20
5190.0909429303
 30
0.0
 11
6153.7311335661
 21
5144.0909429303
 31
0.0
  0
LINE
  5
C2
330
1F
100
AcDbEntity
  8
0
  6
Continuous
 62
     8
370
    25
100
AcDbLine
 10
6410.2087648601
 20
5174.8373637093
 30
0.0
 11
6410.2087648601
 21
5159.3445221513
 31
0.0
  0
LINE
  5
C3
330
1F
100
AcDbEntity
  8
0
  6
Continuous
 62
     8
370
    25
100
AcDbLine
 10
6375.7311335661
 20
5190.0909429303
 30
0.0
 11
6375.7311335661
 21
5144.0909429303
 31
0.0
  0
ARC
  5
C4
330
1F
100
AcDbEntity
  8
0
  6
Continuous
 62
     8
370
    25
100
AcDbCircle
 10
6189.2311335661
 20
5167.0909429303
 30
0.0
 40
39.74322922164693
100
AcDbArc
 50
215.360208125
 51
324.1966350936
  0
ARC
  5
C5
330
1F
100
AcDbEntity
  8
0
  6
Continuous
 62
     8
370
    25
100
AcDbCircle
 10
6189.2311335661
 20
5167.0909429303
 30
0.0
 40
39.74322922164664
100
AcDbArc
 50
35.8033649064
 51
144.639791875
  0
ARC
  5
C6
330
1F
100
AcDbEntity
  8
0
  6
Continuous
 62
     8
370
    25
100
AcDbCircle
 10
6339.2311335661
 20
5167.0909429303
 30
0.0
 40
39.74322922164767
100
AcDbArc
 50
267.2175530615
 51
324.639791875
  0
ARC
  5
C7
330
1F
100
AcDbEntity
  8
0
  6
Continuous
 62
     8
370
    25
100
AcDbCircle
 10
6339.2311335661
 20
5167.0909429303
 30
0.0
 40
39.74322922164662
100
AcDbArc
 50
35.360208125
 51
144.1966350936
  0
ARC
  5
C8
330
1F
100
AcDbEntity
  8
0
  6
Continuous
 62
     8
370
    25
100
AcDbCircle
 10
6339.2311335661
 20
5167.0909429303
 30
0.0
 40
39.74322922164755
100
AcDbArc
 50
215.8033649064
 51
267.2175530615
  0
ARC
  5
C9
330
1F
100
AcDbEntity
  8
0
  6
Continuous
 62
     7
370
    25
100
AcDbCircle
 10
6648.9969574377
 20
5126.8409429303
 30
0.0
 40
5.0
100
AcDbArc
 50
180.0
 51
270.0
  0
LINE
  5
CA
330
1F
100
AcDbEntity
  8
0
  6
Continuous
 62
     7
370
    25
100
AcDbLine
 10
6668.9969574377
 20
5133.8409429303
 30
0.0
 11
6668.9969574377
 21
5143.8409429303
 31
0.0
  0
LINE
  5
CB
330
1F
100
AcDbEntity
  8
0
  6
Continuous
 62
     7
370
    25
100
AcDbLine
 10
6643.9969574377
 20
5143.8409429303
 30
0.0
 11
6643.9969574377
 21
5126.8409429303
 31
0.0
  0
LINE
  5
CC
330
1F
100
AcDbEntity
  8
0
  6
Continuous
 62
     7
370
    25
100
AcDbLine
 10
6838.9969574377
 20
5111.8409429303
 30
0.0
 11
6838.9969574377
 21
5128.8409429303
 31
0.0
  0
LINE
  5
CD
330
1F
100
AcDbEntity
  8
0
  6
Continuous
 62
     7
370
    25
100
AcDbLine
 10
6813.9969574377
 20
5121.8409429303
 30
0.0
 11
6813.9969574377
 21
5111.8409429303
 31
0.0
  0
ARC
  5
CE
330
1F
100
AcDbEntity
  8
0
  6
Continuous
 62
     7
370
    25
100
AcDbCircle
 10
6833.9969574377
 20
5128.8409429303
 30
0.0
 40
5.0
100
AcDbArc
 50
0.0
 51
90.0
  0
LINE
  5
CF
330
1F
100
AcDbEntity
  8
0
  6
Continuous
 62
     7
370
    25
100
AcDbLine
 10
6816.4969574377
 20
5111.8409429303
 30
0.0
 11
6816.4969574377
 21
5106.8409429303
 31
0.0
  0
LINE
  5
D0
330
1F
100
AcDbEntity
  8
0
  6
Continuous
 62
     7
370
    25
100
AcDbLine
 10
6836.4969574377
 20
5106.8409429303
 30
0.0
 11
6836.4969574377
 21
5111.8409429303
 31
0.0
  0
LINE
  5
D1
330
1F
100
AcDbEntity
  8
0
  6
Continuous
 62
     7
370
    25
100
AcDbLine
 10
6582.9969574377
 20
5177.3409429303
 30
0.0
 11
6569.1969574377
 21
5177.3409429303
 31
0.0
  0
LINE
  5
D2
330
1F
100
AcDbEntity
  8
0
  6
Continuous
 62
     7
370
    25
100
AcDbLine
 10
6569.1969574377
 20
5156.8409429303
 30
0.0
 11
6582.9969574377
 21
5156.8409429303
 31
0.0
  0
LINE
  5
D3
330
1F
100
AcDbEntity
  8
0
  6
Continuous
 62
     7
370
    25
100
AcDbLine
 10
6689.7795103142
 20
5156.1968346951
 30
0.0
 11
6690.6715452979
 21
5156.2124052225
 31
0.0
  0
LINE
  5
D4
330
1F
100
AcDbEntity
  8
0
  6
Continuous
 62
     7
370
    25
100
AcDbLine
 10
6690.6715446932
 20
5177.9694806797
 30
0.0
 11
6689.6302756305
 21
5177.9876560991
 31
0.0
  0
LINE
  5
D5
330
1F
100
AcDbEntity
  8
0
  6
Continuous
 62
     7
370
    25
100
AcDbLine
 10
6603.6829846542
 20
5162.0909429303
 30
0.0
 11
6646.797013117
 21
5162.0909429303
 31
0.0
  0
LINE
  5
D6
330
1F
100
AcDbEntity
  8
0
  6
Continuous
 62
     7
370
    25
100
AcDbLine
 10
6646.7825368433
 20
5172.0909429303
 30
0.0
 11
6603.6829846542
 21
5172.0909429303
 31
0.0
  0
LINE
  5
D7
330
1F
100
AcDbEntity
  8
0
  6
Continuous
 62
     7
370
    25
100
AcDbLine
 10
6695.3677845543
 20
5172.4504971373
 30
0.0
 11
6693.5082005762
 21
5178.1550521093
 31
0.0
  0
LINE
  5
D8
330
1F
100
AcDbEntity
  8
0
  6
Continuous
 62
     7
370
    25
100
AcDbLine
 10
6589.4969574377
 20
5207.0909429303
 30
0.0
 11
6582.9969574377
 21
5207.0909429303
 31
0.0
  0
LINE
  5
D9
330
1F
100
AcDbEntity
  8
0
  6
Continuous
 62
     7
370
    25
100
AcDbLine
 10
6582.9969574377
 20
5127.0909429303
 30
0.0
 11
6589.4969574377
 21
5127.0909429303
 31
0.0
  0
ARC
  5
DA
330
1F
100
AcDbEntity
  8
0
  6
Continuous
 62
     7
370
    25
100
AcDbCircle
 10
6589.4969574377
 20
5205.0909429303
 30
0.0
 40
2.000000000000909
100
AcDbArc
 50
60.6468132401
 51
90.0
  0
ARC
  5
DB
330
1F
100
AcDbEntity
  8
0
  6
Continuous
 62
     7
370
    25
100
AcDbCircle
 10
6589.4969574377
 20
5129.0909429303
 30
0.0
 40
1.999999999999935
100
AcDbArc
 50
270.0
 51
299.3531867599
  0
ARC
  5
DC
330
1F
100
AcDbEntity
  8
0
  6
Continuous
 62
     7
370
    25
100
AcDbCircle
 10
6570.8696702233
 20
5171.969587719
 30
0.0
 40
40.0000000000004
100
AcDbArc
 50
15.4472718235
 51
60.6468132401
  0
ARC
  5
DD
330
1F
100
AcDbEntity
  8
0
  6
Continuous
 62
     7
370
    25
100
AcDbCircle
 10
6570.8696702233
 20
5162.2122981415
 30
0.0
 40
40.0000000000004
100
AcDbArc
 50
299.3531867599
 51
344.5527281765
  0
ARC
  5
DE
330
1F
100
AcDbEntity
  8
0
  6
Continuous
 62
     7
370
    25
100
AcDbCircle
 10
6607.4969574377
 20
5182.0909429303
 30
0.0
 40
2.0
100
AcDbArc
 50
0.0
 51
15.4472718236
  0
ARC
  5
DF
330
1F
100
AcDbEntity
  8
0
  6
Continuous
 62
     7
370
    25
100
AcDbCircle
 10
6607.4969574377
 20
5152.0909429303
 30
0.0
 40
2.0
100
AcDbArc
 50
344.5527281765
 51
0.0
  0
LINE
  5
E0
330
1F
100
AcDbEntity
  8
0
  6
Continuous
 62
     7
370
    25
100
AcDbLine
 10
6609.4969574377
 20
5152.0909429303
 30
0.0
 11
6609.4969574377
 21
5152.2409429303
 31
0.0
  0
LINE
  5
E1
330
1F
100
AcDbEntity
  8
0
  6
Continuous
 62
     7
370
    25
100
AcDbLine
 10
6609.4969574377
 20
5157.8334241718
 30
0.0
 11
6609.4969574377
 21
5161.4984616887
 31
0.0
  0
LINE
  5
E2
330
1F
100
AcDbEntity
  8
0
  6
Continuous
 62
     7
370
    25
100
AcDbLine
 10
6609.4969574377
 20
5172.6834241718
 30
0.0
 11
6609.4969574377
 21
5176.3484616887
 31
0.0
  0
LINE
  5
E3
330
1F
100
AcDbEntity
  8
0
  6
Continuous
 62
     7
370
    25
100
AcDbLine
 10
6609.4969574377
 20
5181.9409429303
 30
0.0
 11
6609.4969574377
 21
5182.0909429303
 31
0.0
  0
LINE
  5
E4
330
1F
100
AcDbEntity
  8
0
  6
Continuous
 62
     7
370
    25
100
AcDbLine
 10
6631.4969574377
 20
5180.7909429303
 30
0.0
 11
6621.4969574377
 21
5180.7909429303
 31
0.0
  0
LINE
  5
E5
330
1F
100
AcDbEntity
  8
0
  6
Continuous
 62
     7
370
    25
100
AcDbLine
 10
6621.4969574377
 20
5153.3909429303
 30
0.0
 11
6631.4969574377
 21
5153.3909429303
 31
0.0
  0
CIRCLE
  5
E6
330
1F
100
AcDbEntity
  8
0
  6
Continuous
 62
     7
370
    25
100
AcDbCircle
 10
6669.2469574377
 20
5167.0909429303
 30
0.0
 40
18.0
  0
CIRCLE
  5
E7
330
1F
100
AcDbEntity
  8
0
  6
Continuous
 62
     7
370
    25
100
AcDbCircle
 10
6669.2469574377
 20
5167.0909429303
 30
0.0
 40
22.99999999999909
  0
LINE
  5
E8
330
1F
100
AcDbEntity
  8
0
  6
Continuous
 62
     7
370
    25
100
AcDbLine
 10
6656.4969574377
 20
5121.8409429303
 30
0.0
 11
6656.4969574377
 21
5126.8409429303
 31
0.0
  0
LINE
  5
E9
330
1F
100
AcDbEntity
  8
0
  6
Continuous
 62
     7
370
    25
100
AcDbLine
 10
6656.4969574377
 20
5121.8409429303
 30
0.0
 11
6648.9969574377
 21
5121.8409429303
 31
0.0
  0
LWPOLYLINE
  5
EA
330
1F
100
AcDbEntity
  8
0
  6
Continuous
 62
     7
370
    25
100
AcDbPolyline
 90
        8
 70
   128
 43
0.0
 10
6656.4969574377
 20
5128.8409429303
 10
6656.5158556634
 20
5128.8528952131
 10
6657.740980568
 20
5129.6262624308
 10
6659.8957159415
 20
5130.9600657826
 10
6662.0023269345
 20
5132.1792340652
 10
6663.4359552883
 20
5132.9166111123
 10
6664.7949164088
 20
5133.4867110596
 10
6666.4969574377
 20
5133.8409429303
  0
LINE
  5
EB
330
1F
100
AcDbEntity
  8
0
  6
Continuous
 62
     7
370
    25
100
AcDbLine
 10
6656.4969574377
 20
5128.8409429303
 30
0.0
 11
6656.4969574377
 21
5126.8409429303
 31
0.0
  0
LINE
  5
EC
330
1F
100
AcDbEntity
  8
0
  6
Continuous
 62
     7
370
    25
100
AcDbLine
 10
6826.4969574377
 20
5128.8409429303
 30
0.0
 11
6656.4969574377
 21
5128.8409429303
 31
0.0
  0
LINE
  5
ED
330
1F
100
AcDbEntity
  8
0
  6
Continuous
 62
     7
370
    25
100
AcDbLine
 10
6826.4969574377
 20
5128.8409429303
 30
0.0
 11
6826.4969574377
 21
5126.8409429303
 31
0.0
  0
LINE
  5
EE
330
1F
100
AcDbEntity
  8
0
  6
Continuous
 62
     7
370
    25
100
AcDbLine
 10
6656.4969574377
 20
5126.8409429303
 30
0.0
 11
6826.4969574377
 21
5126.8409429303
 31
0.0
  0
LINE
  5
EF
330
1F
100
AcDbEntity
  8
0
  6
Continuous
 62
     7
370
    25
100
AcDbLine
 10
6816.4969574377
 20
5121.8409429303
 30
0.0
 11
6656.4969574377
 21
5121.8409429303
 31
0.0
  0
LWPOLYLINE
  5
F0
330
1F
100
AcDbEntity
  8
0
  6
Continuous
 62
     7
370
    25
100
AcDbPolyline
 90
        8
 70
   128
 43
0.0
 10
6826.4969574377
 20
5126.8409429303
 10
6826.4780592119
 20
5126.8289906474
 10
6825.2529343074
 20
5126.0556234297
 10
6823.1264258726
 20
5124.7396159145
 10
6820.9915879408
 20
5123.5026517954
 10
6819.5755927296
 20
5122.7741951702
 10
6818.1989984665
 20
5122.1951748009
 10
6816.4969574377
 20
5121.8409429303
  0
LINE
  5
F1
330
1F
100
AcDbEntity
  8
0
  6
Continuous
 62
     7
370
    25
100
AcDbLine
 10
6666.4969574377
 20
5133.8409429303
 30
0.0
 11
6826.4969574377
 21
5133.8409429303
 31
0.0
  0
LINE
  5
F2
330
1F
100
AcDbEntity
  8
0
  6
Continuous
 62
     7
370
    25
100
AcDbLine
 10
6826.4969574377
 20
5133.8409429303
 30
0.0
 11
6826.4969574377
 21
5128.8409429303
 31
0.0
  0
LINE
  5
F3
330
1F
100
AcDbEntity
  8
0
  6
Continuous
 62
     7
370
    25
100
AcDbLine
 10
6826.4969574377
 20
5111.8409429303
 30
0.0
 11
6838.9969574377
 21
5111.8409429303
 31
0.0
  0
LINE
  5
F4
330
1F
100
AcDbEntity
  8
0
  6
Continuous
 62
     7
370
    25
100
AcDbLine
 10
6813.9969574377
 20
5111.8409429303
 30
0.0
 11
6826.4969574377
 21
5111.8409429303
 31
0.0
  0
LINE
  5
F5
330
1F
100
AcDbEntity
  8
0
  6
Continuous
 62
     7
370
    25
100
AcDbLine
 10
6826.4969574377
 20
5133.8409429303
 30
0.0
 11
6833.9969574377
 21
5133.8409429303
 31
0.0
  0
LINE
  5
F6
330
1F
100
AcDbEntity
  8
0
  6
Continuous
 62
     7
370
    25
100
AcDbLine
 10
6836.4969574377
 20
5106.8409429303
 30
0.0
 11
6816.4969574377
 21
5106.8409429303
 31
0.0
  0
LINE
  5
F7
330
1F
100
AcDbEntity
  8
0
  6
Continuous
 62
     7
370
    25
100
AcDbLine
 10
6569.1969574377
 20
5167.0909429303
 30
0.0
 11
6569.1969574377
 21
5177.3409429303
 31
0.0
  0
LINE
  5
F8
330
1F
100
AcDbEntity
  8
0
  6
Continuous
 62
     7
370
    25
100
AcDbLine
 10
6569.1969574377
 20
5156.8409429303
 30
0.0
 11
6569.1969574377
 21
5167.0909429303
 31
0.0
  0
LWPOLYLINE
  5
F9
330
1F
100
AcDbEntity
  8
0
  6
Continuous
 62
     7
370
    25
100
AcDbPolyline
 90
       21
 70
   128
 43
0.0
 10
6690.6591321645
 20
5177.9315395099
 10
6690.65328173
 20
5177.94309849
 10
6690.7717446254
 20
5177.7061931168
 10
6691.0056770081
 20
5177.2180413625
 10
6691.3238166492
 20
5176.5043529051
 10
6691.7035547595
 20
5175.5586012091
 10
6692.1318751054
 20
5174.3214714962
 10
6692.5478167592
 20
5172.8415911439
 10
6692.8957376271
 20
5171.1818102652
 10
6693.1429097768
 20
5169.3233097918
 10
6693.2418931121
 20
5167.5839560917
 10
6693.2106732886
 20
5165.771730053
 10
6693.0668969203
 20
5164.156580471
 10
6692.818876576
 20
5162.5782244438
 10
6692.4900271459
 20
5161.1110005777
 10
6692.1009118554
 20
5159.7631351084
 10
6691.6721296814
 20
5158.5404078687
 10
6691.2578068912
 20
5157.5242033428
 10
6690.9196712821
 20
5156.7810702533
 10
6690.6979898835
 20
5156.327430167
 10
6690.6396030329
 20
5156.2118476354
  0
LWPOLYLINE
  5
FA
330
1F
100
AcDbEntity
  8
0
  6
Continuous
 62
     7
370
    25
100
AcDbPolyline
 90
        6
 70
   128
 43
0.0
 10
6693.2781643118
 20
5174.924691136
 10
6693.6209203238
 20
5174.0191510441
 10
6694.0051759762
 20
5173.2422036127
 10
6694.3849908657
 20
5172.6590354199
 10
6694.7085288743
 20
5172.3323815162
 10
6694.8738661345
 20
5172.2894884724
  0
LINE
  5
FB
330
1F
100
AcDbEntity
  8
0
  6
Continuous
 62
     7
370
    25
100
AcDbLine
 10
6694.8738661345
 20
5172.2894884724
 30
0.0
 11
6692.8049226441
 21
5171.6150495048
 31
0.0
  0
LINE
  5
FC
330
1F
100
AcDbEntity
  8
0
  6
Continuous
 62
     7
370
    25
100
AcDbLine
 10
6690.9554295052
 20
5177.3228939118
 30
0.0
 11
6693.0142821565
 21
5177.9940434444
 31
0.0
  0
ARC
  5
FD
330
1F
100
AcDbEntity
  8
0
  6
Continuous
 62
     7
370
    25
100
AcDbCircle
 10
6697.4358606226
 20
5176.8281613046
 30
0.0
 40
4.572705686558739
100
AcDbArc
 50
165.2284597986
 51
204.5991817387
  0
LINE
  5
FE
330
1F
100
AcDbEntity
  8
0
  6
Continuous
 62
     7
370
    25
100
AcDbLine
 10
6695.3677845543
 20
5172.4504971373
 30
0.0
 11
6694.8738661345
 21
5172.2894884724
 31
0.0
  0
LINE
  5
FF
330
1F
100
AcDbEntity
  8
0
  6
Continuous
 62
     7
370
    25
100
AcDbLine
 10
6693.5082005762
 20
5178.1550521093
 30
0.0
 11
6693.0142821565
 21
5177.9940434444
 31
0.0
  0
LINE
  5
100
330
1F
100
AcDbEntity
  8
0
  6
Continuous
 62
     7
370
    25
100
AcDbLine
 10
6582.9969574377
 20
5151.4721262678
 30
0.0
 11
6582.9969574377
 21
5127.0909429303
 31
0.0
  0
LINE
  5
101
330
1F
100
AcDbEntity
  8
0
  6
Continuous
 62
     7
370
    25
100
AcDbLine
 10
6582.9969574377
 20
5207.0909429303
 30
0.0
 11
6582.9969574377
 21
5151.4721262678
 31
0.0
  0
LINE
  5
102
330
1F
100
AcDbEntity
  8
0
  6
Continuous
 62
     7
370
    25
100
AcDbLine
 10
6631.4969574377
 20
5183.3409429303
 30
0.0
 11
6631.4969574377
 21
5172.0909429303
 31
0.0
  0
LINE
  5
103
330
1F
100
AcDbEntity
  8
0
  6
Continuous
 62
     7
370
    25
100
AcDbLine
 10
6631.4969574377
 20
5162.0909429303
 30
0.0
 11
6631.4969574377
 21
5150.8409429303
 31
0.0
  0
LINE
  5
104
330
1F
100
AcDbEntity
  8
0
  6
Continuous
 62
     7
370
    25
100
AcDbLine
 10
6638.4969574377
 20
5190.3409429303
 30
0.0
 11
6631.4969574377
 21
5183.3409429303
 31
0.0
  0
LINE
  5
105
330
1F
100
AcDbEntity
  8
0
  6
Continuous
 62
     7
370
    25
100
AcDbLine
 10
6669.2469574377
 20
5190.3409429303
 30
0.0
 11
6638.4969574377
 21
5190.3409429303
 31
0.0
  0
ARC
  5
106
330
1F
100
AcDbEntity
  8
0
  6
Continuous
 62
     7
370
    25
100
AcDbCircle
 10
6669.2469574377
 20
5167.0909429303
 30
0.0
 40
23.25
100
AcDbArc
 50
270.0
 51
90.0
  0
LINE
  5
107
330
1F
100
AcDbEntity
  8
0
  6
Continuous
 62
     7
370
    25
100
AcDbLine
 10
6638.4969574377
 20
5143.8409429303
 30
0.0
 11
6669.2469574377
 21
5143.8409429303
 31
0.0
  0
LINE
  5
108
330
1F
100
AcDbEntity
  8
0
  6
Continuous
 62
     7
370
    25
100
AcDbLine
 10
6631.4969574377
 20
5150.8409429303
 30
0.0
 11
6638.4969574377
 21
5143.8409429303
 31
0.0
  0
LINE
  5
109
330
1F
100
AcDbEntity
  8
0
  6
Continuous
 62
     7
370
    25
100
AcDbLine
 10
6609.4969574377
 20
5152.2409429303
 30
0.0
 11
6621.4969574377
 21
5152.2409429303
 31
0.0
  0
LINE
  5
10A
330
1F
100
AcDbEntity
  8
0
  6
Continuous
 62
     7
370
    25
100
AcDbLine
 10
6621.4969574377
 20
5152.2409429303
 30
0.0
 11
6621.4969574377
 21
5162.0909429303
 31
0.0
  0
LINE
  5
10B
330
1F
100
AcDbEntity
  8
0
  6
Continuous
 62
     7
370
    25
100
AcDbLine
 10
6609.4969574377
 20
5152.2409429303
 30
0.0
 11
6609.4969574377
 21
5157.8334241718
 31
0.0
  0
LINE
  5
10C
330
1F
100
AcDbEntity
  8
0
  6
Continuous
 62
     7
370
    25
100
AcDbLine
 10
6609.4969574377
 20
5161.4984616887
 30
0.0
 11
6609.4969574377
 21
5162.0909429303
 31
0.0
  0
LINE
  5
10D
330
1F
100
AcDbEntity
  8
0
  6
Continuous
 62
     7
370
    25
100
AcDbLine
 10
6609.4969574377
 20
5181.9409429303
 30
0.0
 11
6621.4969574377
 21
5181.9409429303
 31
0.0
  0
LINE
  5
10E
330
1F
100
AcDbEntity
  8
0
  6
Continuous
 62
     7
370
    25
100
AcDbLine
 10
6621.4969574377
 20
5172.0909429303
 30
0.0
 11
6621.4969574377
 21
5181.9409429303
 31
0.0
  0
LINE
  5
10F
330
1F
100
AcDbEntity
  8
0
  6
Continuous
 62
     7
370
    25
100
AcDbLine
 10
6609.4969574377
 20
5172.0909429303
 30
0.0
 11
6609.4969574377
 21
5172.6834241718
 31
0.0
  0
LINE
  5
110
330
1F
100
AcDbEntity
  8
0
  6
Continuous
 62
     7
370
    25
100
AcDbLine
 10
6609.4969574377
 20
5176.3484616887
 30
0.0
 11
6609.4969574377
 21
5181.9409429303
 31
0.0
  0
LINE
  5
111
330
1F
100
AcDbEntity
  8
0
  6
Continuous
 62
     8
370
    25
100
AcDbLine
 10
6643.9969574377
 20
5126.8409429303
 30
0.0
 11
6656.4969574377
 21
5126.8409429303
 31
0.0
  0
LINE
  5
112
330
1F
100
AcDbEntity
  8
0
  6
Continuous
 62
     8
370
    25
100
AcDbLine
 10
6838.9969574377
 20
5128.8409429303
 30
0.0
 11
6826.4969574377
 21
5128.8409429303
 31
0.0
  0
LINE
  5
113
330
1F
100
AcDbEntity
  8
0
  6
Continuous
 62
     8
370
    25
100
AcDbLine
 10
6692.0604602108
 20
5174.5277411465
 30
0.0
 11
6693.2781643118
 21
5174.924691136
 31
0.0
  0
LINE
  5
114
330
1F
100
AcDbEntity
  8
0
  6
Continuous
 62
     8
370
    25
100
AcDbLine
 10
6589.4969574377
 20
5151.4721262678
 30
0.0
 11
6589.4969574377
 21
5127.0909429303
 31
0.0
  0
LINE
  5
115
330
1F
100
AcDbEntity
  8
0
  6
Continuous
 62
     8
370
    25
100
AcDbLine
 10
6589.4969574377
 20
5207.0909429303
 30
0.0
 11
6589.4969574377
 21
5151.4721262678
 31
0.0
  0
LINE
  5
116
330
1F
100
AcDbEntity
  8
0
  6
Continuous
 62
     8
370
    25
100
AcDbLine
 10
6590.4773409753
 20
5151.5723876606
 30
0.0
 11
6590.4773409753
 21
5127.3477137086
 31
0.0
  0
LINE
  5
117
330
1F
100
AcDbEntity
  8
0
  6
Continuous
 62
     8
370
    25
100
AcDbLine
 10
6590.4773409753
 20
5206.8341721519
 30
0.0
 11
6590.4773409753
 21
5151.5723876606
 31
0.0
  0
LINE
  5
118
330
1F
100
AcDbEntity
  8
0
  6
Continuous
 62
     8
370
    25
100
AcDbLine
 10
6609.4247093963
 20
5161.0258819563
 30
0.0
 11
6609.4247093963
 21
5151.5582400244
 31
0.0
  0
LINE
  5
119
330
1F
100
AcDbEntity
  8
0
  6
Continuous
 62
     8
370
    25
100
AcDbLine
 10
6609.4247093963
 20
5182.6236458361
 30
0.0
 11
6609.4247093963
 21
5172.0909429303
 31
0.0
  0
LINE
  5
11A
330
1F
100
AcDbEntity
  8
0
  6
Continuous
 62
     8
370
    25
100
AcDbLine
 10
6609.4247093963
 20
5162.0909429303
 30
0.0
 11
6609.4247093963
 21
5161.0258819563
 31
0.0
  0
LINE
  5
11B
330
1F
100
AcDbEntity
  8
0
  6
Continuous
 62
     7
370
    25
100
AcDbLine
 10
6169.1311335661
 20
4871.1674681514
 30
0.0
 11
6166.9311335661
 21
4871.1674681514
 31
0.0
  0
LINE
  5
11C
330
1F
100
AcDbEntity
  8
0
  6
Continuous
 62
     7
370
    25
100
AcDbLine
 10
6156.9311335661
 20
4871.1674681514
 30
0.0
 11
6153.7311335661
 21
4871.1674681514
 31
0.0
  0
LINE
  5
11D
330
1F
100
AcDbEntity
  8
0
  6
Continuous
 62
     7
370
    25
100
AcDbLine
 10
6153.7311335661
 20
4825.1674681514
 30
0.0
 11
6169.1311335661
 21
4825.1674681514
 31
0.0
  0
ARC
  5
11E
330
1F
100
AcDbEntity
  8
0
  6
Continuous
 62
     7
370
    25
100
AcDbCircle
 10
6153.7311335661
 20
4866.1674681514
 30
0.0
 40
5.0
100
AcDbArc
 50
90.0
 51
180.0
  0
ARC
  5
11F
330
1F
100
AcDbEntity
  8
0
  6
Continuous
 62
     7
370
    25
100
AcDbCircle
 10
6153.7311335661
 20
4830.1674681514
 30
0.0
 40
5.000000000000909
100
AcDbArc
 50
180.0
 51
270.0
  0
LINE
  5
120
330
1F
100
AcDbEntity
  8
0
  6
Continuous
 62
     7
370
    25
100
AcDbLine
 10
6169.2311335661
 20
4868.1674681514
 30
0.0
 11
6169.1311335661
 21
4868.1674681514
 31
0.0
  0
LINE
  5
121
330
1F
100
AcDbEntity
  8
0
  6
Continuous
 62
     7
370
    25
100
AcDbLine
 10
6169.1311335661
 20
4828.1674681514
 30
0.0
 11
6169.2311335661
 21
4828.1674681514
 31
0.0
  0
LINE
  5
122
330
1F
100
AcDbEntity
  8
0
  6
Continuous
 62
     7
370
    25
100
AcDbLine
 10
6324.4811335661
 20
4934.4174681514
 30
0.0
 11
6324.4811335661
 21
4948.2174681514
 31
0.0
  0
LINE
  5
123
330
1F
100
AcDbEntity
  8
0
  6
Continuous
 62
     7
370
    25
100
AcDbLine
 10
6303.9811335661
 20
4948.2174681514
 30
0.0
 11
6303.9811335661
 21
4934.4174681514
 31
0.0
  0
LINE
  5
124
330
1F
100
AcDbEntity
  8
0
  6
Continuous
 62
     7
370
    25
100
AcDbLine
 10
6224.4811335661
 20
4934.4174681514
 30
0.0
 11
6224.4811335661
 21
4948.2174681514
 31
0.0
  0
LINE
  5
125
330
1F
100
AcDbEntity
  8
0
  6
Continuous
 62
     7
370
    25
100
AcDbLine
 10
6203.9811335661
 20
4948.2174681514
 30
0.0
 11
6203.9811335661
 21
4934.4174681514
 31
0.0
  0
LINE
  5
126
330
1F
100
AcDbEntity
  8
0
  6
Continuous
 62
     7
370
    25
100
AcDbLine
 10
6203.3283365031
 20
4824.9632380526
 30
0.0
 11
6203.3419997336
 21
4824.1804720697
 31
0.0
  0
LINE
  5
127
330
1F
100
AcDbEntity
  8
0
  6
Continuous
 62
     7
370
    25
100
AcDbLine
 10
6225.1200408389
 20
4824.167468152
 30
0.0
 11
6225.1332015167
 21
4824.9214428771
 31
0.0
  0
LINE
  5
128
330
1F
100
AcDbEntity
  8
0
  6
Continuous
 62
     7
370
    25
100
AcDbLine
 10
6203.3721917245
 20
4824.1674681514
 30
0.0
 11
6225.1200408018
 21
4824.1674681514
 31
0.0
  0
LINE
  5
129
330
1F
100
AcDbEntity
  8
0
  6
Continuous
 62
     7
370
    25
100
AcDbLine
 10
6156.9511957802
 20
4871.1674681514
 30
0.0
 11
6153.7311335661
 21
4871.1674681514
 31
0.0
  0
LINE
  5
12A
330
1F
100
AcDbEntity
  8
0
  6
Continuous
 62
     7
370
    25
100
AcDbLine
 10
6169.1311335661
 20
4871.1674681514
 30
0.0
 11
6166.8706936675
 21
4871.1674681514
 31
0.0
  0
LINE
  5
12B
330
1F
100
AcDbEntity
  8
0
  6
Continuous
 62
     7
370
    25
100
AcDbLine
 10
6156.9311335661
 20
4917.4231263183
 30
0.0
 11
6156.9311335661
 21
4871.1674681514
 31
0.0
  0
LINE
  5
12C
330
1F
100
AcDbEntity
  8
0
  6
Continuous
 62
     7
370
    25
100
AcDbLine
 10
6166.9311335661
 20
4871.1674681514
 30
0.0
 11
6166.9311335661
 21
4910.537861823
 31
0.0
  0
ARC
  5
12D
330
1F
100
AcDbEntity
  8
0
  6
Continuous
 62
     7
370
    25
100
AcDbCircle
 10
6409.4832928854
 20
4855.7153088321
 30
0.0
 40
0.7521593192820855
100
AcDbArc
 50
15.3083338787
 51
70.7612320047
  0
ARC
  5
12E
330
1F
100
AcDbEntity
  8
0
  6
Continuous
 62
     7
370
    25
100
AcDbCircle
 10
6409.4832928854
 20
4840.6196274707
 30
0.0
 40
0.7521593192820428
100
AcDbArc
 50
289.2387679954
 51
344.6916661213
  0
ARC
  5
12F
330
1F
100
AcDbEntity
  8
0
  6
Continuous
 62
     7
370
    25
100
AcDbCircle
 10
6381.908793066
 20
4848.1674681514
 30
0.0
 40
29.34101972379658
100
AcDbArc
 50
344.6916661213
 51
15.3083338787
  0
LWPOLYLINE
  5
130
330
1F
100
AcDbEntity
  8
0
  6
Continuous
 62
     7
370
    25
100
AcDbPolyline
 90
        3
 70
   128
 43
0.0
 10
6375.7311335661
 20
4825.1674681514
 10
6379.1915763778
 20
4825.2087659788
 10
6381.7311335661
 20
4825.2916592667
  0
LWPOLYLINE
  5
131
330
1F
100
AcDbEntity
  8
0
  6
Continuous
 62
     7
370
    25
100
AcDbPolyline
 90
        3
 70
   128
 43
0.0
 10
6396.7311335661
 20
4826.6962166757
 10
6399.8439899412
 20
4827.1864548754
 10
6403.2493817413
 20
4827.8026339494
  0
ARC
  5
132
330
1F
100
AcDbEntity
  8
0
  6
Continuous
 62
     7
370
    25
100
AcDbCircle
 10
6375.7311335661
 20
4726.1674681514
 30
0.0
 40
144.9999999999991
100
AcDbArc
 50
79.0599948332
 51
90.0
  0
LINE
  5
133
330
1F
100
AcDbEntity
  8
0
  6
Continuous
 62
     7
370
    25
100
AcDbLine
 10
6370.7311335661
 20
4871.2674681514
 30
0.0
 11
6359.7311335661
 21
4871.2674681514
 31
0.0
  0
LINE
  5
134
330
1F
100
AcDbEntity
  8
0
  6
Continuous
 62
     7
370
    25
100
AcDbLine
 10
6359.7311335661
 20
4825.0674681514
 30
0.0
 11
6370.7311335661
 21
4825.0674681514
 31
0.0
  0
LINE
  5
135
330
1F
100
AcDbEntity
  8
0
  6
Continuous
 62
     7
370
    25
100
AcDbLine
 10
6375.7311335661
 20
4871.1674681514
 30
0.0
 11
6370.7311335661
 21
4871.1674681514
 31
0.0
  0
LINE
  5
136
330
1F
100
AcDbEntity
  8
0
  6
Continuous
 62
     7
370
    25
100
AcDbLine
 10
6370.7311335661
 20
4825.1674681514
 30
0.0
 11
6375.7311335661
 21
4825.1674681514
 31
0.0
  0
ARC
  5
137
330
1F
100
AcDbEntity
  8
0
  6
Continuous
 62
     7
370
    25
100
AcDbCircle
 10
6401.7311335661
 20
4860.6776908112
 30
0.0
 40
8.0
100
AcDbArc
 50
0.0
 51
79.0599948332
  0
ARC
  5
138
330
1F
100
AcDbEntity
  8
0
  6
Continuous
 62
     7
370
    25
100
AcDbCircle
 10
6401.7311335661
 20
4835.6572454915
 30
0.0
 40
8.0
100
AcDbArc
 50
280.9400051668
 51
0.0
  0
LINE
  5
139
330
1F
100
AcDbEntity
  8
0
  6
Continuous
 62
     7
370
    25
100
AcDbLine
 10
6229.2311335661
 20
4927.9174681514
 30
0.0
 11
6229.2311335661
 21
4934.4174681514
 31
0.0
  0
LINE
  5
13A
330
1F
100
AcDbEntity
  8
0
  6
Continuous
 62
     7
370
    25
100
AcDbLine
 10
6149.2311335661
 20
4934.4174681514
 30
0.0
 11
6149.2311335661
 21
4927.9174681514
 31
0.0
  0
ARC
  5
13B
330
1F
100
AcDbEntity
  8
0
  6
Continuous
 62
     7
370
    25
100
AcDbCircle
 10
6227.2311335661
 20
4927.9174681514
 30
0.0
 40
2.0
100
AcDbArc
 50
330.6468132401
 51
0.0
  0
ARC
  5
13C
330
1F
100
AcDbEntity
  8
0
  6
Continuous
 62
     7
370
    25
100
AcDbCircle
 10
6151.2311335661
 20
4927.9174681514
 30
0.0
 40
2.0
100
AcDbArc
 50
180.0
 51
209.3531867599
  0
ARC
  5
13D
330
1F
100
AcDbEntity
  8
0
  6
Continuous
 62
     7
370
    25
100
AcDbCircle
 10
6194.1097783548
 20
4946.5447553658
 30
0.0
 40
39.99999999999959
100
AcDbArc
 50
285.4472718235
 51
330.6468132401
  0
ARC
  5
13E
330
1F
100
AcDbEntity
  8
0
  6
Continuous
 62
     7
370
    25
100
AcDbCircle
 10
6184.3524887774
 20
4946.5447553658
 30
0.0
 40
40.00000000000038
100
AcDbArc
 50
209.3531867599
 51
226.722391717
  0
ARC
  5
13F
330
1F
100
AcDbEntity
  8
0
  6
Continuous
 62
     7
370
    25
100
AcDbCircle
 10
6184.3524887774
 20
4946.5447553658
 30
0.0
 40
39.99999999999964
100
AcDbArc
 50
244.1807296265
 51
254.5527281765
  0
ARC
  5
140
330
1F
100
AcDbEntity
  8
0
  6
Continuous
 62
     7
370
    25
100
AcDbCircle
 10
6204.2311335661
 20
4909.9174681514
 30
0.0
 40
2.0
100
AcDbArc
 50
270.0
 51
285.4472718235
  0
ARC
  5
141
330
1F
100
AcDbEntity
  8
0
  6
Continuous
 62
     7
370
    25
100
AcDbCircle
 10
6174.2311335661
 20
4909.9174681514
 30
0.0
 40
2.0
100
AcDbArc
 50
254.5527281765
 51
270.0
  0
LINE
  5
142
330
1F
100
AcDbEntity
  8
0
  6
Continuous
 62
     7
370
    25
100
AcDbLine
 10
6175.3126511214
 20
4907.9174681514
 30
0.0
 11
6177.4286615184
 21
4907.9174681514
 31
0.0
  0
LINE
  5
143
330
1F
100
AcDbEntity
  8
0
  6
Continuous
 62
     7
370
    25
100
AcDbLine
 10
6187.1151231692
 20
4907.9174681514
 30
0.0
 11
6191.3471439631
 21
4907.9174681514
 31
0.0
  0
LINE
  5
144
330
1F
100
AcDbEntity
  8
0
  6
Continuous
 62
     7
370
    25
100
AcDbLine
 10
6201.0336056138
 20
4907.9174681514
 30
0.0
 11
6203.1496160108
 21
4907.9174681514
 31
0.0
  0
LINE
  5
145
330
1F
100
AcDbEntity
  8
0
  6
Continuous
 62
     7
370
    25
100
AcDbLine
 10
6379.2311335661
 20
4927.9174681514
 30
0.0
 11
6379.2311335661
 21
4934.4174681514
 31
0.0
  0
LINE
  5
146
330
1F
100
AcDbEntity
  8
0
  6
Continuous
 62
     7
370
    25
100
AcDbLine
 10
6299.2311335661
 20
4934.4174681514
 30
0.0
 11
6299.2311335661
 21
4927.9174681514
 31
0.0
  0
ARC
  5
147
330
1F
100
AcDbEntity
  8
0
  6
Continuous
 62
     7
370
    25
100
AcDbCircle
 10
6377.2311335661
 20
4927.9174681514
 30
0.0
 40
2.0
100
AcDbArc
 50
330.6468132401
 51
0.0
  0
ARC
  5
148
330
1F
100
AcDbEntity
  8
0
  6
Continuous
 62
     7
370
    25
100
AcDbCircle
 10
6301.2311335661
 20
4927.9174681514
 30
0.0
 40
2.0
100
AcDbArc
 50
180.0
 51
209.3531867599
  0
ARC
  5
149
330
1F
100
AcDbEntity
  8
0
  6
Continuous
 62
     7
370
    25
100
AcDbCircle
 10
6344.1097783548
 20
4946.5447553658
 30
0.0
 40
39.99999999999959
100
AcDbArc
 50
285.4472718235
 51
330.6468132401
  0
ARC
  5
14A
330
1F
100
AcDbEntity
  8
0
  6
Continuous
 62
     7
370
    25
100
AcDbCircle
 10
6334.3524887774
 20
4946.5447553658
 30
0.0
 40
39.99999999999959
100
AcDbArc
 50
209.3531867599
 51
254.5527281765
  0
ARC
  5
14B
330
1F
100
AcDbEntity
  8
0
  6
Continuous
 62
     7
370
    25
100
AcDbCircle
 10
6354.2311335661
 20
4909.9174681514
 30
0.0
 40
2.0
100
AcDbArc
 50
270.0
 51
285.4472718236
  0
ARC
  5
14C
330
1F
100
AcDbEntity
  8
0
  6
Continuous
 62
     7
370
    25
100
AcDbCircle
 10
6324.2311335661
 20
4909.9174681514
 30
0.0
 40
2.0
100
AcDbArc
 50
254.5527281765
 51
270.0
  0
LINE
  5
14D
330
1F
100
AcDbEntity
  8
0
  6
Continuous
 62
     7
370
    25
100
AcDbLine
 10
6325.3126511214
 20
4907.9174681514
 30
0.0
 11
6327.4286615184
 21
4907.9174681514
 31
0.0
  0
LINE
  5
14E
330
1F
100
AcDbEntity
  8
0
  6
Continuous
 62
     7
370
    25
100
AcDbLine
 10
6337.1151231692
 20
4907.9174681514
 30
0.0
 11
6341.3471439631
 21
4907.9174681514
 31
0.0
  0
LINE
  5
14F
330
1F
100
AcDbEntity
  8
0
  6
Continuous
 62
     7
370
    25
100
AcDbLine
 10
6351.0336056138
 20
4907.9174681514
 30
0.0
 11
6353.1496160108
 21
4907.9174681514
 31
0.0
  0
LINE
  5
150
330
1F
100
AcDbEntity
  8
0
  6
Continuous
 62
     7
370
    25
100
AcDbLine
 10
6225.1977371704
 20
4824.9174681514
 30
0.0
 11
6359.2311335661
 21
4824.9174681514
 31
0.0
  0
LINE
  5
151
330
1F
100
AcDbEntity
  8
0
  6
Continuous
 62
     7
370
    25
100
AcDbLine
 10
6169.2311335661
 20
4824.9174681514
 30
0.0
 11
6203.2311335661
 21
4824.9174681514
 31
0.0
  0
LINE
  5
152
330
1F
100
AcDbEntity
  8
0
  6
Continuous
 62
     7
370
    25
100
AcDbLine
 10
6202.9311335661
 20
4885.9174681514
 30
0.0
 11
6202.9311335661
 21
4895.9174681514
 31
0.0
  0
LINE
  5
153
330
1F
100
AcDbEntity
  8
0
  6
Continuous
 62
     7
370
    25
100
AcDbLine
 10
6175.5311335661
 20
4895.9174681514
 30
0.0
 11
6175.5311335661
 21
4885.9174681514
 31
0.0
  0
LINE
  5
154
330
1F
100
AcDbEntity
  8
0
  6
Continuous
 62
     7
370
    25
100
AcDbLine
 10
6352.9311335661
 20
4885.9174681514
 30
0.0
 11
6352.9311335661
 21
4895.9174681514
 31
0.0
  0
LINE
  5
155
330
1F
100
AcDbEntity
  8
0
  6
Continuous
 62
     7
370
    25
100
AcDbLine
 10
6325.5311335661
 20
4895.9174681514
 30
0.0
 11
6325.5311335661
 21
4885.9174681514
 31
0.0
  0
LINE
  5
156
330
1F
100
AcDbEntity
  8
0
  6
Continuous
 62
     7
370
    25
100
AcDbLine
 10
6169.1311335661
 20
4848.1674681514
 30
0.0
 11
6169.1311335661
 21
4825.1674681514
 31
0.0
  0
LINE
  5
157
330
1F
100
AcDbEntity
  8
0
  6
Continuous
 62
     7
370
    25
100
AcDbLine
 10
6169.1311335661
 20
4871.1674681514
 30
0.0
 11
6169.1311335661
 21
4848.1674681514
 31
0.0
  0
LINE
  5
158
330
1F
100
AcDbEntity
  8
0
  6
Continuous
 62
     7
370
    25
100
AcDbLine
 10
6148.7311335661
 20
4848.1674681514
 30
0.0
 11
6148.7311335661
 21
4830.1674681514
 31
0.0
  0
LINE
  5
159
330
1F
100
AcDbEntity
  8
0
  6
Continuous
 62
     7
370
    25
100
AcDbLine
 10
6148.7311335661
 20
4866.1674681514
 30
0.0
 11
6148.7311335661
 21
4848.1674681514
 31
0.0
  0
LINE
  5
15A
330
1F
100
AcDbEntity
  8
0
  6
Continuous
 62
     7
370
    25
100
AcDbLine
 10
6276.7311335661
 20
4824.9174681514
 30
0.0
 11
6276.7311335661
 21
4690.9174681514
 31
0.0
  0
LINE
  5
15B
330
1F
100
AcDbEntity
  8
0
  6
Continuous
 62
     7
370
    25
100
AcDbLine
 10
6276.7311335661
 20
4690.9174681514
 30
0.0
 11
6271.7311335661
 21
4690.9174681514
 31
0.0
  0
LINE
  5
15C
330
1F
100
AcDbEntity
  8
0
  6
Continuous
 62
     7
370
    25
100
AcDbLine
 10
6256.7311335661
 20
4690.9174681514
 30
0.0
 11
6251.7311335661
 21
4690.9174681514
 31
0.0
  0
LINE
  5
15D
330
1F
100
AcDbEntity
  8
0
  6
Continuous
 62
     7
370
    25
100
AcDbLine
 10
6251.7311335661
 20
4690.9174681514
 30
0.0
 11
6251.7311335661
 21
4824.9174681514
 31
0.0
  0
ARC
  5
15E
330
1F
100
AcDbEntity
  8
0
  6
Continuous
 62
     7
370
    25
100
AcDbCircle
 10
6264.2311335661
 20
4690.9174681514
 30
0.0
 40
7.5
100
AcDbArc
 50
180.0
 51
0.0
  0
ARC
  5
15F
330
1F
100
AcDbEntity
  8
0
  6
Continuous
 62
     7
370
    25
100
AcDbCircle
 10
6264.2311335661
 20
4690.9174681514
 30
0.0
 40
12.5
100
AcDbArc
 50
180.0
 51
0.0
  0
LINE
  5
160
330
1F
100
AcDbEntity
  8
0
  6
Continuous
 62
     7
370
    25
100
AcDbLine
 10
6303.9811335661
 20
4948.2174681514
 30
0.0
 11
6324.4811335661
 21
4948.2174681514
 31
0.0
  0
LINE
  5
161
330
1F
100
AcDbEntity
  8
0
  6
Continuous
 62
     7
370
    25
100
AcDbLine
 10
6203.9811335661
 20
4948.2174681514
 30
0.0
 11
6224.4811335661
 21
4948.2174681514
 31
0.0
  0
LWPOLYLINE
  5
162
330
1F
100
AcDbEntity
  8
0
  6
Continuous
 62
     7
370
    25
100
AcDbPolyline
 90
       21
 70
   128
 43
0.0
 10
6225.1200408389
 20
4824.1674681514
 10
6224.9864100592
 20
4824.2276953989
 10
6224.5754611798
 20
4824.4092932522
 10
6223.9273879626
 20
4824.6837267585
 10
6223.0297362883
 20
4825.0393456248
 10
6221.8859674403
 20
4825.4490899803
 10
6220.5079174218
 20
4825.874833269
 10
6218.9022571183
 20
4826.2718479027
 10
6217.0857998866
 20
4826.5856756872
 10
6215.3246718469
 20
4826.7469531753
 10
6213.4635549183
 20
4826.7611438591
 10
6211.8469870778
 20
4826.6426809636
 10
6210.2522348788
 20
4826.408748581
 10
6208.7717608527
 20
4826.0906089398
 10
6207.3935713838
 20
4825.7108708296
 10
6206.0944991441
 20
4825.2825504837
 10
6204.9872927307
 20
4824.8666088298
 10
6204.1411383445
 20
4824.5186879619
 10
6203.5738570981
 20
4824.2715158122
 10
6203.3534310128
 20
4824.1725324769
 10
6203.372139581
 20
4824.1809981618
  0
LWPOLYLINE
  5
163
330
1F
100
AcDbEntity
  8
0
  6
Continuous
 62
     7
370
    25
100
AcDbPolyline
 90
       12
 70
   128
 43
0.0
 10
6166.8706936675
 20
4871.1544543837
 10
6166.9037318509
 20
4871.1615268123
 10
6166.4667953165
 20
4871.0710099629
 10
6165.5369892952
 20
4870.905150433
 10
6164.1858737542
 20
4870.7303547866
 10
6162.5696803006
 20
4870.6264917707
 10
6160.9113076221
 20
4870.6405641765
 10
6159.3856834454
 20
4870.761257482
 10
6158.1193913978
 20
4870.9387083099
 10
6157.2596092099
 20
4871.0983019742
 10
6156.9328433815
 20
4871.1670965129
 10
6156.9511957802
 20
4871.163195606
  0
LWPOLYLINE
  5
164
330
1F
100
AcDbEntity
  8
0
  6
Continuous
 62
     7
370
    25
100
AcDbPolyline
 90
        3
 70
   128
 43
0.0
 10
6393.7311335661
 20
4828.492633143
 10
6389.3391568533
 20
4828.0304564009
 10
6384.7311335661
 20
4827.6847476316
  0
LWPOLYLINE
  5
165
330
1F
100
AcDbEntity
  8
0
  6
Continuous
 62
     7
370
    25
100
AcDbPolyline
 90
        6
 70
   128
 43
0.0
 10
6381.7311335661
 20
4826.4180832661
 10
6381.8970526125
 20
4826.7497670499
 10
6382.3747145191
 20
4827.0920753148
 10
6383.1168658916
 20
4827.3963326386
 10
6384.0494321793
 20
4827.6115188376
 10
6384.7311335661
 20
4827.6847476316
  0
LWPOLYLINE
  5
166
330
1F
100
AcDbEntity
  8
0
  6
Continuous
 62
     7
370
    25
100
AcDbPolyline
 90
        6
 70
   128
 43
0.0
 10
6393.7311335661
 20
4828.492633143
 10
6394.7194483515
 20
4828.5411825613
 10
6395.6005300043
 20
4828.449008707
 10
6396.2696176927
 20
4828.2419797107
 10
6396.6551153507
 20
4827.9608715683
 10
6396.7311335661
 20
4827.7534790913
  0
LWPOLYLINE
  5
167
330
1F
100
AcDbEntity
  8
0
  6
Continuous
 62
     7
370
    25
100
AcDbPolyline
 90
       21
 70
   128
 43
0.0
 10
6403.2493817413
 20
4844.0320563385
 10
6399.093909533
 20
4844.140869428
 10
6394.9444187578
 20
4844.6007673359
 10
6390.8659402116
 20
4845.4909152762
 10
6388.5897844833
 20
4846.2316784172
 10
6386.3873639934
 20
4847.1818933426
 10
6384.2813533849
 20
4848.3946104015
 10
6382.382604638
 20
4849.9097189312
 10
6380.7350550784
 20
4851.9316002292
 10
6380.1548145735
 20
4853.1066719955
 10
6379.8089324925
 20
4854.3497514987
 10
6379.8684939317
 20
4856.4901789651
 10
6380.5602036087
 20
4858.1743846463
 10
6381.3610067769
 20
4859.2382202891
 10
6382.3378116578
 20
4860.1499391164
 10
6384.105199245
 20
4861.2978351473
 10
6386.0625662609
 20
4862.1596328632
 10
6389.8562807864
 20
4863.1623944976
 10
6393.826838517
 20
4863.6206216167
 10
6398.5258310014
 20
4863.6554849382
 10
6403.2493817413
 20
4863.2601395898
  0
LINE
  5
168
330
1F
100
AcDbEntity
  8
0
  6
Continuous
 62
     7
370
    25
100
AcDbLine
 10
6370.7311335661
 20
4855.3268664669
 30
0.0
 11
6370.7311335661
 21
4825.0674681514
 31
0.0
  0
LINE
  5
169
330
1F
100
AcDbEntity
  8
0
  6
Continuous
 62
     7
370
    25
100
AcDbLine
 10
6370.7311335661
 20
4871.2674681514
 30
0.0
 11
6370.7311335661
 21
4855.3268664669
 31
0.0
  0
LINE
  5
16A
330
1F
100
AcDbEntity
  8
0
  6
Continuous
 62
     7
370
    25
100
AcDbLine
 10
6359.7311335661
 20
4855.3268664669
 30
0.0
 11
6359.7311335661
 21
4825.0674681514
 31
0.0
  0
LINE
  5
16B
330
1F
100
AcDbEntity
  8
0
  6
Continuous
 62
     7
370
    25
100
AcDbLine
 10
6359.7311335661
 20
4871.2674681514
 30
0.0
 11
6359.7311335661
 21
4855.3268664669
 31
0.0
  0
LWPOLYLINE
  5
16C
330
1F
100
AcDbEntity
  8
0
  6
Continuous
 62
     7
370
    25
100
AcDbPolyline
 90
       14
 70
   128
 43
0.0
 10
6403.2493817413
 20
4863.2601395898
 10
6405.1673929506
 20
4862.6741188747
 10
6406.7841189541
 20
4861.4747103595
 10
6407.9788727511
 20
4859.8131485137
 10
6408.5775856082
 20
4858.4036694523
 10
6408.9680456307
 20
4856.9277156196
 10
6409.2548838517
 20
4854.8616669977
 10
6409.3338310345
 20
4852.8164280965
 10
6409.1909514276
 20
4850.181870695
 10
6408.6188880753
 20
4847.7411716621
 10
6407.5902536132
 20
4845.9397037477
 10
6405.9111624376
 20
4844.6316576891
 10
6403.945769881
 20
4844.0738099668
 10
6403.2493817413
 20
4844.0320563385
  0
LINE
  5
16D
330
1F
100
AcDbEntity
  8
0
  6
Continuous
 62
     7
370
    25
100
AcDbLine
 10
6409.7311335661
 20
4852.0447697547
 30
0.0
 11
6409.7311335661
 21
4835.6572454915
 31
0.0
  0
LINE
  5
16E
330
1F
100
AcDbEntity
  8
0
  6
Continuous
 62
     7
370
    25
100
AcDbLine
 10
6409.7311335661
 20
4860.6776908112
 30
0.0
 11
6409.7311335661
 21
4852.0447697547
 31
0.0
  0
ARC
  5
16F
330
1F
100
AcDbEntity
  8
0
  6
Continuous
 62
     7
370
    25
100
AcDbCircle
 10
6390.4581174561
 20
4855.4921702155
 30
0.0
 40
33.44558261142073
100
AcDbArc
 50
260.1404901717
 51
275.6160070722
  0
ARC
  5
170
330
1F
100
AcDbEntity
  8
0
  6
Continuous
 62
     7
370
    25
100
AcDbCircle
 10
6384.8996181396
 20
4826.4752456124
 30
0.0
 40
3.938291788674377
100
AcDbArc
 50
216.4348491364
 51
267.5480734825
  0
LWPOLYLINE
  5
171
330
1F
100
AcDbEntity
  8
0
  6
Continuous
 62
     7
370
    25
100
AcDbPolyline
 90
        6
 70
   128
 43
0.0
 10
6384.7311335661
 20
4824.4001434326
 10
6383.7203679327
 20
4824.5377159577
 10
6382.8286972736
 20
4824.5776642817
 10
6382.1548529922
 20
4824.5007951936
 10
6381.7887066426
 20
4824.3019908971
 10
6381.7311335661
 20
4824.1362612773
  0
ARC
  5
172
330
1F
100
AcDbEntity
  8
0
  6
Continuous
 62
     7
370
    25
100
AcDbCircle
 10
6390.4581174561
 20
4857.3517541934
 30
0.0
 40
33.44558261127246
100
AcDbArc
 50
260.1404901717
 51
275.6160070722
  0
LWPOLYLINE
  5
173
330
1F
100
AcDbEntity
  8
0
  6
Continuous
 62
     7
370
    25
100
AcDbPolyline
 90
        6
 70
   128
 43
0.0
 10
6396.7311335661
 20
4823.5701387785
 10
6396.566468966
 20
4823.8428955458
 10
6396.092954885
 20
4824.0278798391
 10
6395.3560870351
 20
4824.1185783904
 10
6394.4251024057
 20
4824.1170435327
 10
6393.7311335661
 20
4824.0667070738
  0
LWPOLYLINE
  5
174
330
1F
100
AcDbEntity
  8
0
  6
Continuous
 62
     7
370
    25
100
AcDbPolyline
 90
        6
 70
   128
 43
0.0
 10
6393.7311335661
 20
4822.2071230958
 10
6394.7300067928
 20
4822.3735776914
 10
6395.6134387835
 20
4822.6521342994
 10
6396.2859872719
 20
4823.0008085505
 10
6396.6640093303
 20
4823.3617922213
 10
6396.7311335661
 20
4823.5701387785
  0
LINE
  5
175
330
1F
100
AcDbEntity
  8
0
  6
Continuous
 62
     7
370
    25
100
AcDbLine
 10
6384.7311335661
 20
4827.6847476316
 30
0.0
 11
6384.7311335661
 21
4824.4001434326
 31
0.0
  0
LINE
  5
176
330
1F
100
AcDbEntity
  8
0
  6
Continuous
 62
     7
370
    25
100
AcDbLine
 10
6393.7311335661
 20
4824.0667070738
 30
0.0
 11
6393.7311335661
 21
4828.492633143
 31
0.0
  0
LINE
  5
177
330
1F
100
AcDbEntity
  8
0
  6
Continuous
 62
     7
370
    25
100
AcDbLine
 10
6396.7311335661
 20
4823.5701387785
 30
0.0
 11
6396.7311335661
 21
4827.7534790913
 31
0.0
  0
LINE
  5
178
330
1F
100
AcDbEntity
  8
0
  6
Continuous
 62
     7
370
    25
100
AcDbLine
 10
6381.7311335661
 20
4826.4180832661
 30
0.0
 11
6381.7311335661
 21
4824.1362612773
 31
0.0
  0
LINE
  5
179
330
1F
100
AcDbEntity
  8
0
  6
Continuous
 62
     7
370
    25
100
AcDbLine
 10
6229.2311335661
 20
4934.4174681514
 30
0.0
 11
6149.2311335661
 21
4934.4174681514
 31
0.0
  0
LINE
  5
17A
330
1F
100
AcDbEntity
  8
0
  6
Continuous
 62
     7
370
    25
100
AcDbLine
 10
6379.2311335661
 20
4934.4174681514
 30
0.0
 11
6299.2311335661
 21
4934.4174681514
 31
0.0
  0
LINE
  5
17B
330
1F
100
AcDbEntity
  8
0
  6
Continuous
 62
     7
370
    25
100
AcDbLine
 10
6169.2311335661
 20
4878.9174681514
 30
0.0
 11
6359.2311335661
 21
4878.9174681514
 31
0.0
  0
LINE
  5
17C
330
1F
100
AcDbEntity
  8
0
  6
Continuous
 62
     7
370
    25
100
AcDbLine
 10
6169.2311335661
 20
4878.9174681514
 30
0.0
 11
6169.2311335661
 21
4885.9174681514
 31
0.0
  0
LINE
  5
17D
330
1F
100
AcDbEntity
  8
0
  6
Continuous
 62
     7
370
    25
100
AcDbLine
 10
6169.2311335661
 20
4885.9174681514
 30
0.0
 11
6359.2311335661
 21
4885.9174681514
 31
0.0
  0
LINE
  5
17E
330
1F
100
AcDbEntity
  8
0
  6
Continuous
 62
     7
370
    25
100
AcDbLine
 10
6359.2311335661
 20
4878.9174681514
 30
0.0
 11
6359.2311335661
 21
4885.9174681514
 31
0.0
  0
LINE
  5
17F
330
1F
100
AcDbEntity
  8
0
  6
Continuous
 62
     7
370
    25
100
AcDbLine
 10
6169.2311335661
 20
4848.1674681514
 30
0.0
 11
6359.2311335661
 21
4848.1674681514
 31
0.0
  0
LINE
  5
180
330
1F
100
AcDbEntity
  8
0
  6
Continuous
 62
     7
370
    25
100
AcDbLine
 10
6359.2311335661
 20
4848.1674681514
 30
0.0
 11
6359.2311335661
 21
4878.9174681514
 31
0.0
  0
LINE
  5
181
330
1F
100
AcDbEntity
  8
0
  6
Continuous
 62
     7
370
    25
100
AcDbLine
 10
6169.2311335661
 20
4848.1674681514
 30
0.0
 11
6169.2311335661
 21
4878.9174681514
 31
0.0
  0
LWPOLYLINE
  5
182
330
1F
100
AcDbEntity
  8
0
  6
Continuous
 62
     7
370
    25
100
AcDbPolyline
 90
       21
 70
   128
 43
0.0
 10
6203.2311335661
 20
4824.9174681514
 10
6203.3654896178
 20
4824.9807323222
 10
6203.7789149668
 20
4825.1715690899
 10
6204.429787964
 20
4825.4600051576
 10
6205.3307180991
 20
4825.8340874067
 10
6206.4788922257
 20
4826.266332432
 10
6207.8617862466
 20
4826.7168018383
 10
6209.4870803713
 20
4827.1420420983
 10
6211.3300444921
 20
4827.4798192319
 10
6213.1095803496
 20
4827.6535611218
 10
6214.9935347516
 20
4827.6700596428
 10
6216.6072160421
 20
4827.5468894026
 10
6218.1992127444
 20
4827.3034284571
 10
6219.6838309628
 20
4826.9709021819
 10
6221.0672909415
 20
4826.573590601
 10
6222.3858491278
 20
4826.1206569105
 10
6223.5136619322
 20
4825.6790748591
 10
6224.3866169641
 20
4825.304914859
 10
6224.978253316
 20
4825.0360375229
 10
6225.2154521634
 20
4824.9248832037
 10
6225.1977371704
 20
4824.9332387953
  0
LINE
  5
183
330
1F
100
AcDbEntity
  8
0
  6
Continuous
 62
     7
370
    25
100
AcDbLine
 10
6359.2311335661
 20
4824.9174681514
 30
0.0
 11
6359.2311335661
 21
4848.1674681514
 31
0.0
  0
LINE
  5
184
330
1F
100
AcDbEntity
  8
0
  6
Continuous
 62
     7
370
    25
100
AcDbLine
 10
6169.2311335661
 20
4824.9174681514
 30
0.0
 11
6169.2311335661
 21
4848.1674681514
 31
0.0
  0
LINE
  5
185
330
1F
100
AcDbEntity
  8
0
  6
Continuous
 62
     7
370
    25
100
AcDbLine
 10
6172.0838305712
 20
4907.9174681514
 30
0.0
 11
6172.0838305712
 21
4895.9174681514
 31
0.0
  0
LINE
  5
186
330
1F
100
AcDbEntity
  8
0
  6
Continuous
 62
     7
370
    25
100
AcDbLine
 10
6172.0838305712
 20
4907.9174681514
 30
0.0
 11
6175.3126511214
 21
4907.9174681514
 31
0.0
  0
LINE
  5
187
330
1F
100
AcDbEntity
  8
0
  6
Continuous
 62
     7
370
    25
100
AcDbLine
 10
6177.4286615184
 20
4907.9174681514
 30
0.0
 11
6180.6574820686
 21
4907.9174681514
 31
0.0
  0
LINE
  5
188
330
1F
100
AcDbEntity
  8
0
  6
Continuous
 62
     7
370
    25
100
AcDbLine
 10
6180.6574820686
 20
4907.9174681514
 30
0.0
 11
6180.6574820686
 21
4895.9174681514
 31
0.0
  0
LINE
  5
189
330
1F
100
AcDbEntity
  8
0
  6
Continuous
 62
     7
370
    25
100
AcDbLine
 10
6172.0838305712
 20
4895.9174681514
 30
0.0
 11
6180.6574820686
 21
4895.9174681514
 31
0.0
  0
LINE
  5
18A
330
1F
100
AcDbEntity
  8
0
  6
Continuous
 62
     7
370
    25
100
AcDbLine
 10
6180.6574820686
 20
4907.9174681514
 30
0.0
 11
6187.1151231692
 21
4907.9174681514
 31
0.0
  0
LINE
  5
18B
330
1F
100
AcDbEntity
  8
0
  6
Continuous
 62
     7
370
    25
100
AcDbLine
 10
6191.3471439631
 20
4907.9174681514
 30
0.0
 11
6197.8047850636
 21
4907.9174681514
 31
0.0
  0
LINE
  5
18C
330
1F
100
AcDbEntity
  8
0
  6
Continuous
 62
     7
370
    25
100
AcDbLine
 10
6197.8047850636
 20
4907.9174681514
 30
0.0
 11
6197.8047850636
 21
4895.9174681514
 31
0.0
  0
LINE
  5
18D
330
1F
100
AcDbEntity
  8
0
  6
Continuous
 62
     7
370
    25
100
AcDbLine
 10
6180.6574820686
 20
4895.9174681514
 30
0.0
 11
6197.8047850636
 21
4895.9174681514
 31
0.0
  0
LINE
  5
18E
330
1F
100
AcDbEntity
  8
0
  6
Continuous
 62
     7
370
    25
100
AcDbLine
 10
6206.378436561
 20
4907.9174681514
 30
0.0
 11
6206.378436561
 21
4895.9174681514
 31
0.0
  0
LINE
  5
18F
330
1F
100
AcDbEntity
  8
0
  6
Continuous
 62
     7
370
    25
100
AcDbLine
 10
6197.8047850636
 20
4895.9174681514
 30
0.0
 11
6206.378436561
 21
4895.9174681514
 31
0.0
  0
LINE
  5
190
330
1F
100
AcDbEntity
  8
0
  6
Continuous
 62
     7
370
    25
100
AcDbLine
 10
6197.8047850636
 20
4907.9174681514
 30
0.0
 11
6201.0336056138
 21
4907.9174681514
 31
0.0
  0
LINE
  5
191
330
1F
100
AcDbEntity
  8
0
  6
Continuous
 62
     7
370
    25
100
AcDbLine
 10
6203.1496160108
 20
4907.9174681514
 30
0.0
 11
6206.378436561
 21
4907.9174681514
 31
0.0
  0
LINE
  5
192
330
1F
100
AcDbEntity
  8
0
  6
Continuous
 62
     7
370
    25
100
AcDbLine
 10
6322.0838305712
 20
4907.9174681514
 30
0.0
 11
6322.0838305712
 21
4895.9174681514
 31
0.0
  0
LINE
  5
193
330
1F
100
AcDbEntity
  8
0
  6
Continuous
 62
     7
370
    25
100
AcDbLine
 10
6330.6574820686
 20
4907.9174681514
 30
0.0
 11
6330.6574820686
 21
4895.9174681514
 31
0.0
  0
LINE
  5
194
330
1F
100
AcDbEntity
  8
0
  6
Continuous
 62
     7
370
    25
100
AcDbLine
 10
6322.0838305712
 20
4895.9174681514
 30
0.0
 11
6330.6574820686
 21
4895.9174681514
 31
0.0
  0
LINE
  5
195
330
1F
100
AcDbEntity
  8
0
  6
Continuous
 62
     7
370
    25
100
AcDbLine
 10
6322.0838305712
 20
4907.9174681514
 30
0.0
 11
6325.3126511214
 21
4907.9174681514
 31
0.0
  0
LINE
  5
196
330
1F
100
AcDbEntity
  8
0
  6
Continuous
 62
     7
370
    25
100
AcDbLine
 10
6327.4286615184
 20
4907.9174681514
 30
0.0
 11
6330.6574820686
 21
4907.9174681514
 31
0.0
  0
LINE
  5
197
330
1F
100
AcDbEntity
  8
0
  6
Continuous
 62
     7
370
    25
100
AcDbLine
 10
6347.8047850636
 20
4907.9174681514
 30
0.0
 11
6347.8047850636
 21
4895.9174681514
 31
0.0
  0
LINE
  5
198
330
1F
100
AcDbEntity
  8
0
  6
Continuous
 62
     7
370
    25
100
AcDbLine
 10
6330.6574820686
 20
4895.9174681514
 30
0.0
 11
6347.8047850636
 21
4895.9174681514
 31
0.0
  0
LINE
  5
199
330
1F
100
AcDbEntity
  8
0
  6
Continuous
 62
     7
370
    25
100
AcDbLine
 10
6330.6574820686
 20
4907.9174681514
 30
0.0
 11
6337.1151231692
 21
4907.9174681514
 31
0.0
  0
LINE
  5
19A
330
1F
100
AcDbEntity
  8
0
  6
Continuous
 62
     7
370
    25
100
AcDbLine
 10
6341.3471439631
 20
4907.9174681514
 30
0.0
 11
6347.8047850636
 21
4907.9174681514
 31
0.0
  0
LINE
  5
19B
330
1F
100
AcDbEntity
  8
0
  6
Continuous
 62
     7
370
    25
100
AcDbLine
 10
6356.378436561
 20
4907.9174681514
 30
0.0
 11
6356.378436561
 21
4895.9174681514
 31
0.0
  0
LINE
  5
19C
330
1F
100
AcDbEntity
  8
0
  6
Continuous
 62
     7
370
    25
100
AcDbLine
 10
6347.8047850636
 20
4895.9174681514
 30
0.0
 11
6356.378436561
 21
4895.9174681514
 31
0.0
  0
LINE
  5
19D
330
1F
100
AcDbEntity
  8
0
  6
Continuous
 62
     7
370
    25
100
AcDbLine
 10
6347.8047850636
 20
4907.9174681514
 30
0.0
 11
6351.0336056138
 21
4907.9174681514
 31
0.0
  0
LINE
  5
19E
330
1F
100
AcDbEntity
  8
0
  6
Continuous
 62
     7
370
    25
100
AcDbLine
 10
6353.1496160108
 20
4907.9174681514
 30
0.0
 11
6356.378436561
 21
4907.9174681514
 31
0.0
  0
LINE
  5
19F
330
1F
100
AcDbEntity
  8
0
  6
Continuous
 62
     8
370
    25
100
AcDbLine
 10
6153.7311335661
 20
4848.1674681514
 30
0.0
 11
6153.7311335661
 21
4825.1674681514
 31
0.0
  0
LINE
  5
1A0
330
1F
100
AcDbEntity
  8
0
  6
Continuous
 62
     8
370
    25
100
AcDbLine
 10
6153.7311335661
 20
4871.1674681514
 30
0.0
 11
6153.7311335661
 21
4848.1674681514
 31
0.0
  0
LINE
  5
1A1
330
1F
100
AcDbEntity
  8
0
  6
Continuous
 62
     8
370
    25
100
AcDbLine
 10
6271.7311335661
 20
4690.9174681514
 30
0.0
 11
6271.7311335661
 21
4824.9174681514
 31
0.0
  0
LINE
  5
1A2
330
1F
100
AcDbEntity
  8
0
  6
Continuous
 62
     8
370
    25
100
AcDbLine
 10
6256.7311335661
 20
4824.9174681514
 30
0.0
 11
6256.7311335661
 21
4690.9174681514
 31
0.0
  0
LINE
  5
1A3
330
1F
100
AcDbEntity
  8
0
  6
Continuous
 62
     8
370
    25
100
AcDbLine
 10
6410.2087648601
 20
4855.9138889304
 30
0.0
 11
6410.2087648601
 21
4840.4210473724
 31
0.0
  0
LINE
  5
1A4
330
1F
100
AcDbEntity
  8
0
  6
Continuous
 62
     8
370
    25
100
AcDbLine
 10
6403.2493817413
 20
4844.0320563385
 30
0.0
 11
6403.2493817413
 21
4827.8026339494
 31
0.0
  0
LINE
  5
1A5
330
1F
100
AcDbEntity
  8
0
  6
Continuous
 62
     8
370
    25
100
AcDbLine
 10
6403.2493817413
 20
4868.5323023534
 30
0.0
 11
6403.2493817413
 21
4863.2601395898
 31
0.0
  0
LINE
  5
1A6
330
1F
100
AcDbEntity
  8
0
  6
Continuous
 62
     8
370
    25
100
AcDbLine
 10
6375.7311335661
 20
4855.2958734006
 30
0.0
 11
6375.7311335661
 21
4825.1674681514
 31
0.0
  0
LINE
  5
1A7
330
1F
100
AcDbEntity
  8
0
  6
Continuous
 62
     8
370
    25
100
AcDbLine
 10
6375.7311335661
 20
4871.1674681514
 30
0.0
 11
6375.7311335661
 21
4855.2958734006
 31
0.0
  0
LINE
  5
1A8
330
1F
100
AcDbEntity
  8
0
  6
Continuous
 62
     8
370
    25
100
AcDbLine
 10
6229.2311335661
 20
4927.9174681514
 30
0.0
 11
6149.2311335661
 21
4927.9174681514
 31
0.0
  0
LINE
  5
1A9
330
1F
100
AcDbEntity
  8
0
  6
Continuous
 62
     8
370
    25
100
AcDbLine
 10
6228.9743627878
 20
4926.9370846138
 30
0.0
 11
6149.4879043445
 21
4926.9370846138
 31
0.0
  0
LINE
  5
1AA
330
1F
100
AcDbEntity
  8
0
  6
Continuous
 62
     8
370
    25
100
AcDbLine
 10
6204.763836472
 20
4907.9897161927
 30
0.0
 11
6173.6984306603
 21
4907.9897161927
 31
0.0
  0
LINE
  5
1AB
330
1F
100
AcDbEntity
  8
0
  6
Continuous
 62
     8
370
    25
100
AcDbLine
 10
6379.2311335661
 20
4927.9174681514
 30
0.0
 11
6299.2311335661
 21
4927.9174681514
 31
0.0
  0
LINE
  5
1AC
330
1F
100
AcDbEntity
  8
0
  6
Continuous
 62
     8
370
    25
100
AcDbLine
 10
6378.9743627878
 20
4926.9370846138
 30
0.0
 11
6299.4879043445
 21
4926.9370846138
 31
0.0
  0
LINE
  5
1AD
330
1F
100
AcDbEntity
  8
0
  6
Continuous
 62
     8
370
    25
100
AcDbLine
 10
6354.763836472
 20
4907.9897161927
 30
0.0
 11
6323.6984306603
 21
4907.9897161927
 31
0.0
  0
ENDSEC
  0
SECTION
  2
OBJECTS
  0
DICTIONARY
  5
C
330
0
100
AcDbDictionary
281
     1
  3
ACAD_GROUP
350
D
  3
ACAD_LAYOUT
350
1A
  3
ACAD_MLINESTYLE
350
17
  3
ACAD_PLOTSETTINGS
350
19
  3
ACAD_PLOTSTYLENAME
350
E
  3
ACAD_SCALELIST
350
47
  3
DWGPROPS
350
1AE
  0
DICTIONARY
  5
D
102
{ACAD_REACTORS
330
C
102
}
330
C
100
AcDbDictionary
281
     1
  0
DICTIONARY
  5
1A
102
{ACAD_REACTORS
330
C
102
}
330
C
100
AcDbDictionary
281
     1
  3
Layout1
350
1E
  3
Layout2
350
26
  3
Model
350
22
  0
DICTIONARY
  5
17
102
{ACAD_REACTORS
330
C
102
}
330
C
100
AcDbDictionary
281
     1
  3
Standard
350
18
  0
DICTIONARY
  5
19
102
{ACAD_REACTORS
330
C
102
}
330
C
100
AcDbDictionary
281
     1
  0
ACDBDICTIONARYWDFLT
  5
E
102
{ACAD_REACTORS
330
C
102
}
330
C
100
AcDbDictionary
281
     1
  3
Normal
350
F
100
AcDbDictionaryWithDefault
340
F
  0
DICTIONARY
  5
47
102
{ACAD_REACTORS
330
C
102
}
330
C
100
AcDbDictionary
281
     1
  3
A0
350
48
  3
A1
350
49
  3
A2
350
4A
  3
A3
350
4B
  3
A4
350
4C
  3
A5
350
4D
  3
A6
350
4E
  3
A7
350
4F
  3
A8
350
50
  3
A9
350
51
  3
B0
350
52
  3
B1
350
53
  3
B2
350
54
  3
B3
350
55
  3
B4
350
56
  3
B5
350
57
  3
B6
350
58
  3
B7
350
59
  3
B8
350
5A
  3
B9
350
5B
  3
C0
350
5C
  3
C1
350
5D
  3
C2
350
5E
  3
C3
350
5F
  3
C4
350
60
  3
C5
350
61
  3
C6
350
62
  3
C7
350
63
  3
C8
350
64
  3
C9
350
65
  3
D0
350
66
  3
D1
350
67
  3
D2
350
68
  0
XRECORD
  5
1AE
102
{ACAD_REACTORS
330
C
102
}
330
C
100
AcDbXrecord
280
     1
  1
DWGPROPS COOKIE
  2

  3

  4

  6

  7

  8
radek.stransky
  9

300
=
301
=
302
=
303
=
304
=
305
=
306
=
307
=
308
=
309
=
 40
0.0
 41
2459594.478114919
 42
2459594.478115336
  1

 90
        0
  0
LAYOUT
  5
1E
102
{ACAD_REACTORS
330
1A
102
}
330
1A
100
AcDbPlotSettings
  1

  2
none_device
  4

  6

 40
0.0
 41
0.0
 42
0.0
 43
0.0
 44
0.0
 45
0.0
 46
0.0
 47
0.0
 48
0.0
 49
0.0
140
0.0
141
0.0
142
1.0
143
1.0
 70
   688
 72
     1
 73
     0
 74
     5
  7

 75
    16
147
1.0
148
0.0
149
0.0
100
AcDbLayout
  1
Layout1
 70
     1
 71
     1
 10
0.0
 20
0.0
 11
420.0
 21
297.0
 12
0.0
 22
0.0
 32
0.0
 14
1.0000000000E+20
 24
1.0000000000E+20
 34
1.0000000000E+20
 15
-1.0000000000E+20
 25
-1.0000000000E+20
 35
-1.0000000000E+20
146
0.0
 13
0.0
 23
0.0
 33
0.0
 16
1.0
 26
0.0
 36
0.0
 17
0.0
 27
1.0
 37
0.0
 76
     0
330
1B
  0
LAYOUT
  5
26
102
{ACAD_REACTORS
330
1A
102
}
330
1A
100
AcDbPlotSettings
  1

  2
none_device
  4

  6

 40
0.0
 41
0.0
 42
0.0
 43
0.0
 44
0.0
 45
0.0
 46
0.0
 47
0.0
 48
0.0
 49
0.0
140
0.0
141
0.0
142
1.0
143
1.0
 70
   688
 72
     1
 73
     0
 74
     5
  7

 75
    16
147
1.0
148
0.0
149
0.0
100
AcDbLayout
  1
Layout2
 70
     1
 71
     2
 10
0.0
 20
0.0
 11
0.0
 21
0.0
 12
0.0
 22
0.0
 32
0.0
 14
0.0
 24
0.0
 34
0.0
 15
0.0
 25
0.0
 35
0.0
146
0.0
 13
0.0
 23
0.0
 33
0.0
 16
1.0
 26
0.0
 36
0.0
 17
0.0
 27
1.0
 37
0.0
 76
     0
330
23
  0
LAYOUT
  5
22
102
{ACAD_REACTORS
330
1A
102
}
330
1A
100
AcDbPlotSettings
  1

  2
none_device
  4
Letter_(8.50_x_11.00_Inches)
  6

 40
6.35
 41
6.35
 42
6.35000508
 43
6.35000508
 44
215.9
 45
279.4
 46
0.0
 47
0.0
 48
0.0
 49
0.0
140
0.0
141
0.0
142
1.0
143
1.0
 70
  1712
 72
     1
 73
     0
 74
     0
  7

 75
     0
147
1.0
148
0.0
149
0.0
100
AcDbLayout
  1
Model
 70
     1
 71
     0
 10
0.0
 20
0.0
 11
20000.0
 21
10000.0
 12
0.0
 22
0.0
 32
0.0
 14
0.0
 24
0.0
 34
0.0
 15
20000.0
 25
10000.0
 35
0.0
146
0.0
 13
0.0
 23
0.0
 33
0.0
 16
1.0
 26
0.0
 36
0.0
 17
0.0
 27
1.0
 37
0.0
 76
     0
330
1F
331
29
  0
MLINESTYLE
  5
18
102
{ACAD_REACTORS
330
17
102
}
330
17
100
AcDbMlineStyle
  2
Standard
 70
     0
  3

 62
   256
 51
90.0
 52
90.0
 71
     2
 49
0.5
 62
   256
  6
BYLAYER
 49
-0.5
 62
   256
  6
BYLAYER
  0
ACDBPLACEHOLDER
  5
F
102
{ACAD_REACTORS
330
E
102
}
330
E
  0
SCALE
  5
48
102
{ACAD_REACTORS
330
47
102
}
330
47
100
AcDbScale
 70
     0
300
1:1
140
1.0
141
1.0
290
     1
  0
SCALE
  5
49
102
{ACAD_REACTORS
330
47
102
}
330
47
100
AcDbScale
 70
     0
300
1:2
140
1.0
141
2.0
290
     0
  0
SCALE
  5
4A
102
{ACAD_REACTORS
330
47
102
}
330
47
100
AcDbScale
 70
     0
300
1:4
140
1.0
141
4.0
290
     0
  0
SCALE
  5
4B
102
{ACAD_REACTORS
330
47
102
}
330
47
100
AcDbScale
 70
     0
300
1:5
140
1.0
141
5.0
290
     0
  0
SCALE
  5
4C
102
{ACAD_REACTORS
330
47
102
}
330
47
100
AcDbScale
 70
     0
300
1:8
140
1.0
141
8.0
290
     0
  0
SCALE
  5
4D
102
{ACAD_REACTORS
330
47
102
}
330
47
100
AcDbScale
 70
     0
300
1:10
140
1.0
141
10.0
290
     0
  0
SCALE
  5
4E
102
{ACAD_REACTORS
330
47
102
}
330
47
100
AcDbScale
 70
     0
300
1:16
140
1.0
141
16.0
290
     0
  0
SCALE
  5
4F
102
{ACAD_REACTORS
330
47
102
}
330
47
100
AcDbScale
 70
     0
300
1:20
140
1.0
141
20.0
290
     0
  0
SCALE
  5
50
102
{ACAD_REACTORS
330
47
102
}
330
47
100
AcDbScale
 70
     0
300
1:30
140
1.0
141
30.0
290
     0
  0
SCALE
  5
51
102
{ACAD_REACTORS
330
47
102
}
330
47
100
AcDbScale
 70
     0
300
1:40
140
1.0
141
40.0
290
     0
  0
SCALE
  5
52
102
{ACAD_REACTORS
330
47
102
}
330
47
100
AcDbScale
 70
     0
300
1:50
140
1.0
141
50.0
290
     0
  0
SCALE
  5
53
102
{ACAD_REACTORS
330
47
102
}
330
47
100
AcDbScale
 70
     0
300
1:100
140
1.0
141
100.0
290
     0
  0
SCALE
  5
54
102
{ACAD_REACTORS
330
47
102
}
330
47
100
AcDbScale
 70
     0
300
2:1
140
2.0
141
1.0
290
     0
  0
SCALE
  5
55
102
{ACAD_REACTORS
330
47
102
}
330
47
100
AcDbScale
 70
     0
300
4:1
140
4.0
141
1.0
290
     0
  0
SCALE
  5
56
102
{ACAD_REACTORS
330
47
102
}
330
47
100
AcDbScale
 70
     0
300
8:1
140
8.0
141
1.0
290
     0
  0
SCALE
  5
57
102
{ACAD_REACTORS
330
47
102
}
330
47
100
AcDbScale
 70
     0
300
10:1
140
10.0
141
1.0
290
     0
  0
SCALE
  5
58
102
{ACAD_REACTORS
330
47
102
}
330
47
100
AcDbScale
 70
     0
300
100:1
140
100.0
141
1.0
290
     0
  0
SCALE
  5
59
102
{ACAD_REACTORS
330
47
102
}
330
47
100
AcDbScale
 70
     0
300
1/128" = 1'-0"
140
0.0078125
141
12.0
290
     0
  0
SCALE
  5
5A
102
{ACAD_REACTORS
330
47
102
}
330
47
100
AcDbScale
 70
     0
300
1/64" = 1'-0"
140
0.015625
141
12.0
290
     0
  0
SCALE
  5
5B
102
{ACAD_REACTORS
330
47
102
}
330
47
100
AcDbScale
 70
     0
300
1/32" = 1'-0"
140
0.03125
141
12.0
290
     0
  0
SCALE
  5
5C
102
{ACAD_REACTORS
330
47
102
}
330
47
100
AcDbScale
 70
     0
300
1/16" = 1'-0"
140
0.0625
141
12.0
290
     0
  0
SCALE
  5
5D
102
{ACAD_REACTORS
330
47
102
}
330
47
100
AcDbScale
 70
     0
300
3/32" = 1'-0"
140
0.09375
141
12.0
290
     0
  0
SCALE
  5
5E
102
{ACAD_REACTORS
330
47
102
}
330
47
100
AcDbScale
 70
     0
300
1/8" = 1'-0"
140
0.125
141
12.0
290
     0
  0
SCALE
  5
5F
102
{ACAD_REACTORS
330
47
102
}
330
47
100
AcDbScale
 70
     0
300
3/16" = 1'-0"
140
0.1875
141
12.0
290
     0
  0
SCALE
  5
60
102
{ACAD_REACTORS
330
47
102
}
330
47
100
AcDbScale
 70
     0
300
1/4" = 1'-0"
140
0.25
141
12.0
290
     0
  0
SCALE
  5
61
102
{ACAD_REACTORS
330
47
102
}
330
47
100
AcDbScale
 70
     0
300
3/8" = 1'-0"
140
0.375
141
12.0
290
     0
  0
SCALE
  5
62
102
{ACAD_REACTORS
330
47
102
}
330
47
100
AcDbScale
 70
     0
300
1/2" = 1'-0"
140
0.5
141
12.0
290
     0
  0
SCALE
  5
63
102
{ACAD_REACTORS
330
47
102
}
330
47
100
AcDbScale
 70
     0
300
3/4" = 1'-0"
140
0.75
141
12.0
290
     0
  0
SCALE
  5
64
102
{ACAD_REACTORS
330
47
102
}
330
47
100
AcDbScale
 70
     0
300
1" = 1'-0"
140
1.0
141
12.0
290
     0
  0
SCALE
  5
65
102
{ACAD_REACTORS
330
47
102
}
330
47
100
AcDbScale
 70
     0
300
1-1/2" = 1'-0"
140
1.5
141
12.0
290
     0
  0
SCALE
  5
66
102
{ACAD_REACTORS
330
47
102
}
330
47
100
AcDbScale
 70
     0
300
3" = 1'-0"
140
3.0
141
12.0
290
     0
  0
SCALE
  5
67
102
{ACAD_REACTORS
330
47
102
}
330
47
100
AcDbScale
 70
     0
300
6" = 1'-0"
140
6.0
141
12.0
290
     0
  0
SCALE
  5
68
102
{ACAD_REACTORS
330
47
102
}
330
47
100
AcDbScale
 70
     0
300
1'-0" = 1'-0"
140
12.0
141
12.0
290
     0
  0
ENDSEC
  0
EOF
